999
DXF file: 3230-1230_Right.dxf
999
Pro/ENGINEER 2023134 by Parametric Technology Corporation
  0
SECTION
  2
HEADER
  9
$ACADVER
  1
AC1032
  9
$DWGCODEPAGE
  3
ANSI_1252
  9
$EXTMAX
 10
11.0
 20
8.5
 30
0.0
  9
$EXTMIN
 10
0.0
 20
0.0
 30
0.0
  9
$LIMMIN
 10
0.0
 20
0.0
  9
$LIMMAX
 10
11.0
 20
8.5
  9
$VIEWCTR
 10
5.5
 20
4.25
  9
$VIEWSIZE
 40
8.5
  9
$CLAYER
  8
0
  9
$LTSCALE
 40
0.605
  9
$CELTYPE
  6
BYLAYER
  9
$DIMSCALE
 40
1.0
  9
$DIMASZ
 40
0.1
  9
$DIMEXO
 40
0.0625
  9
$DIMDLI
 40
0.418
  9
$DIMEXE
 40
0.125
  9
$DIMCEN
 40
0.099
  9
$DIMLFAC
 40
1.0
  9
$DIMBLK
  1
_FILLED
  9
$DIMALT
 70
1
  9
$DIMALTD
 70
2
  9
$DIMALTTD
 70
2
  9
$DIMALTF
 40
25.4
  9
$DIMTXT
 40
0.08
  9
$DIMTOL
 70
1
  9
$DIMLIM
 70
0
  9
$DIMTFAC
 40
1.0
  9
$DIMTP
 40
0.001
  9
$DIMTM
 40
0.001
  9
$DIMGAP
 40
0.09
  9
$DIMDSEP
 70
46
  9
$AUNITS
 70
0
  9
$PDMODE
 70
3
  9
$PDSIZE
 40
0.3125
  9
$HANDSEED
  5
2E8
  9
$TILEMODE
 70
1
  9
$MEASUREMENT
 70
0
  9
$INSUNITS
 70
1
  0
ENDSEC
  0
SECTION
  2
CLASSES
  0
CLASS
  1
ACDBDICTIONARYWDFLT
  2
AcDbDictionaryWithDefault
  3
AutoCAD 2000
 90
0
 91
1
280
0
281
0
  0
CLASS
  1
ACDBPLACEHOLDER
  2
AcDbPlaceHolder
  3
AutoCAD 2000
 90
0
 91
1
280
0
281
0
  0
CLASS
  1
LAYOUT
  2
AcDbLayout
  3
AutoCAD 2000
 90
0
 91
0
280
0
281
0
  0
ENDSEC
  0
SECTION
  2
TABLES
  0
TABLE
  2
VPORT
  5
8
100
AcDbSymbolTable
 70
2
  0
VPORT
  5
1F4
100
AcDbSymbolTableRecord
100
AcDbViewportTableRecord
  2
*ACTIVE
 70
0
 10
0.0
 20
0.0
 11
1.0
 21
1.0
 12
5.5
 22
4.25
 13
0.0
 23
0.0
 14
1.0
 24
1.0
 15
0.0
 25
0.0
 16
0.0
 26
0.0
 36
1.0
 17
0.0
 27
0.0
 37
0.0
 40
8.5
 41
1.2941176471
 42
50.0
 43
0.0
 44
0.0
 50
0.0
 51
0.0
 71
0
 72
100
 73
1
 74
1
 75
0
 76
0
 77
0
 78
0
  0
ENDTAB
  0
TABLE
  2
LTYPE
  5
5
100
AcDbSymbolTable
 70
6
  0
LTYPE
  5
14
100
AcDbSymbolTableRecord
100
AcDbLinetypeTableRecord
  2
BYBLOCK
 70
0
  3

 72
65
 73
0
 40
0.0
  0
LTYPE
  5
15
100
AcDbSymbolTableRecord
100
AcDbLinetypeTableRecord
  2
BYLAYER
 70
0
  3

 72
65
 73
0
 40
0.0
  0
LTYPE
  5
16
100
AcDbSymbolTableRecord
100
AcDbLinetypeTableRecord
  2
CONTINUOUS
 70
64
  3
Solid line
 72
65
 73
0
 40
0.0
  0
LTYPE
  5
1F5
100
AcDbSymbolTableRecord
100
AcDbLinetypeTableRecord
  2
CENTER
 70
64
  3
____ _ ____ _ ____ _ ____ _ ____ _ ____ _ ____
 72
65
 73
4
 40
0.6
 49
0.375
 74
0
 49
-0.075
 74
0
 49
0.075
 74
0
 49
-0.075
 74
0
  0
LTYPE
  5
1F6
100
AcDbSymbolTableRecord
100
AcDbLinetypeTableRecord
  2
HIDDEN
 70
64
  3
- - - - - - - - - - - - - - - - - - - -
 72
65
 73
2
 40
0.2
 49
0.1
 74
0
 49
-0.1
 74
0
  0
LTYPE
  5
1F7
100
AcDbSymbolTableRecord
100
AcDbLinetypeTableRecord
  2
PHANTOM
 70
64
  3
_____ _ _ _____ _ _ _____ _ _ _____
 72
65
 73
6
 40
0.8
 49
0.45
 74
0
 49
-0.05
 74
0
 49
0.1
 74
0
 49
-0.05
 74
0
 49
0.1
 74
0
 49
-0.05
 74
0
  0
LTYPE
  5
1F8
100
AcDbSymbolTableRecord
100
AcDbLinetypeTableRecord
  2
DOT
 70
64
  3
. . . . . . . . . . . . . . . . . . . .
 72
65
 73
2
 40
0.2
 49
0.1
 74
0
 49
-0.1
 74
0
  0
LTYPE
  5
1F9
100
AcDbSymbolTableRecord
100
AcDbLinetypeTableRecord
  2
DASHED
 70
64
  3
- - - - - - - - - - - - - - - - - - - -
 72
65
 73
2
 40
0.2
 49
0.1
 74
0
 49
-0.1
 74
0
  0
ENDTAB
  0
TABLE
  2
LAYER
  5
2
100
AcDbSymbolTable
 70
36
  0
LAYER
  5
10
100
AcDbSymbolTableRecord
100
AcDbLayerTableRecord
  2
0
 70
0
 62
7
  6
CONTINUOUS
370
-3
390
F
  0
LAYER
  5
1FA
100
AcDbSymbolTableRecord
100
AcDbLayerTableRecord
  2
DEFAULT_1
 70
0
 62
7
  6
CENTER
370
-3
390
F
  0
LAYER
  5
1FB
100
AcDbSymbolTableRecord
100
AcDbLayerTableRecord
  2
DEFAULT_2
 70
0
 62
8
  6
HIDDEN
370
-3
390
F
  0
LAYER
  5
1FC
100
AcDbSymbolTableRecord
100
AcDbLayerTableRecord
  2
DEFAULT_3
 70
0
 62
7
  6
PHANTOM
370
-3
390
F
  0
LAYER
  5
1FD
100
AcDbSymbolTableRecord
100
AcDbLayerTableRecord
  2
DEFAULT_COORDINATE_SYSTEM
 70
0
 62
7
  6
CONTINUOUS
370
-3
390
F
  0
LAYER
  5
1FE
100
AcDbSymbolTableRecord
100
AcDbLayerTableRecord
  2
DEFAULT_DATUM_AXES
 70
0
 62
7
  6
CONTINUOUS
370
-3
390
F
  0
LAYER
  5
1FF
100
AcDbSymbolTableRecord
100
AcDbLayerTableRecord
  2
DEFAULT_DATUM_CURVES
 70
0
 62
7
  6
CONTINUOUS
370
-3
390
F
  0
LAYER
  5
200
100
AcDbSymbolTableRecord
100
AcDbLayerTableRecord
  2
DEFAULT_DATUM_PLANES
 70
0
 62
7
  6
CONTINUOUS
370
-3
390
F
  0
ENDTAB
  0
TABLE
  2
STYLE
  5
3
100
AcDbSymbolTable
 70
1
  0
STYLE
  5
11
100
AcDbSymbolTableRecord
100
AcDbTextStyleTableRecord
  2
STANDARD
 70
0
 40
0.0
 41
0.8
 50
0.0
 71
0
 42
0.2
  3
txt
  4

  0
STYLE
  5
201
100
AcDbSymbolTableRecord
100
AcDbTextStyleTableRecord
  2
TEXTSTYLE_1
 70
0
 40
0.0
 41
0.8
 50
0.0
 71
0
 42
0.2
  3
gdt
  4

  0
ENDTAB
  0
TABLE
  2
VIEW
  5
6
100
AcDbSymbolTable
 70
0
  0
ENDTAB
  0
TABLE
  2
UCS
  5
7
100
AcDbSymbolTable
 70
0
  0
ENDTAB
  0
TABLE
  2
APPID
  5
9
100
AcDbSymbolTable
 70
1
  0
APPID
  5
202
100
AcDbSymbolTableRecord
100
AcDbRegAppTableRecord
  2
ACAD
 70
0
  0
ENDTAB
  0
TABLE
  2
BLOCK_RECORD
  5
1
100
AcDbSymbolTable
 70
0
  0
BLOCK_RECORD
  5
203
100
AcDbSymbolTableRecord
100
AcDbBlockTableRecord
  2
*Model_Space
  0
BLOCK_RECORD
  5
204
100
AcDbSymbolTableRecord
100
AcDbBlockTableRecord
  2
*Paper_Space
  0
BLOCK_RECORD
  5
205
100
AcDbSymbolTableRecord
100
AcDbBlockTableRecord
  2
_FILLED
  0
ENDTAB
  0
TABLE
  2
DIMSTYLE
  5
A
100
AcDbSymbolTable
 70
1
100
AcDbDimStyleTable
 71
0
  0
DIMSTYLE
105
206
100
AcDbSymbolTableRecord
100
AcDbDimStyleTableRecord
  2
STANDARD
 70
0
  3

  4

 40
1.0
 41
0.1
 42
0.0625
 43
0.38
 44
0.125
 45
0.0
 46
0.0
 47
0.001
 48
0.001
140
0.08
141
0.09
142
0.0
143
25.4
144
1.0
145
0.0
146
1.0
147
0.09
 71
1
 72
0
 73
1
 74
1
 75
0
 76
0
 77
0
 78
4
 79
1
170
1
171
2
172
0
173
0
174
0
175
0
176
0
177
0
178
0
270
2
179
3
271
3
272
3
273
2
274
2
275
0
280
0
281
0
282
0
283
1
284
4
285
0
286
0
287
3
288
0
340
11
278
46
341
205
342
205
343
205
344
205
  0
ENDTAB
  0
ENDSEC
  0
SECTION
  2
BLOCKS
  0
BLOCK
  5
20
100
AcDbEntity
  8
0
100
AcDbBlockBegin
  2
*Model_Space
 70
0
 10
0.0
 20
0.0
 30
0.0
  3
*Model_Space
  1

  0
ENDBLK
  5
21
100
AcDbEntity
  8
0
100
AcDbBlockEnd
  0
BLOCK
  5
1C
100
AcDbEntity
  8
0
100
AcDbBlockBegin
  2
*Paper_Space
 70
0
 10
0.0
 20
0.0
 30
0.0
  3
*Paper_Space
  1

  0
ENDBLK
  5
1D
100
AcDbEntity
  8
0
100
AcDbBlockEnd
  0
BLOCK
  5
207
100
AcDbEntity
  8
0
100
AcDbBlockBegin
  2
_FILLED
 70
64
 10
0.0
 20
0.0
  3
_FILLED
  1

  0
SOLID
  5
208
100
AcDbEntity
  8
0
  6
BYBLOCK
 62
0
100
AcDbTrace
 10
0.0
 20
0.0
 11
-1.0
 21
0.2
 12
-1.0
 22
-0.2
 13
-1.0
 23
-0.2
  0
ENDBLK
  5
209
100
AcDbEntity
  8
0
  6
BYBLOCK
 62
0
100
AcDbBlockEnd
  0
ENDSEC
  0
SECTION
  2
ENTITIES
  0
MTEXT
  5
20A
100
AcDbEntity
  8
0
100
AcDbMText
 62
2
  6
CONTINUOUS
  7
STANDARD
 71
2
 72
1
 10
5.487125814
 20
3.2105975275
 30
0.0
 11
1.0
 21
0.0
 31
0.0
 73
2
 44
0.9
  1
SCALE 0.500
 40
0.08
 41
0.704
  0
LINE
  5
20B
100
AcDbEntity
  8
0
100
AcDbLine
 62
7
  6
CONTINUOUS
 10
0.0
 20
0.0
 11
0.0
 21
8.5
  0
LINE
  5
20C
100
AcDbEntity
  8
0
100
AcDbLine
 62
7
  6
CONTINUOUS
 10
0.0
 20
0.0
 11
11.0
 21
0.0
  0
LINE
  5
20D
100
AcDbEntity
  8
0
100
AcDbLine
 62
7
  6
CONTINUOUS
 10
0.0
 20
8.5
 11
11.0
 21
8.5
  0
LINE
  5
20E
100
AcDbEntity
  8
0
100
AcDbLine
 62
7
  6
CONTINUOUS
 10
11.0
 20
0.0
 11
11.0
 21
8.5
  0
LINE
  5
20F
100
AcDbEntity
  8
0
100
AcDbLine
 62
7
  6
CONTINUOUS
 10
4.6893337912
 20
4.2033173077
 11
4.6893337912
 21
4.6933173077
  0
LINE
  5
210
100
AcDbEntity
  8
0
100
AcDbLine
 62
7
  6
CONTINUOUS
 10
4.7043337912
 20
4.1884731236
 11
4.7043337912
 21
4.1888421901
  0
LINE
  5
211
100
AcDbEntity
  8
0
100
AcDbLine
 62
7
  6
CONTINUOUS
 10
4.7043337912
 20
4.1906064986
 11
4.7043337912
 21
4.1917101439
  0
LINE
  5
212
100
AcDbEntity
  8
0
100
AcDbLine
 62
7
  6
CONTINUOUS
 10
4.7043337912
 20
4.202274489
 11
4.7043337912
 21
4.2048084335
  0
LINE
  5
213
100
AcDbEntity
  8
0
100
AcDbLine
 62
7
  6
CONTINUOUS
 10
4.7043337912
 20
4.1952217696
 11
4.7043337912
 21
4.1970493648
  0
LINE
  5
214
100
AcDbEntity
  8
0
100
AcDbLine
 62
7
  6
CONTINUOUS
 10
4.7043337912
 20
4.2116967353
 11
4.7043337912
 21
4.2149126257
  0
LINE
  5
215
100
AcDbEntity
  8
0
100
AcDbLine
 62
7
  6
CONTINUOUS
 10
4.7043337912
 20
4.223397767
 11
4.7043337912
 21
4.2272646326
  0
LINE
  5
216
100
AcDbEntity
  8
0
100
AcDbLine
 62
7
  6
CONTINUOUS
 10
4.7043337912
 20
4.2372648968
 11
4.7043337912
 21
4.2417454976
  0
LINE
  5
217
100
AcDbEntity
  8
0
100
AcDbLine
 62
7
  6
CONTINUOUS
 10
4.7043337912
 20
4.2531645767
 11
4.7043337912
 21
4.258215762
  0
LINE
  5
218
100
AcDbEntity
  8
0
100
AcDbLine
 62
7
  6
CONTINUOUS
 10
4.7043337912
 20
4.2709436841
 11
4.7043337912
 21
4.2765168083
  0
LINE
  5
219
100
AcDbEntity
  8
0
100
AcDbLine
 62
7
  6
CONTINUOUS
 10
4.7043337912
 20
4.2904309965
 11
4.7043337912
 21
4.2964723873
  0
LINE
  5
21A
100
AcDbEntity
  8
0
100
AcDbLine
 62
7
  6
CONTINUOUS
 10
4.7043337912
 20
4.3114388403
 11
4.7043337912
 21
4.3178903159
  0
LINE
  5
21B
100
AcDbEntity
  8
0
100
AcDbLine
 62
7
  6
CONTINUOUS
 10
4.7043337912
 20
4.3337648986
 11
4.7043337912
 21
4.3405643277
  0
LINE
  5
21C
100
AcDbEntity
  8
0
100
AcDbLine
 62
7
  6
CONTINUOUS
 10
4.7043337912
 20
4.3571941592
 11
4.7043337912
 21
4.3642760596
  0
LINE
  5
21D
100
AcDbEntity
  8
0
100
AcDbLine
 62
7
  6
CONTINUOUS
 10
4.7043337912
 20
4.3815009856
 11
4.7043337912
 21
4.3887971546
  0
LINE
  5
21E
100
AcDbEntity
  8
0
100
AcDbLine
 62
7
  6
CONTINUOUS
 10
4.7043337912
 20
4.4064512897
 11
4.7043337912
 21
4.4138914613
  0
LINE
  5
21F
100
AcDbEntity
  8
0
100
AcDbLine
 62
7
  6
CONTINUOUS
 10
4.7043337912
 20
4.4318047864
 11
4.7043337912
 21
4.4393173077
  0
LINE
  5
220
100
AcDbEntity
  8
0
100
AcDbLine
 62
7
  6
CONTINUOUS
 10
4.7043337912
 20
4.4573173077
 11
4.7043337912
 21
4.464829829
  0
LINE
  5
221
100
AcDbEntity
  8
0
100
AcDbLine
 62
7
  6
CONTINUOUS
 10
4.7043337912
 20
4.4827431541
 11
4.7043337912
 21
4.4901833257
  0
LINE
  5
222
100
AcDbEntity
  8
0
100
AcDbLine
 62
7
  6
CONTINUOUS
 10
4.7043337912
 20
4.5078374608
 11
4.7043337912
 21
4.5151336298
  0
LINE
  5
223
100
AcDbEntity
  8
0
100
AcDbLine
 62
7
  6
CONTINUOUS
 10
4.7043337912
 20
4.5323585558
 11
4.7043337912
 21
4.5394404561
  0
LINE
  5
224
100
AcDbEntity
  8
0
100
AcDbLine
 62
7
  6
CONTINUOUS
 10
4.7043337912
 20
4.5560702877
 11
4.7043337912
 21
4.5628697168
  0
LINE
  5
225
100
AcDbEntity
  8
0
100
AcDbLine
 62
7
  6
CONTINUOUS
 10
4.7043337912
 20
4.5787442995
 11
4.7043337912
 21
4.5851957751
  0
LINE
  5
226
100
AcDbEntity
  8
0
100
AcDbLine
 62
7
  6
CONTINUOUS
 10
4.7043337912
 20
4.6001622281
 11
4.7043337912
 21
4.6062036189
  0
LINE
  5
227
100
AcDbEntity
  8
0
100
AcDbLine
 62
7
  6
CONTINUOUS
 10
4.7043337912
 20
4.6201178071
 11
4.7043337912
 21
4.6256909313
  0
LINE
  5
228
100
AcDbEntity
  8
0
100
AcDbLine
 62
7
  6
CONTINUOUS
 10
4.7043337912
 20
4.6384188533
 11
4.7043337912
 21
4.6434700387
  0
LINE
  5
229
100
AcDbEntity
  8
0
100
AcDbLine
 62
7
  6
CONTINUOUS
 10
4.7043337912
 20
4.6548891178
 11
4.7043337912
 21
4.6593697186
  0
LINE
  5
22A
100
AcDbEntity
  8
0
100
AcDbLine
 62
7
  6
CONTINUOUS
 10
4.7043337912
 20
4.6693699828
 11
4.7043337912
 21
4.6732368484
  0
LINE
  5
22B
100
AcDbEntity
  8
0
100
AcDbLine
 62
7
  6
CONTINUOUS
 10
4.7043337912
 20
4.6817219897
 11
4.7043337912
 21
4.6849378801
  0
LINE
  5
22C
100
AcDbEntity
  8
0
100
AcDbLine
 62
7
  6
CONTINUOUS
 10
4.7043337912
 20
4.6995852505
 11
4.7043337912
 21
4.7014128457
  0
LINE
  5
22D
100
AcDbEntity
  8
0
100
AcDbLine
 62
7
  6
CONTINUOUS
 10
4.7043337912
 20
4.6918261819
 11
4.7043337912
 21
4.6943601263
  0
LINE
  5
22E
100
AcDbEntity
  8
0
100
AcDbLine
 62
7
  6
CONTINUOUS
 10
4.7043337912
 20
4.7049244715
 11
4.7043337912
 21
4.7060281167
  0
LINE
  5
22F
100
AcDbEntity
  8
0
100
AcDbLine
 62
7
  6
CONTINUOUS
 10
4.7043337912
 20
4.7077924253
 11
4.7043337912
 21
4.7081614918
  0
LINE
  5
230
100
AcDbEntity
  8
0
100
AcDbLine
 62
7
  6
CONTINUOUS
 10
6.1883598548
 20
3.8858173077
 11
6.2993337912
 21
3.8858173077
  0
LINE
  5
231
100
AcDbEntity
  8
0
100
AcDbLine
 62
7
  6
CONTINUOUS
 10
5.1593337912
 20
4.7081614918
 11
5.1593337912
 21
4.1884731236
  0
LINE
  5
232
100
AcDbEntity
  8
0
100
AcDbLine
 62
7
  6
CONTINUOUS
 10
5.1893337912
 20
4.1983173077
 11
5.1893337912
 21
4.6983173077
  0
LINE
  5
233
100
AcDbEntity
  8
0
100
AcDbLine
 62
7
  6
CONTINUOUS
 10
5.1593337912
 20
4.1884731236
 11
4.7043337674
 21
4.1884731236
  0
LINE
  5
234
100
AcDbEntity
  8
0
100
AcDbLine
 62
7
  6
CONTINUOUS
 10
5.1593337912
 20
4.1888421901
 11
4.7043337912
 21
4.1888421901
  0
LINE
  5
235
100
AcDbEntity
  8
0
100
AcDbLine
 62
7
  6
CONTINUOUS
 10
5.1593337912
 20
4.1906064986
 11
4.7043337912
 21
4.1906064986
  0
LINE
  5
236
100
AcDbEntity
  8
0
100
AcDbLine
 62
7
  6
CONTINUOUS
 10
5.1593337912
 20
4.1917101439
 11
4.7043337912
 21
4.1917101439
  0
LINE
  5
237
100
AcDbEntity
  8
0
100
AcDbLine
 62
7
  6
CONTINUOUS
 10
5.1593337912
 20
4.1952217696
 11
4.7043337912
 21
4.1952217696
  0
LINE
  5
238
100
AcDbEntity
  8
0
100
AcDbLine
 62
7
  6
CONTINUOUS
 10
5.1593337912
 20
4.1970493648
 11
4.7043337912
 21
4.1970493648
  0
LINE
  5
239
100
AcDbEntity
  8
0
100
AcDbLine
 62
7
  6
CONTINUOUS
 10
6.0293337912
 20
4.1983173077
 11
5.1893337912
 21
4.1983173077
  0
LINE
  5
23A
100
AcDbEntity
  8
0
100
AcDbLine
 62
7
  6
CONTINUOUS
 10
5.1593337912
 20
4.202274489
 11
4.7043337912
 21
4.202274489
  0
LINE
  5
23B
100
AcDbEntity
  8
0
100
AcDbLine
 62
7
  6
CONTINUOUS
 10
5.1593337912
 20
4.2048084335
 11
4.7043337912
 21
4.2048084335
  0
LINE
  5
23C
100
AcDbEntity
  8
0
100
AcDbLine
 62
7
  6
CONTINUOUS
 10
5.1893337912
 20
4.2058173077
 11
5.1593337912
 21
4.2058173077
  0
LINE
  5
23D
100
AcDbEntity
  8
0
100
AcDbLine
 62
7
  6
CONTINUOUS
 10
5.1593337912
 20
4.2116967353
 11
4.7043337912
 21
4.2116967353
  0
LINE
  5
23E
100
AcDbEntity
  8
0
100
AcDbLine
 62
7
  6
CONTINUOUS
 10
5.1593337912
 20
4.2149126257
 11
4.7043337912
 21
4.2149126257
  0
LINE
  5
23F
100
AcDbEntity
  8
0
100
AcDbLine
 62
7
  6
CONTINUOUS
 10
5.1593337912
 20
4.223397767
 11
4.7043337912
 21
4.223397767
  0
LINE
  5
240
100
AcDbEntity
  8
0
100
AcDbLine
 62
7
  6
CONTINUOUS
 10
5.1593337912
 20
4.2272646326
 11
4.7043337912
 21
4.2272646326
  0
LINE
  5
241
100
AcDbEntity
  8
0
100
AcDbLine
 62
7
  6
CONTINUOUS
 10
6.0443337912
 20
4.2358173077
 11
6.0493337912
 21
4.2358173077
  0
LINE
  5
242
100
AcDbEntity
  8
0
100
AcDbLine
 62
7
  6
CONTINUOUS
 10
5.1593337912
 20
4.2372648968
 11
4.7043337912
 21
4.2372648968
  0
LINE
  5
243
100
AcDbEntity
  8
0
100
AcDbLine
 62
7
  6
CONTINUOUS
 10
5.1593337912
 20
4.2417454976
 11
4.7043337912
 21
4.2417454976
  0
LINE
  5
244
100
AcDbEntity
  8
0
100
AcDbLine
 62
7
  6
CONTINUOUS
 10
4.6916452137
 20
4.252745663
 11
5.1593337912
 21
4.252745663
  0
LINE
  5
245
100
AcDbEntity
  8
0
100
AcDbLine
 62
7
  6
CONTINUOUS
 10
5.1593337912
 20
4.2531645767
 11
4.7043337912
 21
4.2531645767
  0
LINE
  5
246
100
AcDbEntity
  8
0
100
AcDbLine
 62
7
  6
CONTINUOUS
 10
5.1593337912
 20
4.258215762
 11
4.7043337912
 21
4.258215762
  0
LINE
  5
247
100
AcDbEntity
  8
0
100
AcDbLine
 62
7
  6
CONTINUOUS
 10
4.6916452137
 20
4.2694192921
 11
5.1593337912
 21
4.2694192921
  0
LINE
  5
248
100
AcDbEntity
  8
0
100
AcDbLine
 62
7
  6
CONTINUOUS
 10
5.1593337912
 20
4.2709436841
 11
4.7043337912
 21
4.2709436841
  0
LINE
  5
249
100
AcDbEntity
  8
0
100
AcDbLine
 62
7
  6
CONTINUOUS
 10
5.1593337912
 20
4.2765168083
 11
4.7043337912
 21
4.2765168083
  0
LINE
  5
24A
100
AcDbEntity
  8
0
100
AcDbLine
 62
7
  6
CONTINUOUS
 10
4.6916452137
 20
4.2878158068
 11
5.1593337912
 21
4.2878158068
  0
LINE
  5
24B
100
AcDbEntity
  8
0
100
AcDbLine
 62
7
  6
CONTINUOUS
 10
5.1593337912
 20
4.2904309965
 11
4.7043337912
 21
4.2904309965
  0
LINE
  5
24C
100
AcDbEntity
  8
0
100
AcDbLine
 62
7
  6
CONTINUOUS
 10
5.1593337912
 20
4.2964723873
 11
4.7043337912
 21
4.2964723873
  0
LINE
  5
24D
100
AcDbEntity
  8
0
100
AcDbLine
 62
7
  6
CONTINUOUS
 10
4.6916452137
 20
4.3077580387
 11
5.1593337912
 21
4.3077580387
  0
LINE
  5
24E
100
AcDbEntity
  8
0
100
AcDbLine
 62
7
  6
CONTINUOUS
 10
5.1593337912
 20
4.3114388403
 11
4.7043337912
 21
4.3114388403
  0
LINE
  5
24F
100
AcDbEntity
  8
0
100
AcDbLine
 62
7
  6
CONTINUOUS
 10
5.1593337912
 20
4.3178903159
 11
4.7043337912
 21
4.3178903159
  0
LINE
  5
250
100
AcDbEntity
  8
0
100
AcDbLine
 62
7
  6
CONTINUOUS
 10
4.6916452137
 20
4.3290539333
 11
5.1593337912
 21
4.3290539333
  0
LINE
  5
251
100
AcDbEntity
  8
0
100
AcDbLine
 62
7
  6
CONTINUOUS
 10
5.1593337912
 20
4.3337648986
 11
4.7043337912
 21
4.3337648986
  0
LINE
  5
252
100
AcDbEntity
  8
0
100
AcDbLine
 62
7
  6
CONTINUOUS
 10
5.1593337912
 20
4.3405643277
 11
4.7043337912
 21
4.3405643277
  0
LINE
  5
253
100
AcDbEntity
  8
0
100
AcDbLine
 62
7
  6
CONTINUOUS
 10
4.6916452137
 20
4.3514983993
 11
5.1593337912
 21
4.3514983993
  0
LINE
  5
254
100
AcDbEntity
  8
0
100
AcDbLine
 62
7
  6
CONTINUOUS
 10
5.1593337912
 20
4.3571941592
 11
4.7043337912
 21
4.3571941592
  0
LINE
  5
255
100
AcDbEntity
  8
0
100
AcDbLine
 62
7
  6
CONTINUOUS
 10
5.1593337912
 20
4.3642760596
 11
4.7043337912
 21
4.3642760596
  0
LINE
  5
256
100
AcDbEntity
  8
0
100
AcDbLine
 62
7
  6
CONTINUOUS
 10
4.6916452137
 20
4.3748752843
 11
5.1593337912
 21
4.3748752843
  0
LINE
  5
257
100
AcDbEntity
  8
0
100
AcDbLine
 62
7
  6
CONTINUOUS
 10
5.1593337912
 20
4.3815009856
 11
4.7043337912
 21
4.3815009856
  0
LINE
  5
258
100
AcDbEntity
  8
0
100
AcDbLine
 62
7
  6
CONTINUOUS
 10
5.1593337912
 20
4.3887971546
 11
4.7043337912
 21
4.3887971546
  0
LINE
  5
259
100
AcDbEntity
  8
0
100
AcDbLine
 62
7
  6
CONTINUOUS
 10
4.6916452137
 20
4.3989594562
 11
5.1593337912
 21
4.3989594562
  0
LINE
  5
25A
100
AcDbEntity
  8
0
100
AcDbLine
 62
7
  6
CONTINUOUS
 10
5.1593337912
 20
4.4064512897
 11
4.7043337912
 21
4.4064512897
  0
LINE
  5
25B
100
AcDbEntity
  8
0
100
AcDbLine
 62
7
  6
CONTINUOUS
 10
5.1593337912
 20
4.4138914613
 11
4.7043337912
 21
4.4138914613
  0
LINE
  5
25C
100
AcDbEntity
  8
0
100
AcDbLine
 62
7
  6
CONTINUOUS
 10
4.6916452137
 20
4.4235189712
 11
5.1593337912
 21
4.4235189712
  0
LINE
  5
25D
100
AcDbEntity
  8
0
100
AcDbLine
 62
7
  6
CONTINUOUS
 10
5.1593337912
 20
4.4318047864
 11
4.7043337912
 21
4.4318047864
  0
LINE
  5
25E
100
AcDbEntity
  8
0
100
AcDbLine
 62
7
  6
CONTINUOUS
 10
5.1593337912
 20
4.4393173077
 11
4.7043337912
 21
4.4393173077
  0
LINE
  5
25F
100
AcDbEntity
  8
0
100
AcDbLine
 62
7
  6
CONTINUOUS
 10
4.6916452137
 20
4.4483173077
 11
5.1593337912
 21
4.4483173077
  0
LINE
  5
260
100
AcDbEntity
  8
0
100
AcDbLine
 62
7
  6
CONTINUOUS
 10
5.1593337912
 20
4.4573173077
 11
4.7043337912
 21
4.4573173077
  0
LINE
  5
261
100
AcDbEntity
  8
0
100
AcDbLine
 62
7
  6
CONTINUOUS
 10
5.1593337912
 20
4.464829829
 11
4.7043337912
 21
4.464829829
  0
LINE
  5
262
100
AcDbEntity
  8
0
100
AcDbLine
 62
7
  6
CONTINUOUS
 10
4.6916452137
 20
4.4731156442
 11
5.1593337912
 21
4.4731156442
  0
LINE
  5
263
100
AcDbEntity
  8
0
100
AcDbLine
 62
7
  6
CONTINUOUS
 10
5.1593337912
 20
4.4827431541
 11
4.7043337912
 21
4.4827431541
  0
LINE
  5
264
100
AcDbEntity
  8
0
100
AcDbLine
 62
7
  6
CONTINUOUS
 10
5.1593337912
 20
4.4901833257
 11
4.7043337912
 21
4.4901833257
  0
LINE
  5
265
100
AcDbEntity
  8
0
100
AcDbLine
 62
7
  6
CONTINUOUS
 10
4.6916452137
 20
4.4976751592
 11
5.1593337912
 21
4.4976751592
  0
LINE
  5
266
100
AcDbEntity
  8
0
100
AcDbLine
 62
7
  6
CONTINUOUS
 10
5.1593337912
 20
4.5078374608
 11
4.7043337912
 21
4.5078374608
  0
LINE
  5
267
100
AcDbEntity
  8
0
100
AcDbLine
 62
7
  6
CONTINUOUS
 10
5.1593337912
 20
4.5151336298
 11
4.7043337912
 21
4.5151336298
  0
LINE
  5
268
100
AcDbEntity
  8
0
100
AcDbLine
 62
7
  6
CONTINUOUS
 10
4.6916452137
 20
4.521759331
 11
5.1593337912
 21
4.521759331
  0
LINE
  5
269
100
AcDbEntity
  8
0
100
AcDbLine
 62
7
  6
CONTINUOUS
 10
5.1593337912
 20
4.5323585558
 11
4.7043337912
 21
4.5323585558
  0
LINE
  5
26A
100
AcDbEntity
  8
0
100
AcDbLine
 62
7
  6
CONTINUOUS
 10
5.1593337912
 20
4.5394404561
 11
4.7043337912
 21
4.5394404561
  0
LINE
  5
26B
100
AcDbEntity
  8
0
100
AcDbLine
 62
7
  6
CONTINUOUS
 10
4.6916452137
 20
4.5451362161
 11
5.1593337912
 21
4.5451362161
  0
LINE
  5
26C
100
AcDbEntity
  8
0
100
AcDbLine
 62
7
  6
CONTINUOUS
 10
5.1593337912
 20
4.5560702877
 11
4.7043337912
 21
4.5560702877
  0
LINE
  5
26D
100
AcDbEntity
  8
0
100
AcDbLine
 62
7
  6
CONTINUOUS
 10
5.1593337912
 20
4.5628697168
 11
4.7043337912
 21
4.5628697168
  0
LINE
  5
26E
100
AcDbEntity
  8
0
100
AcDbLine
 62
7
  6
CONTINUOUS
 10
4.6916452137
 20
4.5675806821
 11
5.1593337912
 21
4.5675806821
  0
LINE
  5
26F
100
AcDbEntity
  8
0
100
AcDbLine
 62
7
  6
CONTINUOUS
 10
5.1593337912
 20
4.5787442995
 11
4.7043337912
 21
4.5787442995
  0
LINE
  5
270
100
AcDbEntity
  8
0
100
AcDbLine
 62
7
  6
CONTINUOUS
 10
5.1593337912
 20
4.5851957751
 11
4.7043337912
 21
4.5851957751
  0
LINE
  5
271
100
AcDbEntity
  8
0
100
AcDbLine
 62
7
  6
CONTINUOUS
 10
4.6916452137
 20
4.5888765766
 11
5.1593337912
 21
4.5888765766
  0
LINE
  5
272
100
AcDbEntity
  8
0
100
AcDbLine
 62
7
  6
CONTINUOUS
 10
5.1593337912
 20
4.6001622281
 11
4.7043337912
 21
4.6001622281
  0
LINE
  5
273
100
AcDbEntity
  8
0
100
AcDbLine
 62
7
  6
CONTINUOUS
 10
5.1593337912
 20
4.6062036189
 11
4.7043337912
 21
4.6062036189
  0
LINE
  5
274
100
AcDbEntity
  8
0
100
AcDbLine
 62
7
  6
CONTINUOUS
 10
4.6916452137
 20
4.6088188086
 11
5.1593337912
 21
4.6088188086
  0
LINE
  5
275
100
AcDbEntity
  8
0
100
AcDbLine
 62
7
  6
CONTINUOUS
 10
5.1593337912
 20
4.6201178071
 11
4.7043337912
 21
4.6201178071
  0
LINE
  5
276
100
AcDbEntity
  8
0
100
AcDbLine
 62
7
  6
CONTINUOUS
 10
5.1593337912
 20
4.6256909313
 11
4.7043337912
 21
4.6256909313
  0
LINE
  5
277
100
AcDbEntity
  8
0
100
AcDbLine
 62
7
  6
CONTINUOUS
 10
4.6916452137
 20
4.6272153233
 11
5.1593337912
 21
4.6272153233
  0
LINE
  5
278
100
AcDbEntity
  8
0
100
AcDbLine
 62
7
  6
CONTINUOUS
 10
5.1593337912
 20
4.6384188533
 11
4.7043337912
 21
4.6384188533
  0
LINE
  5
279
100
AcDbEntity
  8
0
100
AcDbLine
 62
7
  6
CONTINUOUS
 10
5.1593337912
 20
4.6434700387
 11
4.7043337912
 21
4.6434700387
  0
LINE
  5
27A
100
AcDbEntity
  8
0
100
AcDbLine
 62
7
  6
CONTINUOUS
 10
4.6916452137
 20
4.6438889524
 11
5.1593337912
 21
4.6438889524
  0
LINE
  5
27B
100
AcDbEntity
  8
0
100
AcDbLine
 62
7
  6
CONTINUOUS
 10
5.1593337912
 20
4.6548891178
 11
4.7043337912
 21
4.6548891178
  0
LINE
  5
27C
100
AcDbEntity
  8
0
100
AcDbLine
 62
7
  6
CONTINUOUS
 10
5.1593337912
 20
4.6593697186
 11
4.7043337912
 21
4.6593697186
  0
LINE
  5
27D
100
AcDbEntity
  8
0
100
AcDbLine
 62
7
  6
CONTINUOUS
 10
6.0443337912
 20
4.6608173077
 11
6.0493337912
 21
4.6608173077
  0
LINE
  5
27E
100
AcDbEntity
  8
0
100
AcDbLine
 62
7
  6
CONTINUOUS
 10
5.1593337912
 20
4.6693699828
 11
4.7043337912
 21
4.6693699828
  0
LINE
  5
27F
100
AcDbEntity
  8
0
100
AcDbLine
 62
7
  6
CONTINUOUS
 10
5.1593337912
 20
4.6732368484
 11
4.7043337912
 21
4.6732368484
  0
LINE
  5
280
100
AcDbEntity
  8
0
100
AcDbLine
 62
7
  6
CONTINUOUS
 10
5.1593337912
 20
4.6817219897
 11
4.7043337912
 21
4.6817219897
  0
LINE
  5
281
100
AcDbEntity
  8
0
100
AcDbLine
 62
7
  6
CONTINUOUS
 10
5.1593337912
 20
4.6849378801
 11
4.7043337912
 21
4.6849378801
  0
LINE
  5
282
100
AcDbEntity
  8
0
100
AcDbLine
 62
7
  6
CONTINUOUS
 10
5.1893337912
 20
4.6908173077
 11
5.1593337912
 21
4.6908173077
  0
LINE
  5
283
100
AcDbEntity
  8
0
100
AcDbLine
 62
7
  6
CONTINUOUS
 10
5.1593337912
 20
4.6918261819
 11
4.7043337912
 21
4.6918261819
  0
LINE
  5
284
100
AcDbEntity
  8
0
100
AcDbLine
 62
7
  6
CONTINUOUS
 10
5.1593337912
 20
4.6943601263
 11
4.7043337912
 21
4.6943601263
  0
LINE
  5
285
100
AcDbEntity
  8
0
100
AcDbLine
 62
7
  6
CONTINUOUS
 10
6.0293337912
 20
4.6983173077
 11
5.1893337912
 21
4.6983173077
  0
LINE
  5
286
100
AcDbEntity
  8
0
100
AcDbLine
 62
7
  6
CONTINUOUS
 10
5.1593337912
 20
4.6995852505
 11
4.7043337912
 21
4.6995852505
  0
LINE
  5
287
100
AcDbEntity
  8
0
100
AcDbLine
 62
7
  6
CONTINUOUS
 10
5.1593337912
 20
4.7014128457
 11
4.7043337912
 21
4.7014128457
  0
LINE
  5
288
100
AcDbEntity
  8
0
100
AcDbLine
 62
7
  6
CONTINUOUS
 10
5.1593337912
 20
4.7049244715
 11
4.7043337912
 21
4.7049244715
  0
LINE
  5
289
100
AcDbEntity
  8
0
100
AcDbLine
 62
7
  6
CONTINUOUS
 10
5.1593337912
 20
4.7060281167
 11
4.7043337912
 21
4.7060281167
  0
LINE
  5
28A
100
AcDbEntity
  8
0
100
AcDbLine
 62
7
  6
CONTINUOUS
 10
5.1593337912
 20
4.7077924253
 11
4.7043337912
 21
4.7077924253
  0
LINE
  5
28B
100
AcDbEntity
  8
0
100
AcDbLine
 62
7
  6
CONTINUOUS
 10
5.1593337912
 20
4.7081614918
 11
4.7043337912
 21
4.7081614918
  0
LINE
  5
28C
100
AcDbEntity
  8
0
100
AcDbLine
 62
7
  6
CONTINUOUS
 10
6.0293337912
 20
4.6983173077
 11
6.0293337912
 21
4.1983173077
  0
LINE
  5
28D
100
AcDbEntity
  8
0
100
AcDbLine
 62
7
  6
CONTINUOUS
 10
6.0443337912
 20
4.6833173077
 11
6.0443337912
 21
4.2133173077
  0
LINE
  5
28E
100
AcDbEntity
  8
0
100
AcDbLine
 62
7
  6
CONTINUOUS
 10
6.0493337912
 20
4.2122138066
 11
6.0493337912
 21
4.6844208087
  0
LINE
  5
28F
100
AcDbEntity
  8
0
100
AcDbLine
 62
7
  6
CONTINUOUS
 10
6.0621386693
 20
4.1973752946
 11
6.0621386693
 21
4.6992593208
  0
LINE
  5
290
100
AcDbEntity
  8
0
100
AcDbLine
 62
7
  6
CONTINUOUS
 10
6.1883598548
 20
5.0108173077
 11
6.2993337912
 21
5.0108173077
  0
LINE
  5
291
100
AcDbEntity
  8
0
100
AcDbLine
 62
7
  6
CONTINUOUS
 10
6.1338334028
 20
4.1335343858
 11
6.1338334028
 21
4.7631002296
  0
LINE
  5
292
100
AcDbEntity
  8
0
100
AcDbLine
 62
7
  6
CONTINUOUS
 10
6.1733994149
 20
3.8997286206
 11
6.1733994149
 21
4.9969059948
  0
LINE
  5
293
100
AcDbEntity
  8
0
100
AcDbLine
 62
7
  6
CONTINUOUS
 10
6.1883598548
 20
3.8858173077
 11
6.1883598548
 21
5.0108173077
  0
LINE
  5
294
100
AcDbEntity
  8
0
100
AcDbLine
 62
7
  6
CONTINUOUS
 10
6.2993337912
 20
3.8858173077
 11
6.2993337912
 21
5.0108173077
  0
ARC
  5
295
100
AcDbEntity
  8
0
100
AcDbCircle
 62
7
  6
CONTINUOUS
 10
4.9266960942
 20
5.0876299171
 40
1.25
100
AcDbArc
 50
344.9522620167
 51
355.8378620776
  0
ARC
  5
296
100
AcDbEntity
  8
0
100
AcDbCircle
 62
7
  6
CONTINUOUS
 10
4.9266960942
 20
3.8090046982
 40
1.25
100
AcDbArc
 50
4.1621379224
 51
15.0477379833
  0
ARC
  5
297
100
AcDbEntity
  8
0
100
AcDbCircle
 62
7
  6
CONTINUOUS
 10
6.0493337912
 20
4.7858173077
 40
0.0875
100
AcDbArc
 50
278.4149680847
 51
344.9522620167
  0
ARC
  5
298
100
AcDbEntity
  8
0
100
AcDbCircle
 62
7
  6
CONTINUOUS
 10
6.0493337912
 20
4.1108173077
 40
0.0875
100
AcDbArc
 50
15.0477379833
 51
81.5850319153
  0
ARC
  5
299
100
AcDbEntity
  8
0
100
AcDbCircle
 62
7
  6
CONTINUOUS
 10
4.7043376654
 20
4.204184297
 40
0.0157111739
100
AcDbArc
 50
261.6328050962
 51
269.9857844716
  0
ARC
  5
29A
100
AcDbEntity
  8
0
100
AcDbCircle
 62
7
  6
CONTINUOUS
 10
4.7043375388
 20
4.6924520633
 40
0.0157094289
100
AcDbArc
 50
90.0136681532
 51
98.3693441492
  0
ARC
  5
29B
100
AcDbEntity
  8
0
100
AcDbCircle
 62
7
  6
CONTINUOUS
 10
6.0643337912
 20
4.6844208087
 40
0.015
100
AcDbArc
 50
98.4149680847
 51
180.0
  0
ARC
  5
29C
100
AcDbEntity
  8
0
100
AcDbCircle
 62
7
  6
CONTINUOUS
 10
6.0643337912
 20
4.2122138066
 40
0.015
100
AcDbArc
 50
180.0
 51
261.5850319153
  0
ARC
  5
29D
100
AcDbEntity
  8
0
100
AcDbCircle
 62
7
  6
CONTINUOUS
 10
6.1883598548
 20
4.9958173077
 40
0.015
100
AcDbArc
 50
90.0
 51
175.8378620776
  0
ARC
  5
29E
100
AcDbEntity
  8
0
100
AcDbCircle
 62
7
  6
CONTINUOUS
 10
6.1883598548
 20
3.9008173077
 40
0.015
100
AcDbArc
 50
184.1621379224
 51
270.0
  0
ARC
  5
29F
100
AcDbEntity
  8
0
100
AcDbCircle
 62
7
  6
CONTINUOUS
 10
4.7043337912
 20
4.6933173077
 40
0.015
100
AcDbArc
 50
147.7690473645
 51
180.0
  0
ARC
  5
2A0
100
AcDbEntity
  8
0
100
AcDbCircle
 62
7
  6
CONTINUOUS
 10
4.7043337912
 20
4.2033173077
 40
0.015
100
AcDbArc
 50
180.0
 51
212.2309526355
  0
ARC
  5
2A1
100
AcDbEntity
  8
0
100
AcDbCircle
 62
7
  6
CONTINUOUS
 10
6.0293337912
 20
4.6833173077
 40
0.015
100
AcDbArc
 50
0.0
 51
90.0
  0
ARC
  5
2A2
100
AcDbEntity
  8
0
100
AcDbCircle
 62
7
  6
CONTINUOUS
 10
6.0293337912
 20
4.2133173077
 40
0.015
100
AcDbArc
 50
270.0
 51
360.0
  0
ARC
  5
2A3
100
AcDbEntity
  8
0
100
AcDbCircle
 62
7
  6
CONTINUOUS
 10
4.7038733292
 20
4.2030614249
 40
0.0144782249
100
AcDbArc
 50
226.6138985544
 51
233.6933720407
  0
ARC
  5
2A4
100
AcDbEntity
  8
0
100
AcDbCircle
 62
7
  6
CONTINUOUS
 10
4.7037876548
 20
4.6936646328
 40
0.0143527806
100
AcDbArc
 50
126.294710347
 51
147.7791523058
  0
ARC
  5
2A5
100
AcDbEntity
  8
0
100
AcDbCircle
 62
7
  6
CONTINUOUS
 10
4.7037784689
 20
4.2029628824
 40
0.0143412236
100
AcDbArc
 50
212.2164169493
 51
226.5979321453
  0
SPLINE
  5
2A6
100
AcDbEntity
  8
0
100
AcDbSpline
 62
7
  6
CONTINUOUS
 70
0
 71
3
 72
12
 73
8
 74
0
 42
0.0000001
 43
0.0000001
 44
0.0000000001
 40
0.0
 40
0.0
 40
0.0
 40
0.0
 40
0.0705322275
 40
0.1549884125
 40
0.3711212088
 40
0.6570456984
 40
1.0
 40
1.0
 40
1.0
 40
1.0
 10
4.6916452137
 20
4.2379554958
 30
0.0
 10
4.6919404467
 20
4.2379082468
 30
0.0
 10
4.6925912091
 20
4.2378169293
 30
0.0
 10
4.6941547664
 20
4.2376417281
 30
0.0
 10
4.6966346754
 20
4.2374538353
 30
0.0
 10
4.7002139227
 20
4.2373013834
 30
0.0
 10
4.702879989
 20
4.2372648968
 30
0.0
 10
4.7043337912
 20
4.2372648968
 30
0.0
  0
SPLINE
  5
2A7
100
AcDbEntity
  8
0
100
AcDbSpline
 62
7
  6
CONTINUOUS
 70
0
 71
3
 72
14
 73
10
 74
0
 42
0.0000001
 43
0.0000001
 44
0.0000000001
 40
0.0
 40
0.0
 40
0.0
 40
0.0
 40
0.0735177481
 40
0.1599123593
 40
0.2606376948
 40
0.3772107536
 40
0.5107349442
 40
0.6611788884
 40
1.0
 40
1.0
 40
1.0
 40
1.0
 10
4.6916452137
 20
4.2251912278
 30
0.0
 10
4.6919366772
 20
4.2250700907
 30
0.0
 10
4.6925822649
 20
4.2248342842
 30
0.0
 10
4.6936570478
 20
4.2245206595
 30
0.0
 10
4.694927736
 20
4.2242257682
 30
0.0
 10
4.6964103191
 20
4.2239572222
 30
0.0
 10
4.6981147839
 20
4.2237251687
 30
0.0
 10
4.7007771409
 20
4.2234723764
 30
0.0
 10
4.7028791266
 20
4.223397767
 30
0.0
 10
4.7043337912
 20
4.223397767
 30
0.0
  0
SPLINE
  5
2A8
100
AcDbEntity
  8
0
100
AcDbSpline
 62
7
  6
CONTINUOUS
 70
0
 71
3
 72
15
 73
11
 74
0
 42
0.0000001
 43
0.0000001
 44
0.0000000001
 40
0.0
 40
0.0
 40
0.0
 40
0.0
 40
0.0784339406
 40
0.1681117288
 40
0.2705901574
 40
0.3874723152
 40
0.5199514837
 40
0.6681346331
 40
0.8299652043
 40
1.0
 40
1.0
 40
1.0
 40
1.0
 10
4.6916452137
 20
4.214575786
 30
0.0
 10
4.6919316485
 20
4.2143846791
 30
0.0
 10
4.6925689788
 20
4.2140096284
 30
0.0
 10
4.6936454812
 20
4.2135040889
 30
0.0
 10
4.6949178338
 20
4.213029145
 30
0.0
 10
4.6964020616
 20
4.2125968727
 30
0.0
 10
4.6981082204
 20
4.2122235386
 30
0.0
 10
4.7000298171
 20
4.2119300259
 30
0.0
 10
4.7021299848
 20
4.2117403233
 30
0.0
 10
4.7035873162
 20
4.2116967353
 30
0.0
 10
4.7043337912
 20
4.2116967353
 30
0.0
  0
SPLINE
  5
2A9
100
AcDbEntity
  8
0
100
AcDbSpline
 62
7
  6
CONTINUOUS
 70
0
 71
3
 72
14
 73
10
 74
0
 42
0.0000001
 43
0.0000001
 44
0.0000000001
 40
0.0
 40
0.0
 40
0.0
 40
0.0
 40
0.1779936645
 40
0.2828067757
 40
0.4002348609
 40
0.5315310655
 40
0.6769531888
 40
0.8347407439
 40
1.0
 40
1.0
 40
1.0
 40
1.0
 10
4.6916452137
 20
4.2062114028
 30
0.0
 10
4.6922393648
 20
4.2056693344
 30
0.0
 10
4.693294394
 20
4.2049261663
 30
0.0
 10
4.6949054197
 20
4.2041020527
 30
0.0
 10
4.6963915121
 20
4.2035089466
 30
0.0
 10
4.6980994975
 20
4.2029970144
 30
0.0
 10
4.700023552
 20
4.2025944705
 30
0.0
 10
4.702126612
 20
4.2023343024
 30
0.0
 10
4.7035870601
 20
4.202274489
 30
0.0
 10
4.7043337912
 20
4.202274489
 30
0.0
  0
SPLINE
  5
2AA
100
AcDbEntity
  8
0
100
AcDbSpline
 62
7
  6
CONTINUOUS
 70
0
 71
3
 72
11
 73
7
 74
0
 42
0.0000001
 43
0.0000001
 44
0.0000000001
 40
0.0
 40
0.0
 40
0.0
 40
0.0
 40
0.1888953201
 40
0.4143758972
 40
0.6867991488
 40
1.0
 40
1.0
 40
1.0
 40
1.0
 10
4.6916452137
 20
4.2001786318
 30
0.0
 10
4.6922239209
 20
4.1995138684
 30
0.0
 10
4.6936778548
 20
4.1982105018
 30
0.0
 10
4.6964934424
 20
4.1966322822
 30
0.0
 10
4.7001306671
 20
4.1954966853
 30
0.0
 10
4.7028724225
 20
4.1952217696
 30
0.0
 10
4.7043337912
 20
4.1952217696
 30
0.0
  0
SPLINE
  5
2AB
100
AcDbEntity
  8
0
100
AcDbSpline
 62
7
  6
CONTINUOUS
 70
0
 71
3
 72
11
 73
7
 74
0
 42
0.0000001
 43
0.0000001
 44
0.0000000001
 40
0.0
 40
0.0
 40
0.0
 40
0.0
 40
0.1994579094
 40
0.428501622
 40
0.6968125873
 40
1.0
 40
1.0
 40
1.0
 40
1.0
 10
4.6916452137
 20
4.1965355718
 30
0.0
 10
4.6922122263
 20
4.1957564941
 30
0.0
 10
4.6936310305
 20
4.1942212385
 30
0.0
 10
4.6964432989
 20
4.1923184266
 30
0.0
 10
4.7000951227
 20
4.1909421526
 30
0.0
 10
4.7028691112
 20
4.1906064986
 30
0.0
 10
4.7043337912
 20
4.1906064986
 30
0.0
  0
SPLINE
  5
2AC
100
AcDbEntity
  8
0
100
AcDbSpline
 62
7
  6
CONTINUOUS
 70
0
 71
3
 72
11
 73
7
 74
0
 42
0.0000001
 43
0.0000001
 44
0.0000000001
 40
0.0
 40
0.0
 40
0.0
 40
0.0
 40
0.2140206158
 40
0.4479296342
 40
0.709029959
 40
1.0
 40
1.0
 40
1.0
 40
1.0
 10
4.6916452137
 20
4.1953173077
 30
0.0
 10
4.6921296368
 20
4.1945489776
 30
0.0
 10
4.6932989732
 20
4.1930333033
 30
0.0
 10
4.695588743
 20
4.1910486578
 30
0.0
 10
4.6985423644
 20
4.1894418168
 30
0.0
 10
4.7008297519
 20
4.1888203331
 30
0.0
 10
4.702051429
 20
4.1886403558
 30
0.0
  0
SPLINE
  5
2AD
100
AcDbEntity
  8
0
100
AcDbSpline
 62
7
  6
CONTINUOUS
 70
0
 71
3
 72
11
 73
7
 74
0
 42
0.0000001
 43
0.0000001
 44
0.0000000001
 40
0.0
 40
0.0
 40
0.0
 40
0.0
 40
0.2909692516
 40
0.5520688945
 40
0.7859782972
 40
1.0
 40
1.0
 40
1.0
 40
1.0
 10
4.7020509732
 20
4.7079941923
 30
0.0
 10
4.7008293486
 20
4.7078141866
 30
0.0
 10
4.6985420672
 20
4.7071926687
 30
0.0
 10
4.6955885851
 20
4.7055858387
 30
0.0
 10
4.6932989151
 20
4.7036012416
 30
0.0
 10
4.6921296218
 20
4.702085614
 30
0.0
 10
4.6916452137
 20
4.7013173077
 30
0.0
  0
SPLINE
  5
2AE
100
AcDbEntity
  8
0
100
AcDbSpline
 62
7
  6
CONTINUOUS
 70
0
 71
3
 72
11
 73
7
 74
0
 42
0.0000001
 43
0.0000001
 44
0.0000000001
 40
0.0
 40
0.0
 40
0.0
 40
0.0
 40
0.3031876359
 40
0.5714984873
 40
0.8005421257
 40
1.0
 40
1.0
 40
1.0
 40
1.0
 10
4.7043337912
 20
4.7060281167
 30
0.0
 10
4.7028691101
 20
4.7060281167
 30
0.0
 10
4.7000951211
 20
4.7056924623
 30
0.0
 10
4.6964432974
 20
4.7043161878
 30
0.0
 10
4.6936310299
 20
4.7024133764
 30
0.0
 10
4.6922122262
 20
4.7008781211
 30
0.0
 10
4.6916452137
 20
4.7000990435
 30
0.0
  0
SPLINE
  5
2AF
100
AcDbEntity
  8
0
100
AcDbSpline
 62
7
  6
CONTINUOUS
 70
0
 71
3
 72
11
 73
7
 74
0
 42
0.0000001
 43
0.0000001
 44
0.0000000001
 40
0.0
 40
0.0
 40
0.0
 40
0.0
 40
0.3132010804
 40
0.5856242124
 40
0.8111047142
 40
1.0
 40
1.0
 40
1.0
 40
1.0
 10
4.7043337912
 20
4.7014128457
 30
0.0
 10
4.7028724214
 20
4.7014128457
 30
0.0
 10
4.7001306655
 20
4.7011379298
 30
0.0
 10
4.6964934409
 20
4.7000023324
 30
0.0
 10
4.6936778542
 20
4.6984241131
 30
0.0
 10
4.6922239208
 20
4.6971207468
 30
0.0
 10
4.6916452137
 20
4.6964559836
 30
0.0
  0
SPLINE
  5
2B0
100
AcDbEntity
  8
0
100
AcDbSpline
 62
7
  6
CONTINUOUS
 70
0
 71
3
 72
14
 73
10
 74
0
 42
0.0000001
 43
0.0000001
 44
0.0000000001
 40
0.0
 40
0.0
 40
0.0
 40
0.0
 40
0.1652679946
 40
0.3230631199
 40
0.4684824882
 40
0.5997757852
 40
0.7171991849
 40
0.8220097836
 40
1.0
 40
1.0
 40
1.0
 40
1.0
 10
4.7043337912
 20
4.6943601263
 30
0.0
 10
4.7035870206
 20
4.6943601263
 30
0.0
 10
4.7021264989
 20
4.6943003026
 30
0.0
 10
4.7000233798
 20
4.694040113
 30
0.0
 10
4.6980993197
 20
4.6936375555
 30
0.0
 10
4.6963913816
 20
4.6931256266
 30
0.0
 10
4.694905341
 20
4.6925325157
 30
0.0
 10
4.6932943546
 20
4.6917084314
 30
0.0
 10
4.6922393532
 20
4.6909652705
 30
0.0
 10
4.6916452137
 20
4.6904232126
 30
0.0
  0
SPLINE
  5
2B1
100
AcDbEntity
  8
0
100
AcDbSpline
 62
7
  6
CONTINUOUS
 70
0
 71
3
 72
15
 73
11
 74
0
 42
0.0000001
 43
0.0000001
 44
0.0000000001
 40
0.0
 40
0.0
 40
0.0
 40
0.0
 40
0.1700349327
 40
0.3318656075
 40
0.4800486898
 40
0.6125277956
 40
0.7294099076
 40
0.8318883042
 40
0.9215660677
 40
1.0
 40
1.0
 40
1.0
 40
1.0
 10
4.7043337912
 20
4.6849378801
 30
0.0
 10
4.7035873156
 20
4.6849378801
 30
0.0
 10
4.7021299831
 20
4.684894292
 30
0.0
 10
4.7000298147
 20
4.6847045891
 30
0.0
 10
4.6981082182
 20
4.6844110764
 30
0.0
 10
4.6964020601
 20
4.6840377422
 30
0.0
 10
4.694917833
 20
4.68360547
 30
0.0
 10
4.6936454807
 20
4.6831305263
 30
0.0
 10
4.6925689787
 20
4.6826249869
 30
0.0
 10
4.6919316485
 20
4.6822499363
 30
0.0
 10
4.6916452137
 20
4.6820588294
 30
0.0
  0
SPLINE
  5
2B2
100
AcDbEntity
  8
0
100
AcDbSpline
 62
7
  6
CONTINUOUS
 70
0
 71
3
 72
14
 73
10
 74
0
 42
0.0000001
 43
0.0000001
 44
0.0000000001
 40
0.0
 40
0.0
 40
0.0
 40
0.0
 40
0.3388213564
 40
0.4892652316
 40
0.6227893574
 40
0.7393623692
 40
0.8400876731
 40
0.9264822594
 40
1.0
 40
1.0
 40
1.0
 40
1.0
 10
4.7043337912
 20
4.6732368484
 30
0.0
 10
4.7028791256
 20
4.6732368484
 30
0.0
 10
4.7007771391
 20
4.6731622389
 30
0.0
 10
4.6981147816
 20
4.6729094464
 30
0.0
 10
4.6964103176
 20
4.672677393
 30
0.0
 10
4.6949277351
 20
4.6724088469
 30
0.0
 10
4.6936570474
 20
4.6721139558
 30
0.0
 10
4.6925822647
 20
4.6718003311
 30
0.0
 10
4.6919366772
 20
4.6715645247
 30
0.0
 10
4.6916452137
 20
4.6714433876
 30
0.0
  0
SPLINE
  5
2B3
100
AcDbEntity
  8
0
100
AcDbSpline
 62
7
  6
CONTINUOUS
 70
0
 71
3
 72
12
 73
8
 74
0
 42
0.0000001
 43
0.0000001
 44
0.0000000001
 40
0.0
 40
0.0
 40
0.0
 40
0.0
 40
0.3429545489
 40
0.6288789024
 40
0.8450116195
 40
0.9294677796
 40
1.0
 40
1.0
 40
1.0
 40
1.0
 10
4.7043337912
 20
4.6593697186
 30
0.0
 10
4.7028799879
 20
4.6593697186
 30
0.0
 10
4.7002139212
 20
4.659333232
 30
0.0
 10
4.6966346737
 20
4.6591807799
 30
0.0
 10
4.6941547658
 20
4.6589928873
 30
0.0
 10
4.692591209
 20
4.6588176861
 30
0.0
 10
4.6919404467
 20
4.6587263686
 30
0.0
 10
4.6916452137
 20
4.6586791196
 30
0.0
  0
SPLINE
  5
2B4
100
AcDbEntity
  8
0
100
AcDbSpline
 62
7
  6
CONTINUOUS
 70
0
 71
3
 72
14
 73
10
 74
0
 42
0.0000001
 43
0.0000001
 44
0.0000000001
 40
0.0
 40
0.0
 40
0.0
 40
0.0
 40
0.1370803895
 40
0.2716518971
 40
0.4022023688
 40
0.5284370143
 40
0.6507253392
 40
0.7696974697
 40
1.0
 40
1.0
 40
1.0
 40
1.0
 10
4.7043337912
 20
4.4393173077
 30
0.0
 10
4.7035843338
 20
4.4393173077
 30
0.0
 10
4.7020953725
 20
4.4394586565
 30
0.0
 10
4.699970885
 20
4.4400681024
 30
0.0
 10
4.6980365319
 20
4.4410052074
 30
0.0
 10
4.6963274033
 20
4.4421903708
 30
0.0
 10
4.6948462485
 20
4.4435567903
 30
0.0
 10
4.6931776921
 20
4.4455282725
 30
0.0
 10
4.6921895836
 20
4.4471819363
 30
0.0
 10
4.6916452137
 20
4.4483173077
 30
0.0
  0
SPLINE
  5
2B5
100
AcDbEntity
  8
0
100
AcDbSpline
 62
7
  6
CONTINUOUS
 70
0
 71
3
 72
14
 73
10
 74
0
 42
0.0000001
 43
0.0000001
 44
0.0000000001
 40
0.0
 40
0.0
 40
0.0
 40
0.0
 40
0.2235259333
 40
0.340483687
 40
0.4619339911
 40
0.5886817539
 40
0.7211664567
 40
0.8589406669
 40
1.0
 40
1.0
 40
1.0
 40
1.0
 10
4.6916452137
 20
4.4235189712
 30
0.0
 10
4.6921934052
 20
4.4245715844
 30
0.0
 10
4.6931892806
 20
4.426100664
 30
0.0
 10
4.6948532345
 20
4.4279084773
 30
0.0
 10
4.6963361589
 20
4.4291662282
 30
0.0
 10
4.6980463448
 20
4.430256095
 30
0.0
 10
4.6999799956
 20
4.4311166943
 30
0.0
 10
4.7021011653
 20
4.431675457
 30
0.0
 10
4.7035848398
 20
4.4318047864
 30
0.0
 10
4.7043337912
 20
4.4318047864
 30
0.0
  0
SPLINE
  5
2B6
100
AcDbEntity
  8
0
100
AcDbSpline
 62
7
  6
CONTINUOUS
 70
0
 71
3
 72
13
 73
9
 74
0
 42
0.0000001
 43
0.0000001
 44
0.0000000001
 40
0.0
 40
0.0
 40
0.0
 40
0.0
 40
0.1337260715
 40
0.265631315
 40
0.3946262432
 40
0.5205280149
 40
0.7639137148
 40
1.0
 40
1.0
 40
1.0
 40
1.0
 10
4.7043337912
 20
4.4138914613
 30
0.0
 10
4.7035838555
 20
4.4138914613
 30
0.0
 10
4.7020899169
 20
4.4140435584
 30
0.0
 10
4.6999625875
 20
4.4146979149
 30
0.0
 10
4.6980278528
 20
4.415702534
 30
0.0
 10
4.6957768891
 20
4.4173745584
 30
0.0
 10
4.693502794
 20
4.4199460478
 30
0.0
 10
4.6921867292
 20
4.4223108065
 30
0.0
 10
4.6916452137
 20
4.4235189712
 30
0.0
  0
SPLINE
  5
2B7
100
AcDbEntity
  8
0
100
AcDbSpline
 62
7
  6
CONTINUOUS
 70
0
 71
3
 72
15
 73
11
 74
0
 42
0.0000001
 43
0.0000001
 44
0.0000000001
 40
0.0
 40
0.0
 40
0.0
 40
0.0
 40
0.1060007451
 40
0.2158630501
 40
0.3304987214
 40
0.4510130923
 40
0.5783798952
 40
0.7130826979
 40
0.8544756842
 40
1.0
 40
1.0
 40
1.0
 40
1.0
 10
4.6916452137
 20
4.3989594562
 30
0.0
 10
4.6919173129
 20
4.3994318636
 30
0.0
 10
4.6925207273
 20
4.400366515
 30
0.0
 10
4.6935923458
 20
4.4016902134
 30
0.0
 10
4.6948618012
 20
4.4029359372
 30
0.0
 10
4.6963462403
 20
4.4040722744
 30
0.0
 10
4.6980571507
 20
4.4050562284
 30
0.0
 10
4.6999895903
 20
4.4058320822
 30
0.0
 10
4.7021070788
 20
4.4063350885
 30
0.0
 10
4.7035853531
 20
4.4064512897
 30
0.0
 10
4.7043337912
 20
4.4064512897
 30
0.0
  0
SPLINE
  5
2B8
100
AcDbEntity
  8
0
100
AcDbSpline
 62
7
  6
CONTINUOUS
 70
0
 71
3
 72
13
 73
9
 74
0
 42
0.0000001
 43
0.0000001
 44
0.0000000001
 40
0.0
 40
0.0
 40
0.0
 40
0.0
 40
0.1308813471
 40
0.2605320822
 40
0.3882144932
 40
0.5138245852
 40
0.7592868424
 40
1.0
 40
1.0
 40
1.0
 40
1.0
 10
4.7043337912
 20
4.3887971546
 30
0.0
 10
4.7035834227
 20
4.3887971546
 30
0.0
 10
4.702085011
 20
4.3889585469
 30
0.0
 10
4.699955304
 20
4.389651515
 30
0.0
 10
4.6980205739
 20
4.3907136419
 30
0.0
 10
4.6957634317
 20
4.3924857782
 30
0.0
 10
4.6934904278
 20
4.3952077473
 30
0.0
 10
4.6921846072
 20
4.3976891773
 30
0.0
 10
4.6916452137
 20
4.3989594562
 30
0.0
  0
SPLINE
  5
2B9
100
AcDbEntity
  8
0
100
AcDbSpline
 62
7
  6
CONTINUOUS
 70
0
 71
3
 72
11
 73
7
 74
0
 42
0.0000001
 43
0.0000001
 44
0.0000000001
 40
0.0
 40
0.0
 40
0.0
 40
0.0
 40
0.2069621778
 40
0.4387195747
 40
0.7041539478
 40
1.0
 40
1.0
 40
1.0
 40
1.0
 10
4.6916452137
 20
4.3748752843
 30
0.0
 10
4.6922054404
 20
4.3757354794
 30
0.0
 10
4.6936007274
 20
4.3774321345
 30
0.0
 10
4.6964063165
 20
4.3795669882
 30
0.0
 10
4.7000662888
 20
4.3811195352
 30
0.0
 10
4.7028663804
 20
4.3815009856
 30
0.0
 10
4.7043337912
 20
4.3815009856
 30
0.0
  0
SPLINE
  5
2BA
100
AcDbEntity
  8
0
100
AcDbSpline
 62
7
  6
CONTINUOUS
 70
0
 71
3
 72
13
 73
9
 74
0
 42
0.0000001
 43
0.0000001
 44
0.0000000001
 40
0.0
 40
0.0
 40
0.0
 40
0.0
 40
0.1286073804
 40
0.2564671838
 40
0.3831219257
 40
0.5085205891
 40
0.7556514998
 40
1.0
 40
1.0
 40
1.0
 40
1.0
 10
4.7043337912
 20
4.3642760596
 30
0.0
 10
4.703583052
 20
4.3642760596
 30
0.0
 10
4.7020808277
 20
4.3644451494
 30
0.0
 10
4.6999492421
 20
4.3651698657
 30
0.0
 10
4.6980146896
 20
4.3662790175
 30
0.0
 10
4.6957528995
 20
4.3681331535
 30
0.0
 10
4.6934812291
 20
4.3709776731
 30
0.0
 10
4.6921830561
 20
4.3735542003
 30
0.0
 10
4.6916452137
 20
4.3748752843
 30
0.0
  0
SPLINE
  5
2BB
100
AcDbEntity
  8
0
100
AcDbSpline
 62
7
  6
CONTINUOUS
 70
0
 71
3
 72
11
 73
7
 74
0
 42
0.0000001
 43
0.0000001
 44
0.0000000001
 40
0.0
 40
0.0
 40
0.0
 40
0.0
 40
0.1969223664
 40
0.4250831999
 40
0.6943751405
 40
1.0
 40
1.0
 40
1.0
 40
1.0
 10
4.6916452137
 20
4.3514983993
 30
0.0
 10
4.6922147817
 20
4.3522501927
 30
0.0
 10
4.6936418247
 20
4.3537305664
 30
0.0
 10
4.696455558
 20
4.3555554774
 30
0.0
 10
4.7001041651
 20
4.356873399
 30
0.0
 10
4.7028699591
 20
4.3571941592
 30
0.0
 10
4.7043337912
 20
4.3571941592
 30
0.0
  0
SPLINE
  5
2BC
100
AcDbEntity
  8
0
100
AcDbSpline
 62
7
  6
CONTINUOUS
 70
0
 71
3
 72
13
 73
9
 74
0
 42
0.0000001
 43
0.0000001
 44
0.0000000001
 40
0.0
 40
0.0
 40
0.0
 40
0.0
 40
0.1268965924
 40
0.2534158148
 40
0.3793101567
 40
0.5045622947
 40
0.7529528556
 40
1.0
 40
1.0
 40
1.0
 40
1.0
 10
4.7043337912
 20
4.3405643277
 30
0.0
 10
4.7035827575
 20
4.3405643277
 30
0.0
 10
4.7020775171
 20
4.3407393823
 30
0.0
 10
4.6999445388
 20
4.3414885506
 30
0.0
 10
4.6980102293
 20
4.3426337559
 30
0.0
 10
4.6957451137
 20
4.344550834
 30
0.0
 10
4.6934746858
 20
4.3474890312
 30
0.0
 10
4.6921819658
 20
4.3501383427
 30
0.0
 10
4.6916452137
 20
4.3514983993
 30
0.0
  0
SPLINE
  5
2BD
100
AcDbEntity
  8
0
100
AcDbSpline
 62
7
  6
CONTINUOUS
 70
0
 71
3
 72
11
 73
7
 74
0
 42
0.0000001
 43
0.0000001
 44
0.0000000001
 40
0.0
 40
0.0
 40
0.0
 40
0.0
 40
0.1862482382
 40
0.4108835402
 40
0.6843469726
 40
1.0
 40
1.0
 40
1.0
 40
1.0
 10
4.6916452137
 20
4.3290539333
 30
0.0
 10
4.692227337
 20
4.3296894488
 30
0.0
 10
4.6936903509
 20
4.3309327314
 30
0.0
 10
4.6965055968
 20
4.3324290421
 30
0.0
 10
4.7001387463
 20
4.3335048294
 30
0.0
 10
4.7028731673
 20
4.3337648986
 30
0.0
 10
4.7043337912
 20
4.3337648986
 30
0.0
  0
SPLINE
  5
2BE
100
AcDbEntity
  8
0
100
AcDbSpline
 62
7
  6
CONTINUOUS
 70
0
 71
3
 72
13
 73
9
 74
0
 42
0.0000001
 43
0.0000001
 44
0.0000000001
 40
0.0
 40
0.0
 40
0.0
 40
0.0
 40
0.1257402082
 40
0.2513566757
 40
0.3767432959
 40
0.5019024219
 40
0.7511461982
 40
1.0
 40
1.0
 40
1.0
 40
1.0
 10
4.7043337912
 20
4.3178903159
 30
0.0
 10
4.7035825503
 20
4.3178903159
 30
0.0
 10
4.7020751958
 20
4.3180694937
 30
0.0
 10
4.6999412896
 20
4.3188354838
 30
0.0
 10
4.6980072001
 20
4.3200054081
 30
0.0
 10
4.69573992
 20
4.3219656752
 30
0.0
 10
4.6934704377
 20
4.3249679694
 30
0.0
 10
4.6921812634
 20
4.3276671413
 30
0.0
 10
4.6916452137
 20
4.3290539333
 30
0.0
  0
SPLINE
  5
2BF
100
AcDbEntity
  8
0
100
AcDbSpline
 62
7
  6
CONTINUOUS
 70
0
 71
3
 72
14
 73
10
 74
0
 42
0.0000001
 43
0.0000001
 44
0.0000000001
 40
0.0
 40
0.0
 40
0.0
 40
0.0
 40
0.17542886
 40
0.2796352032
 40
0.3969134081
 40
0.5285096671
 40
0.6746446436
 40
0.833489567
 40
1.0
 40
1.0
 40
1.0
 40
1.0
 10
4.6916452137
 20
4.3077580387
 30
0.0
 10
4.6922437356
 20
4.3082685716
 30
0.0
 10
4.6933018177
 20
4.3089633987
 30
0.0
 10
4.6949084434
 20
4.309731442
 30
0.0
 10
4.6963941925
 20
4.3102855424
 30
0.0
 10
4.6981016704
 20
4.3107638195
 30
0.0
 10
4.7000251084
 20
4.311139898
 30
0.0
 10
4.702127439
 20
4.3113829636
 30
0.0
 10
4.7035871002
 20
4.3114388403
 30
0.0
 10
4.7043337912
 20
4.3114388403
 30
0.0
  0
SPLINE
  5
2C0
100
AcDbEntity
  8
0
100
AcDbSpline
 62
7
  6
CONTINUOUS
 70
0
 71
3
 72
13
 73
9
 74
0
 42
0.0000001
 43
0.0000001
 44
0.0000000001
 40
0.0
 40
0.0
 40
0.0
 40
0.0
 40
0.1251239078
 40
0.2502593213
 40
0.3753820591
 40
0.5004957679
 40
0.7501958505
 40
1.0
 40
1.0
 40
1.0
 40
1.0
 10
4.7043337912
 20
4.2964723873
 30
0.0
 10
4.7035824806
 20
4.2964723873
 30
0.0
 10
4.7020740679
 20
4.2966537351
 30
0.0
 10
4.6999397313
 20
4.2974286252
 30
0.0
 10
4.6980057782
 20
4.2986116573
 30
0.0
 10
4.6957373119
 20
4.3005949008
 30
0.0
 10
4.6934682976
 20
4.3036312805
 30
0.0
 10
4.6921809128
 20
4.3063570041
 30
0.0
 10
4.6916452137
 20
4.3077580387
 30
0.0
  0
SPLINE
  5
2C1
100
AcDbEntity
  8
0
100
AcDbSpline
 62
7
  6
CONTINUOUS
 70
0
 71
3
 72
15
 73
11
 74
0
 42
0.0000001
 43
0.0000001
 44
0.0000000001
 40
0.0
 40
0.0
 40
0.0
 40
0.0
 40
0.0770982173
 40
0.1658720882
 40
0.267859878
 40
0.3846469192
 40
0.5174051963
 40
0.6662052536
 40
0.8289230529
 40
1.0
 40
1.0
 40
1.0
 40
1.0
 10
4.6916452137
 20
4.2878158068
 30
0.0
 10
4.6919328893
 20
4.287990151
 30
0.0
 10
4.6925724102
 20
4.2883316895
 30
0.0
 10
4.6936485682
 20
4.2887904427
 30
0.0
 10
4.6949205426
 20
4.2892215005
 30
0.0
 10
4.6964043618
 20
4.2896138752
 30
0.0
 10
4.6981100639
 20
4.2899527745
 30
0.0
 10
4.7000311311
 20
4.2902192228
 30
0.0
 10
4.7021306868
 20
4.2903914324
 30
0.0
 10
4.7035873758
 20
4.2904309965
 30
0.0
 10
4.7043337912
 20
4.2904309965
 30
0.0
  0
SPLINE
  5
2C2
100
AcDbEntity
  8
0
100
AcDbSpline
 62
7
  6
CONTINUOUS
 70
0
 71
3
 72
13
 73
9
 74
0
 42
0.0000001
 43
0.0000001
 44
0.0000000001
 40
0.0
 40
0.0
 40
0.0
 40
0.0
 40
0.1250645367
 40
0.2501548164
 40
0.3752471288
 40
0.5003541415
 40
0.750097035
 40
1.0
 40
1.0
 40
1.0
 40
1.0
 10
4.7043337912
 20
4.2765168083
 30
0.0
 10
4.7035824262
 20
4.2765168083
 30
0.0
 10
4.7020738073
 20
4.2766984311
 30
0.0
 10
4.6999393648
 20
4.2774743648
 30
0.0
 10
4.6980054254
 20
4.2786588681
 30
0.0
 10
4.6957369117
 20
4.2806446202
 30
0.0
 10
4.6934680187
 20
4.2836846716
 30
0.0
 10
4.6921808653
 20
4.2864132398
 30
0.0
 10
4.6916452137
 20
4.2878158068
 30
0.0
  0
SPLINE
  5
2C3
100
AcDbEntity
  8
0
100
AcDbSpline
 62
7
  6
CONTINUOUS
 70
0
 71
3
 72
14
 73
10
 74
0
 42
0.0000001
 43
0.0000001
 44
0.0000000001
 40
0.0
 40
0.0
 40
0.0
 40
0.0
 40
0.0725724857
 40
0.1583481889
 40
0.2587495987
 40
0.3752706362
 40
0.5089940036
 40
0.659860635
 40
1.0
 40
1.0
 40
1.0
 40
1.0
 10
4.6916452137
 20
4.2694192921
 30
0.0
 10
4.6919378023
 20
4.2695226527
 30
0.0
 10
4.6925850214
 20
4.2697234309
 30
0.0
 10
4.6936593252
 20
4.2699897525
 30
0.0
 10
4.6949296071
 20
4.2702402263
 30
0.0
 10
4.6964118388
 20
4.2704683619
 30
0.0
 10
4.6981159547
 20
4.2706655137
 30
0.0
 10
4.7007789128
 20
4.2708803744
 30
0.0
 10
4.7028794076
 20
4.2709436841
 30
0.0
 10
4.7043337912
 20
4.2709436841
 30
0.0
  0
SPLINE
  5
2C4
100
AcDbEntity
  8
0
100
AcDbSpline
 62
7
  6
CONTINUOUS
 70
0
 71
3
 72
13
 73
9
 74
0
 42
0.0000001
 43
0.0000001
 44
0.0000000001
 40
0.0
 40
0.0
 40
0.0
 40
0.0
 40
0.125540518
 40
0.2510013746
 40
0.3763008331
 40
0.5014443864
 40
0.7508356305
 40
1.0
 40
1.0
 40
1.0
 40
1.0
 10
4.7043337912
 20
4.258215762
 30
0.0
 10
4.7035825139
 20
4.258215762
 30
0.0
 10
4.7020747879
 20
4.2583956596
 30
0.0
 10
4.6999407228
 20
4.2591645796
 30
0.0
 10
4.6980066759
 20
4.260338802
 30
0.0
 10
4.6957390289
 20
4.2623065816
 30
0.0
 10
4.693469718
 20
4.2653200107
 30
0.0
 10
4.6921811448
 20
4.2680278499
 30
0.0
 10
4.6916452137
 20
4.2694192921
 30
0.0
  0
SPLINE
  5
2C5
100
AcDbEntity
  8
0
100
AcDbSpline
 62
7
  6
CONTINUOUS
 70
0
 71
3
 72
11
 73
7
 74
0
 42
0.0000001
 43
0.0000001
 44
0.0000000001
 40
0.0
 40
0.0
 40
0.0
 40
0.0
 40
0.1544155478
 40
0.3704249911
 40
0.6565786818
 40
1.0
 40
1.0
 40
1.0
 40
1.0
 10
4.6916452137
 20
4.252745663
 30
0.0
 10
4.6922957984
 20
4.2528088212
 30
0.0
 10
4.6938601065
 20
4.2529220325
 30
0.0
 10
4.6966366104
 20
4.2530502115
 30
0.0
 10
4.7002150261
 20
4.2531423881
 30
0.0
 10
4.7028800839
 20
4.2531645767
 30
0.0
 10
4.7043337912
 20
4.2531645767
 30
0.0
  0
SPLINE
  5
2C6
100
AcDbEntity
  8
0
100
AcDbSpline
 62
7
  6
CONTINUOUS
 70
0
 71
3
 72
13
 73
9
 74
0
 42
0.0000001
 43
0.0000001
 44
0.0000000001
 40
0.0
 40
0.0
 40
0.0
 40
0.0
 40
0.1265622525
 40
0.2528201816
 40
0.3785672075
 40
0.5037919558
 40
0.7524290656
 40
1.0
 40
1.0
 40
1.0
 40
1.0
 10
4.7043337912
 20
4.2417454976
 30
0.0
 10
4.7035826983
 20
4.2417454976
 30
0.0
 10
4.702076853
 20
4.2419217366
 30
0.0
 10
4.6999436052
 20
4.2426757435
 30
0.0
 10
4.6980093546
 20
4.2438280661
 30
0.0
 10
4.6957436063
 20
4.2457575766
 30
0.0
 10
4.6934734433
 20
4.2487142395
 30
0.0
 10
4.69218176
 20
4.2513779099
 30
0.0
 10
4.6916452137
 20
4.252745663
 30
0.0
  0
SPLINE
  5
2C7
100
AcDbEntity
  8
0
100
AcDbSpline
 62
7
  6
CONTINUOUS
 70
0
 71
3
 72
13
 73
9
 74
0
 42
0.0000001
 43
0.0000001
 44
0.0000000001
 40
0.0
 40
0.0
 40
0.0
 40
0.0
 40
0.1281363918
 40
0.2556265361
 40
0.3820708382
 40
0.5074280947
 40
0.7549054571
 40
1.0
 40
1.0
 40
1.0
 40
1.0
 10
4.7043337912
 20
4.2272646326
 30
0.0
 10
4.7035829723
 20
4.2272646326
 30
0.0
 10
4.7020799306
 20
4.2274353491
 30
0.0
 10
4.6999479595
 20
4.2281667469
 30
0.0
 10
4.6980134643
 20
4.2292857646
 30
0.0
 10
4.695750744
 20
4.2311571184
 30
0.0
 10
4.6934793962
 20
4.2340272959
 30
0.0
 10
4.6921827497
 20
4.2366237492
 30
0.0
 10
4.6916452137
 20
4.2379554958
 30
0.0
  0
SPLINE
  5
2C8
100
AcDbEntity
  8
0
100
AcDbSpline
 62
7
  6
CONTINUOUS
 70
0
 71
3
 72
13
 73
9
 74
0
 42
0.0000001
 43
0.0000001
 44
0.0000000001
 40
0.0
 40
0.0
 40
0.0
 40
0.0
 40
0.130271544
 40
0.2594410141
 40
0.3868459513
 40
0.5123974646
 40
0.7583065037
 40
1.0
 40
1.0
 40
1.0
 40
1.0
 10
4.7043337912
 20
4.2149126257
 30
0.0
 10
4.7035833256
 20
4.2149126257
 30
0.0
 10
4.7020839127
 20
4.2150760576
 30
0.0
 10
4.6999536995
 20
4.2157774588
 30
0.0
 10
4.6980190013
 20
4.2168521
 30
0.0
 10
4.6957605872
 20
4.2186460468
 30
0.0
 10
4.6934879031
 20
4.2214006713
 30
0.0
 10
4.6921841793
 20
4.2239074307
 30
0.0
 10
4.6916452137
 20
4.2251912278
 30
0.0
  0
SPLINE
  5
2C9
100
AcDbEntity
  8
0
100
AcDbSpline
 62
7
  6
CONTINUOUS
 70
0
 71
3
 72
13
 73
9
 74
0
 42
0.0000001
 43
0.0000001
 44
0.0000000001
 40
0.0
 40
0.0
 40
0.0
 40
0.0
 40
0.132975908
 40
0.2642851441
 40
0.3929310765
 40
0.5187529708
 40
0.762684958
 40
1.0
 40
1.0
 40
1.0
 40
1.0
 10
4.7043337912
 20
4.2048084335
 30
0.0
 10
4.7035837446
 20
4.2048084335
 30
0.0
 10
4.7020886571
 20
4.2049629481
 30
0.0
 10
4.6999606988
 20
4.2056273745
 30
0.0
 10
4.6980259429
 20
4.2066470245
 30
0.0
 10
4.6957733109
 20
4.208345196
 30
0.0
 10
4.6934994365
 20
4.2109560841
 30
0.0
 10
4.6921861487
 20
4.2133513863
 30
0.0
 10
4.6916452137
 20
4.214575786
 30
0.0
  0
SPLINE
  5
2CA
100
AcDbEntity
  8
0
100
AcDbSpline
 62
7
  6
CONTINUOUS
 70
0
 71
3
 72
14
 73
10
 74
0
 42
0.0000001
 43
0.0000001
 44
0.0000000001
 40
0.0
 40
0.0
 40
0.0
 40
0.0
 40
0.1361905402
 40
0.270049608
 40
0.4001752932
 40
0.5263037381
 40
0.6487848402
 40
0.7682066617
 40
1.0
 40
1.0
 40
1.0
 40
1.0
 10
4.7043337912
 20
4.1970493648
 30
0.0
 10
4.7035842133
 20
4.1970493648
 30
0.0
 10
4.7020939974
 20
4.1971934705
 30
0.0
 10
4.6999687634
 20
4.1978144849
 30
0.0
 10
4.6980343049
 20
4.1987689802
 30
0.0
 10
4.696325471
 20
4.1999757497
 30
0.0
 10
4.6948447462
 20
4.2013667854
 30
0.0
 10
4.6931752637
 20
4.2033754011
 30
0.0
 10
4.6921888052
 20
4.2050572428
 30
0.0
 10
4.6916452137
 20
4.2062114028
 30
0.0
  0
SPLINE
  5
2CB
100
AcDbEntity
  8
0
100
AcDbSpline
 62
7
  6
CONTINUOUS
 70
0
 71
3
 72
14
 73
10
 74
0
 42
0.0000001
 43
0.0000001
 44
0.0000000001
 40
0.0
 40
0.0
 40
0.0
 40
0.0
 40
0.1400335243
 40
0.2769794285
 40
0.4089599972
 40
0.5355694101
 40
0.6572318843
 40
0.7747094261
 40
1.0
 40
1.0
 40
1.0
 40
1.0
 10
4.7043337912
 20
4.1917101439
 30
0.0
 10
4.7035847139
 20
4.1917101439
 30
0.0
 10
4.7020997246
 20
4.1918425279
 30
0.0
 10
4.6999777033
 20
4.1924142073
 30
0.0
 10
4.6980438372
 20
4.193294351
 30
0.0
 10
4.6963338837
 20
4.1944086007
 30
0.0
 10
4.6948513905
 20
4.1956941725
 30
0.0
 10
4.693186174
 20
4.1975438451
 30
0.0
 10
4.692192363
 20
4.1991048575
 30
0.0
 10
4.6916452137
 20
4.2001786318
 30
0.0
  0
SPLINE
  5
2CC
100
AcDbEntity
  8
0
100
AcDbSpline
 62
7
  6
CONTINUOUS
 70
0
 71
3
 72
15
 73
11
 74
0
 42
0.0000001
 43
0.0000001
 44
0.0000000001
 40
0.0
 40
0.0
 40
0.0
 40
0.0
 40
0.144373788
 40
0.2848293343
 40
0.4189489608
 40
0.5461401059
 40
0.6668785932
 40
0.7820981201
 40
0.8928524733
 40
1.0
 40
1.0
 40
1.0
 40
1.0
 10
4.7043337912
 20
4.1888421901
 30
0.0
 10
4.703585227
 20
4.1888421901
 30
0.0
 10
4.7021056292
 20
4.1889617016
 30
0.0
 10
4.6999872094
 20
4.1894788062
 30
0.0
 10
4.6980544267
 20
4.190276129
 30
0.0
 10
4.6963436418
 20
4.1912869874
 30
0.0
 10
4.6948595824
 20
4.192454103
 30
0.0
 10
4.6935905926
 20
4.193733347
 30
0.0
 10
4.6925194217
 20
4.1950925301
 30
0.0
 10
4.6919169871
 20
4.1960510364
 30
0.0
 10
4.6916452137
 20
4.1965355718
 30
0.0
  0
SPLINE
  5
2CD
100
AcDbEntity
  8
0
100
AcDbSpline
 62
7
  6
CONTINUOUS
 70
0
 71
3
 72
15
 73
11
 74
0
 42
0.0000001
 43
0.0000001
 44
0.0000000001
 40
0.0
 40
0.0
 40
0.0
 40
0.0
 40
0.1071475393
 40
0.2179019171
 40
0.3331214792
 40
0.4538600044
 40
0.5810511983
 40
0.715170879
 40
0.8556263297
 40
1.0
 40
1.0
 40
1.0
 40
1.0
 10
4.6916452137
 20
4.7000990435
 30
0.0
 10
4.6919169871
 20
4.700583579
 30
0.0
 10
4.6925194217
 20
4.7015420855
 30
0.0
 10
4.693590593
 20
4.7029012688
 30
0.0
 10
4.6948595831
 20
4.7041805133
 30
0.0
 10
4.6963436432
 20
4.705347629
 30
0.0
 10
4.698054429
 20
4.7063584875
 30
0.0
 10
4.6999872118
 20
4.7071558101
 30
0.0
 10
4.7021056309
 20
4.7076729141
 30
0.0
 10
4.7035852276
 20
4.7077924253
 30
0.0
 10
4.7043337912
 20
4.7077924253
 30
0.0
  0
SPLINE
  5
2CE
100
AcDbEntity
  8
0
100
AcDbSpline
 62
7
  6
CONTINUOUS
 70
0
 71
3
 72
14
 73
10
 74
0
 42
0.0000001
 43
0.0000001
 44
0.0000000001
 40
0.0
 40
0.0
 40
0.0
 40
0.0
 40
0.2252906114
 40
0.3427681891
 40
0.4644307001
 40
0.5910401595
 40
0.7230207803
 40
0.8599665902
 40
1.0
 40
1.0
 40
1.0
 40
1.0
 10
4.6916452137
 20
4.6964559836
 30
0.0
 10
4.6921923631
 20
4.6975297581
 30
0.0
 10
4.6931861744
 20
4.6990907707
 30
0.0
 10
4.6948513913
 20
4.7009404438
 30
0.0
 10
4.6963338851
 20
4.7022260158
 30
0.0
 10
4.6980438395
 20
4.7033402655
 30
0.0
 10
4.6999777057
 20
4.7042204091
 30
0.0
 10
4.7020997263
 20
4.7047920878
 30
0.0
 10
4.7035847145
 20
4.7049244715
 30
0.0
 10
4.7043337912
 20
4.7049244715
 30
0.0
  0
SPLINE
  5
2CF
100
AcDbEntity
  8
0
100
AcDbSpline
 62
7
  6
CONTINUOUS
 70
0
 71
3
 72
14
 73
10
 74
0
 42
0.0000001
 43
0.0000001
 44
0.0000000001
 40
0.0
 40
0.0
 40
0.0
 40
0.0
 40
0.2317933764
 40
0.3512152343
 40
0.4736963722
 40
0.5998248617
 40
0.729950597
 40
0.8638095715
 40
1.0
 40
1.0
 40
1.0
 40
1.0
 10
4.6916452137
 20
4.6904232126
 30
0.0
 10
4.6921888053
 20
4.6915773728
 30
0.0
 10
4.6931752642
 20
4.6932592147
 30
0.0
 10
4.694844747
 20
4.695267831
 30
0.0
 10
4.6963254724
 20
4.6966588669
 30
0.0
 10
4.6980343072
 20
4.6978656364
 30
0.0
 10
4.6999687658
 20
4.6988201315
 30
0.0
 10
4.7020939991
 20
4.6994411453
 30
0.0
 10
4.7035842139
 20
4.6995852505
 30
0.0
 10
4.7043337912
 20
4.6995852505
 30
0.0
  0
SPLINE
  5
2D0
100
AcDbEntity
  8
0
100
AcDbSpline
 62
7
  6
CONTINUOUS
 70
0
 71
3
 72
13
 73
9
 74
0
 42
0.0000001
 43
0.0000001
 44
0.0000000001
 40
0.0
 40
0.0
 40
0.0
 40
0.0
 40
0.2373150809
 40
0.4812471392
 40
0.6070690766
 40
0.7357150576
 40
0.8670242012
 40
1.0
 40
1.0
 40
1.0
 40
1.0
 10
4.6916452137
 20
4.6820588294
 30
0.0
 10
4.6921861488
 20
4.6832832293
 30
0.0
 10
4.693499437
 20
4.685678532
 30
0.0
 10
4.6957733121
 20
4.6882894207
 30
0.0
 10
4.6980259453
 20
4.6899875922
 30
0.0
 10
4.6999607012
 20
4.691007242
 30
0.0
 10
4.7020886589
 20
4.6916716677
 30
0.0
 10
4.7035837452
 20
4.6918261819
 30
0.0
 10
4.7043337912
 20
4.6918261819
 30
0.0
  0
SPLINE
  5
2D1
100
AcDbEntity
  8
0
100
AcDbSpline
 62
7
  6
CONTINUOUS
 70
0
 71
3
 72
13
 73
9
 74
0
 42
0.0000001
 43
0.0000001
 44
0.0000000001
 40
0.0
 40
0.0
 40
0.0
 40
0.0
 40
0.2416935356
 40
0.4876026455
 40
0.6131542005
 40
0.7405591849
 40
0.8697285631
 40
1.0
 40
1.0
 40
1.0
 40
1.0
 10
4.6916452137
 20
4.6714433876
 30
0.0
 10
4.6921841794
 20
4.6727271848
 30
0.0
 10
4.6934879036
 20
4.6752339448
 30
0.0
 10
4.6957605883
 20
4.6779885701
 30
0.0
 10
4.6980190036
 20
4.6797825168
 30
0.0
 10
4.6999537019
 20
4.6808571578
 30
0.0
 10
4.7020839145
 20
4.6815585582
 30
0.0
 10
4.7035833262
 20
4.6817219897
 30
0.0
 10
4.7043337912
 20
4.6817219897
 30
0.0
  0
SPLINE
  5
2D2
100
AcDbEntity
  8
0
100
AcDbSpline
 62
7
  6
CONTINUOUS
 70
0
 71
3
 72
13
 73
9
 74
0
 42
0.0000001
 43
0.0000001
 44
0.0000000001
 40
0.0
 40
0.0
 40
0.0
 40
0.0
 40
0.2450945826
 40
0.4925720155
 40
0.6179293126
 40
0.7443736609
 40
0.8718637138
 40
1.0
 40
1.0
 40
1.0
 40
1.0
 10
4.6916452137
 20
4.6586791196
 30
0.0
 10
4.6921827498
 20
4.6600108664
 30
0.0
 10
4.6934793967
 20
4.6626073202
 30
0.0
 10
4.6957507451
 20
4.6654774984
 30
0.0
 10
4.6980134666
 20
4.6673488522
 30
0.0
 10
4.6999479619
 20
4.6684678698
 30
0.0
 10
4.7020799324
 20
4.6691992668
 30
0.0
 10
4.7035829729
 20
4.6693699828
 30
0.0
 10
4.7043337912
 20
4.6693699828
 30
0.0
  0
SPLINE
  5
2D3
100
AcDbEntity
  8
0
100
AcDbSpline
 62
7
  6
CONTINUOUS
 70
0
 71
3
 72
13
 73
9
 74
0
 42
0.0000001
 43
0.0000001
 44
0.0000000001
 40
0.0
 40
0.0
 40
0.0
 40
0.0
 40
0.2475709743
 40
0.4962081545
 40
0.6214329426
 40
0.7471800139
 40
0.8734378519
 40
1.0
 40
1.0
 40
1.0
 40
1.0
 10
4.6916452137
 20
4.6438889524
 30
0.0
 10
4.6921817601
 20
4.6452567057
 30
0.0
 10
4.6934734438
 20
4.6479203767
 30
0.0
 10
4.6957436074
 20
4.6508770403
 30
0.0
 10
4.6980093569
 20
4.6528065508
 30
0.0
 10
4.6999436076
 20
4.6539588732
 30
0.0
 10
4.7020768548
 20
4.6547128793
 30
0.0
 10
4.7035826989
 20
4.6548891178
 30
0.0
 10
4.7043337912
 20
4.6548891178
 30
0.0
  0
SPLINE
  5
2D4
100
AcDbEntity
  8
0
100
AcDbSpline
 62
7
  6
CONTINUOUS
 70
0
 71
3
 72
11
 73
7
 74
0
 42
0.0000001
 43
0.0000001
 44
0.0000000001
 40
0.0
 40
0.0
 40
0.0
 40
0.0
 40
0.3434215658
 40
0.6295751201
 40
0.8455844841
 40
1.0
 40
1.0
 40
1.0
 40
1.0
 10
4.7043337912
 20
4.6434700387
 30
0.0
 10
4.7028800828
 20
4.6434700387
 30
0.0
 10
4.7002150246
 20
4.6434922273
 30
0.0
 10
4.6966366087
 20
4.643584404
 30
0.0
 10
4.6938601059
 20
4.643712583
 30
0.0
 10
4.6922957983
 20
4.6438257942
 30
0.0
 10
4.6916452137
 20
4.6438889524
 30
0.0
  0
SPLINE
  5
2D5
100
AcDbEntity
  8
0
100
AcDbSpline
 62
7
  6
CONTINUOUS
 70
0
 71
3
 72
13
 73
9
 74
0
 42
0.0000001
 43
0.0000001
 44
0.0000000001
 40
0.0
 40
0.0
 40
0.0
 40
0.0
 40
0.2491644095
 40
0.498555724
 40
0.6236993166
 40
0.7489988199
 40
0.8744595857
 40
1.0
 40
1.0
 40
1.0
 40
1.0
 10
4.6916452137
 20
4.6272153233
 30
0.0
 10
4.6921811449
 20
4.6286067657
 30
0.0
 10
4.6934697185
 20
4.6313146054
 30
0.0
 10
4.69573903
 20
4.6343280354
 30
0.0
 10
4.6980066783
 20
4.6362958149
 30
0.0
 10
4.6999407252
 20
4.6374700371
 30
0.0
 10
4.7020747897
 20
4.6382389563
 30
0.0
 10
4.7035825145
 20
4.6384188533
 30
0.0
 10
4.7043337912
 20
4.6384188533
 30
0.0
  0
SPLINE
  5
2D6
100
AcDbEntity
  8
0
100
AcDbSpline
 62
7
  6
CONTINUOUS
 70
0
 71
3
 72
14
 73
10
 74
0
 42
0.0000001
 43
0.0000001
 44
0.0000000001
 40
0.0
 40
0.0
 40
0.0
 40
0.0
 40
0.3401396106
 40
0.4910061727
 40
0.6247294749
 40
0.7412504651
 40
0.8416518433
 40
0.9274275216
 40
1.0
 40
1.0
 40
1.0
 40
1.0
 10
4.7043337912
 20
4.6256909313
 30
0.0
 10
4.7028794065
 20
4.6256909313
 30
0.0
 10
4.700778911
 20
4.6257542411
 30
0.0
 10
4.6981159524
 20
4.6259691019
 30
0.0
 10
4.6964118374
 20
4.6261662537
 30
0.0
 10
4.6949296063
 20
4.6263943893
 30
0.0
 10
4.6936593247
 20
4.626644863
 30
0.0
 10
4.6925850212
 20
4.6269111846
 30
0.0
 10
4.6919378023
 20
4.6271119627
 30
0.0
 10
4.6916452137
 20
4.6272153233
 30
0.0
  0
SPLINE
  5
2D7
100
AcDbEntity
  8
0
100
AcDbSpline
 62
7
  6
CONTINUOUS
 70
0
 71
3
 72
13
 73
9
 74
0
 42
0.0000001
 43
0.0000001
 44
0.0000000001
 40
0.0
 40
0.0
 40
0.0
 40
0.0
 40
0.2499030051
 40
0.4996459689
 40
0.6247530206
 40
0.7498453777
 40
0.8749355667
 40
1.0
 40
1.0
 40
1.0
 40
1.0
 10
4.6916452137
 20
4.6088188086
 30
0.0
 10
4.6921808653
 20
4.6102213758
 30
0.0
 10
4.6934680192
 20
4.6129499446
 30
0.0
 10
4.6957369128
 20
4.6159899968
 30
0.0
 10
4.6980054277
 20
4.6179757489
 30
0.0
 10
4.6999393672
 20
4.619160252
 30
0.0
 10
4.7020738091
 20
4.6199361848
 30
0.0
 10
4.7035824268
 20
4.6201178071
 30
0.0
 10
4.7043337912
 20
4.6201178071
 30
0.0
  0
SPLINE
  5
2D8
100
AcDbEntity
  8
0
100
AcDbSpline
 62
7
  6
CONTINUOUS
 70
0
 71
3
 72
15
 73
11
 74
0
 42
0.0000001
 43
0.0000001
 44
0.0000000001
 40
0.0
 40
0.0
 40
0.0
 40
0.0
 40
0.1710770849
 40
0.3337949882
 40
0.4825949778
 40
0.6153531916
 40
0.7321401867
 40
0.8341279446
 40
0.9229017908
 40
1.0
 40
1.0
 40
1.0
 40
1.0
 10
4.7043337912
 20
4.6062036189
 30
0.0
 10
4.7035873752
 20
4.6062036189
 30
0.0
 10
4.7021306852
 20
4.6062431831
 30
0.0
 10
4.7000311287
 20
4.6064153929
 30
0.0
 10
4.6981100616
 20
4.6066818413
 30
0.0
 10
4.6964043603
 20
4.6070207405
 30
0.0
 10
4.6949205418
 20
4.6074131152
 30
0.0
 10
4.6936485677
 20
4.6078441728
 30
0.0
 10
4.69257241
 20
4.608302926
 30
0.0
 10
4.6919328893
 20
4.6086444644
 30
0.0
 10
4.6916452137
 20
4.6088188086
 30
0.0
  0
SPLINE
  5
2D9
100
AcDbEntity
  8
0
100
AcDbSpline
 62
7
  6
CONTINUOUS
 70
0
 71
3
 72
13
 73
9
 74
0
 42
0.0000001
 43
0.0000001
 44
0.0000000001
 40
0.0
 40
0.0
 40
0.0
 40
0.0
 40
0.2498043515
 40
0.4995048537
 40
0.6246185694
 40
0.7497411916
 40
0.8748761724
 40
1.0
 40
1.0
 40
1.0
 40
1.0
 10
4.6916452137
 20
4.5888765766
 30
0.0
 10
4.6921809133
 20
4.5902776124
 30
0.0
 10
4.6934682999
 20
4.5930033394
 30
0.0
 10
4.695737318
 20
4.5960397212
 30
0.0
 10
4.6980057869
 20
4.5980229645
 30
0.0
 10
4.6999397379
 20
4.5992059938
 30
0.0
 10
4.7020740716
 20
4.5999808808
 30
0.0
 10
4.7035824811
 20
4.6001622281
 30
0.0
 10
4.7043337912
 20
4.6001622281
 30
0.0
  0
SPLINE
  5
2DA
100
AcDbEntity
  8
0
100
AcDbSpline
 62
7
  6
CONTINUOUS
 70
0
 71
3
 72
14
 73
10
 74
0
 42
0.0000001
 43
0.0000001
 44
0.0000000001
 40
0.0
 40
0.0
 40
0.0
 40
0.0
 40
0.1665105672
 40
0.325355593
 40
0.4714905041
 40
0.6030867024
 40
0.7203648626
 40
0.8245711733
 40
1.0
 40
1.0
 40
1.0
 40
1.0
 10
4.7043337912
 20
4.5851957751
 30
0.0
 10
4.7035870996
 20
4.5851957751
 30
0.0
 10
4.7021274373
 20
4.5852516519
 30
0.0
 10
4.700025106
 20
4.5854947179
 30
0.0
 10
4.6981016681
 20
4.5858707964
 30
0.0
 10
4.696394191
 20
4.5863490734
 30
0.0
 10
4.6949084426
 20
4.5869031738
 30
0.0
 10
4.6933018173
 20
4.5876712169
 30
0.0
 10
4.6922437355
 20
4.5883660438
 30
0.0
 10
4.6916452137
 20
4.5888765766
 30
0.0
  0
SPLINE
  5
2DB
100
AcDbEntity
  8
0
100
AcDbSpline
 62
7
  6
CONTINUOUS
 70
0
 71
3
 72
13
 73
9
 74
0
 42
0.0000001
 43
0.0000001
 44
0.0000000001
 40
0.0
 40
0.0
 40
0.0
 40
0.0
 40
0.2488538419
 40
0.4980976885
 40
0.6232568538
 40
0.7486435191
 40
0.8742598956
 40
1.0
 40
1.0
 40
1.0
 40
1.0
 10
4.6916452137
 20
4.5675806821
 30
0.0
 10
4.6921812635
 20
4.5689674743
 30
0.0
 10
4.6934704382
 20
4.5716666468
 30
0.0
 10
4.6957399211
 20
4.5746689417
 30
0.0
 10
4.6980072024
 20
4.5766292088
 30
0.0
 10
4.699941292
 20
4.5777991329
 30
0.0
 10
4.7020751976
 20
4.5785651222
 30
0.0
 10
4.703582551
 20
4.5787442995
 30
0.0
 10
4.7043337912
 20
4.5787442995
 30
0.0
  0
SPLINE
  5
2DC
100
AcDbEntity
  8
0
100
AcDbSpline
 62
7
  6
CONTINUOUS
 70
0
 71
3
 72
11
 73
7
 74
0
 42
0.0000001
 43
0.0000001
 44
0.0000000001
 40
0.0
 40
0.0
 40
0.0
 40
0.0
 40
0.315653258
 40
0.5891165694
 40
0.8137517959
 40
1.0
 40
1.0
 40
1.0
 40
1.0
 10
4.7043337912
 20
4.5628697168
 30
0.0
 10
4.7028731663
 20
4.5628697168
 30
0.0
 10
4.7001387447
 20
4.5631297863
 30
0.0
 10
4.6965055952
 20
4.5642055741
 30
0.0
 10
4.6936903504
 20
4.5657018844
 30
0.0
 10
4.6922273369
 20
4.5669451667
 30
0.0
 10
4.6916452137
 20
4.5675806821
 30
0.0
  0
SPLINE
  5
2DD
100
AcDbEntity
  8
0
100
AcDbSpline
 62
7
  6
CONTINUOUS
 70
0
 71
3
 72
13
 73
9
 74
0
 42
0.0000001
 43
0.0000001
 44
0.0000000001
 40
0.0
 40
0.0
 40
0.0
 40
0.0
 40
0.2470471843
 40
0.4954378156
 40
0.6206899935
 40
0.746584381
 40
0.8731035123
 40
1.0
 40
1.0
 40
1.0
 40
1.0
 10
4.6916452137
 20
4.5451362161
 30
0.0
 10
4.6921819659
 20
4.5464962729
 30
0.0
 10
4.6934746863
 20
4.549145585
 30
0.0
 10
4.6957451148
 20
4.5520837828
 30
0.0
 10
4.6980102316
 20
4.554000861
 30
0.0
 10
4.6999445412
 20
4.5551460661
 30
0.0
 10
4.7020775188
 20
4.5558952335
 30
0.0
 10
4.7035827581
 20
4.5560702877
 30
0.0
 10
4.7043337912
 20
4.5560702877
 30
0.0
  0
SPLINE
  5
2DE
100
AcDbEntity
  8
0
100
AcDbSpline
 62
7
  6
CONTINUOUS
 70
0
 71
3
 72
11
 73
7
 74
0
 42
0.0000001
 43
0.0000001
 44
0.0000000001
 40
0.0
 40
0.0
 40
0.0
 40
0.0
 40
0.3056250841
 40
0.5749169094
 40
0.8030776685
 40
1.0
 40
1.0
 40
1.0
 40
1.0
 10
4.7043337912
 20
4.5394404561
 30
0.0
 10
4.702869958
 20
4.5394404561
 30
0.0
 10
4.7001041634
 20
4.5397612168
 30
0.0
 10
4.6964555565
 20
4.5410791389
 30
0.0
 10
4.6936418241
 20
4.5429040494
 30
0.0
 10
4.6922147816
 20
4.5443844228
 30
0.0
 10
4.6916452137
 20
4.5451362161
 30
0.0
  0
SPLINE
  5
2DF
100
AcDbEntity
  8
0
100
AcDbSpline
 62
7
  6
CONTINUOUS
 70
0
 71
3
 72
13
 73
9
 74
0
 42
0.0000001
 43
0.0000001
 44
0.0000000001
 40
0.0
 40
0.0
 40
0.0
 40
0.0
 40
0.2443485398
 40
0.4914795211
 40
0.6168782253
 40
0.7435330136
 40
0.8713927256
 40
1.0
 40
1.0
 40
1.0
 40
1.0
 10
4.6916452137
 20
4.521759331
 30
0.0
 10
4.6921830562
 20
4.5230804153
 30
0.0
 10
4.6934812296
 20
4.525656943
 30
0.0
 10
4.6957529006
 20
4.5285014634
 30
0.0
 10
4.6980146919
 20
4.5303555994
 30
0.0
 10
4.6999492445
 20
4.531464751
 30
0.0
 10
4.7020808295
 20
4.5321894665
 30
0.0
 10
4.7035830526
 20
4.5323585558
 30
0.0
 10
4.7043337912
 20
4.5323585558
 30
0.0
  0
SPLINE
  5
2E0
100
AcDbEntity
  8
0
100
AcDbSpline
 62
7
  6
CONTINUOUS
 70
0
 71
3
 72
11
 73
7
 74
0
 42
0.0000001
 43
0.0000001
 44
0.0000000001
 40
0.0
 40
0.0
 40
0.0
 40
0.0
 40
0.2958462711
 40
0.5612805345
 40
0.793037858
 40
1.0
 40
1.0
 40
1.0
 40
1.0
 10
4.7043337912
 20
4.5151336298
 30
0.0
 10
4.7028663793
 20
4.5151336298
 30
0.0
 10
4.7000662872
 20
4.5155150807
 30
0.0
 10
4.696406315
 20
4.5170676282
 30
0.0
 10
4.6936007268
 20
4.5192024814
 30
0.0
 10
4.6922054403
 20
4.5208991362
 30
0.0
 10
4.6916452137
 20
4.521759331
 30
0.0
  0
SPLINE
  5
2E1
100
AcDbEntity
  8
0
100
AcDbSpline
 62
7
  6
CONTINUOUS
 70
0
 71
3
 72
13
 73
9
 74
0
 42
0.0000001
 43
0.0000001
 44
0.0000000001
 40
0.0
 40
0.0
 40
0.0
 40
0.0
 40
0.2407131968
 40
0.4861755248
 40
0.6117856588
 40
0.7394681174
 40
0.8691187605
 40
1.0
 40
1.0
 40
1.0
 40
1.0
 10
4.6916452137
 20
4.4976751592
 30
0.0
 10
4.6921846073
 20
4.4989454383
 30
0.0
 10
4.6934904283
 20
4.5014268688
 30
0.0
 10
4.6957634328
 20
4.5041488386
 30
0.0
 10
4.6980205762
 20
4.5059209749
 30
0.0
 10
4.6999553064
 20
4.5069831016
 30
0.0
 10
4.7020850128
 20
4.5076760689
 30
0.0
 10
4.7035834234
 20
4.5078374608
 30
0.0
 10
4.7043337912
 20
4.5078374608
 30
0.0
  0
SPLINE
  5
2E2
100
AcDbEntity
  8
0
100
AcDbSpline
 62
7
  6
CONTINUOUS
 70
0
 71
3
 72
15
 73
11
 74
0
 42
0.0000001
 43
0.0000001
 44
0.0000000001
 40
0.0
 40
0.0
 40
0.0
 40
0.0
 40
0.1455244345
 40
0.2869175165
 40
0.4216202644
 40
0.548987018
 40
0.6695013507
 40
0.7841369868
 40
0.8939992674
 40
1.0
 40
1.0
 40
1.0
 40
1.0
 10
4.7043337912
 20
4.4901833257
 30
0.0
 10
4.7035853524
 20
4.4901833257
 30
0.0
 10
4.7021070771
 20
4.4902995272
 30
0.0
 10
4.6999895879
 20
4.4908025341
 30
0.0
 10
4.6980571484
 20
4.491578388
 30
0.0
 10
4.6963462388
 20
4.492562342
 30
0.0
 10
4.6948618004
 20
4.4936986791
 30
0.0
 10
4.6935923454
 20
4.4949444024
 30
0.0
 10
4.6925207272
 20
4.4962681006
 30
0.0
 10
4.6919173128
 20
4.4972027519
 30
0.0
 10
4.6916452137
 20
4.4976751592
 30
0.0
  0
SPLINE
  5
2E3
100
AcDbEntity
  8
0
100
AcDbSpline
 62
7
  6
CONTINUOUS
 70
0
 71
3
 72
13
 73
9
 74
0
 42
0.0000001
 43
0.0000001
 44
0.0000000001
 40
0.0
 40
0.0
 40
0.0
 40
0.0
 40
0.236086324
 40
0.479472095
 40
0.6053739102
 40
0.7343688874
 40
0.8662740381
 40
1.0
 40
1.0
 40
1.0
 40
1.0
 10
4.6916452137
 20
4.4731156442
 30
0.0
 10
4.6921867293
 20
4.4743238091
 30
0.0
 10
4.6935027945
 20
4.4766885682
 30
0.0
 10
4.6957768902
 20
4.4792600584
 30
0.0
 10
4.6980278551
 20
4.4809320827
 30
0.0
 10
4.6999625899
 20
4.4819367016
 30
0.0
 10
4.7020899187
 20
4.4825910574
 30
0.0
 10
4.7035838561
 20
4.4827431541
 30
0.0
 10
4.7043337912
 20
4.4827431541
 30
0.0
  0
SPLINE
  5
2E4
100
AcDbEntity
  8
0
100
AcDbSpline
 62
7
  6
CONTINUOUS
 70
0
 71
3
 72
14
 73
10
 74
0
 42
0.0000001
 43
0.0000001
 44
0.0000000001
 40
0.0
 40
0.0
 40
0.0
 40
0.0
 40
0.1410594483
 40
0.2788337531
 40
0.4113184033
 40
0.538066119
 40
0.6595163861
 40
0.776474104
 40
1.0
 40
1.0
 40
1.0
 40
1.0
 10
4.7043337912
 20
4.464829829
 30
0.0
 10
4.7035848392
 20
4.464829829
 30
0.0
 10
4.7021011636
 20
4.4649591588
 30
0.0
 10
4.6999799931
 20
4.465517922
 30
0.0
 10
4.6980463425
 20
4.4663785216
 30
0.0
 10
4.6963361575
 20
4.4674683884
 30
0.0
 10
4.6948532337
 20
4.468726139
 30
0.0
 10
4.6931892802
 20
4.4705339518
 30
0.0
 10
4.6921934051
 20
4.4720630312
 30
0.0
 10
4.6916452137
 20
4.4731156442
 30
0.0
  0
SPLINE
  5
2E5
100
AcDbEntity
  8
0
100
AcDbSpline
 62
7
  6
CONTINUOUS
 70
0
 71
3
 72
14
 73
10
 74
0
 42
0.0000001
 43
0.0000001
 44
0.0000000001
 40
0.0
 40
0.0
 40
0.0
 40
0.0
 40
0.2303025688
 40
0.3492747364
 40
0.4715630984
 40
0.5977977897
 40
0.7283483125
 40
0.8629197244
 40
1.0
 40
1.0
 40
1.0
 40
1.0
 10
4.6916452137
 20
4.4483173077
 30
0.0
 10
4.6921895837
 20
4.4494526792
 30
0.0
 10
4.6931776926
 20
4.4511063434
 30
0.0
 10
4.6948462492
 20
4.4530778261
 30
0.0
 10
4.6963274048
 20
4.4544442458
 30
0.0
 10
4.6980365342
 20
4.4556294092
 30
0.0
 10
4.6999708874
 20
4.4565665141
 30
0.0
 10
4.7020953743
 20
4.4571759593
 30
0.0
 10
4.7035843344
 20
4.4573173077
 30
0.0
 10
4.7043337912
 20
4.4573173077
 30
0.0
  0
ENDSEC
  0
SECTION
  2
OBJECTS
  0
DICTIONARY
  5
C
100
AcDbDictionary
280
0
281
1
  3
ACAD_GROUP
350
D
  3
ACAD_MLINESTYLE
350
17
  3
ACAD_LAYOUT
350
1A
  3
ACAD_PLOTSETTINGS
350
19
  3
ACAD_PLOTSTYLENAME
350
E
  0
DICTIONARY
  5
D
102
{ACAD_REACTORS
330
C
102
}
100
AcDbDictionary
280
0
281
1
  0
ACDBDICTIONARYWDFLT
  5
E
102
{ACAD_REACTORS
330
C
102
}
100
AcDbDictionary
281
1
  3
Normal
350
F
100
AcDbDictionaryWithDefault
340
F
  0
DICTIONARY
  5
17
102
{ACAD_REACTORS
330
C
102
}
100
AcDbDictionary
280
0
281
1
  3
Standard
350
18
  0
DICTIONARY
  5
19
102
{ACAD_REACTORS
330
C
102
}
100
AcDbDictionary
281
1
  0
DICTIONARY
  5
1A
102
{ACAD_REACTORS
330
C
102
}
100
AcDbDictionary
281
1
  3
Model
350
2E6
  3
Layout1
350
2E7
  0
ACDBPLACEHOLDER
  5
F
102
{ACAD_REACTORS
330
E
102
}
  0
MLINESTYLE
  5
18
102
{ACAD_REACTORS
330
17
102
}
100
AcDbMlineStyle
  2
STANDARD
 70
0
  3

 62
256
 51
90.0
 52
90.0
 71
2
 49
0.5
 62
256
  6
BYLAYER
 49
-0.5
 62
256
  6
BYLAYER
  0
LAYOUT
  5
2E6
102
{ACAD_REACTORS
330
1A
102
}
100
AcDbPlotSettings
  1

  2
none_device
  4
ANSI_A_(11.00_x_8.50_Inches)
  6

 40
0.0
 41
0.0
 42
0.0
 43
0.0
 44
279.4
 45
215.9
 46
0.0
 47
0.0
 48
0.0
 49
0.0
140
0.0
141
0.0
142
1.0
143
1.0
 70
1024
 72
0
 73
0
 74
0
  7

 75
0
147
1.0
148
0.0
149
0.0
100
AcDbLayout
  1
Model
 70
0
 71
0
 10
0.0
 20
0.0
 11
11.0
 21
8.5
 12
0.0
 22
0.0
 32
0.0
 14
0.0
 24
0.0
 34
0.0
 15
0.0
 25
0.0
 35
0.0
146
0.0
 13
0.0
 23
0.0
 33
0.0
 16
1.0
 26
0.0
 36
0.0
 17
0.0
 27
1.0
 37
0.0
 76
0
330
203
345
0
346
0
  0
LAYOUT
  5
2E7
102
{ACAD_REACTORS
330
1A
102
}
100
AcDbPlotSettings
  1

  2
none_device
  4
ANSI_A_(11.00_x_8.50_Inches)
  6

 40
0.0
 41
0.0
 42
0.0
 43
0.0
 44
279.4
 45
215.9
 46
0.0
 47
0.0
 48
0.0
 49
0.0
140
0.0
141
0.0
142
1.0
143
1.0
 70
0
 72
0
 73
0
 74
0
  7

 75
0
147
1.0
148
0.0
149
0.0
100
AcDbLayout
  1
Layout1
 70
0
 71
1
 10
0.0
 20
0.0
 11
11.0
 21
8.5
 12
0.0
 22
0.0
 32
0.0
 14
0.0
 24
0.0
 34
0.0
 15
0.0
 25
0.0
 35
0.0
146
0.0
 13
0.0
 23
0.0
 33
0.0
 16
1.0
 26
0.0
 36
0.0
 17
0.0
 27
1.0
 37
0.0
 76
0
330
204
345
0
346
0
  0
ENDSEC
  0
EOF
