999
DXF file: 3230-1250_Front.dxf
999
Pro/ENGINEER 2023134 by Parametric Technology Corporation
  0
SECTION
  2
HEADER
  9
$ACADVER
  1
AC1032
  9
$DWGCODEPAGE
  3
ANSI_1252
  9
$EXTMAX
 10
11.0
 20
8.5
 30
0.0
  9
$EXTMIN
 10
0.0
 20
0.0
 30
0.0
  9
$LIMMIN
 10
0.0
 20
0.0
  9
$LIMMAX
 10
11.0
 20
8.5
  9
$VIEWCTR
 10
5.5
 20
4.25
  9
$VIEWSIZE
 40
8.5
  9
$CLAYER
  8
0
  9
$LTSCALE
 40
0.605
  9
$CELTYPE
  6
BYLAYER
  9
$DIMSCALE
 40
1.0
  9
$DIMASZ
 40
0.1
  9
$DIMEXO
 40
0.0625
  9
$DIMDLI
 40
0.418
  9
$DIMEXE
 40
0.125
  9
$DIMCEN
 40
0.099
  9
$DIMLFAC
 40
1.0
  9
$DIMBLK
  1
_FILLED
  9
$DIMALT
 70
1
  9
$DIMALTD
 70
2
  9
$DIMALTTD
 70
2
  9
$DIMALTF
 40
25.4
  9
$DIMTXT
 40
0.08
  9
$DIMTOL
 70
1
  9
$DIMLIM
 70
0
  9
$DIMTFAC
 40
1.0
  9
$DIMTP
 40
0.001
  9
$DIMTM
 40
0.001
  9
$DIMGAP
 40
0.09
  9
$DIMDSEP
 70
46
  9
$AUNITS
 70
0
  9
$PDMODE
 70
3
  9
$PDSIZE
 40
0.3125
  9
$HANDSEED
  5
39B
  9
$TILEMODE
 70
1
  9
$MEASUREMENT
 70
0
  9
$INSUNITS
 70
1
  0
ENDSEC
  0
SECTION
  2
CLASSES
  0
CLASS
  1
ACDBDICTIONARYWDFLT
  2
AcDbDictionaryWithDefault
  3
AutoCAD 2000
 90
0
 91
1
280
0
281
0
  0
CLASS
  1
ACDBPLACEHOLDER
  2
AcDbPlaceHolder
  3
AutoCAD 2000
 90
0
 91
1
280
0
281
0
  0
CLASS
  1
LAYOUT
  2
AcDbLayout
  3
AutoCAD 2000
 90
0
 91
0
280
0
281
0
  0
ENDSEC
  0
SECTION
  2
TABLES
  0
TABLE
  2
VPORT
  5
8
100
AcDbSymbolTable
 70
2
  0
VPORT
  5
1F4
100
AcDbSymbolTableRecord
100
AcDbViewportTableRecord
  2
*ACTIVE
 70
0
 10
0.0
 20
0.0
 11
1.0
 21
1.0
 12
5.5
 22
4.25
 13
0.0
 23
0.0
 14
1.0
 24
1.0
 15
0.0
 25
0.0
 16
0.0
 26
0.0
 36
1.0
 17
0.0
 27
0.0
 37
0.0
 40
8.5
 41
1.2941176471
 42
50.0
 43
0.0
 44
0.0
 50
0.0
 51
0.0
 71
0
 72
100
 73
1
 74
1
 75
0
 76
0
 77
0
 78
0
  0
ENDTAB
  0
TABLE
  2
LTYPE
  5
5
100
AcDbSymbolTable
 70
6
  0
LTYPE
  5
14
100
AcDbSymbolTableRecord
100
AcDbLinetypeTableRecord
  2
BYBLOCK
 70
0
  3

 72
65
 73
0
 40
0.0
  0
LTYPE
  5
15
100
AcDbSymbolTableRecord
100
AcDbLinetypeTableRecord
  2
BYLAYER
 70
0
  3

 72
65
 73
0
 40
0.0
  0
LTYPE
  5
16
100
AcDbSymbolTableRecord
100
AcDbLinetypeTableRecord
  2
CONTINUOUS
 70
64
  3
Solid line
 72
65
 73
0
 40
0.0
  0
LTYPE
  5
1F5
100
AcDbSymbolTableRecord
100
AcDbLinetypeTableRecord
  2
CENTER
 70
64
  3
____ _ ____ _ ____ _ ____ _ ____ _ ____ _ ____
 72
65
 73
4
 40
0.6
 49
0.375
 74
0
 49
-0.075
 74
0
 49
0.075
 74
0
 49
-0.075
 74
0
  0
LTYPE
  5
1F6
100
AcDbSymbolTableRecord
100
AcDbLinetypeTableRecord
  2
HIDDEN
 70
64
  3
- - - - - - - - - - - - - - - - - - - -
 72
65
 73
2
 40
0.2
 49
0.1
 74
0
 49
-0.1
 74
0
  0
LTYPE
  5
1F7
100
AcDbSymbolTableRecord
100
AcDbLinetypeTableRecord
  2
PHANTOM
 70
64
  3
_____ _ _ _____ _ _ _____ _ _ _____
 72
65
 73
6
 40
0.8
 49
0.45
 74
0
 49
-0.05
 74
0
 49
0.1
 74
0
 49
-0.05
 74
0
 49
0.1
 74
0
 49
-0.05
 74
0
  0
LTYPE
  5
1F8
100
AcDbSymbolTableRecord
100
AcDbLinetypeTableRecord
  2
DOT
 70
64
  3
. . . . . . . . . . . . . . . . . . . .
 72
65
 73
2
 40
0.2
 49
0.1
 74
0
 49
-0.1
 74
0
  0
LTYPE
  5
1F9
100
AcDbSymbolTableRecord
100
AcDbLinetypeTableRecord
  2
DASHED
 70
64
  3
- - - - - - - - - - - - - - - - - - - -
 72
65
 73
2
 40
0.2
 49
0.1
 74
0
 49
-0.1
 74
0
  0
ENDTAB
  0
TABLE
  2
LAYER
  5
2
100
AcDbSymbolTable
 70
36
  0
LAYER
  5
10
100
AcDbSymbolTableRecord
100
AcDbLayerTableRecord
  2
0
 70
0
 62
7
  6
CONTINUOUS
370
-3
390
F
  0
LAYER
  5
1FA
100
AcDbSymbolTableRecord
100
AcDbLayerTableRecord
  2
DEFAULT_1
 70
0
 62
7
  6
CENTER
370
-3
390
F
  0
LAYER
  5
1FB
100
AcDbSymbolTableRecord
100
AcDbLayerTableRecord
  2
DEFAULT_2
 70
0
 62
8
  6
HIDDEN
370
-3
390
F
  0
LAYER
  5
1FC
100
AcDbSymbolTableRecord
100
AcDbLayerTableRecord
  2
DEFAULT_3
 70
0
 62
7
  6
PHANTOM
370
-3
390
F
  0
LAYER
  5
1FD
100
AcDbSymbolTableRecord
100
AcDbLayerTableRecord
  2
DEFAULT_COORDINATE_SYSTEM
 70
0
 62
7
  6
CONTINUOUS
370
-3
390
F
  0
LAYER
  5
1FE
100
AcDbSymbolTableRecord
100
AcDbLayerTableRecord
  2
DEFAULT_DATUM_AXES
 70
0
 62
7
  6
CONTINUOUS
370
-3
390
F
  0
LAYER
  5
1FF
100
AcDbSymbolTableRecord
100
AcDbLayerTableRecord
  2
DEFAULT_DATUM_CURVES
 70
0
 62
7
  6
CONTINUOUS
370
-3
390
F
  0
LAYER
  5
200
100
AcDbSymbolTableRecord
100
AcDbLayerTableRecord
  2
DEFAULT_DATUM_PLANES
 70
0
 62
7
  6
CONTINUOUS
370
-3
390
F
  0
ENDTAB
  0
TABLE
  2
STYLE
  5
3
100
AcDbSymbolTable
 70
1
  0
STYLE
  5
11
100
AcDbSymbolTableRecord
100
AcDbTextStyleTableRecord
  2
STANDARD
 70
0
 40
0.0
 41
0.8
 50
0.0
 71
0
 42
0.2
  3
txt
  4

  0
STYLE
  5
201
100
AcDbSymbolTableRecord
100
AcDbTextStyleTableRecord
  2
TEXTSTYLE_1
 70
0
 40
0.0
 41
0.8
 50
0.0
 71
0
 42
0.2
  3
gdt
  4

  0
ENDTAB
  0
TABLE
  2
VIEW
  5
6
100
AcDbSymbolTable
 70
0
  0
ENDTAB
  0
TABLE
  2
UCS
  5
7
100
AcDbSymbolTable
 70
0
  0
ENDTAB
  0
TABLE
  2
APPID
  5
9
100
AcDbSymbolTable
 70
1
  0
APPID
  5
202
100
AcDbSymbolTableRecord
100
AcDbRegAppTableRecord
  2
ACAD
 70
0
  0
ENDTAB
  0
TABLE
  2
BLOCK_RECORD
  5
1
100
AcDbSymbolTable
 70
0
  0
BLOCK_RECORD
  5
203
100
AcDbSymbolTableRecord
100
AcDbBlockTableRecord
  2
*Model_Space
  0
BLOCK_RECORD
  5
204
100
AcDbSymbolTableRecord
100
AcDbBlockTableRecord
  2
*Paper_Space
  0
BLOCK_RECORD
  5
205
100
AcDbSymbolTableRecord
100
AcDbBlockTableRecord
  2
_FILLED
  0
ENDTAB
  0
TABLE
  2
DIMSTYLE
  5
A
100
AcDbSymbolTable
 70
1
100
AcDbDimStyleTable
 71
0
  0
DIMSTYLE
105
206
100
AcDbSymbolTableRecord
100
AcDbDimStyleTableRecord
  2
STANDARD
 70
0
  3

  4

 40
1.0
 41
0.1
 42
0.0625
 43
0.38
 44
0.125
 45
0.0
 46
0.0
 47
0.001
 48
0.001
140
0.08
141
0.09
142
0.0
143
25.4
144
1.0
145
0.0
146
1.0
147
0.09
 71
1
 72
0
 73
1
 74
1
 75
0
 76
0
 77
0
 78
4
 79
1
170
1
171
2
172
0
173
0
174
0
175
0
176
0
177
0
178
0
270
2
179
3
271
3
272
3
273
2
274
2
275
0
280
0
281
0
282
0
283
1
284
4
285
0
286
0
287
3
288
0
340
11
278
46
341
205
342
205
343
205
344
205
  0
ENDTAB
  0
ENDSEC
  0
SECTION
  2
BLOCKS
  0
BLOCK
  5
20
100
AcDbEntity
  8
0
100
AcDbBlockBegin
  2
*Model_Space
 70
0
 10
0.0
 20
0.0
 30
0.0
  3
*Model_Space
  1

  0
ENDBLK
  5
21
100
AcDbEntity
  8
0
100
AcDbBlockEnd
  0
BLOCK
  5
1C
100
AcDbEntity
  8
0
100
AcDbBlockBegin
  2
*Paper_Space
 70
0
 10
0.0
 20
0.0
 30
0.0
  3
*Paper_Space
  1

  0
ENDBLK
  5
1D
100
AcDbEntity
  8
0
100
AcDbBlockEnd
  0
BLOCK
  5
207
100
AcDbEntity
  8
0
100
AcDbBlockBegin
  2
_FILLED
 70
64
 10
0.0
 20
0.0
  3
_FILLED
  1

  0
SOLID
  5
208
100
AcDbEntity
  8
0
  6
BYBLOCK
 62
0
100
AcDbTrace
 10
0.0
 20
0.0
 11
-1.0
 21
0.2
 12
-1.0
 22
-0.2
 13
-1.0
 23
-0.2
  0
ENDBLK
  5
209
100
AcDbEntity
  8
0
  6
BYBLOCK
 62
0
100
AcDbBlockEnd
  0
ENDSEC
  0
SECTION
  2
ENTITIES
  0
MTEXT
  5
20A
100
AcDbEntity
  8
0
100
AcDbMText
 62
2
  6
CONTINUOUS
  7
STANDARD
 71
2
 72
1
 10
5.5169986264
 20
3.3821349769
 30
0.0
 11
1.0
 21
0.0
 31
0.0
 73
2
 44
0.9
  1
SCALE 0.300
 40
0.08
 41
0.704
  0
LINE
  5
20B
100
AcDbEntity
  8
0
100
AcDbLine
 62
7
  6
CONTINUOUS
 10
0.0
 20
0.0
 11
0.0
 21
8.5
  0
LINE
  5
20C
100
AcDbEntity
  8
0
100
AcDbLine
 62
7
  6
CONTINUOUS
 10
0.0
 20
0.0
 11
11.0
 21
0.0
  0
LINE
  5
20D
100
AcDbEntity
  8
0
100
AcDbLine
 62
7
  6
CONTINUOUS
 10
0.0
 20
8.5
 11
11.0
 21
8.5
  0
LINE
  5
20E
100
AcDbEntity
  8
0
100
AcDbLine
 62
7
  6
CONTINUOUS
 10
11.0
 20
0.0
 11
11.0
 21
8.5
  0
LINE
  5
20F
100
AcDbEntity
  8
0
100
AcDbLine
 62
7
  6
CONTINUOUS
 10
1.7903671798
 20
4.4374325017
 11
1.7907815392
 21
4.4306611108
  0
LINE
  5
210
100
AcDbEntity
  8
0
100
AcDbLine
 62
7
  6
CONTINUOUS
 10
1.7996556396
 20
4.2500246489
 11
1.7999069878
 21
4.2432452498
  0
LINE
  5
211
100
AcDbEntity
  8
0
100
AcDbLine
 62
7
  6
CONTINUOUS
 10
1.7999069878
 20
4.4494058491
 11
1.7996556396
 21
4.44262645
  0
LINE
  5
212
100
AcDbEntity
  8
0
100
AcDbLine
 62
7
  6
CONTINUOUS
 10
1.7907815392
 20
4.2619899881
 11
1.7903671798
 21
4.2552185972
  0
LINE
  5
213
100
AcDbEntity
  8
0
100
AcDbLine
 62
7
  6
CONTINUOUS
 10
1.8105744522
 20
4.4603864768
 11
1.809659817
 21
4.4536643588
  0
LINE
  5
214
100
AcDbEntity
  8
0
100
AcDbLine
 62
7
  6
CONTINUOUS
 10
1.7831229784
 20
4.2747675248
 11
1.7820469019
 21
4.2680693543
  0
LINE
  5
215
100
AcDbEntity
  8
0
100
AcDbLine
 62
7
  6
CONTINUOUS
 10
1.7820469019
 20
4.4245817446
 11
1.7831229784
 21
4.4178835741
  0
LINE
  5
216
100
AcDbEntity
  8
0
100
AcDbLine
 62
7
  6
CONTINUOUS
 10
1.809659817
 20
4.2389867401
 11
1.8105744522
 21
4.2322646221
  0
LINE
  5
217
100
AcDbEntity
  8
0
100
AcDbLine
 62
7
  6
CONTINUOUS
 10
2.0436300729
 20
4.2552185972
 11
2.0432157135
 21
4.2619899881
  0
LINE
  5
218
100
AcDbEntity
  8
0
100
AcDbLine
 62
7
  6
CONTINUOUS
 10
2.0343416132
 20
4.44262645
 11
2.034090265
 21
4.4494058491
  0
LINE
  5
219
100
AcDbEntity
  8
0
100
AcDbLine
 62
7
  6
CONTINUOUS
 10
2.034090265
 20
4.2432452498
 11
2.0343416132
 21
4.2500246489
  0
LINE
  5
21A
100
AcDbEntity
  8
0
100
AcDbLine
 62
7
  6
CONTINUOUS
 10
2.0432157135
 20
4.4306611108
 11
2.0436300729
 21
4.4374325017
  0
LINE
  5
21B
100
AcDbEntity
  8
0
100
AcDbLine
 62
7
  6
CONTINUOUS
 10
2.0234228005
 20
4.2322646221
 11
2.0243374358
 21
4.2389867401
  0
LINE
  5
21C
100
AcDbEntity
  8
0
100
AcDbLine
 62
7
  6
CONTINUOUS
 10
2.0508742743
 20
4.4178835741
 11
2.0519503508
 21
4.4245817446
  0
LINE
  5
21D
100
AcDbEntity
  8
0
100
AcDbLine
 62
7
  6
CONTINUOUS
 10
1.8222668396
 20
4.4702686355
 11
1.8206977258
 21
4.4636685363
  0
LINE
  5
21E
100
AcDbEntity
  8
0
100
AcDbLine
 62
7
  6
CONTINUOUS
 10
1.7767537133
 20
4.2882342044
 11
1.7750262829
 21
4.2816737614
  0
LINE
  5
21F
100
AcDbEntity
  8
0
100
AcDbLine
 62
7
  6
CONTINUOUS
 10
1.8348715459
 20
4.4789571545
 11
1.832663065
 21
4.4725426366
  0
LINE
  5
220
100
AcDbEntity
  8
0
100
AcDbLine
 62
7
  6
CONTINUOUS
 10
1.7717350834
 20
4.3022603354
 11
1.7693729352
 21
4.2959008006
  0
LINE
  5
221
100
AcDbEntity
  8
0
100
AcDbLine
 62
7
  6
CONTINUOUS
 10
1.8482671809
 20
4.4863683586
 11
1.8454406017
 21
4.4802011974
  0
LINE
  5
222
100
AcDbEntity
  8
0
100
AcDbLine
 62
7
  6
CONTINUOUS
 10
1.8454406017
 20
4.2124499015
 11
1.8482671809
 21
4.2062827403
  0
LINE
  5
223
100
AcDbEntity
  8
0
100
AcDbLine
 62
7
  6
CONTINUOUS
 10
1.7693729352
 20
4.3967502983
 11
1.7717350834
 21
4.3903907635
  0
LINE
  5
224
100
AcDbEntity
  8
0
100
AcDbLine
 62
7
  6
CONTINUOUS
 10
1.832663065
 20
4.2201084623
 11
1.8348715459
 21
4.2136939444
  0
LINE
  5
225
100
AcDbEntity
  8
0
100
AcDbLine
 62
7
  6
CONTINUOUS
 10
1.7750262829
 20
4.4109773375
 11
1.7767537133
 21
4.4044168945
  0
LINE
  5
226
100
AcDbEntity
  8
0
100
AcDbLine
 62
7
  6
CONTINUOUS
 10
1.8206977258
 20
4.2289825626
 11
1.8222668396
 21
4.2223824634
  0
LINE
  5
227
100
AcDbEntity
  8
0
100
AcDbLine
 62
7
  6
CONTINUOUS
 10
2.0519503508
 20
4.2680693543
 11
2.0508742743
 21
4.2747675248
  0
LINE
  5
228
100
AcDbEntity
  8
0
100
AcDbLine
 62
7
  6
CONTINUOUS
 10
2.0243374358
 20
4.4536643588
 11
2.0234228005
 21
4.4603864768
  0
LINE
  5
229
100
AcDbEntity
  8
0
100
AcDbLine
 62
7
  6
CONTINUOUS
 10
2.0117304131
 20
4.2223824634
 11
2.0132995269
 21
4.2289825626
  0
LINE
  5
22A
100
AcDbEntity
  8
0
100
AcDbLine
 62
7
  6
CONTINUOUS
 10
2.0572435394
 20
4.4044168945
 11
2.0589709698
 21
4.4109773375
  0
LINE
  5
22B
100
AcDbEntity
  8
0
100
AcDbLine
 62
7
  6
CONTINUOUS
 10
1.9991257068
 20
4.2136939444
 11
2.0013341877
 21
4.2201084623
  0
LINE
  5
22C
100
AcDbEntity
  8
0
100
AcDbLine
 62
7
  6
CONTINUOUS
 10
2.0622621693
 20
4.3903907635
 11
2.0646243176
 21
4.3967502983
  0
LINE
  5
22D
100
AcDbEntity
  8
0
100
AcDbLine
 62
7
  6
CONTINUOUS
 10
1.9857300718
 20
4.2062827403
 11
1.988556651
 21
4.2124499015
  0
LINE
  5
22E
100
AcDbEntity
  8
0
100
AcDbLine
 62
7
  6
CONTINUOUS
 10
1.7681154208
 20
4.3167108386
 11
1.7651413035
 21
4.3106134576
  0
LINE
  5
22F
100
AcDbEntity
  8
0
100
AcDbLine
 62
7
  6
CONTINUOUS
 10
1.8623247373
 20
4.492430874
 11
1.8589072813
 21
4.4865704625
  0
LINE
  5
230
100
AcDbEntity
  8
0
100
AcDbLine
 62
7
  6
CONTINUOUS
 10
1.7659295849
 20
4.3314465475
 11
1.7623721409
 21
4.3256700416
  0
LINE
  5
231
100
AcDbEntity
  8
0
100
AcDbLine
 62
7
  6
CONTINUOUS
 10
1.7623721409
 20
4.3669810573
 11
1.7659295849
 21
4.3612045514
  0
LINE
  5
232
100
AcDbEntity
  8
0
100
AcDbLine
 62
7
  6
CONTINUOUS
 10
1.8589072813
 20
4.2060806364
 11
1.8623247373
 21
4.2002202249
  0
LINE
  5
233
100
AcDbEntity
  8
0
100
AcDbLine
 62
7
  6
CONTINUOUS
 10
1.7651413035
 20
4.3820376413
 11
1.7681154208
 21
4.3759402603
  0
LINE
  5
234
100
AcDbEntity
  8
0
100
AcDbLine
 62
7
  6
CONTINUOUS
 10
1.988556651
 20
4.4802011974
 11
1.9857300718
 21
4.4863683586
  0
LINE
  5
235
100
AcDbEntity
  8
0
100
AcDbLine
 62
7
  6
CONTINUOUS
 10
2.0646243176
 20
4.2959008006
 11
2.0622621693
 21
4.3022603354
  0
LINE
  5
236
100
AcDbEntity
  8
0
100
AcDbLine
 62
7
  6
CONTINUOUS
 10
2.0013341877
 20
4.4725426366
 11
1.9991257068
 21
4.4789571545
  0
LINE
  5
237
100
AcDbEntity
  8
0
100
AcDbLine
 62
7
  6
CONTINUOUS
 10
2.0589709698
 20
4.2816737614
 11
2.0572435394
 21
4.2882342044
  0
LINE
  5
238
100
AcDbEntity
  8
0
100
AcDbLine
 62
7
  6
CONTINUOUS
 10
2.0132995269
 20
4.4636685363
 11
2.0117304131
 21
4.4702686355
  0
LINE
  5
239
100
AcDbEntity
  8
0
100
AcDbLine
 62
7
  6
CONTINUOUS
 10
2.0658818319
 20
4.3759402603
 11
2.0688559492
 21
4.3820376413
  0
LINE
  5
23A
100
AcDbEntity
  8
0
100
AcDbLine
 62
7
  6
CONTINUOUS
 10
1.9716725154
 20
4.2002202249
 11
1.9750899714
 21
4.2060806364
  0
LINE
  5
23B
100
AcDbEntity
  8
0
100
AcDbLine
 62
7
  6
CONTINUOUS
 10
2.0680676679
 20
4.3612045514
 11
2.0716251118
 21
4.3669810573
  0
LINE
  5
23C
100
AcDbEntity
  8
0
100
AcDbLine
 62
7
  6
CONTINUOUS
 10
1.8769088331
 20
4.4970863152
 11
1.8729334124
 21
4.4915890924
  0
LINE
  5
23D
100
AcDbEntity
  8
0
100
AcDbLine
 62
7
  6
CONTINUOUS
 10
1.7651986264
 20
4.3463255495
 11
1.7610921159
 21
4.3409255495
  0
LINE
  5
23E
100
AcDbEntity
  8
0
100
AcDbLine
 62
7
  6
CONTINUOUS
 10
1.7610921159
 20
4.3517255495
 11
1.7651986264
 21
4.3463255495
  0
LINE
  5
23F
100
AcDbEntity
  8
0
100
AcDbLine
 62
7
  6
CONTINUOUS
 10
1.8729334124
 20
4.2010620065
 11
1.8769088331
 21
4.1955647837
  0
LINE
  5
240
100
AcDbEntity
  8
0
100
AcDbLine
 62
7
  6
CONTINUOUS
 10
2.0716251118
 20
4.3256700416
 11
2.0680676679
 21
4.3314465475
  0
LINE
  5
241
100
AcDbEntity
  8
0
100
AcDbLine
 62
7
  6
CONTINUOUS
 10
1.9750899714
 20
4.4865704625
 11
1.9716725154
 21
4.492430874
  0
LINE
  5
242
100
AcDbEntity
  8
0
100
AcDbLine
 62
7
  6
CONTINUOUS
 10
2.0688559492
 20
4.3106134576
 11
2.0658818319
 21
4.3167108386
  0
LINE
  5
243
100
AcDbEntity
  8
0
100
AcDbLine
 62
7
  6
CONTINUOUS
 10
1.9570884196
 20
4.1955647837
 11
1.9610638404
 21
4.2010620065
  0
LINE
  5
244
100
AcDbEntity
  8
0
100
AcDbLine
 62
7
  6
CONTINUOUS
 10
2.0687986264
 20
4.3463255495
 11
2.0729051368
 21
4.3517255495
  0
LINE
  5
245
100
AcDbEntity
  8
0
100
AcDbLine
 62
7
  6
CONTINUOUS
 10
1.8918790156
 20
4.5002898478
 11
1.8873839155
 21
4.495208755
  0
LINE
  5
246
100
AcDbEntity
  8
0
100
AcDbLine
 62
7
  6
CONTINUOUS
 10
1.7659295849
 20
4.3612045514
 11
1.7613135558
 21
4.3562330622
  0
LINE
  5
247
100
AcDbEntity
  8
0
100
AcDbLine
 62
7
  6
CONTINUOUS
 10
1.7613135558
 20
4.3364180367
 11
1.7659295849
 21
4.3314465475
  0
LINE
  5
248
100
AcDbEntity
  8
0
100
AcDbLine
 62
7
  6
CONTINUOUS
 10
1.8873839155
 20
4.1974423439
 11
1.8918790156
 21
4.1923612511
  0
LINE
  5
249
100
AcDbEntity
  8
0
100
AcDbLine
 62
7
  6
CONTINUOUS
 10
2.0729051368
 20
4.3409255495
 11
2.0687986264
 21
4.3463255495
  0
LINE
  5
24A
100
AcDbEntity
  8
0
100
AcDbLine
 62
7
  6
CONTINUOUS
 10
1.9610638404
 20
4.4915890924
 11
1.9570884196
 21
4.4970863152
  0
LINE
  5
24B
100
AcDbEntity
  8
0
100
AcDbLine
 62
7
  6
CONTINUOUS
 10
1.9421182372
 20
4.1923612511
 11
1.9466133373
 21
4.1974423439
  0
LINE
  5
24C
100
AcDbEntity
  8
0
100
AcDbLine
 62
7
  6
CONTINUOUS
 10
2.0680676679
 20
4.3314465475
 11
2.0726836969
 21
4.3364180367
  0
LINE
  5
24D
100
AcDbEntity
  8
0
100
AcDbLine
 62
7
  6
CONTINUOUS
 10
1.9070911136
 20
4.50201062
 11
1.9021196245
 21
4.497394591
  0
LINE
  5
24E
100
AcDbEntity
  8
0
100
AcDbLine
 62
7
  6
CONTINUOUS
 10
1.7681154208
 20
4.3759402603
 11
1.7630343281
 21
4.3714451603
  0
LINE
  5
24F
100
AcDbEntity
  8
0
100
AcDbLine
 62
7
  6
CONTINUOUS
 10
1.7630343281
 20
4.3212059386
 11
1.7681154208
 21
4.3167108386
  0
LINE
  5
250
100
AcDbEntity
  8
0
100
AcDbLine
 62
7
  6
CONTINUOUS
 10
1.9021196245
 20
4.1952565079
 11
1.9070911136
 21
4.1906404789
  0
LINE
  5
251
100
AcDbEntity
  8
0
100
AcDbLine
 62
7
  6
CONTINUOUS
 10
2.0726836969
 20
4.3562330622
 11
2.0680676679
 21
4.3612045514
  0
LINE
  5
252
100
AcDbEntity
  8
0
100
AcDbLine
 62
7
  6
CONTINUOUS
 10
1.9466133373
 20
4.495208755
 11
1.9421182372
 21
4.5002898478
  0
LINE
  5
253
100
AcDbEntity
  8
0
100
AcDbLine
 62
7
  6
CONTINUOUS
 10
1.9269061392
 20
4.1906404789
 11
1.9318776283
 21
4.1952565079
  0
LINE
  5
254
100
AcDbEntity
  8
0
100
AcDbLine
 62
7
  6
CONTINUOUS
 10
2.0658818319
 20
4.3167108386
 11
2.0709629247
 21
4.3212059386
  0
LINE
  5
255
100
AcDbEntity
  8
0
100
AcDbLine
 62
7
  6
CONTINUOUS
 10
1.9223986264
 20
4.5022320599
 11
1.9169986264
 21
4.4981255495
  0
LINE
  5
256
100
AcDbEntity
  8
0
100
AcDbLine
 62
7
  6
CONTINUOUS
 10
1.7717350834
 20
4.3903907635
 11
1.7662378607
 21
4.3864153427
  0
LINE
  5
257
100
AcDbEntity
  8
0
100
AcDbLine
 62
7
  6
CONTINUOUS
 10
1.7662378607
 20
4.3062357562
 11
1.7717350834
 21
4.3022603354
  0
LINE
  5
258
100
AcDbEntity
  8
0
100
AcDbLine
 62
7
  6
CONTINUOUS
 10
1.9169986264
 20
4.1945255495
 11
1.9223986264
 21
4.190419039
  0
LINE
  5
259
100
AcDbEntity
  8
0
100
AcDbLine
 62
7
  6
CONTINUOUS
 10
2.0709629247
 20
4.3714451603
 11
2.0658818319
 21
4.3759402603
  0
LINE
  5
25A
100
AcDbEntity
  8
0
100
AcDbLine
 62
7
  6
CONTINUOUS
 10
1.9318776283
 20
4.497394591
 11
1.9269061392
 21
4.50201062
  0
LINE
  5
25B
100
AcDbEntity
  8
0
100
AcDbLine
 62
7
  6
CONTINUOUS
 10
1.9115986264
 20
4.190419039
 11
1.9169986264
 21
4.1945255495
  0
LINE
  5
25C
100
AcDbEntity
  8
0
100
AcDbLine
 62
7
  6
CONTINUOUS
 10
2.0622621693
 20
4.3022603354
 11
2.0677593921
 21
4.3062357562
  0
LINE
  5
25D
100
AcDbEntity
  8
0
100
AcDbLine
 62
7
  6
CONTINUOUS
 10
1.9376541342
 20
4.5009520349
 11
1.9318776283
 21
4.497394591
  0
LINE
  5
25E
100
AcDbEntity
  8
0
100
AcDbLine
 62
7
  6
CONTINUOUS
 10
1.7767537133
 20
4.4044168945
 11
1.7708933019
 21
4.4009994385
  0
LINE
  5
25F
100
AcDbEntity
  8
0
100
AcDbLine
 62
7
  6
CONTINUOUS
 10
1.7708933019
 20
4.2916516604
 11
1.7767537133
 21
4.2882342044
  0
LINE
  5
260
100
AcDbEntity
  8
0
100
AcDbLine
 62
7
  6
CONTINUOUS
 10
1.9318776283
 20
4.1952565079
 11
1.9376541342
 21
4.191699064
  0
LINE
  5
261
100
AcDbEntity
  8
0
100
AcDbLine
 62
7
  6
CONTINUOUS
 10
2.0677593921
 20
4.3864153427
 11
2.0622621693
 21
4.3903907635
  0
LINE
  5
262
100
AcDbEntity
  8
0
100
AcDbLine
 62
7
  6
CONTINUOUS
 10
1.9169986264
 20
4.4981255495
 11
1.9115986264
 21
4.5022320599
  0
LINE
  5
263
100
AcDbEntity
  8
0
100
AcDbLine
 62
7
  6
CONTINUOUS
 10
1.8963431185
 20
4.191699064
 11
1.9021196245
 21
4.1952565079
  0
LINE
  5
264
100
AcDbEntity
  8
0
100
AcDbLine
 62
7
  6
CONTINUOUS
 10
2.0572435394
 20
4.2882342044
 11
2.0631039509
 21
4.2916516604
  0
LINE
  5
265
100
AcDbEntity
  8
0
100
AcDbLine
 62
7
  6
CONTINUOUS
 10
1.9527107182
 20
4.4981828723
 11
1.9466133373
 21
4.495208755
  0
LINE
  5
266
100
AcDbEntity
  8
0
100
AcDbLine
 62
7
  6
CONTINUOUS
 10
1.7831229784
 20
4.4178835741
 11
1.7769558172
 21
4.4150569949
  0
LINE
  5
267
100
AcDbEntity
  8
0
100
AcDbLine
 62
7
  6
CONTINUOUS
 10
1.7769558172
 20
4.277594104
 11
1.7831229784
 21
4.2747675248
  0
LINE
  5
268
100
AcDbEntity
  8
0
100
AcDbLine
 62
7
  6
CONTINUOUS
 10
1.9466133373
 20
4.1974423439
 11
1.9527107182
 21
4.1944682266
  0
LINE
  5
269
100
AcDbEntity
  8
0
100
AcDbLine
 62
7
  6
CONTINUOUS
 10
2.0631039509
 20
4.4009994385
 11
2.0572435394
 21
4.4044168945
  0
LINE
  5
26A
100
AcDbEntity
  8
0
100
AcDbLine
 62
7
  6
CONTINUOUS
 10
1.9021196245
 20
4.497394591
 11
1.8963431185
 21
4.5009520349
  0
LINE
  5
26B
100
AcDbEntity
  8
0
100
AcDbLine
 62
7
  6
CONTINUOUS
 10
1.8812865345
 20
4.1944682266
 11
1.8873839155
 21
4.1974423439
  0
LINE
  5
26C
100
AcDbEntity
  8
0
100
AcDbLine
 62
7
  6
CONTINUOUS
 10
2.0508742743
 20
4.2747675248
 11
2.0570414356
 21
4.277594104
  0
LINE
  5
26D
100
AcDbEntity
  8
0
100
AcDbLine
 62
7
  6
CONTINUOUS
 10
1.9674233753
 20
4.4939512406
 11
1.9610638404
 21
4.4915890924
  0
LINE
  5
26E
100
AcDbEntity
  8
0
100
AcDbLine
 62
7
  6
CONTINUOUS
 10
1.7907815392
 20
4.4306611108
 11
1.7843670213
 21
4.4284526299
  0
LINE
  5
26F
100
AcDbEntity
  8
0
100
AcDbLine
 62
7
  6
CONTINUOUS
 10
1.7843670213
 20
4.264198469
 11
1.7907815392
 21
4.2619899881
  0
LINE
  5
270
100
AcDbEntity
  8
0
100
AcDbLine
 62
7
  6
CONTINUOUS
 10
1.9610638404
 20
4.2010620065
 11
1.9674233753
 21
4.1986998583
  0
LINE
  5
271
100
AcDbEntity
  8
0
100
AcDbLine
 62
7
  6
CONTINUOUS
 10
2.0570414356
 20
4.4150569949
 11
2.0508742743
 21
4.4178835741
  0
LINE
  5
272
100
AcDbEntity
  8
0
100
AcDbLine
 62
7
  6
CONTINUOUS
 10
1.8873839155
 20
4.495208755
 11
1.8812865345
 21
4.4981828723
  0
LINE
  5
273
100
AcDbEntity
  8
0
100
AcDbLine
 62
7
  6
CONTINUOUS
 10
1.8665738775
 20
4.1986998583
 11
1.8729334124
 21
4.2010620065
  0
LINE
  5
274
100
AcDbEntity
  8
0
100
AcDbLine
 62
7
  6
CONTINUOUS
 10
2.0432157135
 20
4.2619899881
 11
2.0496302314
 21
4.264198469
  0
LINE
  5
275
100
AcDbEntity
  8
0
100
AcDbLine
 62
7
  6
CONTINUOUS
 10
9.0523468384
 20
4.204353206
 11
9.0589072813
 21
4.2060806364
  0
LINE
  5
276
100
AcDbEntity
  8
0
100
AcDbLine
 62
7
  6
CONTINUOUS
 10
1.9750899714
 20
4.2060806364
 11
1.9816504144
 21
4.204353206
  0
LINE
  5
277
100
AcDbEntity
  8
0
100
AcDbLine
 62
7
  6
CONTINUOUS
 10
2.0496302314
 20
4.4284526299
 11
2.0432157135
 21
4.4306611108
  0
LINE
  5
278
100
AcDbEntity
  8
0
100
AcDbLine
 62
7
  6
CONTINUOUS
 10
1.8729334124
 20
4.4915890924
 11
1.8665738775
 21
4.4939512406
  0
LINE
  5
279
100
AcDbEntity
  8
0
100
AcDbLine
 62
7
  6
CONTINUOUS
 10
9.1816504144
 20
4.4882978929
 11
9.1750899714
 21
4.4865704625
  0
LINE
  5
27A
100
AcDbEntity
  8
0
100
AcDbLine
 62
7
  6
CONTINUOUS
 10
9.2343416132
 20
4.2500246489
 11
9.2409417124
 21
4.2515937627
  0
LINE
  5
27B
100
AcDbEntity
  8
0
100
AcDbLine
 62
7
  6
CONTINUOUS
 10
1.7930555403
 20
4.2515937627
 11
1.7996556396
 21
4.2500246489
  0
LINE
  5
27C
100
AcDbEntity
  8
0
100
AcDbLine
 62
7
  6
CONTINUOUS
 10
1.8589072813
 20
4.4865704625
 11
1.8523468384
 21
4.4882978929
  0
LINE
  5
27D
100
AcDbEntity
  8
0
100
AcDbLine
 62
7
  6
CONTINUOUS
 10
8.9996556396
 20
4.44262645
 11
8.9930555403
 21
4.4410573362
  0
LINE
  5
27E
100
AcDbEntity
  8
0
100
AcDbLine
 62
7
  6
CONTINUOUS
 10
9.0387424313
 20
4.211373825
 11
9.0454406017
 21
4.2124499015
  0
LINE
  5
27F
100
AcDbEntity
  8
0
100
AcDbLine
 62
7
  6
CONTINUOUS
 10
9.2243374358
 20
4.2389867401
 11
9.2310595538
 21
4.2399013753
  0
LINE
  5
280
100
AcDbEntity
  8
0
100
AcDbLine
 62
7
  6
CONTINUOUS
 10
1.802937699
 20
4.2399013753
 11
1.809659817
 21
4.2389867401
  0
LINE
  5
281
100
AcDbEntity
  8
0
100
AcDbLine
 62
7
  6
CONTINUOUS
 10
1.988556651
 20
4.2124499015
 11
1.9952548215
 21
4.211373825
  0
LINE
  5
282
100
AcDbEntity
  8
0
100
AcDbLine
 62
7
  6
CONTINUOUS
 10
2.0409417124
 20
4.4410573362
 11
2.0343416132
 21
4.44262645
  0
LINE
  5
283
100
AcDbEntity
  8
0
100
AcDbLine
 62
7
  6
CONTINUOUS
 10
9.1952548215
 20
4.4812772739
 11
9.188556651
 21
4.4802011974
  0
LINE
  5
284
100
AcDbEntity
  8
0
100
AcDbLine
 62
7
  6
CONTINUOUS
 10
9.009659817
 20
4.4536643588
 11
9.002937699
 21
4.4527497236
  0
LINE
  5
285
100
AcDbEntity
  8
0
100
AcDbLine
 62
7
  6
CONTINUOUS
 10
9.0258916741
 20
4.2196941029
 11
9.032663065
 21
4.2201084623
  0
LINE
  5
286
100
AcDbEntity
  8
0
100
AcDbLine
 62
7
  6
CONTINUOUS
 10
9.2132995269
 20
4.2289825626
 11
9.220078926
 21
4.2292339109
  0
LINE
  5
287
100
AcDbEntity
  8
0
100
AcDbLine
 62
7
  6
CONTINUOUS
 10
1.8139183267
 20
4.2292339109
 11
1.8206977258
 21
4.2289825626
  0
LINE
  5
288
100
AcDbEntity
  8
0
100
AcDbLine
 62
7
  6
CONTINUOUS
 10
2.0013341877
 20
4.2201084623
 11
2.0081055786
 21
4.2196941029
  0
LINE
  5
289
100
AcDbEntity
  8
0
100
AcDbLine
 62
7
  6
CONTINUOUS
 10
2.0310595538
 20
4.4527497236
 11
2.0243374358
 21
4.4536643588
  0
LINE
  5
28A
100
AcDbEntity
  8
0
100
AcDbLine
 62
7
  6
CONTINUOUS
 10
1.8454406017
 20
4.4802011974
 11
1.8387424313
 21
4.4812772739
  0
LINE
  5
28B
100
AcDbEntity
  8
0
100
AcDbLine
 62
7
  6
CONTINUOUS
 10
9.2081055786
 20
4.472956996
 11
9.2013341877
 21
4.4725426366
  0
LINE
  5
28C
100
AcDbEntity
  8
0
100
AcDbLine
 62
7
  6
CONTINUOUS
 10
9.0206977258
 20
4.4636685363
 11
9.0139183267
 21
4.463417188
  0
LINE
  5
28D
100
AcDbEntity
  8
0
100
AcDbLine
 62
7
  6
CONTINUOUS
 10
2.0132995269
 20
4.2289825626
 11
2.020078926
 21
4.2292339109
  0
LINE
  5
28E
100
AcDbEntity
  8
0
100
AcDbLine
 62
7
  6
CONTINUOUS
 10
8.992312616
 20
4.2525755495
 11
2.0416846367
 21
4.2525755495
  0
LINE
  5
28F
100
AcDbEntity
  8
0
100
AcDbLine
 62
7
  6
CONTINUOUS
 10
2.020078926
 20
4.463417188
 11
2.0132995269
 21
4.4636685363
  0
LINE
  5
290
100
AcDbEntity
  8
0
100
AcDbLine
 62
7
  6
CONTINUOUS
 10
9.0139183267
 20
4.2292339109
 11
9.0206977258
 21
4.2289825626
  0
LINE
  5
291
100
AcDbEntity
  8
0
100
AcDbLine
 62
7
  6
CONTINUOUS
 10
1.832663065
 20
4.4725426366
 11
1.8258916741
 21
4.472956996
  0
LINE
  5
292
100
AcDbEntity
  8
0
100
AcDbLine
 62
7
  6
CONTINUOUS
 10
1.8258916741
 20
4.2196941029
 11
1.832663065
 21
4.2201084623
  0
LINE
  5
293
100
AcDbEntity
  8
0
100
AcDbLine
 62
7
  6
CONTINUOUS
 10
1.8206977258
 20
4.4636685363
 11
1.8139183267
 21
4.463417188
  0
LINE
  5
294
100
AcDbEntity
  8
0
100
AcDbLine
 62
7
  6
CONTINUOUS
 10
8.992312616
 20
4.4400755495
 11
2.0416846367
 21
4.4400755495
  0
LINE
  5
295
100
AcDbEntity
  8
0
100
AcDbLine
 62
7
  6
CONTINUOUS
 10
9.220078926
 20
4.463417188
 11
9.2132995269
 21
4.4636685363
  0
LINE
  5
296
100
AcDbEntity
  8
0
100
AcDbLine
 62
7
  6
CONTINUOUS
 10
9.2013341877
 20
4.2201084623
 11
9.2081055786
 21
4.2196941029
  0
LINE
  5
297
100
AcDbEntity
  8
0
100
AcDbLine
 62
7
  6
CONTINUOUS
 10
1.8387424313
 20
4.211373825
 11
1.8454406017
 21
4.2124499015
  0
LINE
  5
298
100
AcDbEntity
  8
0
100
AcDbLine
 62
7
  6
CONTINUOUS
 10
2.0243374358
 20
4.2389867401
 11
2.0310595538
 21
4.2399013753
  0
LINE
  5
299
100
AcDbEntity
  8
0
100
AcDbLine
 62
7
  6
CONTINUOUS
 10
2.0081055786
 20
4.472956996
 11
2.0013341877
 21
4.4725426366
  0
LINE
  5
29A
100
AcDbEntity
  8
0
100
AcDbLine
 62
7
  6
CONTINUOUS
 10
9.032663065
 20
4.4725426366
 11
9.0258916741
 21
4.472956996
  0
LINE
  5
29B
100
AcDbEntity
  8
0
100
AcDbLine
 62
7
  6
CONTINUOUS
 10
9.002937699
 20
4.2399013753
 11
9.009659817
 21
4.2389867401
  0
LINE
  5
29C
100
AcDbEntity
  8
0
100
AcDbLine
 62
7
  6
CONTINUOUS
 10
9.188556651
 20
4.2124499015
 11
9.1952548215
 21
4.211373825
  0
LINE
  5
29D
100
AcDbEntity
  8
0
100
AcDbLine
 62
7
  6
CONTINUOUS
 10
1.8523468384
 20
4.204353206
 11
1.8589072813
 21
4.2060806364
  0
LINE
  5
29E
100
AcDbEntity
  8
0
100
AcDbLine
 62
7
  6
CONTINUOUS
 10
2.0343416132
 20
4.2500246489
 11
2.0409417124
 21
4.2515937627
  0
LINE
  5
29F
100
AcDbEntity
  8
0
100
AcDbLine
 62
7
  6
CONTINUOUS
 10
1.9952548215
 20
4.4812772739
 11
1.988556651
 21
4.4802011974
  0
LINE
  5
2A0
100
AcDbEntity
  8
0
100
AcDbLine
 62
7
  6
CONTINUOUS
 10
1.809659817
 20
4.4536643588
 11
1.802937699
 21
4.4527497236
  0
LINE
  5
2A1
100
AcDbEntity
  8
0
100
AcDbLine
 62
7
  6
CONTINUOUS
 10
9.2310595538
 20
4.4527497236
 11
9.2243374358
 21
4.4536643588
  0
LINE
  5
2A2
100
AcDbEntity
  8
0
100
AcDbLine
 62
7
  6
CONTINUOUS
 10
9.0454406017
 20
4.4802011974
 11
9.0387424313
 21
4.4812772739
  0
LINE
  5
2A3
100
AcDbEntity
  8
0
100
AcDbLine
 62
7
  6
CONTINUOUS
 10
8.9930555403
 20
4.2515937627
 11
8.9996556396
 21
4.2500246489
  0
LINE
  5
2A4
100
AcDbEntity
  8
0
100
AcDbLine
 62
7
  6
CONTINUOUS
 10
9.1750899714
 20
4.2060806364
 11
9.1816504144
 21
4.204353206
  0
LINE
  5
2A5
100
AcDbEntity
  8
0
100
AcDbLine
 62
7
  6
CONTINUOUS
 10
8.9907815392
 20
4.4306611108
 11
8.9843670213
 21
4.4284526299
  0
LINE
  5
2A6
100
AcDbEntity
  8
0
100
AcDbLine
 62
7
  6
CONTINUOUS
 10
1.9816504144
 20
4.4882978929
 11
1.9750899714
 21
4.4865704625
  0
LINE
  5
2A7
100
AcDbEntity
  8
0
100
AcDbLine
 62
7
  6
CONTINUOUS
 10
1.7996556396
 20
4.44262645
 11
1.7930555403
 21
4.4410573362
  0
LINE
  5
2A8
100
AcDbEntity
  8
0
100
AcDbLine
 62
7
  6
CONTINUOUS
 10
9.2409417124
 20
4.4410573362
 11
9.2343416132
 21
4.44262645
  0
LINE
  5
2A9
100
AcDbEntity
  8
0
100
AcDbLine
 62
7
  6
CONTINUOUS
 10
9.0589072813
 20
4.4865704625
 11
9.0523468384
 21
4.4882978929
  0
LINE
  5
2AA
100
AcDbEntity
  8
0
100
AcDbLine
 62
7
  6
CONTINUOUS
 10
8.9843670213
 20
4.264198469
 11
8.9907815392
 21
4.2619899881
  0
LINE
  5
2AB
100
AcDbEntity
  8
0
100
AcDbLine
 62
7
  6
CONTINUOUS
 10
9.1674233753
 20
4.4939512406
 11
9.1610638404
 21
4.4915890924
  0
LINE
  5
2AC
100
AcDbEntity
  8
0
100
AcDbLine
 62
7
  6
CONTINUOUS
 10
9.2432157135
 20
4.2619899881
 11
9.2496302314
 21
4.264198469
  0
LINE
  5
2AD
100
AcDbEntity
  8
0
100
AcDbLine
 62
7
  6
CONTINUOUS
 10
9.2496302314
 20
4.4284526299
 11
9.2432157135
 21
4.4306611108
  0
LINE
  5
2AE
100
AcDbEntity
  8
0
100
AcDbLine
 62
7
  6
CONTINUOUS
 10
9.1610638404
 20
4.2010620065
 11
9.1674233753
 21
4.1986998583
  0
LINE
  5
2AF
100
AcDbEntity
  8
0
100
AcDbLine
 62
7
  6
CONTINUOUS
 10
9.1527107182
 20
4.4981828723
 11
9.1466133373
 21
4.495208755
  0
LINE
  5
2B0
100
AcDbEntity
  8
0
100
AcDbLine
 62
7
  6
CONTINUOUS
 10
8.9831229784
 20
4.4178835741
 11
8.9769558172
 21
4.4150569949
  0
LINE
  5
2B1
100
AcDbEntity
  8
0
100
AcDbLine
 62
7
  6
CONTINUOUS
 10
9.0665738775
 20
4.1986998583
 11
9.0729334124
 21
4.2010620065
  0
LINE
  5
2B2
100
AcDbEntity
  8
0
100
AcDbLine
 62
7
  6
CONTINUOUS
 10
9.0729334124
 20
4.4915890924
 11
9.0665738775
 21
4.4939512406
  0
LINE
  5
2B3
100
AcDbEntity
  8
0
100
AcDbLine
 62
7
  6
CONTINUOUS
 10
8.9769558172
 20
4.277594104
 11
8.9831229784
 21
4.2747675248
  0
LINE
  5
2B4
100
AcDbEntity
  8
0
100
AcDbLine
 62
7
  6
CONTINUOUS
 10
9.1466133373
 20
4.1974423439
 11
9.1527107182
 21
4.1944682266
  0
LINE
  5
2B5
100
AcDbEntity
  8
0
100
AcDbLine
 62
7
  6
CONTINUOUS
 10
9.1376541342
 20
4.5009520349
 11
9.1318776283
 21
4.497394591
  0
LINE
  5
2B6
100
AcDbEntity
  8
0
100
AcDbLine
 62
7
  6
CONTINUOUS
 10
8.9767537133
 20
4.4044168945
 11
8.9708933019
 21
4.4009994385
  0
LINE
  5
2B7
100
AcDbEntity
  8
0
100
AcDbLine
 62
7
  6
CONTINUOUS
 10
9.0812865345
 20
4.1944682266
 11
9.0873839155
 21
4.1974423439
  0
LINE
  5
2B8
100
AcDbEntity
  8
0
100
AcDbLine
 62
7
  6
CONTINUOUS
 10
9.2508742743
 20
4.2747675248
 11
9.2570414356
 21
4.277594104
  0
LINE
  5
2B9
100
AcDbEntity
  8
0
100
AcDbLine
 62
7
  6
CONTINUOUS
 10
9.2570414356
 20
4.4150569949
 11
9.2508742743
 21
4.4178835741
  0
LINE
  5
2BA
100
AcDbEntity
  8
0
100
AcDbLine
 62
7
  6
CONTINUOUS
 10
9.0873839155
 20
4.495208755
 11
9.0812865345
 21
4.4981828723
  0
LINE
  5
2BB
100
AcDbEntity
  8
0
100
AcDbLine
 62
7
  6
CONTINUOUS
 10
8.9708933019
 20
4.2916516604
 11
8.9767537133
 21
4.2882342044
  0
LINE
  5
2BC
100
AcDbEntity
  8
0
100
AcDbLine
 62
7
  6
CONTINUOUS
 10
9.1318776283
 20
4.1952565079
 11
9.1376541342
 21
4.191699064
  0
LINE
  5
2BD
100
AcDbEntity
  8
0
100
AcDbLine
 62
7
  6
CONTINUOUS
 10
9.1223986264
 20
4.5022320599
 11
9.1169986264
 21
4.4981255495
  0
LINE
  5
2BE
100
AcDbEntity
  8
0
100
AcDbLine
 62
7
  6
CONTINUOUS
 10
8.9717350834
 20
4.3903907635
 11
8.9662378607
 21
4.3864153427
  0
LINE
  5
2BF
100
AcDbEntity
  8
0
100
AcDbLine
 62
7
  6
CONTINUOUS
 10
9.0963431185
 20
4.191699064
 11
9.1021196245
 21
4.1952565079
  0
LINE
  5
2C0
100
AcDbEntity
  8
0
100
AcDbLine
 62
7
  6
CONTINUOUS
 10
9.2572435394
 20
4.2882342044
 11
9.2631039509
 21
4.2916516604
  0
LINE
  5
2C1
100
AcDbEntity
  8
0
100
AcDbLine
 62
7
  6
CONTINUOUS
 10
9.2631039509
 20
4.4009994385
 11
9.2572435394
 21
4.4044168945
  0
LINE
  5
2C2
100
AcDbEntity
  8
0
100
AcDbLine
 62
7
  6
CONTINUOUS
 10
9.1021196245
 20
4.497394591
 11
9.0963431185
 21
4.5009520349
  0
LINE
  5
2C3
100
AcDbEntity
  8
0
100
AcDbLine
 62
7
  6
CONTINUOUS
 10
8.9662378607
 20
4.3062357562
 11
8.9717350834
 21
4.3022603354
  0
LINE
  5
2C4
100
AcDbEntity
  8
0
100
AcDbLine
 62
7
  6
CONTINUOUS
 10
9.1169986264
 20
4.1945255495
 11
9.1223986264
 21
4.190419039
  0
LINE
  5
2C5
100
AcDbEntity
  8
0
100
AcDbLine
 62
7
  6
CONTINUOUS
 10
9.1070911136
 20
4.50201062
 11
9.1021196245
 21
4.497394591
  0
LINE
  5
2C6
100
AcDbEntity
  8
0
100
AcDbLine
 62
7
  6
CONTINUOUS
 10
8.9681154208
 20
4.3759402603
 11
8.9630343281
 21
4.3714451603
  0
LINE
  5
2C7
100
AcDbEntity
  8
0
100
AcDbLine
 62
7
  6
CONTINUOUS
 10
9.1115986264
 20
4.190419039
 11
9.1169986264
 21
4.1945255495
  0
LINE
  5
2C8
100
AcDbEntity
  8
0
100
AcDbLine
 62
7
  6
CONTINUOUS
 10
9.2622621693
 20
4.3022603354
 11
9.2677593921
 21
4.3062357562
  0
LINE
  5
2C9
100
AcDbEntity
  8
0
100
AcDbLine
 62
7
  6
CONTINUOUS
 10
9.2677593921
 20
4.3864153427
 11
9.2622621693
 21
4.3903907635
  0
LINE
  5
2CA
100
AcDbEntity
  8
0
100
AcDbLine
 62
7
  6
CONTINUOUS
 10
9.1169986264
 20
4.4981255495
 11
9.1115986264
 21
4.5022320599
  0
LINE
  5
2CB
100
AcDbEntity
  8
0
100
AcDbLine
 62
7
  6
CONTINUOUS
 10
8.9630343281
 20
4.3212059386
 11
8.9681154208
 21
4.3167108386
  0
LINE
  5
2CC
100
AcDbEntity
  8
0
100
AcDbLine
 62
7
  6
CONTINUOUS
 10
9.1021196245
 20
4.1952565079
 11
9.1070911136
 21
4.1906404789
  0
LINE
  5
2CD
100
AcDbEntity
  8
0
100
AcDbLine
 62
7
  6
CONTINUOUS
 10
9.0918790156
 20
4.5002898478
 11
9.0873839155
 21
4.495208755
  0
LINE
  5
2CE
100
AcDbEntity
  8
0
100
AcDbLine
 62
7
  6
CONTINUOUS
 10
8.9659295849
 20
4.3612045514
 11
8.9613135558
 21
4.3562330622
  0
LINE
  5
2CF
100
AcDbEntity
  8
0
100
AcDbLine
 62
7
  6
CONTINUOUS
 10
9.1269061392
 20
4.1906404789
 11
9.1318776283
 21
4.1952565079
  0
LINE
  5
2D0
100
AcDbEntity
  8
0
100
AcDbLine
 62
7
  6
CONTINUOUS
 10
9.2658818319
 20
4.3167108386
 11
9.2709629247
 21
4.3212059386
  0
LINE
  5
2D1
100
AcDbEntity
  8
0
100
AcDbLine
 62
7
  6
CONTINUOUS
 10
9.2709629247
 20
4.3714451603
 11
9.2658818319
 21
4.3759402603
  0
LINE
  5
2D2
100
AcDbEntity
  8
0
100
AcDbLine
 62
7
  6
CONTINUOUS
 10
9.1318776283
 20
4.497394591
 11
9.1269061392
 21
4.50201062
  0
LINE
  5
2D3
100
AcDbEntity
  8
0
100
AcDbLine
 62
7
  6
CONTINUOUS
 10
8.9613135558
 20
4.3364180367
 11
8.9659295849
 21
4.3314465475
  0
LINE
  5
2D4
100
AcDbEntity
  8
0
100
AcDbLine
 62
7
  6
CONTINUOUS
 10
9.0873839155
 20
4.1974423439
 11
9.0918790156
 21
4.1923612511
  0
LINE
  5
2D5
100
AcDbEntity
  8
0
100
AcDbLine
 62
7
  6
CONTINUOUS
 10
9.0769088331
 20
4.4970863152
 11
9.0729334124
 21
4.4915890924
  0
LINE
  5
2D6
100
AcDbEntity
  8
0
100
AcDbLine
 62
7
  6
CONTINUOUS
 10
8.9651986264
 20
4.3463255495
 11
8.9610921159
 21
4.3409255495
  0
LINE
  5
2D7
100
AcDbEntity
  8
0
100
AcDbLine
 62
7
  6
CONTINUOUS
 10
9.1421182372
 20
4.1923612511
 11
9.1466133373
 21
4.1974423439
  0
LINE
  5
2D8
100
AcDbEntity
  8
0
100
AcDbLine
 62
7
  6
CONTINUOUS
 10
9.2680676679
 20
4.3314465475
 11
9.2726836969
 21
4.3364180367
  0
LINE
  5
2D9
100
AcDbEntity
  8
0
100
AcDbLine
 62
7
  6
CONTINUOUS
 10
9.2726836969
 20
4.3562330622
 11
9.2680676679
 21
4.3612045514
  0
LINE
  5
2DA
100
AcDbEntity
  8
0
100
AcDbLine
 62
7
  6
CONTINUOUS
 10
9.1466133373
 20
4.495208755
 11
9.1421182372
 21
4.5002898478
  0
LINE
  5
2DB
100
AcDbEntity
  8
0
100
AcDbLine
 62
7
  6
CONTINUOUS
 10
8.9610921159
 20
4.3517255495
 11
8.9651986264
 21
4.3463255495
  0
LINE
  5
2DC
100
AcDbEntity
  8
0
100
AcDbLine
 62
7
  6
CONTINUOUS
 10
9.0729334124
 20
4.2010620065
 11
9.0769088331
 21
4.1955647837
  0
LINE
  5
2DD
100
AcDbEntity
  8
0
100
AcDbLine
 62
7
  6
CONTINUOUS
 10
9.0482671809
 20
4.4863683586
 11
9.0454406017
 21
4.4802011974
  0
LINE
  5
2DE
100
AcDbEntity
  8
0
100
AcDbLine
 62
7
  6
CONTINUOUS
 10
8.9681154208
 20
4.3167108386
 11
8.9651413035
 21
4.3106134576
  0
LINE
  5
2DF
100
AcDbEntity
  8
0
100
AcDbLine
 62
7
  6
CONTINUOUS
 10
9.0623247373
 20
4.492430874
 11
9.0589072813
 21
4.4865704625
  0
LINE
  5
2E0
100
AcDbEntity
  8
0
100
AcDbLine
 62
7
  6
CONTINUOUS
 10
8.9659295849
 20
4.3314465475
 11
8.9623721409
 21
4.3256700416
  0
LINE
  5
2E1
100
AcDbEntity
  8
0
100
AcDbLine
 62
7
  6
CONTINUOUS
 10
9.2680676679
 20
4.3612045514
 11
9.2716251118
 21
4.3669810573
  0
LINE
  5
2E2
100
AcDbEntity
  8
0
100
AcDbLine
 62
7
  6
CONTINUOUS
 10
9.1570884196
 20
4.1955647837
 11
9.1610638404
 21
4.2010620065
  0
LINE
  5
2E3
100
AcDbEntity
  8
0
100
AcDbLine
 62
7
  6
CONTINUOUS
 10
9.2687986264
 20
4.3463255495
 11
9.2729051368
 21
4.3517255495
  0
LINE
  5
2E4
100
AcDbEntity
  8
0
100
AcDbLine
 62
7
  6
CONTINUOUS
 10
9.2729051368
 20
4.3409255495
 11
9.2687986264
 21
4.3463255495
  0
LINE
  5
2E5
100
AcDbEntity
  8
0
100
AcDbLine
 62
7
  6
CONTINUOUS
 10
9.1610638404
 20
4.4915890924
 11
9.1570884196
 21
4.4970863152
  0
LINE
  5
2E6
100
AcDbEntity
  8
0
100
AcDbLine
 62
7
  6
CONTINUOUS
 10
8.9623721409
 20
4.3669810573
 11
8.9659295849
 21
4.3612045514
  0
LINE
  5
2E7
100
AcDbEntity
  8
0
100
AcDbLine
 62
7
  6
CONTINUOUS
 10
9.2716251118
 20
4.3256700416
 11
9.2680676679
 21
4.3314465475
  0
LINE
  5
2E8
100
AcDbEntity
  8
0
100
AcDbLine
 62
7
  6
CONTINUOUS
 10
9.0589072813
 20
4.2060806364
 11
9.0623247373
 21
4.2002202249
  0
LINE
  5
2E9
100
AcDbEntity
  8
0
100
AcDbLine
 62
7
  6
CONTINUOUS
 10
8.9651413035
 20
4.3820376413
 11
8.9681154208
 21
4.3759402603
  0
LINE
  5
2EA
100
AcDbEntity
  8
0
100
AcDbLine
 62
7
  6
CONTINUOUS
 10
9.0454406017
 20
4.2124499015
 11
9.0482671809
 21
4.2062827403
  0
LINE
  5
2EB
100
AcDbEntity
  8
0
100
AcDbLine
 62
7
  6
CONTINUOUS
 10
9.0105744522
 20
4.4603864768
 11
9.009659817
 21
4.4536643588
  0
LINE
  5
2EC
100
AcDbEntity
  8
0
100
AcDbLine
 62
7
  6
CONTINUOUS
 10
8.9831229784
 20
4.2747675248
 11
8.9820469019
 21
4.2680693543
  0
LINE
  5
2ED
100
AcDbEntity
  8
0
100
AcDbLine
 62
7
  6
CONTINUOUS
 10
9.0222668396
 20
4.4702686355
 11
9.0206977258
 21
4.4636685363
  0
LINE
  5
2EE
100
AcDbEntity
  8
0
100
AcDbLine
 62
7
  6
CONTINUOUS
 10
8.9767537133
 20
4.2882342044
 11
8.9750262829
 21
4.2816737614
  0
LINE
  5
2EF
100
AcDbEntity
  8
0
100
AcDbLine
 62
7
  6
CONTINUOUS
 10
9.0348715459
 20
4.4789571545
 11
9.032663065
 21
4.4725426366
  0
LINE
  5
2F0
100
AcDbEntity
  8
0
100
AcDbLine
 62
7
  6
CONTINUOUS
 10
8.9717350834
 20
4.3022603354
 11
8.9693729352
 21
4.2959008006
  0
LINE
  5
2F1
100
AcDbEntity
  8
0
100
AcDbLine
 62
7
  6
CONTINUOUS
 10
9.1857300718
 20
4.2062827403
 11
9.188556651
 21
4.2124499015
  0
LINE
  5
2F2
100
AcDbEntity
  8
0
100
AcDbLine
 62
7
  6
CONTINUOUS
 10
9.2658818319
 20
4.3759402603
 11
9.2688559492
 21
4.3820376413
  0
LINE
  5
2F3
100
AcDbEntity
  8
0
100
AcDbLine
 62
7
  6
CONTINUOUS
 10
9.1716725154
 20
4.2002202249
 11
9.1750899714
 21
4.2060806364
  0
LINE
  5
2F4
100
AcDbEntity
  8
0
100
AcDbLine
 62
7
  6
CONTINUOUS
 10
9.1750899714
 20
4.4865704625
 11
9.1716725154
 21
4.492430874
  0
LINE
  5
2F5
100
AcDbEntity
  8
0
100
AcDbLine
 62
7
  6
CONTINUOUS
 10
9.2688559492
 20
4.3106134576
 11
9.2658818319
 21
4.3167108386
  0
LINE
  5
2F6
100
AcDbEntity
  8
0
100
AcDbLine
 62
7
  6
CONTINUOUS
 10
9.188556651
 20
4.4802011974
 11
9.1857300718
 21
4.4863683586
  0
LINE
  5
2F7
100
AcDbEntity
  8
0
100
AcDbLine
 62
7
  6
CONTINUOUS
 10
8.9693729352
 20
4.3967502983
 11
8.9717350834
 21
4.3903907635
  0
LINE
  5
2F8
100
AcDbEntity
  8
0
100
AcDbLine
 62
7
  6
CONTINUOUS
 10
9.032663065
 20
4.2201084623
 11
9.0348715459
 21
4.2136939444
  0
LINE
  5
2F9
100
AcDbEntity
  8
0
100
AcDbLine
 62
7
  6
CONTINUOUS
 10
8.9750262829
 20
4.4109773375
 11
8.9767537133
 21
4.4044168945
  0
LINE
  5
2FA
100
AcDbEntity
  8
0
100
AcDbLine
 62
7
  6
CONTINUOUS
 10
9.0206977258
 20
4.2289825626
 11
9.0222668396
 21
4.2223824634
  0
LINE
  5
2FB
100
AcDbEntity
  8
0
100
AcDbLine
 62
7
  6
CONTINUOUS
 10
8.9820469019
 20
4.4245817446
 11
8.9831229784
 21
4.4178835741
  0
LINE
  5
2FC
100
AcDbEntity
  8
0
100
AcDbLine
 62
7
  6
CONTINUOUS
 10
9.009659817
 20
4.2389867401
 11
9.0105744522
 21
4.2322646221
  0
LINE
  5
2FD
100
AcDbEntity
  8
0
100
AcDbLine
 62
7
  6
CONTINUOUS
 10
8.9903671798
 20
4.4374325017
 11
8.9907815392
 21
4.4306611108
  0
LINE
  5
2FE
100
AcDbEntity
  8
0
100
AcDbLine
 62
7
  6
CONTINUOUS
 10
9.2436300729
 20
4.2552185972
 11
9.2432157135
 21
4.2619899881
  0
LINE
  5
2FF
100
AcDbEntity
  8
0
100
AcDbLine
 62
7
  6
CONTINUOUS
 10
8.9996556396
 20
4.2500246489
 11
8.9999069878
 21
4.2432452498
  0
LINE
  5
300
100
AcDbEntity
  8
0
100
AcDbLine
 62
7
  6
CONTINUOUS
 10
9.2343416132
 20
4.44262645
 11
9.234090265
 21
4.4494058491
  0
LINE
  5
301
100
AcDbEntity
  8
0
100
AcDbLine
 62
7
  6
CONTINUOUS
 10
8.9999069878
 20
4.4494058491
 11
8.9996556396
 21
4.44262645
  0
LINE
  5
302
100
AcDbEntity
  8
0
100
AcDbLine
 62
7
  6
CONTINUOUS
 10
9.234090265
 20
4.2432452498
 11
9.2343416132
 21
4.2500246489
  0
LINE
  5
303
100
AcDbEntity
  8
0
100
AcDbLine
 62
7
  6
CONTINUOUS
 10
8.9907815392
 20
4.2619899881
 11
8.9903671798
 21
4.2552185972
  0
LINE
  5
304
100
AcDbEntity
  8
0
100
AcDbLine
 62
7
  6
CONTINUOUS
 10
9.2432157135
 20
4.4306611108
 11
9.2436300729
 21
4.4374325017
  0
LINE
  5
305
100
AcDbEntity
  8
0
100
AcDbLine
 62
7
  6
CONTINUOUS
 10
9.2234228005
 20
4.2322646221
 11
9.2243374358
 21
4.2389867401
  0
LINE
  5
306
100
AcDbEntity
  8
0
100
AcDbLine
 62
7
  6
CONTINUOUS
 10
9.2508742743
 20
4.4178835741
 11
9.2519503508
 21
4.4245817446
  0
LINE
  5
307
100
AcDbEntity
  8
0
100
AcDbLine
 62
7
  6
CONTINUOUS
 10
9.2117304131
 20
4.2223824634
 11
9.2132995269
 21
4.2289825626
  0
LINE
  5
308
100
AcDbEntity
  8
0
100
AcDbLine
 62
7
  6
CONTINUOUS
 10
9.2572435394
 20
4.4044168945
 11
9.2589709698
 21
4.4109773375
  0
LINE
  5
309
100
AcDbEntity
  8
0
100
AcDbLine
 62
7
  6
CONTINUOUS
 10
9.1991257068
 20
4.2136939444
 11
9.2013341877
 21
4.2201084623
  0
LINE
  5
30A
100
AcDbEntity
  8
0
100
AcDbLine
 62
7
  6
CONTINUOUS
 10
9.2622621693
 20
4.3903907635
 11
9.2646243176
 21
4.3967502983
  0
LINE
  5
30B
100
AcDbEntity
  8
0
100
AcDbLine
 62
7
  6
CONTINUOUS
 10
9.2646243176
 20
4.2959008006
 11
9.2622621693
 21
4.3022603354
  0
LINE
  5
30C
100
AcDbEntity
  8
0
100
AcDbLine
 62
7
  6
CONTINUOUS
 10
9.2013341877
 20
4.4725426366
 11
9.1991257068
 21
4.4789571545
  0
LINE
  5
30D
100
AcDbEntity
  8
0
100
AcDbLine
 62
7
  6
CONTINUOUS
 10
9.2589709698
 20
4.2816737614
 11
9.2572435394
 21
4.2882342044
  0
LINE
  5
30E
100
AcDbEntity
  8
0
100
AcDbLine
 62
7
  6
CONTINUOUS
 10
9.2132995269
 20
4.4636685363
 11
9.2117304131
 21
4.4702686355
  0
LINE
  5
30F
100
AcDbEntity
  8
0
100
AcDbLine
 62
7
  6
CONTINUOUS
 10
9.2519503508
 20
4.2680693543
 11
9.2508742743
 21
4.2747675248
  0
LINE
  5
310
100
AcDbEntity
  8
0
100
AcDbLine
 62
7
  6
CONTINUOUS
 10
9.2243374358
 20
4.4536643588
 11
9.2234228005
 21
4.4603864768
  0
ARC
  5
311
100
AcDbEntity
  8
0
100
AcDbCircle
 62
7
  6
CONTINUOUS
 10
1.9169986264
 20
4.3463255495
 40
0.3375
100
AcDbArc
 50
16.1410743463
 51
343.8589256537
  0
ARC
  5
312
100
AcDbEntity
  8
0
100
AcDbCircle
 62
7
  6
CONTINUOUS
 10
9.1169986264
 20
4.3463255495
 40
0.3375
100
AcDbArc
 50
196.1410743463
 51
163.8589256537
  0
ARC
  5
313
100
AcDbEntity
  8
0
100
AcDbCircle
 62
7
  6
CONTINUOUS
 10
9.1169986264
 20
4.3463255495
 40
0.3291532122
100
AcDbArc
 50
196.5613684287
 51
163.4386315718
  0
ARC
  5
314
100
AcDbEntity
  8
0
100
AcDbCircle
 62
7
  6
CONTINUOUS
 10
1.9169986264
 20
4.3463255495
 40
0.3291532122
100
AcDbArc
 50
16.5613684287
 51
343.4386315718
  0
ARC
  5
315
100
AcDbEntity
  8
0
100
AcDbCircle
 62
7
  6
CONTINUOUS
 10
9.1169986264
 20
4.3463255495
 40
0.1888697531
100
AcDbArc
 50
209.7926533456
 51
150.2073466544
  0
ARC
  5
316
100
AcDbEntity
  8
0
100
AcDbCircle
 62
7
  6
CONTINUOUS
 10
1.9169986264
 20
4.3463255495
 40
0.1888697531
100
AcDbArc
 50
29.7926533456
 51
330.2073466544
  0
ARC
  5
317
100
AcDbEntity
  8
0
100
AcDbCircle
 62
7
  6
CONTINUOUS
 10
9.1169986264
 20
4.3463255495
 40
0.156
100
AcDbArc
 50
266.3587117347
 51
268.0162882653
  0
ARC
  5
318
100
AcDbEntity
  8
0
100
AcDbCircle
 62
7
  6
CONTINUOUS
 10
9.1169986264
 20
4.3463255495
 40
0.156
100
AcDbArc
 50
260.7337117347
 51
262.3912882653
  0
ARC
  5
319
100
AcDbEntity
  8
0
100
AcDbCircle
 62
7
  6
CONTINUOUS
 10
9.1169986264
 20
4.3463255495
 40
0.156
100
AcDbArc
 50
255.1087117347
 51
256.7662882653
  0
ARC
  5
31A
100
AcDbEntity
  8
0
100
AcDbCircle
 62
7
  6
CONTINUOUS
 10
9.1169986264
 20
4.3463255495
 40
0.156
100
AcDbArc
 50
249.4837117347
 51
251.1412882653
  0
ARC
  5
31B
100
AcDbEntity
  8
0
100
AcDbCircle
 62
7
  6
CONTINUOUS
 10
9.1169986264
 20
4.3463255495
 40
0.156
100
AcDbArc
 50
243.8587117347
 51
245.5162882653
  0
ARC
  5
31C
100
AcDbEntity
  8
0
100
AcDbCircle
 62
7
  6
CONTINUOUS
 10
9.1169986264
 20
4.3463255495
 40
0.156
100
AcDbArc
 50
238.2337117347
 51
239.8912882653
  0
ARC
  5
31D
100
AcDbEntity
  8
0
100
AcDbCircle
 62
7
  6
CONTINUOUS
 10
9.1169986264
 20
4.3463255495
 40
0.156
100
AcDbArc
 50
232.6087117347
 51
234.2662882653
  0
ARC
  5
31E
100
AcDbEntity
  8
0
100
AcDbCircle
 62
7
  6
CONTINUOUS
 10
9.1169986264
 20
4.3463255495
 40
0.156
100
AcDbArc
 50
226.9837117347
 51
228.6412882653
  0
ARC
  5
31F
100
AcDbEntity
  8
0
100
AcDbCircle
 62
7
  6
CONTINUOUS
 10
9.1169986264
 20
4.3463255495
 40
0.156
100
AcDbArc
 50
221.3587117347
 51
223.0162882653
  0
ARC
  5
320
100
AcDbEntity
  8
0
100
AcDbCircle
 62
7
  6
CONTINUOUS
 10
9.1169986264
 20
4.3463255495
 40
0.156
100
AcDbArc
 50
215.7337117347
 51
217.3912882653
  0
ARC
  5
321
100
AcDbEntity
  8
0
100
AcDbCircle
 62
7
  6
CONTINUOUS
 10
9.1169986264
 20
4.3463255495
 40
0.156
100
AcDbArc
 50
210.1087117347
 51
211.7662882653
  0
ARC
  5
322
100
AcDbEntity
  8
0
100
AcDbCircle
 62
7
  6
CONTINUOUS
 10
9.1169986264
 20
4.3463255495
 40
0.156
100
AcDbArc
 50
204.4837117347
 51
206.1412882653
  0
ARC
  5
323
100
AcDbEntity
  8
0
100
AcDbCircle
 62
7
  6
CONTINUOUS
 10
9.1169986264
 20
4.3463255495
 40
0.156
100
AcDbArc
 50
198.8587117347
 51
200.5162882653
  0
ARC
  5
324
100
AcDbEntity
  8
0
100
AcDbCircle
 62
7
  6
CONTINUOUS
 10
9.1169986264
 20
4.3463255495
 40
0.156
100
AcDbArc
 50
193.2337117347
 51
194.8912882653
  0
ARC
  5
325
100
AcDbEntity
  8
0
100
AcDbCircle
 62
7
  6
CONTINUOUS
 10
9.1169986264
 20
4.3463255495
 40
0.156
100
AcDbArc
 50
187.6087117347
 51
189.2662882653
  0
ARC
  5
326
100
AcDbEntity
  8
0
100
AcDbCircle
 62
7
  6
CONTINUOUS
 10
9.1169986264
 20
4.3463255495
 40
0.156
100
AcDbArc
 50
181.9837117347
 51
183.6412882653
  0
ARC
  5
327
100
AcDbEntity
  8
0
100
AcDbCircle
 62
7
  6
CONTINUOUS
 10
9.1169986264
 20
4.3463255495
 40
0.156
100
AcDbArc
 50
176.3587117347
 51
178.0162882653
  0
ARC
  5
328
100
AcDbEntity
  8
0
100
AcDbCircle
 62
7
  6
CONTINUOUS
 10
9.1169986264
 20
4.3463255495
 40
0.156
100
AcDbArc
 50
170.7337117347
 51
172.3912882653
  0
ARC
  5
329
100
AcDbEntity
  8
0
100
AcDbCircle
 62
7
  6
CONTINUOUS
 10
9.1169986264
 20
4.3463255495
 40
0.156
100
AcDbArc
 50
165.1087117347
 51
166.7662882653
  0
ARC
  5
32A
100
AcDbEntity
  8
0
100
AcDbCircle
 62
7
  6
CONTINUOUS
 10
9.1169986264
 20
4.3463255495
 40
0.156
100
AcDbArc
 50
159.4837117347
 51
161.1412882653
  0
ARC
  5
32B
100
AcDbEntity
  8
0
100
AcDbCircle
 62
7
  6
CONTINUOUS
 10
9.1169986264
 20
4.3463255495
 40
0.156
100
AcDbArc
 50
153.8587117347
 51
155.5162882653
  0
ARC
  5
32C
100
AcDbEntity
  8
0
100
AcDbCircle
 62
7
  6
CONTINUOUS
 10
9.1169986264
 20
4.3463255495
 40
0.156
100
AcDbArc
 50
148.2337117347
 51
149.8912882653
  0
ARC
  5
32D
100
AcDbEntity
  8
0
100
AcDbCircle
 62
7
  6
CONTINUOUS
 10
9.1169986264
 20
4.3463255495
 40
0.156
100
AcDbArc
 50
142.6087117347
 51
144.2662882653
  0
ARC
  5
32E
100
AcDbEntity
  8
0
100
AcDbCircle
 62
7
  6
CONTINUOUS
 10
9.1169986264
 20
4.3463255495
 40
0.156
100
AcDbArc
 50
136.9837117347
 51
138.6412882653
  0
ARC
  5
32F
100
AcDbEntity
  8
0
100
AcDbCircle
 62
7
  6
CONTINUOUS
 10
9.1169986264
 20
4.3463255495
 40
0.156
100
AcDbArc
 50
131.3587117347
 51
133.0162882653
  0
ARC
  5
330
100
AcDbEntity
  8
0
100
AcDbCircle
 62
7
  6
CONTINUOUS
 10
9.1169986264
 20
4.3463255495
 40
0.156
100
AcDbArc
 50
125.7337117347
 51
127.3912882653
  0
ARC
  5
331
100
AcDbEntity
  8
0
100
AcDbCircle
 62
7
  6
CONTINUOUS
 10
9.1169986264
 20
4.3463255495
 40
0.156
100
AcDbArc
 50
120.1087117347
 51
121.7662882653
  0
ARC
  5
332
100
AcDbEntity
  8
0
100
AcDbCircle
 62
7
  6
CONTINUOUS
 10
9.1169986264
 20
4.3463255495
 40
0.156
100
AcDbArc
 50
114.4837117347
 51
116.1412882653
  0
ARC
  5
333
100
AcDbEntity
  8
0
100
AcDbCircle
 62
7
  6
CONTINUOUS
 10
9.1169986264
 20
4.3463255495
 40
0.156
100
AcDbArc
 50
108.8587117347
 51
110.5162882653
  0
ARC
  5
334
100
AcDbEntity
  8
0
100
AcDbCircle
 62
7
  6
CONTINUOUS
 10
9.1169986264
 20
4.3463255495
 40
0.156
100
AcDbArc
 50
103.2337117347
 51
104.8912882653
  0
ARC
  5
335
100
AcDbEntity
  8
0
100
AcDbCircle
 62
7
  6
CONTINUOUS
 10
9.1169986264
 20
4.3463255495
 40
0.156
100
AcDbArc
 50
97.6087117347
 51
99.2662882653
  0
ARC
  5
336
100
AcDbEntity
  8
0
100
AcDbCircle
 62
7
  6
CONTINUOUS
 10
9.1169986264
 20
4.3463255495
 40
0.156
100
AcDbArc
 50
91.9837117347
 51
93.6412882653
  0
ARC
  5
337
100
AcDbEntity
  8
0
100
AcDbCircle
 62
7
  6
CONTINUOUS
 10
9.1169986264
 20
4.3463255495
 40
0.156
100
AcDbArc
 50
86.3587117347
 51
88.0162882653
  0
ARC
  5
338
100
AcDbEntity
  8
0
100
AcDbCircle
 62
7
  6
CONTINUOUS
 10
9.1169986264
 20
4.3463255495
 40
0.156
100
AcDbArc
 50
80.7337117347
 51
82.3912882653
  0
ARC
  5
339
100
AcDbEntity
  8
0
100
AcDbCircle
 62
7
  6
CONTINUOUS
 10
9.1169986264
 20
4.3463255495
 40
0.156
100
AcDbArc
 50
75.1087117347
 51
76.7662882653
  0
ARC
  5
33A
100
AcDbEntity
  8
0
100
AcDbCircle
 62
7
  6
CONTINUOUS
 10
9.1169986264
 20
4.3463255495
 40
0.156
100
AcDbArc
 50
69.4837117347
 51
71.1412882653
  0
ARC
  5
33B
100
AcDbEntity
  8
0
100
AcDbCircle
 62
7
  6
CONTINUOUS
 10
9.1169986264
 20
4.3463255495
 40
0.156
100
AcDbArc
 50
63.8587117347
 51
65.5162882653
  0
ARC
  5
33C
100
AcDbEntity
  8
0
100
AcDbCircle
 62
7
  6
CONTINUOUS
 10
9.1169986264
 20
4.3463255495
 40
0.156
100
AcDbArc
 50
58.2337117347
 51
59.8912882653
  0
ARC
  5
33D
100
AcDbEntity
  8
0
100
AcDbCircle
 62
7
  6
CONTINUOUS
 10
9.1169986264
 20
4.3463255495
 40
0.156
100
AcDbArc
 50
52.6087117347
 51
54.2662882653
  0
ARC
  5
33E
100
AcDbEntity
  8
0
100
AcDbCircle
 62
7
  6
CONTINUOUS
 10
9.1169986264
 20
4.3463255495
 40
0.156
100
AcDbArc
 50
46.9837117347
 51
48.6412882653
  0
ARC
  5
33F
100
AcDbEntity
  8
0
100
AcDbCircle
 62
7
  6
CONTINUOUS
 10
9.1169986264
 20
4.3463255495
 40
0.156
100
AcDbArc
 50
41.3587117347
 51
43.0162882653
  0
ARC
  5
340
100
AcDbEntity
  8
0
100
AcDbCircle
 62
7
  6
CONTINUOUS
 10
9.1169986264
 20
4.3463255495
 40
0.156
100
AcDbArc
 50
35.7337117347
 51
37.3912882653
  0
ARC
  5
341
100
AcDbEntity
  8
0
100
AcDbCircle
 62
7
  6
CONTINUOUS
 10
9.1169986264
 20
4.3463255495
 40
0.156
100
AcDbArc
 50
30.1087117347
 51
31.7662882653
  0
ARC
  5
342
100
AcDbEntity
  8
0
100
AcDbCircle
 62
7
  6
CONTINUOUS
 10
9.1169986264
 20
4.3463255495
 40
0.156
100
AcDbArc
 50
24.4837117347
 51
26.1412882653
  0
ARC
  5
343
100
AcDbEntity
  8
0
100
AcDbCircle
 62
7
  6
CONTINUOUS
 10
9.1169986264
 20
4.3463255495
 40
0.156
100
AcDbArc
 50
18.8587117347
 51
20.5162882653
  0
ARC
  5
344
100
AcDbEntity
  8
0
100
AcDbCircle
 62
7
  6
CONTINUOUS
 10
9.1169986264
 20
4.3463255495
 40
0.156
100
AcDbArc
 50
13.2337117347
 51
14.8912882653
  0
ARC
  5
345
100
AcDbEntity
  8
0
100
AcDbCircle
 62
7
  6
CONTINUOUS
 10
9.1169986264
 20
4.3463255495
 40
0.156
100
AcDbArc
 50
7.6087117347
 51
9.2662882653
  0
ARC
  5
346
100
AcDbEntity
  8
0
100
AcDbCircle
 62
7
  6
CONTINUOUS
 10
9.1169986264
 20
4.3463255495
 40
0.156
100
AcDbArc
 50
1.9837117347
 51
3.6412882653
  0
ARC
  5
347
100
AcDbEntity
  8
0
100
AcDbCircle
 62
7
  6
CONTINUOUS
 10
9.1169986264
 20
4.3463255495
 40
0.156
100
AcDbArc
 50
356.3587117347
 51
358.0162882653
  0
ARC
  5
348
100
AcDbEntity
  8
0
100
AcDbCircle
 62
7
  6
CONTINUOUS
 10
9.1169986264
 20
4.3463255495
 40
0.156
100
AcDbArc
 50
350.7337117347
 51
352.3912882653
  0
ARC
  5
349
100
AcDbEntity
  8
0
100
AcDbCircle
 62
7
  6
CONTINUOUS
 10
9.1169986264
 20
4.3463255495
 40
0.156
100
AcDbArc
 50
345.1087117347
 51
346.7662882653
  0
ARC
  5
34A
100
AcDbEntity
  8
0
100
AcDbCircle
 62
7
  6
CONTINUOUS
 10
9.1169986264
 20
4.3463255495
 40
0.156
100
AcDbArc
 50
339.4837117347
 51
341.1412882653
  0
ARC
  5
34B
100
AcDbEntity
  8
0
100
AcDbCircle
 62
7
  6
CONTINUOUS
 10
9.1169986264
 20
4.3463255495
 40
0.156
100
AcDbArc
 50
333.8587117347
 51
335.5162882653
  0
ARC
  5
34C
100
AcDbEntity
  8
0
100
AcDbCircle
 62
7
  6
CONTINUOUS
 10
9.1169986264
 20
4.3463255495
 40
0.156
100
AcDbArc
 50
328.2337117347
 51
329.8912882653
  0
ARC
  5
34D
100
AcDbEntity
  8
0
100
AcDbCircle
 62
7
  6
CONTINUOUS
 10
9.1169986264
 20
4.3463255495
 40
0.156
100
AcDbArc
 50
322.6087117347
 51
324.2662882653
  0
ARC
  5
34E
100
AcDbEntity
  8
0
100
AcDbCircle
 62
7
  6
CONTINUOUS
 10
9.1169986264
 20
4.3463255495
 40
0.156
100
AcDbArc
 50
316.9837117347
 51
318.6412882653
  0
ARC
  5
34F
100
AcDbEntity
  8
0
100
AcDbCircle
 62
7
  6
CONTINUOUS
 10
9.1169986264
 20
4.3463255495
 40
0.156
100
AcDbArc
 50
311.3587117347
 51
313.0162882653
  0
ARC
  5
350
100
AcDbEntity
  8
0
100
AcDbCircle
 62
7
  6
CONTINUOUS
 10
9.1169986264
 20
4.3463255495
 40
0.156
100
AcDbArc
 50
305.7337117347
 51
307.3912882653
  0
ARC
  5
351
100
AcDbEntity
  8
0
100
AcDbCircle
 62
7
  6
CONTINUOUS
 10
9.1169986264
 20
4.3463255495
 40
0.156
100
AcDbArc
 50
300.1087117347
 51
301.7662882653
  0
ARC
  5
352
100
AcDbEntity
  8
0
100
AcDbCircle
 62
7
  6
CONTINUOUS
 10
9.1169986264
 20
4.3463255495
 40
0.156
100
AcDbArc
 50
294.4837117347
 51
296.1412882653
  0
ARC
  5
353
100
AcDbEntity
  8
0
100
AcDbCircle
 62
7
  6
CONTINUOUS
 10
9.1169986264
 20
4.3463255495
 40
0.156
100
AcDbArc
 50
288.8587117347
 51
290.5162882653
  0
ARC
  5
354
100
AcDbEntity
  8
0
100
AcDbCircle
 62
7
  6
CONTINUOUS
 10
9.1169986264
 20
4.3463255495
 40
0.156
100
AcDbArc
 50
283.2337117347
 51
284.8912882653
  0
ARC
  5
355
100
AcDbEntity
  8
0
100
AcDbCircle
 62
7
  6
CONTINUOUS
 10
9.1169986264
 20
4.3463255495
 40
0.156
100
AcDbArc
 50
277.6087117347
 51
279.2662882653
  0
ARC
  5
356
100
AcDbEntity
  8
0
100
AcDbCircle
 62
7
  6
CONTINUOUS
 10
1.9169986264
 20
4.3463255495
 40
0.156
100
AcDbArc
 50
266.3587117347
 51
268.0162882653
  0
ARC
  5
357
100
AcDbEntity
  8
0
100
AcDbCircle
 62
7
  6
CONTINUOUS
 10
1.9169986264
 20
4.3463255495
 40
0.156
100
AcDbArc
 50
260.7337117347
 51
262.3912882653
  0
ARC
  5
358
100
AcDbEntity
  8
0
100
AcDbCircle
 62
7
  6
CONTINUOUS
 10
1.9169986264
 20
4.3463255495
 40
0.156
100
AcDbArc
 50
255.1087117347
 51
256.7662882653
  0
ARC
  5
359
100
AcDbEntity
  8
0
100
AcDbCircle
 62
7
  6
CONTINUOUS
 10
1.9169986264
 20
4.3463255495
 40
0.156
100
AcDbArc
 50
249.4837117347
 51
251.1412882653
  0
ARC
  5
35A
100
AcDbEntity
  8
0
100
AcDbCircle
 62
7
  6
CONTINUOUS
 10
1.9169986264
 20
4.3463255495
 40
0.156
100
AcDbArc
 50
243.8587117347
 51
245.5162882653
  0
ARC
  5
35B
100
AcDbEntity
  8
0
100
AcDbCircle
 62
7
  6
CONTINUOUS
 10
1.9169986264
 20
4.3463255495
 40
0.156
100
AcDbArc
 50
238.2337117347
 51
239.8912882653
  0
ARC
  5
35C
100
AcDbEntity
  8
0
100
AcDbCircle
 62
7
  6
CONTINUOUS
 10
1.9169986264
 20
4.3463255495
 40
0.156
100
AcDbArc
 50
232.6087117347
 51
234.2662882653
  0
ARC
  5
35D
100
AcDbEntity
  8
0
100
AcDbCircle
 62
7
  6
CONTINUOUS
 10
1.9169986264
 20
4.3463255495
 40
0.156
100
AcDbArc
 50
226.9837117347
 51
228.6412882653
  0
ARC
  5
35E
100
AcDbEntity
  8
0
100
AcDbCircle
 62
7
  6
CONTINUOUS
 10
1.9169986264
 20
4.3463255495
 40
0.156
100
AcDbArc
 50
221.3587117347
 51
223.0162882653
  0
ARC
  5
35F
100
AcDbEntity
  8
0
100
AcDbCircle
 62
7
  6
CONTINUOUS
 10
1.9169986264
 20
4.3463255495
 40
0.156
100
AcDbArc
 50
215.7337117347
 51
217.3912882653
  0
ARC
  5
360
100
AcDbEntity
  8
0
100
AcDbCircle
 62
7
  6
CONTINUOUS
 10
1.9169986264
 20
4.3463255495
 40
0.156
100
AcDbArc
 50
210.1087117347
 51
211.7662882653
  0
ARC
  5
361
100
AcDbEntity
  8
0
100
AcDbCircle
 62
7
  6
CONTINUOUS
 10
1.9169986264
 20
4.3463255495
 40
0.156
100
AcDbArc
 50
204.4837117347
 51
206.1412882653
  0
ARC
  5
362
100
AcDbEntity
  8
0
100
AcDbCircle
 62
7
  6
CONTINUOUS
 10
1.9169986264
 20
4.3463255495
 40
0.156
100
AcDbArc
 50
198.8587117347
 51
200.5162882653
  0
ARC
  5
363
100
AcDbEntity
  8
0
100
AcDbCircle
 62
7
  6
CONTINUOUS
 10
1.9169986264
 20
4.3463255495
 40
0.156
100
AcDbArc
 50
193.2337117347
 51
194.8912882653
  0
ARC
  5
364
100
AcDbEntity
  8
0
100
AcDbCircle
 62
7
  6
CONTINUOUS
 10
1.9169986264
 20
4.3463255495
 40
0.156
100
AcDbArc
 50
187.6087117347
 51
189.2662882653
  0
ARC
  5
365
100
AcDbEntity
  8
0
100
AcDbCircle
 62
7
  6
CONTINUOUS
 10
1.9169986264
 20
4.3463255495
 40
0.156
100
AcDbArc
 50
181.9837117347
 51
183.6412882653
  0
ARC
  5
366
100
AcDbEntity
  8
0
100
AcDbCircle
 62
7
  6
CONTINUOUS
 10
1.9169986264
 20
4.3463255495
 40
0.156
100
AcDbArc
 50
176.3587117347
 51
178.0162882653
  0
ARC
  5
367
100
AcDbEntity
  8
0
100
AcDbCircle
 62
7
  6
CONTINUOUS
 10
1.9169986264
 20
4.3463255495
 40
0.156
100
AcDbArc
 50
170.7337117347
 51
172.3912882653
  0
ARC
  5
368
100
AcDbEntity
  8
0
100
AcDbCircle
 62
7
  6
CONTINUOUS
 10
1.9169986264
 20
4.3463255495
 40
0.156
100
AcDbArc
 50
165.1087117347
 51
166.7662882653
  0
ARC
  5
369
100
AcDbEntity
  8
0
100
AcDbCircle
 62
7
  6
CONTINUOUS
 10
1.9169986264
 20
4.3463255495
 40
0.156
100
AcDbArc
 50
159.4837117347
 51
161.1412882653
  0
ARC
  5
36A
100
AcDbEntity
  8
0
100
AcDbCircle
 62
7
  6
CONTINUOUS
 10
1.9169986264
 20
4.3463255495
 40
0.156
100
AcDbArc
 50
153.8587117347
 51
155.5162882653
  0
ARC
  5
36B
100
AcDbEntity
  8
0
100
AcDbCircle
 62
7
  6
CONTINUOUS
 10
1.9169986264
 20
4.3463255495
 40
0.156
100
AcDbArc
 50
148.2337117347
 51
149.8912882653
  0
ARC
  5
36C
100
AcDbEntity
  8
0
100
AcDbCircle
 62
7
  6
CONTINUOUS
 10
1.9169986264
 20
4.3463255495
 40
0.156
100
AcDbArc
 50
142.6087117347
 51
144.2662882653
  0
ARC
  5
36D
100
AcDbEntity
  8
0
100
AcDbCircle
 62
7
  6
CONTINUOUS
 10
1.9169986264
 20
4.3463255495
 40
0.156
100
AcDbArc
 50
136.9837117347
 51
138.6412882653
  0
ARC
  5
36E
100
AcDbEntity
  8
0
100
AcDbCircle
 62
7
  6
CONTINUOUS
 10
1.9169986264
 20
4.3463255495
 40
0.156
100
AcDbArc
 50
131.3587117347
 51
133.0162882653
  0
ARC
  5
36F
100
AcDbEntity
  8
0
100
AcDbCircle
 62
7
  6
CONTINUOUS
 10
1.9169986264
 20
4.3463255495
 40
0.156
100
AcDbArc
 50
125.7337117347
 51
127.3912882653
  0
ARC
  5
370
100
AcDbEntity
  8
0
100
AcDbCircle
 62
7
  6
CONTINUOUS
 10
1.9169986264
 20
4.3463255495
 40
0.156
100
AcDbArc
 50
120.1087117347
 51
121.7662882653
  0
ARC
  5
371
100
AcDbEntity
  8
0
100
AcDbCircle
 62
7
  6
CONTINUOUS
 10
1.9169986264
 20
4.3463255495
 40
0.156
100
AcDbArc
 50
114.4837117347
 51
116.1412882653
  0
ARC
  5
372
100
AcDbEntity
  8
0
100
AcDbCircle
 62
7
  6
CONTINUOUS
 10
1.9169986264
 20
4.3463255495
 40
0.156
100
AcDbArc
 50
108.8587117347
 51
110.5162882653
  0
ARC
  5
373
100
AcDbEntity
  8
0
100
AcDbCircle
 62
7
  6
CONTINUOUS
 10
1.9169986264
 20
4.3463255495
 40
0.156
100
AcDbArc
 50
103.2337117347
 51
104.8912882653
  0
ARC
  5
374
100
AcDbEntity
  8
0
100
AcDbCircle
 62
7
  6
CONTINUOUS
 10
1.9169986264
 20
4.3463255495
 40
0.156
100
AcDbArc
 50
97.6087117347
 51
99.2662882653
  0
ARC
  5
375
100
AcDbEntity
  8
0
100
AcDbCircle
 62
7
  6
CONTINUOUS
 10
1.9169986264
 20
4.3463255495
 40
0.156
100
AcDbArc
 50
91.9837117347
 51
93.6412882653
  0
ARC
  5
376
100
AcDbEntity
  8
0
100
AcDbCircle
 62
7
  6
CONTINUOUS
 10
1.9169986264
 20
4.3463255495
 40
0.156
100
AcDbArc
 50
86.3587117347
 51
88.0162882653
  0
ARC
  5
377
100
AcDbEntity
  8
0
100
AcDbCircle
 62
7
  6
CONTINUOUS
 10
1.9169986264
 20
4.3463255495
 40
0.156
100
AcDbArc
 50
80.7337117347
 51
82.3912882653
  0
ARC
  5
378
100
AcDbEntity
  8
0
100
AcDbCircle
 62
7
  6
CONTINUOUS
 10
1.9169986264
 20
4.3463255495
 40
0.156
100
AcDbArc
 50
75.1087117347
 51
76.7662882653
  0
ARC
  5
379
100
AcDbEntity
  8
0
100
AcDbCircle
 62
7
  6
CONTINUOUS
 10
1.9169986264
 20
4.3463255495
 40
0.156
100
AcDbArc
 50
69.4837117347
 51
71.1412882653
  0
ARC
  5
37A
100
AcDbEntity
  8
0
100
AcDbCircle
 62
7
  6
CONTINUOUS
 10
1.9169986264
 20
4.3463255495
 40
0.156
100
AcDbArc
 50
63.8587117347
 51
65.5162882653
  0
ARC
  5
37B
100
AcDbEntity
  8
0
100
AcDbCircle
 62
7
  6
CONTINUOUS
 10
1.9169986264
 20
4.3463255495
 40
0.156
100
AcDbArc
 50
58.2337117347
 51
59.8912882653
  0
ARC
  5
37C
100
AcDbEntity
  8
0
100
AcDbCircle
 62
7
  6
CONTINUOUS
 10
1.9169986264
 20
4.3463255495
 40
0.156
100
AcDbArc
 50
52.6087117347
 51
54.2662882653
  0
ARC
  5
37D
100
AcDbEntity
  8
0
100
AcDbCircle
 62
7
  6
CONTINUOUS
 10
1.9169986264
 20
4.3463255495
 40
0.156
100
AcDbArc
 50
46.9837117347
 51
48.6412882653
  0
ARC
  5
37E
100
AcDbEntity
  8
0
100
AcDbCircle
 62
7
  6
CONTINUOUS
 10
1.9169986264
 20
4.3463255495
 40
0.156
100
AcDbArc
 50
41.3587117347
 51
43.0162882653
  0
ARC
  5
37F
100
AcDbEntity
  8
0
100
AcDbCircle
 62
7
  6
CONTINUOUS
 10
1.9169986264
 20
4.3463255495
 40
0.156
100
AcDbArc
 50
35.7337117347
 51
37.3912882653
  0
ARC
  5
380
100
AcDbEntity
  8
0
100
AcDbCircle
 62
7
  6
CONTINUOUS
 10
1.9169986264
 20
4.3463255495
 40
0.156
100
AcDbArc
 50
30.1087117347
 51
31.7662882653
  0
ARC
  5
381
100
AcDbEntity
  8
0
100
AcDbCircle
 62
7
  6
CONTINUOUS
 10
1.9169986264
 20
4.3463255495
 40
0.156
100
AcDbArc
 50
24.4837117347
 51
26.1412882653
  0
ARC
  5
382
100
AcDbEntity
  8
0
100
AcDbCircle
 62
7
  6
CONTINUOUS
 10
1.9169986264
 20
4.3463255495
 40
0.156
100
AcDbArc
 50
18.8587117347
 51
20.5162882653
  0
ARC
  5
383
100
AcDbEntity
  8
0
100
AcDbCircle
 62
7
  6
CONTINUOUS
 10
1.9169986264
 20
4.3463255495
 40
0.156
100
AcDbArc
 50
13.2337117347
 51
14.8912882653
  0
ARC
  5
384
100
AcDbEntity
  8
0
100
AcDbCircle
 62
7
  6
CONTINUOUS
 10
1.9169986264
 20
4.3463255495
 40
0.156
100
AcDbArc
 50
7.6087117347
 51
9.2662882653
  0
ARC
  5
385
100
AcDbEntity
  8
0
100
AcDbCircle
 62
7
  6
CONTINUOUS
 10
1.9169986264
 20
4.3463255495
 40
0.156
100
AcDbArc
 50
1.9837117347
 51
3.6412882653
  0
ARC
  5
386
100
AcDbEntity
  8
0
100
AcDbCircle
 62
7
  6
CONTINUOUS
 10
1.9169986264
 20
4.3463255495
 40
0.156
100
AcDbArc
 50
356.3587117347
 51
358.0162882653
  0
ARC
  5
387
100
AcDbEntity
  8
0
100
AcDbCircle
 62
7
  6
CONTINUOUS
 10
1.9169986264
 20
4.3463255495
 40
0.156
100
AcDbArc
 50
350.7337117347
 51
352.3912882653
  0
ARC
  5
388
100
AcDbEntity
  8
0
100
AcDbCircle
 62
7
  6
CONTINUOUS
 10
1.9169986264
 20
4.3463255495
 40
0.156
100
AcDbArc
 50
345.1087117347
 51
346.7662882653
  0
ARC
  5
389
100
AcDbEntity
  8
0
100
AcDbCircle
 62
7
  6
CONTINUOUS
 10
1.9169986264
 20
4.3463255495
 40
0.156
100
AcDbArc
 50
339.4837117347
 51
341.1412882653
  0
ARC
  5
38A
100
AcDbEntity
  8
0
100
AcDbCircle
 62
7
  6
CONTINUOUS
 10
1.9169986264
 20
4.3463255495
 40
0.156
100
AcDbArc
 50
333.8587117347
 51
335.5162882653
  0
ARC
  5
38B
100
AcDbEntity
  8
0
100
AcDbCircle
 62
7
  6
CONTINUOUS
 10
1.9169986264
 20
4.3463255495
 40
0.156
100
AcDbArc
 50
328.2337117347
 51
329.8912882653
  0
ARC
  5
38C
100
AcDbEntity
  8
0
100
AcDbCircle
 62
7
  6
CONTINUOUS
 10
1.9169986264
 20
4.3463255495
 40
0.156
100
AcDbArc
 50
322.6087117347
 51
324.2662882653
  0
ARC
  5
38D
100
AcDbEntity
  8
0
100
AcDbCircle
 62
7
  6
CONTINUOUS
 10
1.9169986264
 20
4.3463255495
 40
0.156
100
AcDbArc
 50
316.9837117347
 51
318.6412882653
  0
ARC
  5
38E
100
AcDbEntity
  8
0
100
AcDbCircle
 62
7
  6
CONTINUOUS
 10
1.9169986264
 20
4.3463255495
 40
0.156
100
AcDbArc
 50
311.3587117347
 51
313.0162882653
  0
ARC
  5
38F
100
AcDbEntity
  8
0
100
AcDbCircle
 62
7
  6
CONTINUOUS
 10
1.9169986264
 20
4.3463255495
 40
0.156
100
AcDbArc
 50
305.7337117347
 51
307.3912882653
  0
ARC
  5
390
100
AcDbEntity
  8
0
100
AcDbCircle
 62
7
  6
CONTINUOUS
 10
1.9169986264
 20
4.3463255495
 40
0.156
100
AcDbArc
 50
300.1087117347
 51
301.7662882653
  0
ARC
  5
391
100
AcDbEntity
  8
0
100
AcDbCircle
 62
7
  6
CONTINUOUS
 10
1.9169986264
 20
4.3463255495
 40
0.156
100
AcDbArc
 50
294.4837117347
 51
296.1412882653
  0
ARC
  5
392
100
AcDbEntity
  8
0
100
AcDbCircle
 62
7
  6
CONTINUOUS
 10
1.9169986264
 20
4.3463255495
 40
0.156
100
AcDbArc
 50
288.8587117347
 51
290.5162882653
  0
ARC
  5
393
100
AcDbEntity
  8
0
100
AcDbCircle
 62
7
  6
CONTINUOUS
 10
1.9169986264
 20
4.3463255495
 40
0.156
100
AcDbArc
 50
283.2337117347
 51
284.8912882653
  0
ARC
  5
394
100
AcDbEntity
  8
0
100
AcDbCircle
 62
7
  6
CONTINUOUS
 10
1.9169986264
 20
4.3463255495
 40
0.156
100
AcDbArc
 50
277.6087117347
 51
279.2662882653
  0
ARC
  5
395
100
AcDbEntity
  8
0
100
AcDbCircle
 62
7
  6
CONTINUOUS
 10
1.9169986264
 20
4.3463255495
 40
0.156
100
AcDbArc
 50
271.9837117347
 51
273.6412882653
  0
ARC
  5
396
100
AcDbEntity
  8
0
100
AcDbCircle
 62
7
  6
CONTINUOUS
 10
9.1169986264
 20
4.3463255495
 40
0.156
100
AcDbArc
 50
271.9837117347
 51
273.6412882653
  0
CIRCLE
  5
397
100
AcDbEntity
  8
0
100
AcDbCircle
 62
7
  6
CONTINUOUS
 10
9.1169986264
 20
4.3463255495
 40
0.147
  0
CIRCLE
  5
398
100
AcDbEntity
  8
0
100
AcDbCircle
 62
7
  6
CONTINUOUS
 10
1.9169986264
 20
4.3463255495
 40
0.147
  0
ENDSEC
  0
SECTION
  2
OBJECTS
  0
DICTIONARY
  5
C
100
AcDbDictionary
280
0
281
1
  3
ACAD_GROUP
350
D
  3
ACAD_MLINESTYLE
350
17
  3
ACAD_LAYOUT
350
1A
  3
ACAD_PLOTSETTINGS
350
19
  3
ACAD_PLOTSTYLENAME
350
E
  0
DICTIONARY
  5
D
102
{ACAD_REACTORS
330
C
102
}
100
AcDbDictionary
280
0
281
1
  0
ACDBDICTIONARYWDFLT
  5
E
102
{ACAD_REACTORS
330
C
102
}
100
AcDbDictionary
281
1
  3
Normal
350
F
100
AcDbDictionaryWithDefault
340
F
  0
DICTIONARY
  5
17
102
{ACAD_REACTORS
330
C
102
}
100
AcDbDictionary
280
0
281
1
  3
Standard
350
18
  0
DICTIONARY
  5
19
102
{ACAD_REACTORS
330
C
102
}
100
AcDbDictionary
281
1
  0
DICTIONARY
  5
1A
102
{ACAD_REACTORS
330
C
102
}
100
AcDbDictionary
281
1
  3
Model
350
399
  3
Layout1
350
39A
  0
ACDBPLACEHOLDER
  5
F
102
{ACAD_REACTORS
330
E
102
}
  0
MLINESTYLE
  5
18
102
{ACAD_REACTORS
330
17
102
}
100
AcDbMlineStyle
  2
STANDARD
 70
0
  3

 62
256
 51
90.0
 52
90.0
 71
2
 49
0.5
 62
256
  6
BYLAYER
 49
-0.5
 62
256
  6
BYLAYER
  0
LAYOUT
  5
399
102
{ACAD_REACTORS
330
1A
102
}
100
AcDbPlotSettings
  1

  2
none_device
  4
ANSI_A_(11.00_x_8.50_Inches)
  6

 40
0.0
 41
0.0
 42
0.0
 43
0.0
 44
279.4
 45
215.9
 46
0.0
 47
0.0
 48
0.0
 49
0.0
140
0.0
141
0.0
142
1.0
143
1.0
 70
1024
 72
0
 73
0
 74
0
  7

 75
0
147
1.0
148
0.0
149
0.0
100
AcDbLayout
  1
Model
 70
0
 71
0
 10
0.0
 20
0.0
 11
11.0
 21
8.5
 12
0.0
 22
0.0
 32
0.0
 14
0.0
 24
0.0
 34
0.0
 15
0.0
 25
0.0
 35
0.0
146
0.0
 13
0.0
 23
0.0
 33
0.0
 16
1.0
 26
0.0
 36
0.0
 17
0.0
 27
1.0
 37
0.0
 76
0
330
203
345
0
346
0
  0
LAYOUT
  5
39A
102
{ACAD_REACTORS
330
1A
102
}
100
AcDbPlotSettings
  1

  2
none_device
  4
ANSI_A_(11.00_x_8.50_Inches)
  6

 40
0.0
 41
0.0
 42
0.0
 43
0.0
 44
279.4
 45
215.9
 46
0.0
 47
0.0
 48
0.0
 49
0.0
140
0.0
141
0.0
142
1.0
143
1.0
 70
0
 72
0
 73
0
 74
0
  7

 75
0
147
1.0
148
0.0
149
0.0
100
AcDbLayout
  1
Layout1
 70
0
 71
1
 10
0.0
 20
0.0
 11
11.0
 21
8.5
 12
0.0
 22
0.0
 32
0.0
 14
0.0
 24
0.0
 34
0.0
 15
0.0
 25
0.0
 35
0.0
146
0.0
 13
0.0
 23
0.0
 33
0.0
 16
1.0
 26
0.0
 36
0.0
 17
0.0
 27
1.0
 37
0.0
 76
0
330
204
345
0
346
0
  0
ENDSEC
  0
EOF
