999
DXF file: 3230-1530_right.dxf
999
Pro/ENGINEER 2023134 by Parametric Technology Corporation
  0
SECTION
  2
HEADER
  9
$ACADVER
  1
AC1032
  9
$DWGCODEPAGE
  3
ANSI_1252
  9
$EXTMAX
 10
11.0
 20
8.5
 30
0.0
  9
$EXTMIN
 10
0.0
 20
0.0
 30
0.0
  9
$LIMMIN
 10
0.0
 20
0.0
  9
$LIMMAX
 10
11.0
 20
8.5
  9
$VIEWCTR
 10
5.5
 20
4.25
  9
$VIEWSIZE
 40
8.5
  9
$CLAYER
  8
0
  9
$LTSCALE
 40
0.605
  9
$CELTYPE
  6
BYLAYER
  9
$DIMSCALE
 40
1.0
  9
$DIMASZ
 40
0.1
  9
$DIMEXO
 40
0.03125
  9
$DIMDLI
 40
0.418
  9
$DIMEXE
 40
0.0625
  9
$DIMCEN
 40
0.099
  9
$DIMLFAC
 40
1.0
  9
$DIMBLK
  1
_FILLED
  9
$DIMALT
 70
1
  9
$DIMALTD
 70
2
  9
$DIMALTTD
 70
2
  9
$DIMALTF
 40
25.4
  9
$DIMTXT
 40
0.08
  9
$DIMTOL
 70
1
  9
$DIMLIM
 70
0
  9
$DIMTFAC
 40
1.0
  9
$DIMTP
 40
0.001
  9
$DIMTM
 40
0.001
  9
$DIMGAP
 40
0.09
  9
$DIMDSEP
 70
46
  9
$AUNITS
 70
0
  9
$PDMODE
 70
3
  9
$PDSIZE
 40
0.06
  9
$HANDSEED
  5
2E9
  9
$TILEMODE
 70
1
  9
$MEASUREMENT
 70
0
  9
$INSUNITS
 70
1
  0
ENDSEC
  0
SECTION
  2
CLASSES
  0
CLASS
  1
ACDBDICTIONARYWDFLT
  2
AcDbDictionaryWithDefault
  3
AutoCAD 2000
 90
0
 91
1
280
0
281
0
  0
CLASS
  1
ACDBPLACEHOLDER
  2
AcDbPlaceHolder
  3
AutoCAD 2000
 90
0
 91
1
280
0
281
0
  0
CLASS
  1
LAYOUT
  2
AcDbLayout
  3
AutoCAD 2000
 90
0
 91
0
280
0
281
0
  0
ENDSEC
  0
SECTION
  2
TABLES
  0
TABLE
  2
VPORT
  5
8
100
AcDbSymbolTable
 70
2
  0
VPORT
  5
1F4
100
AcDbSymbolTableRecord
100
AcDbViewportTableRecord
  2
*ACTIVE
 70
0
 10
0.0
 20
0.0
 11
1.0
 21
1.0
 12
5.5
 22
4.25
 13
0.0
 23
0.0
 14
1.0
 24
1.0
 15
0.0
 25
0.0
 16
0.0
 26
0.0
 36
1.0
 17
0.0
 27
0.0
 37
0.0
 40
8.5
 41
1.2941176471
 42
50.0
 43
0.0
 44
0.0
 50
0.0
 51
0.0
 71
0
 72
100
 73
1
 74
1
 75
0
 76
0
 77
0
 78
0
  0
ENDTAB
  0
TABLE
  2
LTYPE
  5
5
100
AcDbSymbolTable
 70
6
  0
LTYPE
  5
14
100
AcDbSymbolTableRecord
100
AcDbLinetypeTableRecord
  2
BYBLOCK
 70
0
  3

 72
65
 73
0
 40
0.0
  0
LTYPE
  5
15
100
AcDbSymbolTableRecord
100
AcDbLinetypeTableRecord
  2
BYLAYER
 70
0
  3

 72
65
 73
0
 40
0.0
  0
LTYPE
  5
16
100
AcDbSymbolTableRecord
100
AcDbLinetypeTableRecord
  2
CONTINUOUS
 70
64
  3
Solid line
 72
65
 73
0
 40
0.0
  0
LTYPE
  5
1F5
100
AcDbSymbolTableRecord
100
AcDbLinetypeTableRecord
  2
CENTER
 70
64
  3
____ _ ____ _ ____ _ ____ _ ____ _ ____ _ ____
 72
65
 73
4
 40
0.6
 49
0.375
 74
0
 49
-0.075
 74
0
 49
0.075
 74
0
 49
-0.075
 74
0
  0
LTYPE
  5
1F6
100
AcDbSymbolTableRecord
100
AcDbLinetypeTableRecord
  2
HIDDEN
 70
64
  3
- - - - - - - - - - - - - - - - - - - -
 72
65
 73
2
 40
0.2
 49
0.1
 74
0
 49
-0.1
 74
0
  0
LTYPE
  5
1F7
100
AcDbSymbolTableRecord
100
AcDbLinetypeTableRecord
  2
PHANTOM
 70
64
  3
_____ _ _ _____ _ _ _____ _ _ _____
 72
65
 73
6
 40
0.8
 49
0.45
 74
0
 49
-0.05
 74
0
 49
0.1
 74
0
 49
-0.05
 74
0
 49
0.1
 74
0
 49
-0.05
 74
0
  0
LTYPE
  5
1F8
100
AcDbSymbolTableRecord
100
AcDbLinetypeTableRecord
  2
DOT
 70
64
  3
. . . . . . . . . . . . . . . . . . . .
 72
65
 73
2
 40
0.2
 49
0.1
 74
0
 49
-0.1
 74
0
  0
LTYPE
  5
1F9
100
AcDbSymbolTableRecord
100
AcDbLinetypeTableRecord
  2
DASHED
 70
64
  3
- - - - - - - - - - - - - - - - - - - -
 72
65
 73
2
 40
0.2
 49
0.1
 74
0
 49
-0.1
 74
0
  0
ENDTAB
  0
TABLE
  2
LAYER
  5
2
100
AcDbSymbolTable
 70
36
  0
LAYER
  5
10
100
AcDbSymbolTableRecord
100
AcDbLayerTableRecord
  2
0
 70
0
 62
7
  6
CONTINUOUS
370
-3
390
F
  0
LAYER
  5
1FA
100
AcDbSymbolTableRecord
100
AcDbLayerTableRecord
  2
DEFAULT_1
 70
0
 62
7
  6
CENTER
370
-3
390
F
  0
LAYER
  5
1FB
100
AcDbSymbolTableRecord
100
AcDbLayerTableRecord
  2
DEFAULT_2
 70
0
 62
8
  6
HIDDEN
370
-3
390
F
  0
LAYER
  5
1FC
100
AcDbSymbolTableRecord
100
AcDbLayerTableRecord
  2
DEFAULT_3
 70
0
 62
7
  6
PHANTOM
370
-3
390
F
  0
LAYER
  5
1FD
100
AcDbSymbolTableRecord
100
AcDbLayerTableRecord
  2
DEFAULT_COORDINATE_SYSTEM
 70
0
 62
7
  6
CONTINUOUS
370
-3
390
F
  0
LAYER
  5
1FE
100
AcDbSymbolTableRecord
100
AcDbLayerTableRecord
  2
DEFAULT_DATUM_AXES
 70
0
 62
7
  6
CONTINUOUS
370
-3
390
F
  0
LAYER
  5
1FF
100
AcDbSymbolTableRecord
100
AcDbLayerTableRecord
  2
DEFAULT_DATUM_CURVES
 70
0
 62
7
  6
CONTINUOUS
370
-3
390
F
  0
LAYER
  5
200
100
AcDbSymbolTableRecord
100
AcDbLayerTableRecord
  2
DEFAULT_DATUM_PLANES
 70
0
 62
7
  6
CONTINUOUS
370
-3
390
F
  0
ENDTAB
  0
TABLE
  2
STYLE
  5
3
100
AcDbSymbolTable
 70
1
  0
STYLE
  5
11
100
AcDbSymbolTableRecord
100
AcDbTextStyleTableRecord
  2
STANDARD
 70
0
 40
0.0
 41
0.8
 50
0.0
 71
0
 42
0.2
  3
txt
  4

  0
STYLE
  5
201
100
AcDbSymbolTableRecord
100
AcDbTextStyleTableRecord
  2
TEXTSTYLE_1
 70
0
 40
0.0
 41
0.8
 50
0.0
 71
0
 42
0.2
  3
gdt
  4

  0
ENDTAB
  0
TABLE
  2
VIEW
  5
6
100
AcDbSymbolTable
 70
0
  0
ENDTAB
  0
TABLE
  2
UCS
  5
7
100
AcDbSymbolTable
 70
0
  0
ENDTAB
  0
TABLE
  2
APPID
  5
9
100
AcDbSymbolTable
 70
1
  0
APPID
  5
202
100
AcDbSymbolTableRecord
100
AcDbRegAppTableRecord
  2
ACAD
 70
0
  0
ENDTAB
  0
TABLE
  2
BLOCK_RECORD
  5
1
100
AcDbSymbolTable
 70
0
  0
BLOCK_RECORD
  5
203
100
AcDbSymbolTableRecord
100
AcDbBlockTableRecord
  2
*Model_Space
  0
BLOCK_RECORD
  5
204
100
AcDbSymbolTableRecord
100
AcDbBlockTableRecord
  2
*Paper_Space
  0
BLOCK_RECORD
  5
205
100
AcDbSymbolTableRecord
100
AcDbBlockTableRecord
  2
_FILLED
  0
ENDTAB
  0
TABLE
  2
DIMSTYLE
  5
A
100
AcDbSymbolTable
 70
1
100
AcDbDimStyleTable
 71
0
  0
DIMSTYLE
105
206
100
AcDbSymbolTableRecord
100
AcDbDimStyleTableRecord
  2
STANDARD
 70
0
  3

  4

 40
1.0
 41
0.1
 42
0.03125
 43
0.38
 44
0.0625
 45
0.0
 46
0.0
 47
0.001
 48
0.001
140
0.08
141
0.09
142
0.0
143
25.4
144
1.0
145
0.0
146
1.0
147
0.09
 71
1
 72
0
 73
1
 74
1
 75
0
 76
0
 77
0
 78
4
 79
1
170
1
171
2
172
0
173
0
174
0
175
0
176
0
177
0
178
0
270
2
179
3
271
3
272
3
273
2
274
2
275
0
280
0
281
0
282
0
283
1
284
4
285
0
286
0
287
3
288
0
340
11
278
46
341
205
342
205
343
205
344
205
  0
ENDTAB
  0
ENDSEC
  0
SECTION
  2
BLOCKS
  0
BLOCK
  5
20
100
AcDbEntity
  8
0
100
AcDbBlockBegin
  2
*Model_Space
 70
0
 10
0.0
 20
0.0
 30
0.0
  3
*Model_Space
  1

  0
ENDBLK
  5
21
100
AcDbEntity
  8
0
100
AcDbBlockEnd
  0
BLOCK
  5
1C
100
AcDbEntity
  8
0
100
AcDbBlockBegin
  2
*Paper_Space
 70
0
 10
0.0
 20
0.0
 30
0.0
  3
*Paper_Space
  1

  0
ENDBLK
  5
1D
100
AcDbEntity
  8
0
100
AcDbBlockEnd
  0
BLOCK
  5
207
100
AcDbEntity
  8
0
100
AcDbBlockBegin
  2
_FILLED
 70
64
 10
0.0
 20
0.0
  3
_FILLED
  1

  0
SOLID
  5
208
100
AcDbEntity
  8
0
  6
BYBLOCK
 62
0
100
AcDbTrace
 10
0.0
 20
0.0
 11
-1.0
 21
0.2
 12
-1.0
 22
-0.2
 13
-1.0
 23
-0.2
  0
ENDBLK
  5
209
100
AcDbEntity
  8
0
  6
BYBLOCK
 62
0
100
AcDbBlockEnd
  0
ENDSEC
  0
SECTION
  2
ENTITIES
  0
MTEXT
  5
20A
100
AcDbEntity
  8
0
100
AcDbMText
 62
2
  6
CONTINUOUS
  7
STANDARD
 71
3
 72
1
 10
5.278021223
 20
2.3032930025
 30
0.0
 11
1.0
 21
0.0
 31
0.0
 73
2
 44
0.9
  1
SCALE 1.000
 40
0.08
 41
0.704
  0
LINE
  5
20B
100
AcDbEntity
  8
0
100
AcDbLine
 62
7
  6
CONTINUOUS
 10
0.0
 20
0.0
 11
0.0
 21
8.5
  0
LINE
  5
20C
100
AcDbEntity
  8
0
100
AcDbLine
 62
7
  6
CONTINUOUS
 10
0.0
 20
0.0
 11
11.0
 21
0.0
  0
LINE
  5
20D
100
AcDbEntity
  8
0
100
AcDbLine
 62
7
  6
CONTINUOUS
 10
0.0
 20
8.5
 11
11.0
 21
8.5
  0
LINE
  5
20E
100
AcDbEntity
  8
0
100
AcDbLine
 62
7
  6
CONTINUOUS
 10
11.0
 20
0.0
 11
11.0
 21
8.5
  0
LINE
  5
20F
100
AcDbEntity
  8
0
100
AcDbLine
 62
7
  6
CONTINUOUS
 10
3.736892725
 20
4.143380857
 11
3.736892725
 21
5.123380857
  0
LINE
  5
210
100
AcDbEntity
  8
0
100
AcDbLine
 62
7
  6
CONTINUOUS
 10
3.766892725
 20
4.1136924888
 11
3.766892725
 21
4.1144306218
  0
LINE
  5
211
100
AcDbEntity
  8
0
100
AcDbLine
 62
7
  6
CONTINUOUS
 10
3.766892725
 20
4.1179592389
 11
3.766892725
 21
4.1201665293
  0
LINE
  5
212
100
AcDbEntity
  8
0
100
AcDbLine
 62
7
  6
CONTINUOUS
 10
3.766892725
 20
4.1271897809
 11
3.766892725
 21
4.1308449713
  0
LINE
  5
213
100
AcDbEntity
  8
0
100
AcDbLine
 62
7
  6
CONTINUOUS
 10
3.766892725
 20
4.1412952197
 11
3.766892725
 21
4.1463631086
  0
LINE
  5
214
100
AcDbEntity
  8
0
100
AcDbLine
 62
7
  6
CONTINUOUS
 10
3.766892725
 20
4.1601397121
 11
3.766892725
 21
4.166571493
  0
LINE
  5
215
100
AcDbEntity
  8
0
100
AcDbLine
 62
7
  6
CONTINUOUS
 10
3.766892725
 20
4.1835417755
 11
3.766892725
 21
4.1912755068
  0
LINE
  5
216
100
AcDbEntity
  8
0
100
AcDbLine
 62
7
  6
CONTINUOUS
 10
3.766892725
 20
4.2112760352
 11
3.766892725
 21
4.2202372368
  0
LINE
  5
217
100
AcDbEntity
  8
0
100
AcDbLine
 62
7
  6
CONTINUOUS
 10
3.766892725
 20
4.243075395
 11
3.766892725
 21
4.2531777657
  0
LINE
  5
218
100
AcDbEntity
  8
0
100
AcDbLine
 62
7
  6
CONTINUOUS
 10
3.766892725
 20
4.2786336098
 11
3.766892725
 21
4.2897798582
  0
LINE
  5
219
100
AcDbEntity
  8
0
100
AcDbLine
 62
7
  6
CONTINUOUS
 10
3.766892725
 20
4.3176082345
 11
3.766892725
 21
4.3296910161
  0
LINE
  5
21A
100
AcDbEntity
  8
0
100
AcDbLine
 62
7
  6
CONTINUOUS
 10
3.766892725
 20
4.3596239222
 11
3.766892725
 21
4.3725268733
  0
LINE
  5
21B
100
AcDbEntity
  8
0
100
AcDbLine
 62
7
  6
CONTINUOUS
 10
3.766892725
 20
4.4042760388
 11
3.766892725
 21
4.4178748969
  0
LINE
  5
21C
100
AcDbEntity
  8
0
100
AcDbLine
 62
7
  6
CONTINUOUS
 10
3.766892725
 20
4.4511345601
 11
3.766892725
 21
4.4652983607
  0
LINE
  5
21D
100
AcDbEntity
  8
0
100
AcDbLine
 62
7
  6
CONTINUOUS
 10
3.766892725
 20
4.4997482128
 11
3.766892725
 21
4.5143405508
  0
LINE
  5
21E
100
AcDbEntity
  8
0
100
AcDbLine
 62
7
  6
CONTINUOUS
 10
3.766892725
 20
4.5496488209
 11
3.766892725
 21
4.5645291642
  0
LINE
  5
21F
100
AcDbEntity
  8
0
100
AcDbLine
 62
7
  6
CONTINUOUS
 10
3.766892725
 20
4.6003558143
 11
3.766892725
 21
4.615380857
  0
LINE
  5
220
100
AcDbEntity
  8
0
100
AcDbLine
 62
7
  6
CONTINUOUS
 10
3.766892725
 20
4.651380857
 11
3.766892725
 21
4.6664058996
  0
LINE
  5
221
100
AcDbEntity
  8
0
100
AcDbLine
 62
7
  6
CONTINUOUS
 10
3.766892725
 20
4.7022325498
 11
3.766892725
 21
4.717112893
  0
LINE
  5
222
100
AcDbEntity
  8
0
100
AcDbLine
 62
7
  6
CONTINUOUS
 10
3.766892725
 20
4.7524211631
 11
3.766892725
 21
4.7670135011
  0
LINE
  5
223
100
AcDbEntity
  8
0
100
AcDbLine
 62
7
  6
CONTINUOUS
 10
3.766892725
 20
4.8014633532
 11
3.766892725
 21
4.8156271539
  0
LINE
  5
224
100
AcDbEntity
  8
0
100
AcDbLine
 62
7
  6
CONTINUOUS
 10
3.766892725
 20
4.848886817
 11
3.766892725
 21
4.8624856751
  0
LINE
  5
225
100
AcDbEntity
  8
0
100
AcDbLine
 62
7
  6
CONTINUOUS
 10
3.766892725
 20
4.8942348406
 11
3.766892725
 21
4.9071377917
  0
LINE
  5
226
100
AcDbEntity
  8
0
100
AcDbLine
 62
7
  6
CONTINUOUS
 10
3.766892725
 20
4.9370706978
 11
3.766892725
 21
4.9491534794
  0
LINE
  5
227
100
AcDbEntity
  8
0
100
AcDbLine
 62
7
  6
CONTINUOUS
 10
3.766892725
 20
4.9769818557
 11
3.766892725
 21
4.9881281041
  0
LINE
  5
228
100
AcDbEntity
  8
0
100
AcDbLine
 62
7
  6
CONTINUOUS
 10
3.766892725
 20
5.0135839483
 11
3.766892725
 21
5.0236863189
  0
LINE
  5
229
100
AcDbEntity
  8
0
100
AcDbLine
 62
7
  6
CONTINUOUS
 10
3.766892725
 20
5.0465244772
 11
3.766892725
 21
5.0554856788
  0
LINE
  5
22A
100
AcDbEntity
  8
0
100
AcDbLine
 62
7
  6
CONTINUOUS
 10
3.766892725
 20
5.0754862072
 11
3.766892725
 21
5.0832199384
  0
LINE
  5
22B
100
AcDbEntity
  8
0
100
AcDbLine
 62
7
  6
CONTINUOUS
 10
3.766892725
 20
5.1001902209
 11
3.766892725
 21
5.1066220018
  0
LINE
  5
22C
100
AcDbEntity
  8
0
100
AcDbLine
 62
7
  6
CONTINUOUS
 10
3.766892725
 20
5.1203986054
 11
3.766892725
 21
5.1254664943
  0
LINE
  5
22D
100
AcDbEntity
  8
0
100
AcDbLine
 62
7
  6
CONTINUOUS
 10
3.766892725
 20
5.1359167427
 11
3.766892725
 21
5.1395719331
  0
LINE
  5
22E
100
AcDbEntity
  8
0
100
AcDbLine
 62
7
  6
CONTINUOUS
 10
3.766892725
 20
5.1523310921
 11
3.766892725
 21
5.1530692251
  0
LINE
  5
22F
100
AcDbEntity
  8
0
100
AcDbLine
 62
7
  6
CONTINUOUS
 10
3.766892725
 20
5.1465951847
 11
3.766892725
 21
5.1488024751
  0
LINE
  5
230
100
AcDbEntity
  8
0
100
AcDbLine
 62
7
  6
CONTINUOUS
 10
6.7649448521
 20
3.508380857
 11
6.986892725
 21
3.508380857
  0
LINE
  5
231
100
AcDbEntity
  8
0
100
AcDbLine
 62
7
  6
CONTINUOUS
 10
4.736892725
 20
5.1530692251
 11
4.736892725
 21
4.1136924888
  0
LINE
  5
232
100
AcDbEntity
  8
0
100
AcDbLine
 62
7
  6
CONTINUOUS
 10
4.796892725
 20
4.133380857
 11
4.796892725
 21
5.133380857
  0
LINE
  5
233
100
AcDbEntity
  8
0
100
AcDbLine
 62
7
  6
CONTINUOUS
 10
4.736892725
 20
4.1136924888
 11
3.7668926791
 21
4.1136924888
  0
LINE
  5
234
100
AcDbEntity
  8
0
100
AcDbLine
 62
7
  6
CONTINUOUS
 10
4.736892725
 20
4.1144306218
 11
3.766892725
 21
4.1144306218
  0
LINE
  5
235
100
AcDbEntity
  8
0
100
AcDbLine
 62
7
  6
CONTINUOUS
 10
4.736892725
 20
4.1179592389
 11
3.766892725
 21
4.1179592389
  0
LINE
  5
236
100
AcDbEntity
  8
0
100
AcDbLine
 62
7
  6
CONTINUOUS
 10
4.736892725
 20
4.1201665293
 11
3.766892725
 21
4.1201665293
  0
LINE
  5
237
100
AcDbEntity
  8
0
100
AcDbLine
 62
7
  6
CONTINUOUS
 10
4.736892725
 20
4.1271897809
 11
3.766892725
 21
4.1271897809
  0
LINE
  5
238
100
AcDbEntity
  8
0
100
AcDbLine
 62
7
  6
CONTINUOUS
 10
4.736892725
 20
4.1308449713
 11
3.766892725
 21
4.1308449713
  0
LINE
  5
239
100
AcDbEntity
  8
0
100
AcDbLine
 62
7
  6
CONTINUOUS
 10
6.446892725
 20
4.133380857
 11
4.796892725
 21
4.133380857
  0
LINE
  5
23A
100
AcDbEntity
  8
0
100
AcDbLine
 62
7
  6
CONTINUOUS
 10
4.736892725
 20
4.1412952197
 11
3.766892725
 21
4.1412952197
  0
LINE
  5
23B
100
AcDbEntity
  8
0
100
AcDbLine
 62
7
  6
CONTINUOUS
 10
4.736892725
 20
4.1463631086
 11
3.766892725
 21
4.1463631086
  0
LINE
  5
23C
100
AcDbEntity
  8
0
100
AcDbLine
 62
7
  6
CONTINUOUS
 10
4.796892725
 20
4.148380857
 11
4.736892725
 21
4.148380857
  0
LINE
  5
23D
100
AcDbEntity
  8
0
100
AcDbLine
 62
7
  6
CONTINUOUS
 10
4.736892725
 20
4.1601397121
 11
3.766892725
 21
4.1601397121
  0
LINE
  5
23E
100
AcDbEntity
  8
0
100
AcDbLine
 62
7
  6
CONTINUOUS
 10
4.736892725
 20
4.166571493
 11
3.766892725
 21
4.166571493
  0
LINE
  5
23F
100
AcDbEntity
  8
0
100
AcDbLine
 62
7
  6
CONTINUOUS
 10
4.736892725
 20
4.1835417755
 11
3.766892725
 21
4.1835417755
  0
LINE
  5
240
100
AcDbEntity
  8
0
100
AcDbLine
 62
7
  6
CONTINUOUS
 10
4.736892725
 20
4.1912755068
 11
3.766892725
 21
4.1912755068
  0
LINE
  5
241
100
AcDbEntity
  8
0
100
AcDbLine
 62
7
  6
CONTINUOUS
 10
6.476892725
 20
4.208380857
 11
6.486892725
 21
4.208380857
  0
LINE
  5
242
100
AcDbEntity
  8
0
100
AcDbLine
 62
7
  6
CONTINUOUS
 10
4.736892725
 20
4.2112760352
 11
3.766892725
 21
4.2112760352
  0
LINE
  5
243
100
AcDbEntity
  8
0
100
AcDbLine
 62
7
  6
CONTINUOUS
 10
4.736892725
 20
4.2202372368
 11
3.766892725
 21
4.2202372368
  0
LINE
  5
244
100
AcDbEntity
  8
0
100
AcDbLine
 62
7
  6
CONTINUOUS
 10
3.7415155699
 20
4.2422375676
 11
4.736892725
 21
4.2422375676
  0
LINE
  5
245
100
AcDbEntity
  8
0
100
AcDbLine
 62
7
  6
CONTINUOUS
 10
4.736892725
 20
4.243075395
 11
3.766892725
 21
4.243075395
  0
LINE
  5
246
100
AcDbEntity
  8
0
100
AcDbLine
 62
7
  6
CONTINUOUS
 10
4.736892725
 20
4.2531777657
 11
3.766892725
 21
4.2531777657
  0
LINE
  5
247
100
AcDbEntity
  8
0
100
AcDbLine
 62
7
  6
CONTINUOUS
 10
3.7415155699
 20
4.2755848257
 11
4.736892725
 21
4.2755848257
  0
LINE
  5
248
100
AcDbEntity
  8
0
100
AcDbLine
 62
7
  6
CONTINUOUS
 10
4.736892725
 20
4.2786336098
 11
3.766892725
 21
4.2786336098
  0
LINE
  5
249
100
AcDbEntity
  8
0
100
AcDbLine
 62
7
  6
CONTINUOUS
 10
4.736892725
 20
4.2897798582
 11
3.766892725
 21
4.2897798582
  0
LINE
  5
24A
100
AcDbEntity
  8
0
100
AcDbLine
 62
7
  6
CONTINUOUS
 10
3.7415155699
 20
4.3123778552
 11
4.736892725
 21
4.3123778552
  0
LINE
  5
24B
100
AcDbEntity
  8
0
100
AcDbLine
 62
7
  6
CONTINUOUS
 10
4.736892725
 20
4.3176082345
 11
3.766892725
 21
4.3176082345
  0
LINE
  5
24C
100
AcDbEntity
  8
0
100
AcDbLine
 62
7
  6
CONTINUOUS
 10
4.736892725
 20
4.3296910161
 11
3.766892725
 21
4.3296910161
  0
LINE
  5
24D
100
AcDbEntity
  8
0
100
AcDbLine
 62
7
  6
CONTINUOUS
 10
3.7415155699
 20
4.3522623191
 11
4.736892725
 21
4.3522623191
  0
LINE
  5
24E
100
AcDbEntity
  8
0
100
AcDbLine
 62
7
  6
CONTINUOUS
 10
4.736892725
 20
4.3596239222
 11
3.766892725
 21
4.3596239222
  0
LINE
  5
24F
100
AcDbEntity
  8
0
100
AcDbLine
 62
7
  6
CONTINUOUS
 10
4.736892725
 20
4.3725268733
 11
3.766892725
 21
4.3725268733
  0
LINE
  5
250
100
AcDbEntity
  8
0
100
AcDbLine
 62
7
  6
CONTINUOUS
 10
3.7415155699
 20
4.3948541081
 11
4.736892725
 21
4.3948541081
  0
LINE
  5
251
100
AcDbEntity
  8
0
100
AcDbLine
 62
7
  6
CONTINUOUS
 10
4.736892725
 20
4.4042760388
 11
3.766892725
 21
4.4042760388
  0
LINE
  5
252
100
AcDbEntity
  8
0
100
AcDbLine
 62
7
  6
CONTINUOUS
 10
4.736892725
 20
4.4178748969
 11
3.766892725
 21
4.4178748969
  0
LINE
  5
253
100
AcDbEntity
  8
0
100
AcDbLine
 62
7
  6
CONTINUOUS
 10
3.7415155699
 20
4.4397430402
 11
4.736892725
 21
4.4397430402
  0
LINE
  5
254
100
AcDbEntity
  8
0
100
AcDbLine
 62
7
  6
CONTINUOUS
 10
4.736892725
 20
4.4511345601
 11
3.766892725
 21
4.4511345601
  0
LINE
  5
255
100
AcDbEntity
  8
0
100
AcDbLine
 62
7
  6
CONTINUOUS
 10
4.736892725
 20
4.4652983607
 11
3.766892725
 21
4.4652983607
  0
LINE
  5
256
100
AcDbEntity
  8
0
100
AcDbLine
 62
7
  6
CONTINUOUS
 10
3.7415155699
 20
4.4864968103
 11
4.736892725
 21
4.4864968103
  0
LINE
  5
257
100
AcDbEntity
  8
0
100
AcDbLine
 62
7
  6
CONTINUOUS
 10
4.736892725
 20
4.4997482128
 11
3.766892725
 21
4.4997482128
  0
LINE
  5
258
100
AcDbEntity
  8
0
100
AcDbLine
 62
7
  6
CONTINUOUS
 10
4.736892725
 20
4.5143405508
 11
3.766892725
 21
4.5143405508
  0
LINE
  5
259
100
AcDbEntity
  8
0
100
AcDbLine
 62
7
  6
CONTINUOUS
 10
3.7415155699
 20
4.534665154
 11
4.736892725
 21
4.534665154
  0
LINE
  5
25A
100
AcDbEntity
  8
0
100
AcDbLine
 62
7
  6
CONTINUOUS
 10
4.736892725
 20
4.5496488209
 11
3.766892725
 21
4.5496488209
  0
LINE
  5
25B
100
AcDbEntity
  8
0
100
AcDbLine
 62
7
  6
CONTINUOUS
 10
4.736892725
 20
4.5645291642
 11
3.766892725
 21
4.5645291642
  0
LINE
  5
25C
100
AcDbEntity
  8
0
100
AcDbLine
 62
7
  6
CONTINUOUS
 10
3.7415155699
 20
4.583784184
 11
4.736892725
 21
4.583784184
  0
LINE
  5
25D
100
AcDbEntity
  8
0
100
AcDbLine
 62
7
  6
CONTINUOUS
 10
4.736892725
 20
4.6003558143
 11
3.766892725
 21
4.6003558143
  0
LINE
  5
25E
100
AcDbEntity
  8
0
100
AcDbLine
 62
7
  6
CONTINUOUS
 10
4.736892725
 20
4.615380857
 11
3.766892725
 21
4.615380857
  0
LINE
  5
25F
100
AcDbEntity
  8
0
100
AcDbLine
 62
7
  6
CONTINUOUS
 10
3.7415155699
 20
4.633380857
 11
4.736892725
 21
4.633380857
  0
LINE
  5
260
100
AcDbEntity
  8
0
100
AcDbLine
 62
7
  6
CONTINUOUS
 10
4.736892725
 20
4.651380857
 11
3.766892725
 21
4.651380857
  0
LINE
  5
261
100
AcDbEntity
  8
0
100
AcDbLine
 62
7
  6
CONTINUOUS
 10
4.736892725
 20
4.6664058996
 11
3.766892725
 21
4.6664058996
  0
LINE
  5
262
100
AcDbEntity
  8
0
100
AcDbLine
 62
7
  6
CONTINUOUS
 10
3.7415155699
 20
4.68297753
 11
4.736892725
 21
4.68297753
  0
LINE
  5
263
100
AcDbEntity
  8
0
100
AcDbLine
 62
7
  6
CONTINUOUS
 10
4.736892725
 20
4.7022325498
 11
3.766892725
 21
4.7022325498
  0
LINE
  5
264
100
AcDbEntity
  8
0
100
AcDbLine
 62
7
  6
CONTINUOUS
 10
4.736892725
 20
4.717112893
 11
3.766892725
 21
4.717112893
  0
LINE
  5
265
100
AcDbEntity
  8
0
100
AcDbLine
 62
7
  6
CONTINUOUS
 10
3.7415155699
 20
4.7320965599
 11
4.736892725
 21
4.7320965599
  0
LINE
  5
266
100
AcDbEntity
  8
0
100
AcDbLine
 62
7
  6
CONTINUOUS
 10
4.736892725
 20
4.7524211631
 11
3.766892725
 21
4.7524211631
  0
LINE
  5
267
100
AcDbEntity
  8
0
100
AcDbLine
 62
7
  6
CONTINUOUS
 10
4.736892725
 20
4.7670135011
 11
3.766892725
 21
4.7670135011
  0
LINE
  5
268
100
AcDbEntity
  8
0
100
AcDbLine
 62
7
  6
CONTINUOUS
 10
3.7415155699
 20
4.7802649037
 11
4.736892725
 21
4.7802649037
  0
LINE
  5
269
100
AcDbEntity
  8
0
100
AcDbLine
 62
7
  6
CONTINUOUS
 10
4.736892725
 20
4.8014633532
 11
3.766892725
 21
4.8014633532
  0
LINE
  5
26A
100
AcDbEntity
  8
0
100
AcDbLine
 62
7
  6
CONTINUOUS
 10
4.736892725
 20
4.8156271539
 11
3.766892725
 21
4.8156271539
  0
LINE
  5
26B
100
AcDbEntity
  8
0
100
AcDbLine
 62
7
  6
CONTINUOUS
 10
3.7415155699
 20
4.8270186737
 11
4.736892725
 21
4.8270186737
  0
LINE
  5
26C
100
AcDbEntity
  8
0
100
AcDbLine
 62
7
  6
CONTINUOUS
 10
4.736892725
 20
4.848886817
 11
3.766892725
 21
4.848886817
  0
LINE
  5
26D
100
AcDbEntity
  8
0
100
AcDbLine
 62
7
  6
CONTINUOUS
 10
4.736892725
 20
4.8624856751
 11
3.766892725
 21
4.8624856751
  0
LINE
  5
26E
100
AcDbEntity
  8
0
100
AcDbLine
 62
7
  6
CONTINUOUS
 10
3.7415155699
 20
4.8719076058
 11
4.736892725
 21
4.8719076058
  0
LINE
  5
26F
100
AcDbEntity
  8
0
100
AcDbLine
 62
7
  6
CONTINUOUS
 10
4.736892725
 20
4.8942348406
 11
3.766892725
 21
4.8942348406
  0
LINE
  5
270
100
AcDbEntity
  8
0
100
AcDbLine
 62
7
  6
CONTINUOUS
 10
4.736892725
 20
4.9071377917
 11
3.766892725
 21
4.9071377917
  0
LINE
  5
271
100
AcDbEntity
  8
0
100
AcDbLine
 62
7
  6
CONTINUOUS
 10
3.7415155699
 20
4.9144993949
 11
4.736892725
 21
4.9144993949
  0
LINE
  5
272
100
AcDbEntity
  8
0
100
AcDbLine
 62
7
  6
CONTINUOUS
 10
4.736892725
 20
4.9370706978
 11
3.766892725
 21
4.9370706978
  0
LINE
  5
273
100
AcDbEntity
  8
0
100
AcDbLine
 62
7
  6
CONTINUOUS
 10
4.736892725
 20
4.9491534794
 11
3.766892725
 21
4.9491534794
  0
LINE
  5
274
100
AcDbEntity
  8
0
100
AcDbLine
 62
7
  6
CONTINUOUS
 10
3.7415155699
 20
4.9543838588
 11
4.736892725
 21
4.9543838588
  0
LINE
  5
275
100
AcDbEntity
  8
0
100
AcDbLine
 62
7
  6
CONTINUOUS
 10
4.736892725
 20
4.9769818557
 11
3.766892725
 21
4.9769818557
  0
LINE
  5
276
100
AcDbEntity
  8
0
100
AcDbLine
 62
7
  6
CONTINUOUS
 10
4.736892725
 20
4.9881281041
 11
3.766892725
 21
4.9881281041
  0
LINE
  5
277
100
AcDbEntity
  8
0
100
AcDbLine
 62
7
  6
CONTINUOUS
 10
3.7415155699
 20
4.9911768882
 11
4.736892725
 21
4.9911768882
  0
LINE
  5
278
100
AcDbEntity
  8
0
100
AcDbLine
 62
7
  6
CONTINUOUS
 10
4.736892725
 20
5.0135839483
 11
3.766892725
 21
5.0135839483
  0
LINE
  5
279
100
AcDbEntity
  8
0
100
AcDbLine
 62
7
  6
CONTINUOUS
 10
4.736892725
 20
5.0236863189
 11
3.766892725
 21
5.0236863189
  0
LINE
  5
27A
100
AcDbEntity
  8
0
100
AcDbLine
 62
7
  6
CONTINUOUS
 10
3.7415155699
 20
5.0245241464
 11
4.736892725
 21
5.0245241464
  0
LINE
  5
27B
100
AcDbEntity
  8
0
100
AcDbLine
 62
7
  6
CONTINUOUS
 10
4.736892725
 20
5.0465244772
 11
3.766892725
 21
5.0465244772
  0
LINE
  5
27C
100
AcDbEntity
  8
0
100
AcDbLine
 62
7
  6
CONTINUOUS
 10
4.736892725
 20
5.0554856788
 11
3.766892725
 21
5.0554856788
  0
LINE
  5
27D
100
AcDbEntity
  8
0
100
AcDbLine
 62
7
  6
CONTINUOUS
 10
6.476892725
 20
5.058380857
 11
6.486892725
 21
5.058380857
  0
LINE
  5
27E
100
AcDbEntity
  8
0
100
AcDbLine
 62
7
  6
CONTINUOUS
 10
4.736892725
 20
5.0754862072
 11
3.766892725
 21
5.0754862072
  0
LINE
  5
27F
100
AcDbEntity
  8
0
100
AcDbLine
 62
7
  6
CONTINUOUS
 10
4.736892725
 20
5.0832199384
 11
3.766892725
 21
5.0832199384
  0
LINE
  5
280
100
AcDbEntity
  8
0
100
AcDbLine
 62
7
  6
CONTINUOUS
 10
4.736892725
 20
5.1001902209
 11
3.766892725
 21
5.1001902209
  0
LINE
  5
281
100
AcDbEntity
  8
0
100
AcDbLine
 62
7
  6
CONTINUOUS
 10
4.736892725
 20
5.1066220018
 11
3.766892725
 21
5.1066220018
  0
LINE
  5
282
100
AcDbEntity
  8
0
100
AcDbLine
 62
7
  6
CONTINUOUS
 10
4.796892725
 20
5.118380857
 11
4.736892725
 21
5.118380857
  0
LINE
  5
283
100
AcDbEntity
  8
0
100
AcDbLine
 62
7
  6
CONTINUOUS
 10
4.736892725
 20
5.1203986054
 11
3.766892725
 21
5.1203986054
  0
LINE
  5
284
100
AcDbEntity
  8
0
100
AcDbLine
 62
7
  6
CONTINUOUS
 10
4.736892725
 20
5.1254664943
 11
3.766892725
 21
5.1254664943
  0
LINE
  5
285
100
AcDbEntity
  8
0
100
AcDbLine
 62
7
  6
CONTINUOUS
 10
6.446892725
 20
5.133380857
 11
4.796892725
 21
5.133380857
  0
LINE
  5
286
100
AcDbEntity
  8
0
100
AcDbLine
 62
7
  6
CONTINUOUS
 10
4.736892725
 20
5.1359167427
 11
3.766892725
 21
5.1359167427
  0
LINE
  5
287
100
AcDbEntity
  8
0
100
AcDbLine
 62
7
  6
CONTINUOUS
 10
4.736892725
 20
5.1395719331
 11
3.766892725
 21
5.1395719331
  0
LINE
  5
288
100
AcDbEntity
  8
0
100
AcDbLine
 62
7
  6
CONTINUOUS
 10
4.736892725
 20
5.1465951847
 11
3.766892725
 21
5.1465951847
  0
LINE
  5
289
100
AcDbEntity
  8
0
100
AcDbLine
 62
7
  6
CONTINUOUS
 10
4.736892725
 20
5.1488024751
 11
3.766892725
 21
5.1488024751
  0
LINE
  5
28A
100
AcDbEntity
  8
0
100
AcDbLine
 62
7
  6
CONTINUOUS
 10
4.736892725
 20
5.1523310921
 11
3.766892725
 21
5.1523310921
  0
LINE
  5
28B
100
AcDbEntity
  8
0
100
AcDbLine
 62
7
  6
CONTINUOUS
 10
4.736892725
 20
5.1530692251
 11
3.766892725
 21
5.1530692251
  0
LINE
  5
28C
100
AcDbEntity
  8
0
100
AcDbLine
 62
7
  6
CONTINUOUS
 10
6.446892725
 20
5.133380857
 11
6.446892725
 21
4.133380857
  0
LINE
  5
28D
100
AcDbEntity
  8
0
100
AcDbLine
 62
7
  6
CONTINUOUS
 10
6.476892725
 20
5.103380857
 11
6.476892725
 21
4.163380857
  0
LINE
  5
28E
100
AcDbEntity
  8
0
100
AcDbLine
 62
7
  6
CONTINUOUS
 10
6.486892725
 20
4.1611738549
 11
6.486892725
 21
5.1055878591
  0
LINE
  5
28F
100
AcDbEntity
  8
0
100
AcDbLine
 62
7
  6
CONTINUOUS
 10
6.5125024811
 20
4.1314968308
 11
6.5125024811
 21
5.1352648831
  0
LINE
  5
290
100
AcDbEntity
  8
0
100
AcDbLine
 62
7
  6
CONTINUOUS
 10
6.7649448521
 20
5.758380857
 11
6.986892725
 21
5.758380857
  0
LINE
  5
291
100
AcDbEntity
  8
0
100
AcDbLine
 62
7
  6
CONTINUOUS
 10
6.6558919482
 20
4.0038150132
 11
6.6558919482
 21
5.2629467007
  0
LINE
  5
292
100
AcDbEntity
  8
0
100
AcDbLine
 62
7
  6
CONTINUOUS
 10
6.7350239724
 20
3.5362034828
 11
6.7350239724
 21
5.7305582311
  0
LINE
  5
293
100
AcDbEntity
  8
0
100
AcDbLine
 62
7
  6
CONTINUOUS
 10
6.7649448521
 20
3.508380857
 11
6.7649448521
 21
5.758380857
  0
LINE
  5
294
100
AcDbEntity
  8
0
100
AcDbLine
 62
7
  6
CONTINUOUS
 10
6.986892725
 20
3.508380857
 11
6.986892725
 21
5.758380857
  0
ARC
  5
295
100
AcDbEntity
  8
0
100
AcDbCircle
 62
7
  6
CONTINUOUS
 10
4.241617331
 20
5.9120060759
 40
2.5
100
AcDbArc
 50
344.9522620167
 51
355.8378620776
  0
ARC
  5
296
100
AcDbEntity
  8
0
100
AcDbCircle
 62
7
  6
CONTINUOUS
 10
4.241617331
 20
3.3547556381
 40
2.5
100
AcDbArc
 50
4.1621379224
 51
15.0477379833
  0
ARC
  5
297
100
AcDbEntity
  8
0
100
AcDbCircle
 62
7
  6
CONTINUOUS
 10
4.236892725
 20
4.633380857
 40
0.59
100
AcDbArc
 50
147.9435259145
 51
212.0564740855
  0
ARC
  5
298
100
AcDbEntity
  8
0
100
AcDbCircle
 62
7
  6
CONTINUOUS
 10
4.236892725
 20
4.633380857
 40
0.59
100
AcDbArc
 50
241.7462243389
 51
298.2537756611
  0
ARC
  5
299
100
AcDbEntity
  8
0
100
AcDbCircle
 62
7
  6
CONTINUOUS
 10
4.236892725
 20
4.633380857
 40
0.59
100
AcDbArc
 50
61.7462243389
 51
118.2537756611
  0
ARC
  5
29A
100
AcDbEntity
  8
0
100
AcDbCircle
 62
7
  6
CONTINUOUS
 10
4.236892725
 20
4.633380857
 40
0.57
100
AcDbArc
 50
151.3112174575
 51
208.68878254
  0
ARC
  5
29B
100
AcDbEntity
  8
0
100
AcDbCircle
 62
7
  6
CONTINUOUS
 10
4.236892725
 20
4.633380857
 40
0.57
100
AcDbArc
 50
245.7576677878
 51
294.2423322113
  0
ARC
  5
29C
100
AcDbEntity
  8
0
100
AcDbCircle
 62
7
  6
CONTINUOUS
 10
4.236892725
 20
4.633380857
 40
0.57
100
AcDbArc
 50
65.7576677878
 51
114.2423322113
  0
ARC
  5
29D
100
AcDbEntity
  8
0
100
AcDbCircle
 62
7
  6
CONTINUOUS
 10
6.486892725
 20
5.308380857
 40
0.175
100
AcDbArc
 50
278.4149680847
 51
344.9522620167
  0
ARC
  5
29E
100
AcDbEntity
  8
0
100
AcDbCircle
 62
7
  6
CONTINUOUS
 10
6.486892725
 20
3.958380857
 40
0.175
100
AcDbArc
 50
15.0477379833
 51
81.5850319153
  0
ARC
  5
29F
100
AcDbEntity
  8
0
100
AcDbCircle
 62
7
  6
CONTINUOUS
 10
6.516892725
 20
5.1055878591
 40
0.03
100
AcDbArc
 50
98.4149680847
 51
180.0
  0
ARC
  5
2A0
100
AcDbEntity
  8
0
100
AcDbCircle
 62
7
  6
CONTINUOUS
 10
6.516892725
 20
4.1611738549
 40
0.03
100
AcDbArc
 50
180.0
 51
261.5850319153
  0
ARC
  5
2A1
100
AcDbEntity
  8
0
100
AcDbCircle
 62
7
  6
CONTINUOUS
 10
6.7649448521
 20
5.728380857
 40
0.03
100
AcDbArc
 50
90.0
 51
175.8378620776
  0
ARC
  5
2A2
100
AcDbEntity
  8
0
100
AcDbCircle
 62
7
  6
CONTINUOUS
 10
6.7649448521
 20
3.538380857
 40
0.03
100
AcDbArc
 50
184.1621379224
 51
270.0
  0
ARC
  5
2A3
100
AcDbEntity
  8
0
100
AcDbCircle
 62
7
  6
CONTINUOUS
 10
6.446892725
 20
5.103380857
 40
0.03
100
AcDbArc
 50
0.0
 51
90.0
  0
ARC
  5
2A4
100
AcDbEntity
  8
0
100
AcDbCircle
 62
7
  6
CONTINUOUS
 10
6.446892725
 20
4.163380857
 40
0.03
100
AcDbArc
 50
270.0
 51
360.0
  0
ARC
  5
2A5
100
AcDbEntity
  8
0
100
AcDbCircle
 62
7
  6
CONTINUOUS
 10
3.766892725
 20
4.143380857
 40
0.03
100
AcDbArc
 50
180.0
 51
212.2309526453
  0
ARC
  5
2A6
100
AcDbEntity
  8
0
100
AcDbCircle
 62
7
  6
CONTINUOUS
 10
3.766892725
 20
5.123380857
 40
0.03
100
AcDbArc
 50
147.7690473547
 51
180.0
  0
SPLINE
  5
2A7
100
AcDbEntity
  8
0
100
AcDbSpline
 62
7
  6
CONTINUOUS
 70
0
 71
3
 72
17
 73
13
 74
0
 42
0.0000001
 43
0.0000001
 44
0.0000000001
 40
0.0
 40
0.0
 40
0.0
 40
0.0
 40
0.1491782458
 40
0.222249298
 40
0.2936295559
 40
0.430228439
 40
0.5581841934
 40
0.6779991316
 40
0.7352049379
 40
0.7908040612
 40
0.8977580455
 40
1.0
 40
1.0
 40
1.0
 40
1.0
 10
3.766892725
 20
5.1530692251
 30
0.0
 10
3.7653970096
 20
5.1530692251
 30
0.0
 10
3.7631642798
 20
5.152909214
 30
0.0
 10
3.7602654998
 20
5.1523850781
 30
0.0
 10
3.7575324549
 20
5.1516904064
 30
0.0
 10
3.7543588447
 20
5.1505291063
 30
0.0
 10
3.7509369052
 20
5.1487341637
 30
0.0
 10
3.7484229735
 20
5.1469785946
 30
0.0
 10
3.7466399506
 20
5.1454732486
 30
0.0
 10
3.7450422322
 20
5.1439543334
 30
0.0
 10
3.7432763728
 20
5.1419640079
 30
0.0
 10
3.742062298
 20
5.1402480071
 30
0.0
 10
3.7415155699
 20
5.139380857
 30
0.0
  0
SPLINE
  5
2A8
100
AcDbEntity
  8
0
100
AcDbSpline
 62
7
  6
CONTINUOUS
 70
0
 71
3
 72
17
 73
13
 74
0
 42
0.0000001
 43
0.0000001
 44
0.0000000001
 40
0.0
 40
0.0
 40
0.0
 40
0.0
 40
0.154420891
 40
0.3031121439
 40
0.442496409
 40
0.5082859713
 40
0.5714665415
 40
0.6903838406
 40
0.8005022916
 40
0.8527365904
 40
0.9033001264
 40
1.0
 40
1.0
 40
1.0
 40
1.0
 10
3.766892725
 20
5.1488024751
 30
0.0
 10
3.7653979676
 20
5.1488024751
 30
0.0
 10
3.7624604962
 20
5.1486206278
 30
0.0
 10
3.7582405174
 20
5.1478310091
 30
0.0
 10
3.7549658543
 20
5.146795417
 30
0.0
 10
3.7525697287
 20
5.145788884
 30
0.0
 10
3.7504151252
 20
5.1447301427
 30
0.0
 10
3.7479877473
 20
5.1432648882
 30
0.0
 10
3.7458294461
 20
5.1415948382
 30
0.0
 10
3.7443146991
 20
5.1401957532
 30
0.0
 10
3.7429714048
 20
5.1388074438
 30
0.0
 10
3.7420663782
 20
5.1377011415
 30
0.0
 10
3.7415155699
 20
5.1369443287
 30
0.0
  0
SPLINE
  5
2A9
100
AcDbEntity
  8
0
100
AcDbSpline
 62
7
  6
CONTINUOUS
 70
0
 71
3
 72
16
 73
12
 74
0
 42
0.0000001
 43
0.0000001
 44
0.0000000001
 40
0.0
 40
0.0
 40
0.0
 40
0.0
 40
0.0803677923
 40
0.1599055768
 40
0.3131230531
 40
0.4554893588
 40
0.5855225519
 40
0.7036175445
 40
0.8110317685
 40
0.9093323066
 40
1.0
 40
1.0
 40
1.0
 40
1.0
 10
3.766892725
 20
5.1395719331
 30
0.0
 10
3.7661416496
 20
5.1395719331
 30
0.0
 10
3.7646469237
 20
5.1395327973
 30
0.0
 10
3.7617285309
 20
5.1393050066
 30
0.0
 10
3.7582579918
 20
5.138763211
 30
0.0
 10
3.754405281
 20
5.1377468871
 30
0.0
 10
3.7509856769
 20
5.1364535271
 30
0.0
 10
3.7480124486
 20
5.1349564578
 30
0.0
 10
3.7454649752
 20
5.1333120285
 30
0.0
 10
3.7433116896
 20
5.1315612683
 30
0.0
 10
3.7420719288
 20
5.1302973004
 30
0.0
 10
3.7415155699
 20
5.1296582089
 30
0.0
  0
SPLINE
  5
2AA
100
AcDbEntity
  8
0
100
AcDbSpline
 62
7
  6
CONTINUOUS
 70
0
 71
3
 72
15
 73
11
 74
0
 42
0.0000001
 43
0.0000001
 44
0.0000000001
 40
0.0
 40
0.0
 40
0.0
 40
0.0
 40
0.165182087
 40
0.322882224
 40
0.468270293
 40
0.5995334783
 40
0.7169428862
 40
0.8217500557
 40
0.9155753913
 40
1.0
 40
1.0
 40
1.0
 40
1.0
 10
3.766892725
 20
5.1254664943
 30
0.0
 10
3.7653995799
 20
5.1254664943
 30
0.0
 10
3.7624794293
 20
5.1253469566
 30
0.0
 10
3.7582740073
 20
5.124826717
 30
0.0
 10
3.7544262697
 20
5.1240221735
 30
0.0
 10
3.7510099434
 20
5.1229980796
 30
0.0
 10
3.7480382078
 20
5.121812297
 30
0.0
 10
3.7454907691
 20
5.1205093934
 30
0.0
 10
3.7433360778
 20
5.1191216762
 30
0.0
 10
3.74207934
 20
5.1181070174
 30
0.0
 10
3.7415155699
 20
5.1175926668
 30
0.0
  0
SPLINE
  5
2AB
100
AcDbEntity
  8
0
100
AcDbSpline
 62
7
  6
CONTINUOUS
 70
0
 71
3
 72
15
 73
11
 74
0
 42
0.0000001
 43
0.0000001
 44
0.0000000001
 40
0.0
 40
0.0
 40
0.0
 40
0.0
 40
0.1699896467
 40
0.3317642493
 40
0.4799544365
 40
0.6124374408
 40
0.7293366588
 40
0.831839941
 40
0.9215364025
 40
1.0
 40
1.0
 40
1.0
 40
1.0
 10
3.766892725
 20
5.1066220018
 30
0.0
 10
3.7654001719
 20
5.1066220018
 30
0.0
 10
3.7624863952
 20
5.1065349042
 30
0.0
 10
3.7582868866
 20
5.1061556081
 30
0.0
 10
3.754444034
 20
5.1055689725
 30
0.0
 10
3.7510314754
 20
5.1048222352
 30
0.0
 10
3.748062619
 20
5.1039576684
 30
0.0
 10
3.7455172958
 20
5.1030078954
 30
0.0
 10
3.743363745
 20
5.1019964688
 30
0.0
 10
3.7420886561
 20
5.1012462587
 30
0.0
 10
3.7415155699
 20
5.1008639004
 30
0.0
  0
SPLINE
  5
2AC
100
AcDbEntity
  8
0
100
AcDbSpline
 62
7
  6
CONTINUOUS
 70
0
 71
3
 72
15
 73
11
 74
0
 42
0.0000001
 43
0.0000001
 44
0.0000000001
 40
0.0
 40
0.0
 40
0.0
 40
0.0
 40
0.1737639808
 40
0.338758422
 40
0.4892011556
 40
0.6227213411
 40
0.7393051273
 40
0.8400504572
 40
0.9264580377
 40
1.0
 40
1.0
 40
1.0
 40
1.0
 10
3.766892725
 20
5.0832199384
 30
0.0
 10
3.7654005884
 20
5.0832199384
 30
0.0
 10
3.7624913093
 20
5.0831658221
 30
0.0
 10
3.7582961206
 20
5.0829300608
 30
0.0
 10
3.7544571235
 20
5.0825654306
 30
0.0
 10
3.7510479955
 20
5.0821013588
 30
0.0
 10
3.7480824052
 20
5.08156423
 30
0.0
 10
3.7455404602
 20
5.0809745363
 30
0.0
 10
3.7433903073
 20
5.0803470577
 30
0.0
 10
3.7420987245
 20
5.0798753856
 30
0.0
 10
3.7415155699
 20
5.0796330167
 30
0.0
  0
SPLINE
  5
2AD
100
AcDbEntity
  8
0
100
AcDbSpline
 62
7
  6
CONTINUOUS
 70
0
 71
3
 72
15
 73
11
 74
0
 42
0.0000001
 43
0.0000001
 44
0.0000000001
 40
0.0
 40
0.0
 40
0.0
 40
0.0
 40
0.1759652037
 40
0.3428457317
 40
0.494626333
 40
0.628785582
 40
0.7452230071
 40
0.8449683198
 40
0.92944127
 40
1.0
 40
1.0
 40
1.0
 40
1.0
 10
3.766892725
 20
5.0554856788
 30
0.0
 10
3.7654008298
 20
5.0554856788
 30
0.0
 10
3.7624940162
 20
5.0554648702
 30
0.0
 10
3.7583012358
 20
5.0553741957
 30
0.0
 10
3.7544644748
 20
5.0552339661
 30
0.0
 10
3.7510574938
 20
5.0550555176
 30
0.0
 10
3.7480941956
 20
5.0548490365
 30
0.0
 10
3.7455550226
 20
5.054622488
 30
0.0
 10
3.7434082105
 20
5.0543816244
 30
0.0
 10
3.7421062749
 20
5.0541990169
 30
0.0
 10
3.7415155699
 20
5.0541044808
 30
0.0
  0
SPLINE
  5
2AE
100
AcDbEntity
  8
0
100
AcDbSpline
 62
7
  6
CONTINUOUS
 70
0
 71
3
 72
15
 73
11
 74
0
 42
0.0000001
 43
0.0000001
 44
0.0000000001
 40
0.0
 40
0.0
 40
0.0
 40
0.0
 40
0.0705587382
 40
0.1550316846
 40
0.2547769859
 40
0.3712144293
 40
0.5053736134
 40
0.6571540645
 40
0.8240345149
 40
1.0
 40
1.0
 40
1.0
 40
1.0
 10
3.7415155699
 20
4.2126572331
 30
0.0
 10
3.742106275
 20
4.212562697
 30
0.0
 10
3.7434082106
 20
4.2123800895
 30
0.0
 10
3.7455550226
 20
4.2121392259
 30
0.0
 10
3.7480941956
 20
4.2119126774
 30
0.0
 10
3.7510574934
 20
4.2117061964
 30
0.0
 10
3.7544644727
 20
4.2115277479
 30
0.0
 10
3.7583012312
 20
4.2113875184
 30
0.0
 10
3.7624940121
 20
4.2112968437
 30
0.0
 10
3.7654008274
 20
4.2112760352
 30
0.0
 10
3.766892725
 20
4.2112760352
 30
0.0
  0
SPLINE
  5
2AF
100
AcDbEntity
  8
0
100
AcDbSpline
 62
7
  6
CONTINUOUS
 70
0
 71
3
 72
15
 73
11
 74
0
 42
0.0000001
 43
0.0000001
 44
0.0000000001
 40
0.0
 40
0.0
 40
0.0
 40
0.0
 40
0.0735419636
 40
0.1599495321
 40
0.2606948431
 40
0.3772786158
 40
0.5107987972
 40
0.6612416519
 40
0.8262360919
 40
1.0
 40
1.0
 40
1.0
 40
1.0
 10
3.7415155699
 20
4.1871286972
 30
0.0
 10
3.7420987245
 20
4.1868863283
 30
0.0
 10
3.7433903073
 20
4.1864146563
 30
0.0
 10
3.7455404599
 20
4.1857871777
 30
0.0
 10
3.7480824045
 20
4.1851974841
 30
0.0
 10
3.7510479945
 20
4.1846603553
 30
0.0
 10
3.7544571234
 20
4.1841962833
 30
0.0
 10
3.7582961214
 20
4.1838316531
 30
0.0
 10
3.7624913105
 20
4.1835958918
 30
0.0
 10
3.765400589
 20
4.1835417755
 30
0.0
 10
3.766892725
 20
4.1835417755
 30
0.0
  0
SPLINE
  5
2B0
100
AcDbEntity
  8
0
100
AcDbSpline
 62
7
  6
CONTINUOUS
 70
0
 71
3
 72
15
 73
11
 74
0
 42
0.0000001
 43
0.0000001
 44
0.0000000001
 40
0.0
 40
0.0
 40
0.0
 40
0.0
 40
0.0784635987
 40
0.168160048
 40
0.2706633113
 40
0.3875625161
 40
0.5200455171
 40
0.6682358232
 40
0.8300104245
 40
1.0
 40
1.0
 40
1.0
 40
1.0
 10
3.7415155699
 20
4.1658978135
 30
0.0
 10
3.7420886561
 20
4.1655154552
 30
0.0
 10
3.7433637449
 20
4.1647652452
 30
0.0
 10
3.7455172955
 20
4.1637538187
 30
0.0
 10
3.7480626183
 20
4.1628040458
 30
0.0
 10
3.7510314744
 20
4.1619394791
 30
0.0
 10
3.7544440339
 20
4.1611927413
 30
0.0
 10
3.7582868875
 20
4.1606061058
 30
0.0
 10
3.7624863965
 20
4.1602268097
 30
0.0
 10
3.7654001725
 20
4.1601397121
 30
0.0
 10
3.766892725
 20
4.1601397121
 30
0.0
  0
SPLINE
  5
2B1
100
AcDbEntity
  8
0
100
AcDbSpline
 62
7
  6
CONTINUOUS
 70
0
 71
3
 72
15
 73
11
 74
0
 42
0.0000001
 43
0.0000001
 44
0.0000000001
 40
0.0
 40
0.0
 40
0.0
 40
0.0
 40
0.0844246099
 40
0.1782499328
 40
0.2830570834
 40
0.4004664785
 40
0.5317296616
 40
0.6771178467
 40
0.8348179822
 40
1.0
 40
1.0
 40
1.0
 40
1.0
 10
3.7415155699
 20
4.1491690471
 30
0.0
 10
3.74207934
 20
4.1486546966
 30
0.0
 10
3.7433360777
 20
4.1476400378
 30
0.0
 10
3.7454907688
 20
4.1462523207
 30
0.0
 10
3.7480382071
 20
4.1449494173
 30
0.0
 10
3.7510099424
 20
4.1437636347
 30
0.0
 10
3.7544262695
 20
4.1427395403
 30
0.0
 10
3.7582740082
 20
4.1419349969
 30
0.0
 10
3.7624794305
 20
4.1414147572
 30
0.0
 10
3.7653995806
 20
4.1412952197
 30
0.0
 10
3.766892725
 20
4.1412952197
 30
0.0
  0
SPLINE
  5
2B2
100
AcDbEntity
  8
0
100
AcDbSpline
 62
7
  6
CONTINUOUS
 70
0
 71
3
 72
16
 73
12
 74
0
 42
0.0000001
 43
0.0000001
 44
0.0000000001
 40
0.0
 40
0.0
 40
0.0
 40
0.0
 40
0.0906676946
 40
0.1889682195
 40
0.2963824245
 40
0.4144774048
 40
0.5445105968
 40
0.6868770154
 40
0.8400944901
 40
0.9196322254
 40
1.0
 40
1.0
 40
1.0
 40
1.0
 10
3.7415155699
 20
4.1371035051
 30
0.0
 10
3.7420719288
 20
4.1364644135
 30
0.0
 10
3.7433116896
 20
4.1352004457
 30
0.0
 10
3.7454649749
 20
4.1334496857
 30
0.0
 10
3.7480124479
 20
4.1318052565
 30
0.0
 10
3.7509856759
 20
4.1303081873
 30
0.0
 10
3.7544052807
 20
4.1290148267
 30
0.0
 10
3.7582579927
 20
4.1279985029
 30
0.0
 10
3.7617285323
 20
4.1274567073
 30
0.0
 10
3.7646469245
 20
4.1272289164
 30
0.0
 10
3.7661416497
 20
4.1271897809
 30
0.0
 10
3.766892725
 20
4.1271897809
 30
0.0
  0
SPLINE
  5
2B3
100
AcDbEntity
  8
0
100
AcDbSpline
 62
7
  6
CONTINUOUS
 70
0
 71
3
 72
17
 73
13
 74
0
 42
0.0000001
 43
0.0000001
 44
0.0000000001
 40
0.0
 40
0.0
 40
0.0
 40
0.0
 40
0.0966998749
 40
0.1472634074
 40
0.1994976959
 40
0.3096161279
 40
0.4285334151
 40
0.4917139857
 40
0.5575035479
 40
0.6968879226
 40
0.8455791738
 40
1.0
 40
1.0
 40
1.0
 40
1.0
 10
3.7415155699
 20
4.1298173853
 30
0.0
 10
3.7420663782
 20
4.1290605724
 30
0.0
 10
3.7429714048
 20
4.1279542702
 30
0.0
 10
3.744314699
 20
4.1265659608
 30
0.0
 10
3.7458294458
 20
4.125166876
 30
0.0
 10
3.7479877466
 20
4.1234968263
 30
0.0
 10
3.7504151242
 20
4.1220315719
 30
0.0
 10
3.7525697275
 20
4.1209728304
 30
0.0
 10
3.7549658541
 20
4.1199662968
 30
0.0
 10
3.7582405183
 20
4.1189307048
 30
0.0
 10
3.7624604975
 20
4.118141086
 30
0.0
 10
3.7653979683
 20
4.1179592389
 30
0.0
 10
3.766892725
 20
4.1179592389
 30
0.0
  0
SPLINE
  5
2B4
100
AcDbEntity
  8
0
100
AcDbSpline
 62
7
  6
CONTINUOUS
 70
0
 71
3
 72
17
 73
13
 74
0
 42
0.0000001
 43
0.0000001
 44
0.0000000001
 40
0.0
 40
0.0
 40
0.0
 40
0.0
 40
0.1022419794
 40
0.2091959665
 40
0.2647950822
 40
0.3220008852
 40
0.441815809
 40
0.5697715487
 40
0.7063705162
 40
0.7777507752
 40
0.8508218048
 40
1.0
 40
1.0
 40
1.0
 40
1.0
 10
3.7415155699
 20
4.127380857
 30
0.0
 10
3.7420622973
 20
4.1265137079
 30
0.0
 10
3.7432763703
 20
4.1247977095
 30
0.0
 10
3.7450422266
 20
4.1228073865
 30
0.0
 10
3.7466399421
 20
4.1212884732
 30
0.0
 10
3.7484229613
 20
4.1197831288
 30
0.0
 10
3.7509368879
 20
4.1180275612
 30
0.0
 10
3.7543588211
 20
4.116232618
 30
0.0
 10
3.7575324262
 20
4.1150713169
 30
0.0
 10
3.7602654668
 20
4.114376643
 30
0.0
 10
3.7631642411
 20
4.1138525057
 30
0.0
 10
3.7653969664
 20
4.1136924888
 30
0.0
 10
3.7668926791
 20
4.1136924888
 30
0.0
  0
SPLINE
  5
2B5
100
AcDbEntity
  8
0
100
AcDbSpline
 62
7
  6
CONTINUOUS
 70
0
 71
3
 72
15
 73
11
 74
0
 42
0.0000001
 43
0.0000001
 44
0.0000000001
 40
0.0
 40
0.0
 40
0.0
 40
0.0
 40
0.1071837542
 40
0.2179597821
 40
0.3331969064
 40
0.4539474847
 40
0.5811402815
 40
0.7152599725
 40
0.8556649938
 40
1.0
 40
1.0
 40
1.0
 40
1.0
 10
3.7415155699
 20
5.1369443287
 30
0.0
 10
3.7420593005
 20
5.137913727
 30
0.0
 10
3.743264662
 20
5.1398311349
 30
0.0
 10
3.7454073668
 20
5.1425502197
 30
0.0
 10
3.7479461723
 20
5.1451086649
 30
0.0
 10
3.7509146825
 20
5.1474428715
 30
0.0
 10
3.7543363617
 20
5.1494647319
 30
0.0
 10
3.7582017836
 20
5.1510584168
 30
0.0
 10
3.7624377175
 20
5.1520922768
 30
0.0
 10
3.7653959991
 20
5.1523310921
 30
0.0
 10
3.766892725
 20
5.1523310921
 30
0.0
  0
SPLINE
  5
2B6
100
AcDbEntity
  8
0
100
AcDbSpline
 62
7
  6
CONTINUOUS
 70
0
 71
3
 72
19
 73
15
 74
0
 42
0.0000001
 43
0.0000001
 44
0.0000000001
 40
0.0
 40
0.0
 40
0.0
 40
0.0
 40
0.1114214778
 40
0.1681153696
 40
0.2255566265
 40
0.2838276684
 40
0.3430342996
 40
0.4032988633
 40
0.4647024332
 40
0.5912404224
 40
0.7231439508
 40
0.7910708641
 40
0.8600845304
 40
1.0
 40
1.0
 40
1.0
 40
1.0
 10
3.7415155699
 20
5.1296582089
 30
0.0
 10
3.7420570857
 20
5.1307209273
 30
0.0
 10
3.7429507266
 20
5.1322873766
 30
0.0
 10
3.7443043293
 20
5.1342877472
 30
0.0
 10
3.7454190337
 20
5.1357598552
 30
0.0
 10
3.746631996
 20
5.1371876652
 30
0.0
 10
3.7479480175
 20
5.1385633734
 30
0.0
 10
3.7493709351
 20
5.1398784713
 30
0.0
 10
3.7514364464
 20
5.1415522533
 30
0.0
 10
3.754315073
 20
5.1434285537
 30
0.0
 10
3.7575094932
 20
5.1448812973
 30
0.0
 10
3.7602575373
 20
5.1457465352
 30
0.0
 10
3.763151944
 20
5.1463951206
 30
0.0
 10
3.7653949737
 20
5.1465951847
 30
0.0
 10
3.766892725
 20
5.1465951847
 30
0.0
  0
SPLINE
  5
2B7
100
AcDbEntity
  8
0
100
AcDbSpline
 62
7
  6
CONTINUOUS
 70
0
 71
3
 72
15
 73
11
 74
0
 42
0.0000001
 43
0.0000001
 44
0.0000000001
 40
0.0
 40
0.0
 40
0.0
 40
0.0
 40
0.1150705794
 40
0.2320717603
 40
0.351475523
 40
0.4739325833
 40
0.6000262123
 40
0.7301125612
 40
0.8638847533
 40
1.0
 40
1.0
 40
1.0
 40
1.0
 10
3.7415155699
 20
5.1175926668
 30
0.0
 10
3.7420554398
 20
5.1187389249
 30
0.0
 10
3.7432487829
 20
5.1210033912
 30
0.0
 10
3.7453851086
 20
5.1242384233
 30
0.0
 10
3.747916681
 20
5.1272839582
 30
0.0
 10
3.7508783069
 20
5.1300655132
 30
0.0
 10
3.7542960941
 20
5.1324793326
 30
0.0
 10
3.7581649283
 20
5.1343871826
 30
0.0
 10
3.7624144703
 20
5.1356287811
 30
0.0
 10
3.7653939736
 20
5.1359167427
 30
0.0
 10
3.766892725
 20
5.1359167427
 30
0.0
  0
SPLINE
  5
2B8
100
AcDbEntity
  8
0
100
AcDbSpline
 62
7
  6
CONTINUOUS
 70
0
 71
3
 72
16
 73
12
 74
0
 42
0.0000001
 43
0.0000001
 44
0.0000000001
 40
0.0
 40
0.0
 40
0.0
 40
0.0
 40
0.118064058
 40
0.1775974557
 40
0.2375040693
 40
0.3585554297
 40
0.4817338852
 40
0.6074594516
 40
0.7360027472
 40
0.8671624463
 40
1.0
 40
1.0
 40
1.0
 40
1.0
 10
3.7415155699
 20
5.1008639004
 30
0.0
 10
3.7420542145
 20
5.1020831158
 30
0.0
 10
3.7429438127
 20
5.1038839894
 30
0.0
 10
3.7443007223
 20
5.1061976545
 30
0.0
 10
3.7457908569
 20
5.108468436
 30
0.0
 10
3.7479060957
 20
5.1111832554
 30
0.0
 10
3.7508642352
 20
5.1141484137
 30
0.0
 10
3.7542795023
 20
5.1167235248
 30
0.0
 10
3.7581487749
 20
5.1187614131
 30
0.0
 10
3.762403809
 20
5.1200898562
 30
0.0
 10
3.7653930369
 20
5.1203986054
 30
0.0
 10
3.766892725
 20
5.1203986054
 30
0.0
  0
SPLINE
  5
2B9
100
AcDbEntity
  8
0
100
AcDbSpline
 62
7
  6
CONTINUOUS
 70
0
 71
3
 72
18
 73
14
 74
0
 42
0.0000001
 43
0.0000001
 44
0.0000000001
 40
0.0
 40
0.0
 40
0.0
 40
0.0
 40
0.1204386889
 40
0.1809925957
 40
0.2417887304
 40
0.3641559586
 40
0.487908383
 40
0.6133219141
 40
0.7405820693
 40
0.8049533276
 40
0.8697216839
 40
0.9348099435
 40
1.0
 40
1.0
 40
1.0
 40
1.0
 10
3.7415155699
 20
5.0796330167
 30
0.0
 10
3.7420533083
 20
5.0809138906
 30
0.0
 10
3.7429415855
 20
5.0828069923
 30
0.0
 10
3.7442995211
 20
5.0852439162
 30
0.0
 10
3.7457873522
 20
5.0876301545
 30
0.0
 10
3.74789767
 20
5.0904823318
 30
0.0
 10
3.7508529995
 20
5.0936023553
 30
0.0
 10
3.7542651456
 20
5.0963132751
 30
0.0
 10
3.7574811828
 20
5.098098144
 30
0.0
 10
3.7602469333
 20
5.099156793
 30
0.0
 10
3.7624124111
 20
5.0997466644
 30
0.0
 10
3.7646369209
 20
5.1001082105
 30
0.0
 10
3.7661408052
 20
5.1001902209
 30
0.0
 10
3.766892725
 20
5.1001902209
 30
0.0
  0
SPLINE
  5
2BA
100
AcDbEntity
  8
0
100
AcDbSpline
 62
7
  6
CONTINUOUS
 70
0
 71
3
 72
20
 73
16
 74
0
 42
0.0000001
 43
0.0000001
 44
0.0000000001
 40
0.0
 40
0.0
 40
0.0
 40
0.0
 40
0.1222808783
 40
0.1836299491
 40
0.2451218907
 40
0.3685274315
 40
0.4927471654
 40
0.5552547328
 40
0.6180305518
 40
0.6810860064
 40
0.7444299418
 40
0.8080306619
 40
0.8718716251
 40
0.935915508
 40
1.0
 40
1.0
 40
1.0
 40
1.0
 10
3.7415155699
 20
5.0541044808
 30
0.0
 10
3.7420526516
 20
5.0554351017
 30
0.0
 10
3.7429399581
 20
5.0574025702
 30
0.0
 10
3.7442986305
 20
5.0599388566
 30
0.0
 10
3.7457847672
 20
5.06241819
 30
0.0
 10
3.7478911116
 20
5.0653806781
 30
0.0
 10
3.7503482914
 20
5.0680807256
 30
0.0
 10
3.752538822
 20
5.0700269238
 30
0.0
 10
3.7543005888
 20
5.0713653518
 30
0.0
 10
3.7561765668
 20
5.0725574083
 30
0.0
 10
3.7581611459
 20
5.073580666
 30
0.0
 10
3.7602444616
 20
5.0744105338
 30
0.0
 10
3.7624104473
 20
5.0750244244
 30
0.0
 10
3.7646358616
 20
5.0754008187
 30
0.0
 10
3.7661407152
 20
5.0754862072
 30
0.0
 10
3.766892725
 20
5.0754862072
 30
0.0
  0
SPLINE
  5
2BB
100
AcDbEntity
  8
0
100
AcDbSpline
 62
7
  6
CONTINUOUS
 70
0
 71
3
 72
20
 73
16
 74
0
 42
0.0000001
 43
0.0000001
 44
0.0000000001
 40
0.0
 40
0.0
 40
0.0
 40
0.0
 40
0.1236385723
 40
0.1855767366
 40
0.2475867168
 40
0.3717746381
 40
0.4963640556
 40
0.5588730381
 40
0.6215148073
 40
0.684294133
 40
0.7472192496
 40
0.8102659294
 40
0.8734356296
 40
0.9367205203
 40
1.0
 40
1.0
 40
1.0
 40
1.0
 10
3.7415155699
 20
5.0245241464
 30
0.0
 10
3.7420521975
 20
5.0258921066
 30
0.0
 10
3.7429388232
 20
5.0279153657
 30
0.0
 10
3.7442980097
 20
5.0305261915
 30
0.0
 10
3.7457829289
 20
5.0330753291
 30
0.0
 10
3.747886571
 20
5.0361206649
 30
0.0
 10
3.7503446223
 20
5.0389011832
 30
0.0
 10
3.752536981
 20
5.0409056875
 30
0.0
 10
3.7542985364
 20
5.0422829243
 30
0.0
 10
3.7561743917
 20
5.0435096576
 30
0.0
 10
3.7581589802
 20
5.0445627929
 30
0.0
 10
3.7602425101
 20
5.0454170091
 30
0.0
 10
3.7624089485
 20
5.0460490007
 30
0.0
 10
3.7646350356
 20
5.0464365438
 30
0.0
 10
3.7661406454
 20
5.0465244772
 30
0.0
 10
3.766892725
 20
5.0465244772
 30
0.0
  0
SPLINE
  5
2BC
100
AcDbEntity
  8
0
100
AcDbSpline
 62
7
  6
CONTINUOUS
 70
0
 71
3
 72
14
 73
10
 74
0
 42
0.0000001
 43
0.0000001
 44
0.0000000001
 40
0.0
 40
0.0
 40
0.0
 40
0.0
 40
0.3433125882
 40
0.4952450582
 40
0.6294787804
 40
0.7459017694
 40
0.8455346331
 40
0.9297860391
 40
1.0
 40
1.0
 40
1.0
 40
1.0
 10
3.766892725
 20
5.0236863189
 30
0.0
 10
3.7639861931
 20
5.0236863189
 30
0.0
 10
3.7597932235
 20
5.0237209716
 30
0.0
 10
3.7544652196
 20
5.0238389721
 30
0.0
 10
3.7510585026
 20
5.0239472193
 30
0.0
 10
3.7480954892
 20
5.024072442
 30
0.0
 10
3.7455566886
 20
5.0242098259
 30
0.0
 10
3.7434103499
 20
5.0243558754
 30
0.0
 10
3.7421072296
 20
5.0244667086
 30
0.0
 10
3.7415155699
 20
5.0245241464
 30
0.0
  0
SPLINE
  5
2BD
100
AcDbEntity
  8
0
100
AcDbSpline
 62
7
  6
CONTINUOUS
 70
0
 71
3
 72
20
 73
16
 74
0
 42
0.0000001
 43
0.0000001
 44
0.0000000001
 40
0.0
 40
0.0
 40
0.0
 40
0.0
 40
0.1245110852
 40
0.1868285729
 40
0.2491727046
 40
0.3738672104
 40
0.4986989734
 40
0.5612110772
 40
0.6237684165
 40
0.6863711516
 40
0.7490267781
 40
0.8117156123
 40
0.8744506244
 40
0.9372431699
 40
1.0
 40
1.0
 40
1.0
 40
1.0
 10
3.7415155699
 20
4.9911768882
 30
0.0
 10
3.7420519155
 20
4.9925694063
 30
0.0
 10
3.7429381151
 20
4.9946293478
 30
0.0
 10
3.7442976208
 20
4.9972891762
 30
0.0
 10
3.7457817729
 20
4.9998842033
 30
0.0
 10
3.7478836906
 20
5.0029839699
 30
0.0
 10
3.7503422652
 20
5.0058173878
 30
0.0
 10
3.7525357894
 20
5.0078602521
 30
0.0
 10
3.7542971981
 20
5.0092630001
 30
0.0
 10
3.7561729627
 20
5.0105125312
 30
0.0
 10
3.7581575468
 20
5.0115853141
 30
0.0
 10
3.7602412095
 20
5.0124555482
 30
0.0
 10
3.7624079442
 20
5.0130994535
 30
0.0
 10
3.76463448
 20
5.0134943382
 30
0.0
 10
3.7661405984
 20
5.0135839483
 30
0.0
 10
3.766892725
 20
5.0135839483
 30
0.0
  0
SPLINE
  5
2BE
100
AcDbEntity
  8
0
100
AcDbSpline
 62
7
  6
CONTINUOUS
 70
0
 71
3
 72
15
 73
11
 74
0
 42
0.0000001
 43
0.0000001
 44
0.0000000001
 40
0.0
 40
0.0
 40
0.0
 40
0.0
 40
0.1744680813
 40
0.3400652053
 40
0.4909332911
 40
0.6246549319
 40
0.7411887932
 40
0.8416121411
 40
0.9274022049
 40
1.0
 40
1.0
 40
1.0
 40
1.0
 10
3.766892725
 20
4.9881281041
 30
0.0
 10
3.7654006617
 20
4.9881281041
 30
0.0
 10
3.7624921753
 20
4.9881740806
 30
0.0
 10
3.7582977608
 20
4.9883743933
 30
0.0
 10
3.75445948
 20
4.9886841947
 30
0.0
 10
3.7510510312
 20
4.9890784671
 30
0.0
 10
3.748086145
 20
4.9895347707
 30
0.0
 10
3.7455450208
 20
4.9900356405
 30
0.0
 10
3.7433958182
 20
4.9905684807
 30
0.0
 10
3.7421009772
 20
4.9909700856
 30
0.0
 10
3.7415155699
 20
4.9911768882
 30
0.0
  0
SPLINE
  5
2BF
100
AcDbEntity
  8
0
100
AcDbSpline
 62
7
  6
CONTINUOUS
 70
0
 71
3
 72
20
 73
16
 74
0
 42
0.0000001
 43
0.0000001
 44
0.0000000001
 40
0.0
 40
0.0
 40
0.0
 40
0.0
 40
0.1249152298
 40
0.1874086142
 40
0.2499078481
 40
0.3748380014
 40
0.499783286
 40
0.5622974294
 40
0.6248161265
 40
0.6873373063
 40
0.7498680267
 40
0.8123906372
 40
0.8749234232
 40
0.9374866876
 40
1.0
 40
1.0
 40
1.0
 40
1.0
 10
3.7415155699
 20
4.9543838588
 30
0.0
 10
3.7420517874
 20
4.9557879074
 30
0.0
 10
3.7429377926
 20
4.9578650695
 30
0.0
 10
3.7442974433
 20
4.9605479
 30
0.0
 10
3.7457812441
 20
4.9631644684
 30
0.0
 10
3.7478823664
 20
4.9662897767
 30
0.0
 10
3.7503411738
 20
4.9691480251
 30
0.0
 10
3.7525352352
 20
4.9712089033
 30
0.0
 10
3.7542965732
 20
4.9726236258
 30
0.0
 10
3.7561722925
 20
4.9738838588
 30
0.0
 10
3.7581568715
 20
4.9749658658
 30
0.0
 10
3.7602405943
 20
4.9758436218
 30
0.0
 10
3.7624074676
 20
4.9764931233
 30
0.0
 10
3.7646342158
 20
4.9768914576
 30
0.0
 10
3.7661405761
 20
4.9769818557
 30
0.0
 10
3.766892725
 20
4.9769818557
 30
0.0
  0
SPLINE
  5
2C0
100
AcDbEntity
  8
0
100
AcDbSpline
 62
7
  6
CONTINUOUS
 70
0
 71
3
 72
15
 73
11
 74
0
 42
0.0000001
 43
0.0000001
 44
0.0000000001
 40
0.0
 40
0.0
 40
0.0
 40
0.0
 40
0.1710315258
 40
0.3336931095
 40
0.4825004641
 40
0.6152626615
 40
0.7320669769
 40
0.8340799692
 40
0.9228723928
 40
1.0
 40
1.0
 40
1.0
 40
1.0
 10
3.766892725
 20
4.9491534794
 30
0.0
 10
3.7654002909
 20
4.9491534794
 30
0.0
 10
3.7624877985
 20
4.9492325364
 30
0.0
 10
3.7582895109
 20
4.9495768569
 30
0.0
 10
3.7544477237
 20
4.9501093987
 30
0.0
 10
3.7510360744
 20
4.9507872603
 30
0.0
 10
3.7480680325
 20
4.951572032
 30
0.0
 10
3.745523478
 20
4.9524340381
 30
0.0
 10
3.7433706054
 20
4.9533518648
 30
0.0
 10
3.7420911405
 20
4.9540350374
 30
0.0
 10
3.7415155699
 20
4.9543838588
 30
0.0
  0
SPLINE
  5
2C1
100
AcDbEntity
  8
0
100
AcDbSpline
 62
7
  6
CONTINUOUS
 70
0
 71
3
 72
20
 73
16
 74
0
 42
0.0000001
 43
0.0000001
 44
0.0000000001
 40
0.0
 40
0.0
 40
0.0
 40
0.0
 40
0.1248589363
 40
0.1873278126
 40
0.24980543
 40
0.374702722
 40
0.499632146
 40
0.5621459826
 40
0.6246700444
 40
0.6872025747
 40
0.7497506961
 40
0.8122964777
 40
0.8748574654
 40
0.9374527134
 40
1.0
 40
1.0
 40
1.0
 40
1.0
 10
3.7415155699
 20
4.9144993949
 30
0.0
 10
3.7420518051
 20
4.9159018314
 30
0.0
 10
3.7429378373
 20
4.917976586
 30
0.0
 10
3.7442974679
 20
4.9206562007
 30
0.0
 10
3.7457813175
 20
4.9232697576
 30
0.0
 10
3.7478825505
 20
4.9263914953
 30
0.0
 10
3.7503413258
 20
4.9292462724
 30
0.0
 10
3.7525353125
 20
4.931304632
 30
0.0
 10
3.7542966604
 20
4.9327176804
 30
0.0
 10
3.7561723861
 20
4.9339764173
 30
0.0
 10
3.758156966
 20
4.9350571347
 30
0.0
 10
3.7602406805
 20
4.935933839
 30
0.0
 10
3.7624075344
 20
4.936582558
 30
0.0
 10
3.7646342528
 20
4.9369804098
 30
0.0
 10
3.7661405792
 20
4.9370706978
 30
0.0
 10
3.766892725
 20
4.9370706978
 30
0.0
  0
SPLINE
  5
2C2
100
AcDbEntity
  8
0
100
AcDbSpline
 62
7
  6
CONTINUOUS
 70
0
 71
3
 72
15
 73
11
 74
0
 42
0.0000001
 43
0.0000001
 44
0.0000000001
 40
0.0
 40
0.0
 40
0.0
 40
0.0
 40
0.1664262387
 40
0.3251778933
 40
0.4712839198
 40
0.6028521295
 40
0.7201185135
 40
0.8243235337
 40
0.917087409
 40
1.0
 40
1.0
 40
1.0
 40
1.0
 10
3.766892725
 20
4.9071377917
 30
0.0
 10
3.7653997401
 20
4.9071377917
 30
0.0
 10
3.7624813119
 20
4.9072494423
 30
0.0
 10
3.758277464
 20
4.9077354425
 30
0.0
 10
3.7544309821
 20
4.9084870673
 30
0.0
 10
3.7510155586
 20
4.90944383
 30
0.0
 10
3.748044429
 20
4.9105516662
 30
0.0
 10
3.7454973272
 20
4.9117689261
 30
0.0
 10
3.7433426611
 20
4.9130654531
 30
0.0
 10
3.7420814621
 20
4.9140166948
 30
0.0
 10
3.7415155699
 20
4.9144993949
 30
0.0
  0
SPLINE
  5
2C3
100
AcDbEntity
  8
0
100
AcDbSpline
 62
7
  6
CONTINUOUS
 70
0
 71
3
 72
20
 73
16
 74
0
 42
0.0000001
 43
0.0000001
 44
0.0000000001
 40
0.0
 40
0.0
 40
0.0
 40
0.0
 40
0.1243410949
 40
0.1865846344
 40
0.2488635886
 40
0.3734591658
 40
0.4982434196
 40
0.5607547782
 40
0.6233284596
 40
0.6859655445
 40
0.7486736942
 40
0.8114323561
 40
0.8742522613
 40
0.9371410134
 40
1.0
 40
1.0
 40
1.0
 40
1.0
 10
3.7415155699
 20
4.8719076058
 30
0.0
 10
3.7420519699
 20
4.8732953036
 30
0.0
 10
3.7429382517
 20
4.8753480458
 30
0.0
 10
3.744297696
 20
4.8779982572
 30
0.0
 10
3.7457819966
 20
4.8805842784
 30
0.0
 10
3.7478842494
 20
4.8836733647
 30
0.0
 10
3.7503427244
 20
4.8864964012
 30
0.0
 10
3.752536022
 20
4.8885317355
 30
0.0
 10
3.75429746
 20
4.889929477
 30
0.0
 10
3.7561732431
 20
4.8911745339
 30
0.0
 10
3.7581578286
 20
4.8922434605
 30
0.0
 10
3.7602414658
 20
4.8931105505
 30
0.0
 10
3.7624081425
 20
4.8937521168
 30
0.0
 10
3.7646345898
 20
4.8941455599
 30
0.0
 10
3.7661406077
 20
4.8942348406
 30
0.0
 10
3.766892725
 20
4.8942348406
 30
0.0
  0
SPLINE
  5
2C4
100
AcDbEntity
  8
0
100
AcDbSpline
 62
7
  6
CONTINUOUS
 70
0
 71
3
 72
16
 73
12
 74
0
 42
0.0000001
 43
0.0000001
 44
0.0000000001
 40
0.0
 40
0.0
 40
0.0
 40
0.0
 40
0.0810433809
 40
0.161228802
 40
0.315559293
 40
0.458669303
 40
0.5889958744
 40
0.7069071736
 40
0.8136653216
 40
0.9108582657
 40
1.0
 40
1.0
 40
1.0
 40
1.0
 10
3.766892725
 20
4.8624856751
 30
0.0
 10
3.7661416744
 20
4.8624856751
 30
0.0
 10
3.7646472236
 20
4.8625228565
 30
0.0
 10
3.7617299783
 20
4.8627392411
 30
0.0
 10
3.7582621117
 20
4.8632535058
 30
0.0
 10
3.7544106547
 20
4.8642185888
 30
0.0
 10
3.7509917553
 20
4.8654468818
 30
0.0
 10
3.7480187388
 20
4.866868798
 30
0.0
 10
3.7454710783
 20
4.8684308589
 30
0.0
 10
3.7433172531
 20
4.8700941505
 30
0.0
 10
3.7420735609
 20
4.871298436
 30
0.0
 10
3.7415155699
 20
4.8719076058
 30
0.0
  0
SPLINE
  5
2C5
100
AcDbEntity
  8
0
100
AcDbSpline
 62
7
  6
CONTINUOUS
 70
0
 71
3
 72
20
 73
16
 74
0
 42
0.0000001
 43
0.0000001
 44
0.0000000001
 40
0.0
 40
0.0
 40
0.0
 40
0.0
 40
0.123351576
 40
0.1851650961
 40
0.2470653743
 40
0.3710873115
 40
0.4955978308
 40
0.5581061666
 40
0.6207760038
 40
0.683613566
 40
0.746627271
 40
0.8097913515
 40
0.8731034677
 40
0.9365495186
 40
1.0
 40
1.0
 40
1.0
 40
1.0
 10
3.7415155699
 20
4.8270186737
 30
0.0
 10
3.7420522919
 20
4.8283786539
 30
0.0
 10
3.7429390597
 20
4.8303899913
 30
0.0
 10
3.7442981394
 20
4.83298489
 30
0.0
 10
3.7457833135
 20
4.8355191124
 30
0.0
 10
3.7478875249
 20
4.8385467513
 30
0.0
 10
3.7503453978
 20
4.8413100755
 30
0.0
 10
3.7525373715
 20
4.8433021167
 30
0.0
 10
3.7542989733
 20
4.8446710615
 30
0.0
 10
3.7561748564
 20
4.845890385
 30
0.0
 10
3.7581594445
 20
4.8469371354
 30
0.0
 10
3.7602429298
 20
4.8477861473
 30
0.0
 10
3.7624092717
 20
4.848414269
 30
0.0
 10
3.764635214
 20
4.8487994281
 30
0.0
 10
3.7661406605
 20
4.848886817
 30
0.0
 10
3.766892725
 20
4.848886817
 30
0.0
  0
SPLINE
  5
2C6
100
AcDbEntity
  8
0
100
AcDbSpline
 62
7
  6
CONTINUOUS
 70
0
 71
3
 72
16
 73
12
 74
0
 42
0.0000001
 43
0.0000001
 44
0.0000000001
 40
0.0
 40
0.0
 40
0.0
 40
0.0
 40
0.0782784786
 40
0.1558155479
 40
0.3056078661
 40
0.4457118215
 40
0.574888383
 40
0.6935968953
 40
0.8030554096
 40
0.9047389816
 40
1.0
 40
1.0
 40
1.0
 40
1.0
 10
3.766892725
 20
4.8156271539
 30
0.0
 10
3.7661415675
 20
4.8156271539
 30
0.0
 10
3.7646459322
 20
4.8156721748
 30
0.0
 10
3.7617237563
 20
4.8159343452
 30
0.0
 10
3.7582445615
 20
4.8165594841
 30
0.0
 10
3.754388136
 20
4.817730431
 30
0.0
 10
3.7509668266
 20
4.8192198235
 30
0.0
 10
3.747993604
 20
4.8209429609
 30
0.0
 10
3.7454473965
 20
4.8228348129
 30
0.0
 10
3.7432963311
 20
4.8248480166
 30
0.0
 10
3.7420675861
 20
4.8262900476
 30
0.0
 10
3.7415155699
 20
4.8270186737
 30
0.0
  0
SPLINE
  5
2C7
100
AcDbEntity
  8
0
100
AcDbSpline
 62
7
  6
CONTINUOUS
 70
0
 71
3
 72
20
 73
16
 74
0
 42
0.0000001
 43
0.0000001
 44
0.0000000001
 40
0.0
 40
0.0
 40
0.0
 40
0.0
 40
0.1218722497
 40
0.1830445167
 40
0.2443812965
 40
0.367552743
 40
0.4916625043
 40
0.5541701263
 40
0.6169872626
 40
0.6801263482
 40
0.7435970577
 40
0.807363643
 40
0.871404776
 40
0.9356748987
 40
1.0
 40
1.0
 40
1.0
 40
1.0
 10
3.7415155699
 20
4.7802649037
 30
0.0
 10
3.7420527959
 20
4.7815844733
 30
0.0
 10
3.7429403136
 20
4.7835354295
 30
0.0
 10
3.7442988439
 20
4.7860496465
 30
0.0
 10
3.7457853731
 20
4.7885083058
 30
0.0
 10
3.7478925383
 20
4.7914462426
 30
0.0
 10
3.7503494507
 20
4.7941224356
 30
0.0
 10
3.7525394285
 20
4.7960513606
 30
0.0
 10
3.7543012582
 20
4.7973782844
 30
0.0
 10
3.75617728
 20
4.7985600707
 30
0.0
 10
3.7581618652
 20
4.7995744553
 30
0.0
 10
3.760245098
 20
4.8003971244
 30
0.0
 10
3.7624109271
 20
4.8010056267
 30
0.0
 10
3.7646361173
 20
4.8013787241
 30
0.0
 10
3.7661407379
 20
4.8014633532
 30
0.0
 10
3.766892725
 20
4.8014633532
 30
0.0
  0
SPLINE
  5
2C8
100
AcDbEntity
  8
0
100
AcDbSpline
 62
7
  6
CONTINUOUS
 70
0
 71
3
 72
17
 73
13
 74
0
 42
0.0000001
 43
0.0000001
 44
0.0000000001
 40
0.0
 40
0.0
 40
0.0
 40
0.0
 40
0.1504333419
 40
0.224057715
 40
0.2959126075
 40
0.4331696056
 40
0.5613435018
 40
0.6809342616
 40
0.7378712592
 40
0.7931046093
 40
0.8990624035
 40
1.0
 40
1.0
 40
1.0
 40
1.0
 10
3.766892725
 20
4.7670135011
 30
0.0
 10
3.7653972508
 20
4.7670135011
 30
0.0
 10
3.7631657521
 20
4.7671682113
 30
0.0
 10
3.7602664684
 20
4.7676756049
 30
0.0
 10
3.7575352936
 20
4.768347552
 30
0.0
 10
3.7543645511
 20
4.7694701231
 30
0.0
 10
3.7509426398
 20
4.7712068098
 30
0.0
 10
3.7484260475
 20
4.7729073016
 30
0.0
 10
3.7466411447
 20
4.7743659586
 30
0.0
 10
3.7450447103
 20
4.7758350451
 30
0.0
 10
3.7432797909
 20
4.7777600154
 30
0.0
 10
3.7420631841
 20
4.7794240744
 30
0.0
 10
3.7415155699
 20
4.7802649037
 30
0.0
  0
SPLINE
  5
2C9
100
AcDbEntity
  8
0
100
AcDbSpline
 62
7
  6
CONTINUOUS
 70
0
 71
3
 72
16
 73
12
 74
0
 42
0.0000001
 43
0.0000001
 44
0.0000000001
 40
0.0
 40
0.0
 40
0.0
 40
0.0
 40
0.1199399467
 40
0.1802814654
 40
0.2408943096
 40
0.3629980813
 40
0.4866529284
 40
0.612168016
 40
0.7397492314
 40
0.869253468
 40
1.0
 40
1.0
 40
1.0
 40
1.0
 10
3.7415155699
 20
4.7320965599
 30
0.0
 10
3.7420535051
 20
4.7333634043
 30
0.0
 10
3.7429420709
 20
4.7352355268
 30
0.0
 10
3.7442997846
 20
4.7376444143
 30
0.0
 10
3.7457881191
 20
4.7400043925
 30
0.0
 10
3.7478995617
 20
4.7428253568
 30
0.0
 10
3.75085542
 20
4.7459101393
 30
0.0
 10
3.754268755
 20
4.7485903279
 30
0.0
 10
3.7581379962
 20
4.7507131799
 30
0.0
 10
3.7623965218
 20
4.7520986666
 30
0.0
 10
3.7653923939
 20
4.7524211631
 30
0.0
 10
3.766892725
 20
4.7524211631
 30
0.0
  0
SPLINE
  5
2CA
100
AcDbEntity
  8
0
100
AcDbSpline
 62
7
  6
CONTINUOUS
 70
0
 71
3
 72
15
 73
11
 74
0
 42
0.0000001
 43
0.0000001
 44
0.0000000001
 40
0.0
 40
0.0
 40
0.0
 40
0.0
 40
0.1454854233
 40
0.2868277551
 40
0.4215308103
 40
0.5488993168
 40
0.6694259605
 40
0.7840794871
 40
0.893963325
 40
1.0
 40
1.0
 40
1.0
 40
1.0
 10
3.766892725
 20
4.717112893
 30
0.0
 10
3.7653962491
 20
4.717112893
 30
0.0
 10
3.7624406102
 20
4.7173450939
 30
0.0
 10
3.7582065343
 20
4.7183507703
 30
0.0
 10
3.7543418103
 20
4.7199015385
 30
0.0
 10
3.7509198754
 20
4.7218695876
 30
0.0
 10
3.747950608
 20
4.7241422398
 30
0.0
 10
3.7454108779
 20
4.7266336371
 30
0.0
 10
3.7432672724
 20
4.72928174
 30
0.0
 10
3.7420599527
 20
4.7311514252
 30
0.0
 10
3.7415155699
 20
4.7320965599
 30
0.0
  0
SPLINE
  5
2CB
100
AcDbEntity
  8
0
100
AcDbSpline
 62
7
  6
CONTINUOUS
 70
0
 71
3
 72
16
 73
12
 74
0
 42
0.0000001
 43
0.0000001
 44
0.0000000001
 40
0.0
 40
0.0
 40
0.0
 40
0.0
 40
0.1173846977
 40
0.1766261522
 40
0.2362781777
 40
0.3569519046
 40
0.4799620176
 40
0.6057670331
 40
0.7346588501
 40
0.8664135086
 40
1.0
 40
1.0
 40
1.0
 40
1.0
 10
3.7415155699
 20
4.68297753
 30
0.0
 10
3.742054482
 20
4.6841798862
 30
0.0
 10
3.7429444653
 20
4.6859555295
 30
0.0
 10
3.7443010718
 20
4.6882354744
 30
0.0
 10
3.7457918726
 20
4.690474663
 30
0.0
 10
3.7479084926
 20
4.6931518563
 30
0.0
 10
3.7508674231
 20
4.6960746155
 30
0.0
 10
3.7542833263
 20
4.698612492
 30
0.0
 10
3.7581525481
 20
4.7006203157
 30
0.0
 10
3.7624063271
 20
4.7019286328
 30
0.0
 10
3.7653932586
 20
4.7022325498
 30
0.0
 10
3.766892725
 20
4.7022325498
 30
0.0
  0
SPLINE
  5
2CC
100
AcDbEntity
  8
0
100
AcDbSpline
 62
7
  6
CONTINUOUS
 70
0
 71
3
 72
19
 73
15
 74
0
 42
0.0000001
 43
0.0000001
 44
0.0000000001
 40
0.0
 40
0.0
 40
0.0
 40
0.0
 40
0.1409407775
 40
0.2104010252
 40
0.2787054051
 40
0.411113101
 40
0.5377895567
 40
0.5991283875
 40
0.6592454
 40
0.7182278078
 40
0.7762039154
 40
0.8332859477
 40
0.8895628388
 40
1.0
 40
1.0
 40
1.0
 40
1.0
 10
3.766892725
 20
4.6664058996
 30
0.0
 10
3.7653952235
 20
4.6664058996
 30
0.0
 10
3.7631534497
 20
4.6666013993
 30
0.0
 10
3.7602584956
 20
4.6672359909
 30
0.0
 10
3.7575122164
 20
4.6680819064
 30
0.0
 10
3.754320102
 20
4.6695015325
 30
0.0
 10
3.7514391303
 20
4.6713380224
 30
0.0
 10
3.7493719675
 20
4.6729768514
 30
0.0
 10
3.7479489372
 20
4.6742635711
 30
0.0
 10
3.7466328055
 20
4.6756096101
 30
0.0
 10
3.745419731
 20
4.6770066484
 30
0.0
 10
3.7443049197
 20
4.6784470469
 30
0.0
 10
3.7429518624
 20
4.6804033566
 30
0.0
 10
3.7420575688
 20
4.6819368075
 30
0.0
 10
3.7415155699
 20
4.68297753
 30
0.0
  0
SPLINE
  5
2CD
100
AcDbEntity
  8
0
100
AcDbSpline
 62
7
  6
CONTINUOUS
 70
0
 71
3
 72
15
 73
11
 74
0
 42
0.0000001
 43
0.0000001
 44
0.0000000001
 40
0.0
 40
0.0
 40
0.0
 40
0.0
 40
0.1142427128
 40
0.2305833354
 40
0.3495373706
 40
0.4718014985
 40
0.5980010053
 40
0.7285119147
 40
0.8629957833
 40
1.0
 40
1.0
 40
1.0
 40
1.0
 10
3.7415155699
 20
4.633380857
 30
0.0
 10
3.7420557994
 20
4.6345075926
 30
0.0
 10
3.7432502935
 20
4.6367338048
 30
0.0
 10
3.7453872949
 20
4.6399120092
 30
0.0
 10
3.7479196873
 20
4.6429039259
 30
0.0
 10
3.7508821692
 20
4.6456362382
 30
0.0
 10
3.7543005526
 20
4.6480068492
 30
0.0
 10
3.758169167
 20
4.6498799324
 30
0.0
 10
3.7624172188
 20
4.6510984048
 30
0.0
 10
3.7653942142
 20
4.651380857
 30
0.0
 10
3.766892725
 20
4.651380857
 30
0.0
  0
SPLINE
  5
2CE
100
AcDbEntity
  8
0
100
AcDbSpline
 62
7
  6
CONTINUOUS
 70
0
 71
3
 72
15
 73
11
 74
0
 42
0.0000001
 43
0.0000001
 44
0.0000000001
 40
0.0
 40
0.0
 40
0.0
 40
0.0
 40
0.1370042743
 40
0.2714881454
 40
0.4019989548
 40
0.5281984574
 40
0.6504625961
 40
0.7694166507
 40
0.8857572887
 40
1.0
 40
1.0
 40
1.0
 40
1.0
 10
3.766892725
 20
4.615380857
 30
0.0
 10
3.7653942136
 20
4.615380857
 30
0.0
 10
3.7624172176
 20
4.6156633094
 30
0.0
 10
3.7581691661
 20
4.6168817815
 30
0.0
 10
3.754300553
 20
4.6187548649
 30
0.0
 10
3.7508821701
 20
4.6211254748
 30
0.0
 10
3.747919688
 20
4.6238577873
 30
0.0
 10
3.7453872952
 20
4.6268497043
 30
0.0
 10
3.7432502935
 20
4.630027909
 30
0.0
 10
3.7420557994
 20
4.6322541213
 30
0.0
 10
3.7415155699
 20
4.633380857
 30
0.0
  0
SPLINE
  5
2CF
100
AcDbEntity
  8
0
100
AcDbSpline
 62
7
  6
CONTINUOUS
 70
0
 71
3
 72
19
 73
15
 74
0
 42
0.0000001
 43
0.0000001
 44
0.0000000001
 40
0.0
 40
0.0
 40
0.0
 40
0.0
 40
0.1104371626
 40
0.1667140498
 40
0.2237960709
 40
0.281772165
 40
0.3407545669
 40
0.4008715742
 40
0.4622103992
 40
0.5888868581
 40
0.721294656
 40
0.7895990493
 40
0.8590592818
 40
1.0
 40
1.0
 40
1.0
 40
1.0
 10
3.7415155699
 20
4.583784184
 30
0.0
 10
3.7420575689
 20
4.5848249064
 30
0.0
 10
3.7429518624
 20
4.5863583573
 30
0.0
 10
3.7443049196
 20
4.5883146669
 30
0.0
 10
3.7454197307
 20
4.5897550652
 30
0.0
 10
3.746632805
 20
4.5911521032
 30
0.0
 10
3.7479489365
 20
4.5924981421
 30
0.0
 10
3.7493719665
 20
4.5937848618
 30
0.0
 10
3.7514391293
 20
4.5954236907
 30
0.0
 10
3.7543201016
 20
4.5972601817
 30
0.0
 10
3.7575122175
 20
4.5986798075
 30
0.0
 10
3.7602584976
 20
4.5995257238
 30
0.0
 10
3.7631534512
 20
4.6001603146
 30
0.0
 10
3.7653952242
 20
4.6003558143
 30
0.0
 10
3.766892725
 20
4.6003558143
 30
0.0
  0
SPLINE
  5
2D0
100
AcDbEntity
  8
0
100
AcDbSpline
 62
7
  6
CONTINUOUS
 70
0
 71
3
 72
16
 73
12
 74
0
 42
0.0000001
 43
0.0000001
 44
0.0000000001
 40
0.0
 40
0.0
 40
0.0
 40
0.0
 40
0.1335865477
 40
0.2653412087
 40
0.3942329277
 40
0.5200379382
 40
0.6430480617
 40
0.7637218081
 40
0.8233738454
 40
0.8826153037
 40
1.0
 40
1.0
 40
1.0
 40
1.0
 10
3.766892725
 20
4.5645291642
 30
0.0
 10
3.7653932579
 20
4.5645291642
 30
0.0
 10
3.7624063258
 20
4.5648330813
 30
0.0
 10
3.7581525471
 20
4.5661413983
 30
0.0
 10
3.7542833268
 20
4.5681492222
 30
0.0
 10
3.750867424
 20
4.5706870974
 30
0.0
 10
3.7479084933
 20
4.5736098568
 30
0.0
 10
3.7457918729
 20
4.5762870504
 30
0.0
 10
3.7443010719
 20
4.5785262394
 30
0.0
 10
3.7429444653
 20
4.5808061845
 30
0.0
 10
3.742054482
 20
4.5825818278
 30
0.0
 10
3.7415155699
 20
4.583784184
 30
0.0
  0
SPLINE
  5
2D1
100
AcDbEntity
  8
0
100
AcDbSpline
 62
7
  6
CONTINUOUS
 70
0
 71
3
 72
15
 73
11
 74
0
 42
0.0000001
 43
0.0000001
 44
0.0000000001
 40
0.0
 40
0.0
 40
0.0
 40
0.0
 40
0.1060366764
 40
0.2159204997
 40
0.3305740071
 40
0.4511006395
 40
0.5784691483
 40
0.713172308
 40
0.8545146377
 40
1.0
 40
1.0
 40
1.0
 40
1.0
 10
3.7415155699
 20
4.534665154
 30
0.0
 10
3.7420599527
 20
4.5356102888
 30
0.0
 10
3.7432672723
 20
4.5374799739
 30
0.0
 10
3.7454108776
 20
4.5401280765
 30
0.0
 10
3.7479506073
 20
4.5426194735
 30
0.0
 10
3.7509198745
 20
4.5448921255
 30
0.0
 10
3.7543418099
 20
4.5468601757
 30
0.0
 10
3.7582065352
 20
4.5484109437
 30
0.0
 10
3.7624406115
 20
4.5494166202
 30
0.0
 10
3.7653962497
 20
4.5496488209
 30
0.0
 10
3.766892725
 20
4.5496488209
 30
0.0
  0
SPLINE
  5
2D2
100
AcDbEntity
  8
0
100
AcDbSpline
 62
7
  6
CONTINUOUS
 70
0
 71
3
 72
16
 73
12
 74
0
 42
0.0000001
 43
0.0000001
 44
0.0000000001
 40
0.0
 40
0.0
 40
0.0
 40
0.0
 40
0.130746587
 40
0.2602508264
 40
0.3878319453
 40
0.5133470273
 40
0.6370018847
 40
0.7591056761
 40
0.8197185321
 40
0.8800600548
 40
1.0
 40
1.0
 40
1.0
 40
1.0
 10
3.766892725
 20
4.5143405508
 30
0.0
 10
3.7653923932
 20
4.5143405508
 30
0.0
 10
3.7623965205
 20
4.5146630475
 30
0.0
 10
3.7581379952
 20
4.5160485341
 30
0.0
 10
3.7542687556
 20
4.5181713863
 30
0.0
 10
3.7508554208
 20
4.5208515735
 30
0.0
 10
3.7478995623
 20
4.5239363563
 30
0.0
 10
3.7457881194
 20
4.5267573209
 30
0.0
 10
3.7442997847
 20
4.5291172994
 30
0.0
 10
3.7429420709
 20
4.5315261871
 30
0.0
 10
3.7420535051
 20
4.5333983097
 30
0.0
 10
3.7415155699
 20
4.534665154
 30
0.0
  0
SPLINE
  5
2D3
100
AcDbEntity
  8
0
100
AcDbSpline
 62
7
  6
CONTINUOUS
 70
0
 71
3
 72
17
 73
13
 74
0
 42
0.0000001
 43
0.0000001
 44
0.0000000001
 40
0.0
 40
0.0
 40
0.0
 40
0.0
 40
0.1009375978
 40
0.2068953778
 40
0.2621287151
 40
0.3190657063
 40
0.4386564544
 40
0.5668303517
 40
0.7040874572
 40
0.7759423635
 40
0.8495667212
 40
1.0
 40
1.0
 40
1.0
 40
1.0
 10
3.7415155699
 20
4.4864968103
 30
0.0
 10
3.7420631841
 20
4.4873376395
 30
0.0
 10
3.7432797908
 20
4.4890016984
 30
0.0
 10
3.74504471
 20
4.4909266686
 30
0.0
 10
3.7466411443
 20
4.4923957548
 30
0.0
 10
3.7484260467
 20
4.4938544117
 30
0.0
 10
3.7509426389
 20
4.4955549034
 30
0.0
 10
3.7543645507
 20
4.4972915912
 30
0.0
 10
3.7575352947
 20
4.4984141619
 30
0.0
 10
3.7602664703
 20
4.4990861096
 30
0.0
 10
3.7631657536
 20
4.4995935026
 30
0.0
 10
3.7653972514
 20
4.4997482128
 30
0.0
 10
3.766892725
 20
4.4997482128
 30
0.0
  0
SPLINE
  5
2D4
100
AcDbEntity
  8
0
100
AcDbSpline
 62
7
  6
CONTINUOUS
 70
0
 71
3
 72
19
 73
15
 74
0
 42
0.0000001
 43
0.0000001
 44
0.0000000001
 40
0.0
 40
0.0
 40
0.0
 40
0.0
 40
0.0643312664
 40
0.1286083468
 40
0.1926564767
 40
0.2564295418
 40
0.3199055317
 40
0.3830504492
 40
0.5082944977
 40
0.6324159505
 40
0.7555982607
 40
0.816940039
 40
0.8781173452
 40
1.0
 40
1.0
 40
1.0
 40
1.0
 10
3.766892725
 20
4.4652983607
 30
0.0
 10
3.7661407353
 20
4.4652983607
 30
0.0
 10
3.7646361005
 20
4.4653829972
 30
0.0
 10
3.7624108829
 20
4.4657560909
 30
0.0
 10
3.7602450252
 20
4.466364628
 30
0.0
 10
3.7581617927
 20
4.4671872734
 30
0.0
 10
3.7561771501
 20
4.4682017272
 30
0.0
 10
3.7536833365
 20
4.4697726876
 30
0.0
 10
3.7508455689
 20
4.4720986195
 30
0.0
 10
3.7478928378
 20
4.4753152298
 30
0.0
 10
3.7457852852
 20
4.4782535035
 30
0.0
 10
3.7442988279
 20
4.4807121062
 30
0.0
 10
3.7429403036
 20
4.483226316
 30
0.0
 10
3.7420527921
 20
4.4851772498
 30
0.0
 10
3.7415155699
 20
4.4864968103
 30
0.0
  0
SPLINE
  5
2D5
100
AcDbEntity
  8
0
100
AcDbSpline
 62
7
  6
CONTINUOUS
 70
0
 71
3
 72
16
 73
12
 74
0
 42
0.0000001
 43
0.0000001
 44
0.0000000001
 40
0.0
 40
0.0
 40
0.0
 40
0.0
 40
0.0952610197
 40
0.196944578
 40
0.3064030733
 40
0.4251115736
 40
0.554288135
 40
0.6943922008
 40
0.8441845172
 40
0.9217215388
 40
1.0
 40
1.0
 40
1.0
 40
1.0
 10
3.7415155699
 20
4.4397430402
 30
0.0
 10
3.7420675861
 20
4.4404716663
 30
0.0
 10
3.743296331
 20
4.4419136972
 30
0.0
 10
3.7454473962
 20
4.4439269007
 30
0.0
 10
3.7479936033
 20
4.4458187526
 30
0.0
 10
3.7509668257
 20
4.4475418898
 30
0.0
 10
3.7543881357
 20
4.4490312831
 30
0.0
 10
3.7582445623
 20
4.4502022299
 30
0.0
 10
3.7617237577
 20
4.4508273688
 30
0.0
 10
3.764645933
 20
4.4510895394
 30
0.0
 10
3.7661415677
 20
4.4511345601
 30
0.0
 10
3.766892725
 20
4.4511345601
 30
0.0
  0
SPLINE
  5
2D6
100
AcDbEntity
  8
0
100
AcDbSpline
 62
7
  6
CONTINUOUS
 70
0
 71
3
 72
20
 73
16
 74
0
 42
0.0000001
 43
0.0000001
 44
0.0000000001
 40
0.0
 40
0.0
 40
0.0
 40
0.0
 40
0.0634504957
 40
0.1268965854
 40
0.1902087169
 40
0.2533727844
 40
0.3163864339
 40
0.3792239576
 40
0.4418937926
 40
0.5044021241
 40
0.6289126536
 40
0.7529346107
 40
0.8148349012
 40
0.8766484253
 40
1.0
 40
1.0
 40
1.0
 40
1.0
 10
3.766892725
 20
4.4178748969
 30
0.0
 10
3.7661406603
 20
4.4178748969
 30
0.0
 10
3.7646352132
 20
4.4179622863
 30
0.0
 10
3.7624092701
 20
4.418347445
 30
0.0
 10
3.7602429279
 20
4.4189755677
 30
0.0
 10
3.758159443
 20
4.4198245789
 30
0.0
 10
3.7561748561
 20
4.4208713289
 30
0.0
 10
3.7542989742
 20
4.4220906521
 30
0.0
 10
3.7525373727
 20
4.4234595963
 30
0.0
 10
3.7503453987
 20
4.4254516373
 30
0.0
 10
3.7478875256
 20
4.4282149617
 30
0.0
 10
3.7457833138
 20
4.431242601
 30
0.0
 10
3.7442981395
 20
4.4337768237
 30
0.0
 10
3.7429390597
 20
4.4363717226
 30
0.0
 10
3.7420522919
 20
4.4383830601
 30
0.0
 10
3.7415155699
 20
4.4397430402
 30
0.0
  0
SPLINE
  5
2D7
100
AcDbEntity
  8
0
100
AcDbSpline
 62
7
  6
CONTINUOUS
 70
0
 71
3
 72
16
 73
12
 74
0
 42
0.0000001
 43
0.0000001
 44
0.0000000001
 40
0.0
 40
0.0
 40
0.0
 40
0.0
 40
0.0891417355
 40
0.1863346665
 40
0.2930927955
 40
0.4110040823
 40
0.5413306524
 40
0.684440776
 40
0.8387712654
 40
0.918956637
 40
1.0
 40
1.0
 40
1.0
 40
1.0
 10
3.7415155699
 20
4.3948541081
 30
0.0
 10
3.7420735609
 20
4.3954632779
 30
0.0
 10
3.7433172531
 20
4.3966675634
 30
0.0
 10
3.745471078
 20
4.3983308548
 30
0.0
 10
3.7480187381
 20
4.3998929156
 30
0.0
 10
3.7509917544
 20
4.4013148316
 30
0.0
 10
3.7544106544
 20
4.4025431253
 30
0.0
 10
3.7582621126
 20
4.4035082081
 30
0.0
 10
3.7617299797
 20
4.4040224728
 30
0.0
 10
3.7646472244
 20
4.4042388576
 30
0.0
 10
3.7661416745
 20
4.4042760388
 30
0.0
 10
3.766892725
 20
4.4042760388
 30
0.0
  0
SPLINE
  5
2D8
100
AcDbEntity
  8
0
100
AcDbSpline
 62
7
  6
CONTINUOUS
 70
0
 71
3
 72
20
 73
16
 74
0
 42
0.0000001
 43
0.0000001
 44
0.0000000001
 40
0.0
 40
0.0
 40
0.0
 40
0.0
 40
0.0628590008
 40
0.1257477914
 40
0.1885677118
 40
0.2513263608
 40
0.3140344554
 40
0.3766715019
 40
0.4392451811
 40
0.5017565352
 40
0.6265407992
 40
0.7511363963
 40
0.8134153628
 40
0.8756589064
 40
1.0
 40
1.0
 40
1.0
 40
1.0
 10
3.766892725
 20
4.3725268733
 30
0.0
 10
3.7661406075
 20
4.3725268733
 30
0.0
 10
3.764634589
 20
4.3726161545
 30
0.0
 10
3.7624081408
 20
4.3730095973
 30
0.0
 10
3.7602414639
 20
4.3736511645
 30
0.0
 10
3.7581578272
 20
4.3745182537
 30
0.0
 10
3.7561732428
 20
4.37558718
 30
0.0
 10
3.754297461
 20
4.3768322366
 30
0.0
 10
3.7525360232
 20
4.3782299776
 30
0.0
 10
3.7503427252
 20
4.3802653115
 30
0.0
 10
3.7478842501
 20
4.3830883483
 30
0.0
 10
3.7457819969
 20
4.386177435
 30
0.0
 10
3.7442976961
 20
4.3887634565
 30
0.0
 10
3.7429382517
 20
4.3914136681
 30
0.0
 10
3.7420519698
 20
4.3934664103
 30
0.0
 10
3.7415155699
 20
4.3948541081
 30
0.0
  0
SPLINE
  5
2D9
100
AcDbEntity
  8
0
100
AcDbSpline
 62
7
  6
CONTINUOUS
 70
0
 71
3
 72
15
 73
11
 74
0
 42
0.0000001
 43
0.0000001
 44
0.0000000001
 40
0.0
 40
0.0
 40
0.0
 40
0.0
 40
0.0829125922
 40
0.1756764549
 40
0.2798814562
 40
0.3971478274
 40
0.5287160346
 40
0.6748221778
 40
0.833573831
 40
1.0
 40
1.0
 40
1.0
 40
1.0
 10
3.7415155699
 20
4.3522623191
 30
0.0
 10
3.7420814621
 20
4.3527450191
 30
0.0
 10
3.743342661
 20
4.3536962608
 30
0.0
 10
3.7454973269
 20
4.3549927876
 30
0.0
 10
3.7480444283
 20
4.3562100474
 30
0.0
 10
3.7510155576
 20
4.3573178835
 30
0.0
 10
3.7544309819
 20
4.3582746468
 30
0.0
 10
3.7582774649
 20
4.3590262714
 30
0.0
 10
3.7624813131
 20
4.3595122718
 30
0.0
 10
3.7653997407
 20
4.3596239222
 30
0.0
 10
3.766892725
 20
4.3596239222
 30
0.0
  0
SPLINE
  5
2DA
100
AcDbEntity
  8
0
100
AcDbSpline
 62
7
  6
CONTINUOUS
 70
0
 71
3
 72
20
 73
16
 74
0
 42
0.0000001
 43
0.0000001
 44
0.0000000001
 40
0.0
 40
0.0
 40
0.0
 40
0.0
 40
0.0625473008
 40
0.1251425871
 40
0.18770359
 40
0.2502493587
 40
0.3127974251
 40
0.3753299172
 40
0.4378539767
 40
0.5003678087
 40
0.6252972428
 40
0.7501945548
 40
0.8126721846
 40
0.875141065
 40
1.0
 40
1.0
 40
1.0
 40
1.0
 10
3.766892725
 20
4.3296910161
 30
0.0
 10
3.766140579
 20
4.3296910161
 30
0.0
 10
3.7646342521
 20
4.3297813046
 30
0.0
 10
3.7624075327
 20
4.330179156
 30
0.0
 10
3.7602406786
 20
4.330827876
 30
0.0
 10
3.7581569645
 20
4.3317045796
 30
0.0
 10
3.7561723859
 20
4.3327852966
 30
0.0
 10
3.7542966614
 20
4.3340440332
 30
0.0
 10
3.7525353137
 20
4.3354570811
 30
0.0
 10
3.7503413267
 20
4.3375154403
 30
0.0
 10
3.7478825512
 20
4.3403702177
 30
0.0
 10
3.7457813178
 20
4.3434919558
 30
0.0
 10
3.744297468
 20
4.3461055131
 30
0.0
 10
3.7429378373
 20
4.348785128
 30
0.0
 10
3.7420518051
 20
4.3508598825
 30
0.0
 10
3.7415155699
 20
4.3522623191
 30
0.0
  0
SPLINE
  5
2DB
100
AcDbEntity
  8
0
100
AcDbSpline
 62
7
  6
CONTINUOUS
 70
0
 71
3
 72
15
 73
11
 74
0
 42
0.0000001
 43
0.0000001
 44
0.0000000001
 40
0.0
 40
0.0
 40
0.0
 40
0.0
 40
0.0771276085
 40
0.1659200198
 40
0.2679329933
 40
0.3847372954
 40
0.5174994893
 40
0.6663069634
 40
0.8289685458
 40
1.0
 40
1.0
 40
1.0
 40
1.0
 10
3.7415155699
 20
4.3123778552
 30
0.0
 10
3.7420911405
 20
4.3127266765
 30
0.0
 10
3.7433706053
 20
4.3134098491
 30
0.0
 10
3.7455234776
 20
4.3143276757
 30
0.0
 10
3.7480680318
 20
4.3151896817
 30
0.0
 10
3.7510360734
 20
4.3159744534
 30
0.0
 10
3.7544477235
 20
4.3166523153
 30
0.0
 10
3.7582895118
 20
4.317184857
 30
0.0
 10
3.7624877998
 20
4.3175291776
 30
0.0
 10
3.7654002915
 20
4.3176082345
 30
0.0
 10
3.766892725
 20
4.3176082345
 30
0.0
  0
SPLINE
  5
2DC
100
AcDbEntity
  8
0
100
AcDbSpline
 62
7
  6
CONTINUOUS
 70
0
 71
3
 72
20
 73
16
 74
0
 42
0.0000001
 43
0.0000001
 44
0.0000000001
 40
0.0
 40
0.0
 40
0.0
 40
0.0
 40
0.0625133265
 40
0.1250766292
 40
0.1876094305
 40
0.250132028
 40
0.3126626935
 40
0.3751838351
 40
0.43770253
 40
0.5002166687
 40
0.6251619635
 40
0.7500921367
 40
0.812591383
 40
0.8750847715
 40
1.0
 40
1.0
 40
1.0
 40
1.0
 10
3.766892725
 20
4.2897798582
 30
0.0
 10
3.7661405759
 20
4.2897798582
 30
0.0
 10
3.764634215
 20
4.2898702568
 30
0.0
 10
3.7624074659
 20
4.2902685907
 30
0.0
 10
3.7602405924
 20
4.2909180931
 30
0.0
 10
3.75815687
 20
4.2917958485
 30
0.0
 10
3.7561722922
 20
4.2928778551
 30
0.0
 10
3.7542965741
 20
4.2941380878
 30
0.0
 10
3.7525352364
 20
4.2955528097
 30
0.0
 10
3.7503411747
 20
4.2976136876
 30
0.0
 10
3.7478823671
 20
4.3004719364
 30
0.0
 10
3.7457812444
 20
4.303597245
 30
0.0
 10
3.7442974434
 20
4.3062138138
 30
0.0
 10
3.7429377925
 20
4.3088966444
 30
0.0
 10
3.7420517874
 20
4.3109738065
 30
0.0
 10
3.7415155699
 20
4.3123778552
 30
0.0
  0
SPLINE
  5
2DD
100
AcDbEntity
  8
0
100
AcDbSpline
 62
7
  6
CONTINUOUS
 70
0
 71
3
 72
15
 73
11
 74
0
 42
0.0000001
 43
0.0000001
 44
0.0000000001
 40
0.0
 40
0.0
 40
0.0
 40
0.0
 40
0.0725977963
 40
0.1583878483
 40
0.2588111773
 40
0.375345025
 40
0.5090666616
 40
0.659934869
 40
0.8255319917
 40
1.0
 40
1.0
 40
1.0
 40
1.0
 10
3.7415155699
 20
4.2755848257
 30
0.0
 10
3.7421009772
 20
4.2757916283
 30
0.0
 10
3.7433958182
 20
4.2761932332
 30
0.0
 10
3.7455450205
 20
4.2767260733
 30
0.0
 10
3.7480861443
 20
4.2772269431
 30
0.0
 10
3.7510510302
 20
4.2776832466
 30
0.0
 10
3.7544594799
 20
4.2780775193
 30
0.0
 10
3.7582977616
 20
4.2783873206
 30
0.0
 10
3.7624921765
 20
4.2785876334
 30
0.0
 10
3.7654006623
 20
4.2786336098
 30
0.0
 10
3.766892725
 20
4.2786336098
 30
0.0
  0
SPLINE
  5
2DE
100
AcDbEntity
  8
0
100
AcDbSpline
 62
7
  6
CONTINUOUS
 70
0
 71
3
 72
20
 73
16
 74
0
 42
0.0000001
 43
0.0000001
 44
0.0000000001
 40
0.0
 40
0.0
 40
0.0
 40
0.0
 40
0.0627568443
 40
0.1255494282
 40
0.1882844556
 40
0.2509732768
 40
0.3136288482
 40
0.3762315451
 40
0.4387888821
 40
0.5013009814
 40
0.6261327545
 40
0.7508272803
 40
0.8131714243
 40
0.8754889162
 40
1.0
 40
1.0
 40
1.0
 40
1.0
 10
3.766892725
 20
4.2531777657
 30
0.0
 10
3.7661405982
 20
4.2531777657
 30
0.0
 10
3.7646344792
 20
4.2532673762
 30
0.0
 10
3.7624079425
 20
4.2536622605
 30
0.0
 10
3.7602412076
 20
4.2543061667
 30
0.0
 10
3.7581575453
 20
4.2551764002
 30
0.0
 10
3.7561729625
 20
4.2562491826
 30
0.0
 10
3.7542971991
 20
4.2574987135
 30
0.0
 10
3.7525357906
 20
4.258901461
 30
0.0
 10
3.7503422661
 20
4.2609443249
 30
0.0
 10
3.7478836913
 20
4.2637777432
 30
0.0
 10
3.7457817732
 20
4.26687751
 30
0.0
 10
3.7442976209
 20
4.2694725376
 30
0.0
 10
3.742938115
 20
4.2721323661
 30
0.0
 10
3.7420519155
 20
4.2741923077
 30
0.0
 10
3.7415155699
 20
4.2755848257
 30
0.0
  0
SPLINE
  5
2DF
100
AcDbEntity
  8
0
100
AcDbSpline
 62
7
  6
CONTINUOUS
 70
0
 71
3
 72
14
 73
10
 74
0
 42
0.0000001
 43
0.0000001
 44
0.0000000001
 40
0.0
 40
0.0
 40
0.0
 40
0.0
 40
0.0702139621
 40
0.1544653564
 40
0.2540982013
 40
0.3705211765
 40
0.5047548941
 40
0.6566874867
 40
1.0
 40
1.0
 40
1.0
 40
1.0
 10
3.7415155699
 20
4.2422375676
 30
0.0
 10
3.7421072296
 20
4.2422950054
 30
0.0
 10
3.7434103498
 20
4.2424058385
 30
0.0
 10
3.7455566883
 20
4.242551888
 30
0.0
 10
3.7480954885
 20
4.2426892719
 30
0.0
 10
3.7510585016
 20
4.2428144945
 30
0.0
 10
3.7544652195
 20
4.2429227419
 30
0.0
 10
3.7597932237
 20
4.2430407423
 30
0.0
 10
3.7639861937
 20
4.243075395
 30
0.0
 10
3.766892725
 20
4.243075395
 30
0.0
  0
SPLINE
  5
2E0
100
AcDbEntity
  8
0
100
AcDbSpline
 62
7
  6
CONTINUOUS
 70
0
 71
3
 72
20
 73
16
 74
0
 42
0.0000001
 43
0.0000001
 44
0.0000000001
 40
0.0
 40
0.0
 40
0.0
 40
0.0
 40
0.063279494
 40
0.1265644234
 40
0.1897341389
 40
0.2527808057
 40
0.315705867
 40
0.3784851541
 40
0.4411269212
 40
0.5036358992
 40
0.6282253269
 40
0.7524132682
 40
0.8144232607
 40
0.876361429
 40
1.0
 40
1.0
 40
1.0
 40
1.0
 10
3.766892725
 20
4.2202372368
 30
0.0
 10
3.7661406452
 20
4.2202372368
 30
0.0
 10
3.7646350348
 20
4.2203251705
 30
0.0
 10
3.7624089469
 20
4.2207127133
 30
0.0
 10
3.7602425081
 20
4.2213447058
 30
0.0
 10
3.7581589787
 20
4.2221989214
 30
0.0
 10
3.7561743915
 20
4.2232520563
 30
0.0
 10
3.7542985373
 20
4.2244787893
 30
0.0
 10
3.7525369822
 20
4.2258560256
 30
0.0
 10
3.7503446232
 20
4.2278605296
 30
0.0
 10
3.7478865717
 20
4.2306410482
 30
0.0
 10
3.7457829292
 20
4.2336863843
 30
0.0
 10
3.7442980098
 20
4.2362355223
 30
0.0
 10
3.7429388232
 20
4.2388463482
 30
0.0
 10
3.7420521975
 20
4.2408696074
 30
0.0
 10
3.7415155699
 20
4.2422375676
 30
0.0
  0
SPLINE
  5
2E1
100
AcDbEntity
  8
0
100
AcDbSpline
 62
7
  6
CONTINUOUS
 70
0
 71
3
 72
20
 73
16
 74
0
 42
0.0000001
 43
0.0000001
 44
0.0000000001
 40
0.0
 40
0.0
 40
0.0
 40
0.0
 40
0.0640845064
 40
0.1281284286
 40
0.191969407
 40
0.2555701142
 40
0.3189139937
 40
0.3819694094
 40
0.4447452264
 40
0.5072527896
 40
0.6314725338
 40
0.7548780944
 40
0.8163700482
 40
0.8777191231
 40
1.0
 40
1.0
 40
1.0
 40
1.0
 10
3.766892725
 20
4.1912755068
 30
0.0
 10
3.7661407151
 20
4.1912755068
 30
0.0
 10
3.7646358609
 20
4.1913608957
 30
0.0
 10
3.7624104457
 20
4.1917372896
 30
0.0
 10
3.7602444597
 20
4.1923511811
 30
0.0
 10
3.7581611444
 20
4.1931810482
 30
0.0
 10
3.7561765665
 20
4.1942043056
 30
0.0
 10
3.7543005898
 20
4.1953963619
 30
0.0
 10
3.7525388232
 20
4.1967347893
 30
0.0
 10
3.7503482923
 20
4.1986809872
 30
0.0
 10
3.7478911123
 20
4.201381035
 30
0.0
 10
3.7457847674
 20
4.2043435234
 30
0.0
 10
3.7442986306
 20
4.2068228572
 30
0.0
 10
3.7429399581
 20
4.2093591437
 30
0.0
 10
3.7420526516
 20
4.2113266122
 30
0.0
 10
3.7415155699
 20
4.2126572331
 30
0.0
  0
SPLINE
  5
2E2
100
AcDbEntity
  8
0
100
AcDbSpline
 62
7
  6
CONTINUOUS
 70
0
 71
3
 72
18
 73
14
 74
0
 42
0.0000001
 43
0.0000001
 44
0.0000000001
 40
0.0
 40
0.0
 40
0.0
 40
0.0
 40
0.0651900711
 40
0.1302783706
 40
0.1950467422
 40
0.2594179874
 40
0.3866780467
 40
0.5120915722
 40
0.635844007
 40
0.7582112549
 40
0.8190074016
 40
0.8795613125
 40
1.0
 40
1.0
 40
1.0
 40
1.0
 10
3.766892725
 20
4.166571493
 30
0.0
 10
3.7661408051
 20
4.166571493
 30
0.0
 10
3.7646369202
 20
4.1666535039
 30
0.0
 10
3.7624124095
 20
4.1670150496
 30
0.0
 10
3.7602469313
 20
4.1676049219
 30
0.0
 10
3.7574811817
 20
4.1686635699
 30
0.0
 10
3.7542651461
 20
4.1704484391
 30
0.0
 10
3.7508530004
 20
4.1731593575
 30
0.0
 10
3.7478976707
 20
4.1762793813
 30
0.0
 10
3.7457873525
 20
4.1791315589
 30
0.0
 10
3.7442995212
 20
4.1815177975
 30
0.0
 10
3.7429415855
 20
4.1839547216
 30
0.0
 10
3.7420533083
 20
4.1858478234
 30
0.0
 10
3.7415155699
 20
4.1871286972
 30
0.0
  0
SPLINE
  5
2E3
100
AcDbEntity
  8
0
100
AcDbSpline
 62
7
  6
CONTINUOUS
 70
0
 71
3
 72
16
 73
12
 74
0
 42
0.0000001
 43
0.0000001
 44
0.0000000001
 40
0.0
 40
0.0
 40
0.0
 40
0.0
 40
0.1328376096
 40
0.2639973113
 40
0.3925405093
 40
0.5182660706
 40
0.6414445365
 40
0.7624959165
 40
0.8224025419
 40
0.8819359435
 40
1.0
 40
1.0
 40
1.0
 40
1.0
 10
3.766892725
 20
4.1463631086
 30
0.0
 10
3.7653930363
 20
4.1463631086
 30
0.0
 10
3.7624038078
 20
4.146671858
 30
0.0
 10
3.758148774
 20
4.1480003009
 30
0.0
 10
3.7542795028
 20
4.1500381893
 30
0.0
 10
3.7508642361
 20
4.1526132992
 30
0.0
 10
3.7479060964
 20
4.1555784578
 30
0.0
 10
3.7457908572
 20
4.1582932775
 30
0.0
 10
3.7443007224
 20
4.1605640593
 30
0.0
 10
3.7429438126
 20
4.1628777245
 30
0.0
 10
3.7420542145
 20
4.1646785981
 30
0.0
 10
3.7415155699
 20
4.1658978135
 30
0.0
  0
SPLINE
  5
2E4
100
AcDbEntity
  8
0
100
AcDbSpline
 62
7
  6
CONTINUOUS
 70
0
 71
3
 72
15
 73
11
 74
0
 42
0.0000001
 43
0.0000001
 44
0.0000000001
 40
0.0
 40
0.0
 40
0.0
 40
0.0
 40
0.1361153039
 40
0.2698874985
 40
0.3999737481
 40
0.5260673726
 40
0.6485244436
 40
0.7679282258
 40
0.884929422
 40
1.0
 40
1.0
 40
1.0
 40
1.0
 10
3.766892725
 20
4.1308449713
 30
0.0
 10
3.7653939729
 20
4.1308449713
 30
0.0
 10
3.762414469
 20
4.131132933
 30
0.0
 10
3.7581649274
 20
4.1323745314
 30
0.0
 10
3.7542960945
 20
4.1342823815
 30
0.0
 10
3.7508783078
 20
4.1366961998
 30
0.0
 10
3.7479166817
 20
4.139477755
 30
0.0
 10
3.7453851089
 20
4.1425232902
 30
0.0
 10
3.743248783
 20
4.1457583226
 30
0.0
 10
3.7420554397
 20
4.1480227891
 30
0.0
 10
3.7415155699
 20
4.1491690471
 30
0.0
  0
SPLINE
  5
2E5
100
AcDbEntity
  8
0
100
AcDbSpline
 62
7
  6
CONTINUOUS
 70
0
 71
3
 72
19
 73
15
 74
0
 42
0.0000001
 43
0.0000001
 44
0.0000000001
 40
0.0
 40
0.0
 40
0.0
 40
0.0
 40
0.1399155284
 40
0.20892921
 40
0.2768561099
 40
0.4087595369
 40
0.5352975226
 40
0.5967010983
 40
0.6569656671
 40
0.7161723042
 40
0.7744433597
 40
0.8318846279
 40
0.8885785236
 40
1.0
 40
1.0
 40
1.0
 40
1.0
 10
3.766892725
 20
4.1201665293
 30
0.0
 10
3.7653949731
 20
4.1201665293
 30
0.0
 10
3.7631519425
 20
4.1203665932
 30
0.0
 10
3.7602575354
 20
4.1210151795
 30
0.0
 10
3.7575094921
 20
4.1218804167
 30
0.0
 10
3.7543150735
 20
4.1233331605
 30
0.0
 10
3.7514364474
 20
4.1252094598
 30
0.0
 10
3.749370936
 20
4.1268832418
 30
0.0
 10
3.7479480183
 20
4.1281983398
 30
0.0
 10
3.7466319965
 20
4.129574048
 30
0.0
 10
3.745419034
 20
4.1310018584
 30
0.0
 10
3.7443043294
 20
4.1324739666
 30
0.0
 10
3.7429507266
 20
4.1344743373
 30
0.0
 10
3.7420570857
 20
4.1360407867
 30
0.0
 10
3.7415155699
 20
4.1371035051
 30
0.0
  0
SPLINE
  5
2E6
100
AcDbEntity
  8
0
100
AcDbSpline
 62
7
  6
CONTINUOUS
 70
0
 71
3
 72
15
 73
11
 74
0
 42
0.0000001
 43
0.0000001
 44
0.0000000001
 40
0.0
 40
0.0
 40
0.0
 40
0.0
 40
0.1443350668
 40
0.2847400903
 40
0.4188596773
 40
0.5460524716
 40
0.666803061
 40
0.7820402046
 40
0.8928162471
 40
1.0
 40
1.0
 40
1.0
 40
1.0
 10
3.766892725
 20
4.1144306218
 30
0.0
 10
3.7653959985
 20
4.1144306218
 30
0.0
 10
3.7624377162
 20
4.1146694373
 30
0.0
 10
3.7582017827
 20
4.1157032971
 30
0.0
 10
3.754336362
 20
4.1172969823
 30
0.0
 10
3.7509146834
 20
4.1193188416
 30
0.0
 10
3.747946173
 20
4.1216530484
 30
0.0
 10
3.7454073671
 20
4.1242114938
 30
0.0
 10
3.743264662
 20
4.1269305789
 30
0.0
 10
3.7420593005
 20
4.128847987
 30
0.0
 10
3.7415155699
 20
4.1298173853
 30
0.0
  0
ENDSEC
  0
SECTION
  2
OBJECTS
  0
DICTIONARY
  5
C
100
AcDbDictionary
280
0
281
1
  3
ACAD_GROUP
350
D
  3
ACAD_MLINESTYLE
350
17
  3
ACAD_LAYOUT
350
1A
  3
ACAD_PLOTSETTINGS
350
19
  3
ACAD_PLOTSTYLENAME
350
E
  0
DICTIONARY
  5
D
102
{ACAD_REACTORS
330
C
102
}
100
AcDbDictionary
280
0
281
1
  0
ACDBDICTIONARYWDFLT
  5
E
102
{ACAD_REACTORS
330
C
102
}
100
AcDbDictionary
281
1
  3
Normal
350
F
100
AcDbDictionaryWithDefault
340
F
  0
DICTIONARY
  5
17
102
{ACAD_REACTORS
330
C
102
}
100
AcDbDictionary
280
0
281
1
  3
Standard
350
18
  0
DICTIONARY
  5
19
102
{ACAD_REACTORS
330
C
102
}
100
AcDbDictionary
281
1
  0
DICTIONARY
  5
1A
102
{ACAD_REACTORS
330
C
102
}
100
AcDbDictionary
281
1
  3
Model
350
2E7
  3
Layout1
350
2E8
  0
ACDBPLACEHOLDER
  5
F
102
{ACAD_REACTORS
330
E
102
}
  0
MLINESTYLE
  5
18
102
{ACAD_REACTORS
330
17
102
}
100
AcDbMlineStyle
  2
STANDARD
 70
0
  3

 62
256
 51
90.0
 52
90.0
 71
2
 49
0.5
 62
256
  6
BYLAYER
 49
-0.5
 62
256
  6
BYLAYER
  0
LAYOUT
  5
2E7
102
{ACAD_REACTORS
330
1A
102
}
100
AcDbPlotSettings
  1

  2
none_device
  4
ANSI_A_(11.00_x_8.50_Inches)
  6

 40
0.0
 41
0.0
 42
0.0
 43
0.0
 44
279.4
 45
215.9
 46
0.0
 47
0.0
 48
0.0
 49
0.0
140
0.0
141
0.0
142
1.0
143
1.0
 70
1024
 72
0
 73
0
 74
0
  7

 75
0
147
1.0
148
0.0
149
0.0
100
AcDbLayout
  1
Model
 70
0
 71
0
 10
0.0
 20
0.0
 11
11.0
 21
8.5
 12
0.0
 22
0.0
 32
0.0
 14
0.0
 24
0.0
 34
0.0
 15
0.0
 25
0.0
 35
0.0
146
0.0
 13
0.0
 23
0.0
 33
0.0
 16
1.0
 26
0.0
 36
0.0
 17
0.0
 27
1.0
 37
0.0
 76
0
330
203
345
0
346
0
  0
LAYOUT
  5
2E8
102
{ACAD_REACTORS
330
1A
102
}
100
AcDbPlotSettings
  1

  2
none_device
  4
ANSI_A_(11.00_x_8.50_Inches)
  6

 40
0.0
 41
0.0
 42
0.0
 43
0.0
 44
279.4
 45
215.9
 46
0.0
 47
0.0
 48
0.0
 49
0.0
140
0.0
141
0.0
142
1.0
143
1.0
 70
0
 72
0
 73
0
 74
0
  7

 75
0
147
1.0
148
0.0
149
0.0
100
AcDbLayout
  1
Layout1
 70
0
 71
1
 10
0.0
 20
0.0
 11
11.0
 21
8.5
 12
0.0
 22
0.0
 32
0.0
 14
0.0
 24
0.0
 34
0.0
 15
0.0
 25
0.0
 35
0.0
146
0.0
 13
0.0
 23
0.0
 33
0.0
 16
1.0
 26
0.0
 36
0.0
 17
0.0
 27
1.0
 37
0.0
 76
0
330
204
345
0
346
0
  0
ENDSEC
  0
EOF
