999
DXF file: 3230-1650_RIGHT.dxf
999
Pro/ENGINEER 2019352 by Parametric Technology Corporation
  0
SECTION
  2
HEADER
  9
$ACADVER
  1
AC1032
  9
$DWGCODEPAGE
  3
ANSI_1252
  9
$EXTMAX
 10
11.0
 20
8.5
 30
0.0
  9
$EXTMIN
 10
0.0
 20
0.0
 30
0.0
  9
$LIMMIN
 10
0.0
 20
0.0
  9
$LIMMAX
 10
11.0
 20
8.5
  9
$VIEWCTR
 10
5.5
 20
4.25
  9
$VIEWSIZE
 40
8.5
  9
$CLAYER
  8
0
  9
$LTSCALE
 40
0.605
  9
$CELTYPE
  6
BYLAYER
  9
$DIMSCALE
 40
1.0
  9
$DIMASZ
 40
0.1
  9
$DIMEXO
 40
0.0625
  9
$DIMDLI
 40
0.418
  9
$DIMEXE
 40
0.125
  9
$DIMCEN
 40
0.099
  9
$DIMLFAC
 40
1.0
  9
$DIMBLK
  1
_FILLED
  9
$DIMALT
 70
1
  9
$DIMALTD
 70
2
  9
$DIMALTTD
 70
2
  9
$DIMALTF
 40
25.4
  9
$DIMTXT
 40
0.08
  9
$DIMTOL
 70
1
  9
$DIMLIM
 70
0
  9
$DIMTFAC
 40
1.0
  9
$DIMTP
 40
0.001
  9
$DIMTM
 40
0.001
  9
$DIMGAP
 40
0.09
  9
$DIMDSEP
 70
46
  9
$AUNITS
 70
0
  9
$PDMODE
 70
3
  9
$PDSIZE
 40
0.3125
  9
$HANDSEED
  5
30E
  9
$TILEMODE
 70
1
  9
$MEASUREMENT
 70
0
  9
$INSUNITS
 70
1
  0
ENDSEC
  0
SECTION
  2
CLASSES
  0
CLASS
  1
ACDBDICTIONARYWDFLT
  2
AcDbDictionaryWithDefault
  3
AutoCAD 2000
 90
0
 91
1
280
0
281
0
  0
CLASS
  1
ACDBPLACEHOLDER
  2
AcDbPlaceHolder
  3
AutoCAD 2000
 90
0
 91
1
280
0
281
0
  0
CLASS
  1
LAYOUT
  2
AcDbLayout
  3
AutoCAD 2000
 90
0
 91
0
280
0
281
0
  0
ENDSEC
  0
SECTION
  2
TABLES
  0
TABLE
  2
VPORT
  5
8
100
AcDbSymbolTable
 70
2
  0
VPORT
  5
1F4
100
AcDbSymbolTableRecord
100
AcDbViewportTableRecord
  2
*ACTIVE
 70
0
 10
0.0
 20
0.0
 11
1.0
 21
1.0
 12
5.5
 22
4.25
 13
0.0
 23
0.0
 14
1.0
 24
1.0
 15
0.0
 25
0.0
 16
0.0
 26
0.0
 36
1.0
 17
0.0
 27
0.0
 37
0.0
 40
8.5
 41
1.2941176471
 42
50.0
 43
0.0
 44
0.0
 50
0.0
 51
0.0
 71
0
 72
100
 73
1
 74
1
 75
0
 76
0
 77
0
 78
0
  0
ENDTAB
  0
TABLE
  2
LTYPE
  5
5
100
AcDbSymbolTable
 70
6
  0
LTYPE
  5
14
100
AcDbSymbolTableRecord
100
AcDbLinetypeTableRecord
  2
BYBLOCK
 70
0
  3

 72
65
 73
0
 40
0.0
  0
LTYPE
  5
15
100
AcDbSymbolTableRecord
100
AcDbLinetypeTableRecord
  2
BYLAYER
 70
0
  3

 72
65
 73
0
 40
0.0
  0
LTYPE
  5
16
100
AcDbSymbolTableRecord
100
AcDbLinetypeTableRecord
  2
CONTINUOUS
 70
64
  3
Solid line
 72
65
 73
0
 40
0.0
  0
LTYPE
  5
1F5
100
AcDbSymbolTableRecord
100
AcDbLinetypeTableRecord
  2
CENTER
 70
64
  3
____ _ ____ _ ____ _ ____ _ ____ _ ____ _ ____
 72
65
 73
4
 40
0.6
 49
0.375
 74
0
 49
-0.075
 74
0
 49
0.075
 74
0
 49
-0.075
 74
0
  0
LTYPE
  5
1F6
100
AcDbSymbolTableRecord
100
AcDbLinetypeTableRecord
  2
HIDDEN
 70
64
  3
- - - - - - - - - - - - - - - - - - - -
 72
65
 73
2
 40
0.2
 49
0.1
 74
0
 49
-0.1
 74
0
  0
LTYPE
  5
1F7
100
AcDbSymbolTableRecord
100
AcDbLinetypeTableRecord
  2
PHANTOM
 70
64
  3
_____ _ _ _____ _ _ _____ _ _ _____
 72
65
 73
6
 40
0.8
 49
0.45
 74
0
 49
-0.05
 74
0
 49
0.1
 74
0
 49
-0.05
 74
0
 49
0.1
 74
0
 49
-0.05
 74
0
  0
LTYPE
  5
1F8
100
AcDbSymbolTableRecord
100
AcDbLinetypeTableRecord
  2
DOT
 70
64
  3
. . . . . . . . . . . . . . . . . . . .
 72
65
 73
2
 40
0.2
 49
0.1
 74
0
 49
-0.1
 74
0
  0
LTYPE
  5
1F9
100
AcDbSymbolTableRecord
100
AcDbLinetypeTableRecord
  2
DASHED
 70
64
  3
- - - - - - - - - - - - - - - - - - - -
 72
65
 73
2
 40
0.2
 49
0.1
 74
0
 49
-0.1
 74
0
  0
ENDTAB
  0
TABLE
  2
LAYER
  5
2
100
AcDbSymbolTable
 70
36
  0
LAYER
  5
10
100
AcDbSymbolTableRecord
100
AcDbLayerTableRecord
  2
0
 70
0
 62
7
  6
CONTINUOUS
370
-3
390
F
  0
LAYER
  5
1FA
100
AcDbSymbolTableRecord
100
AcDbLayerTableRecord
  2
DEFAULT_1
 70
0
 62
7
  6
CENTER
370
-3
390
F
  0
LAYER
  5
1FB
100
AcDbSymbolTableRecord
100
AcDbLayerTableRecord
  2
DEFAULT_2
 70
0
 62
8
  6
HIDDEN
370
-3
390
F
  0
LAYER
  5
1FC
100
AcDbSymbolTableRecord
100
AcDbLayerTableRecord
  2
DEFAULT_3
 70
0
 62
7
  6
PHANTOM
370
-3
390
F
  0
LAYER
  5
1FD
100
AcDbSymbolTableRecord
100
AcDbLayerTableRecord
  2
DEFAULT_COORDINATE_SYSTEM
 70
0
 62
7
  6
CONTINUOUS
370
-3
390
F
  0
LAYER
  5
1FE
100
AcDbSymbolTableRecord
100
AcDbLayerTableRecord
  2
DEFAULT_DATUM_AXES
 70
0
 62
7
  6
CONTINUOUS
370
-3
390
F
  0
LAYER
  5
1FF
100
AcDbSymbolTableRecord
100
AcDbLayerTableRecord
  2
DEFAULT_DATUM_PLANES
 70
0
 62
7
  6
CONTINUOUS
370
-3
390
F
  0
ENDTAB
  0
TABLE
  2
STYLE
  5
3
100
AcDbSymbolTable
 70
1
  0
STYLE
  5
11
100
AcDbSymbolTableRecord
100
AcDbTextStyleTableRecord
  2
STANDARD
 70
0
 40
0.0
 41
0.8
 50
0.0
 71
0
 42
0.2
  3
txt
  4

  0
STYLE
  5
200
100
AcDbSymbolTableRecord
100
AcDbTextStyleTableRecord
  2
TEXTSTYLE_1
 70
0
 40
0.0
 41
0.8
 50
0.0
 71
0
 42
0.2
  3
gdt
  4

  0
ENDTAB
  0
TABLE
  2
VIEW
  5
6
100
AcDbSymbolTable
 70
0
  0
ENDTAB
  0
TABLE
  2
UCS
  5
7
100
AcDbSymbolTable
 70
0
  0
ENDTAB
  0
TABLE
  2
APPID
  5
9
100
AcDbSymbolTable
 70
1
  0
APPID
  5
201
100
AcDbSymbolTableRecord
100
AcDbRegAppTableRecord
  2
ACAD
 70
0
  0
ENDTAB
  0
TABLE
  2
BLOCK_RECORD
  5
1
100
AcDbSymbolTable
 70
0
  0
BLOCK_RECORD
  5
202
100
AcDbSymbolTableRecord
100
AcDbBlockTableRecord
  2
*Model_Space
  0
BLOCK_RECORD
  5
203
100
AcDbSymbolTableRecord
100
AcDbBlockTableRecord
  2
*Paper_Space
  0
BLOCK_RECORD
  5
204
100
AcDbSymbolTableRecord
100
AcDbBlockTableRecord
  2
_FILLED
  0
ENDTAB
  0
TABLE
  2
DIMSTYLE
  5
A
100
AcDbSymbolTable
 70
1
100
AcDbDimStyleTable
 71
0
  0
DIMSTYLE
105
205
100
AcDbSymbolTableRecord
100
AcDbDimStyleTableRecord
  2
STANDARD
 70
0
  3

  4

 40
1.0
 41
0.1
 42
0.0625
 43
0.38
 44
0.125
 45
0.0
 46
0.0
 47
0.001
 48
0.001
140
0.08
141
0.09
142
0.0
143
25.4
144
1.0
145
0.0
146
1.0
147
0.09
 71
1.0
 72
0.0
 73
1
 74
1
 75
0
 76
0
 77
0
 78
4
 79
1
170
1
171
2
172
0
173
0
174
0
175
0
176
0
177
0
178
0
270
2
179
3
271
3
272
3
273
2
274
2
275
0
280
0
281
0
282
0
283
1
284
4
285
0
286
0
287
3
288
0
340
11
278
46
341
204
342
204
343
204
344
204
  0
ENDTAB
  0
ENDSEC
  0
SECTION
  2
BLOCKS
  0
BLOCK
  5
20
100
AcDbEntity
  8
0
100
AcDbBlockBegin
  2
*Model_Space
 70
0
 10
0.0
 20
0.0
 30
0.0
  3
*Model_Space
  1

  0
ENDBLK
  5
21
100
AcDbEntity
  8
0
100
AcDbBlockEnd
  0
BLOCK
  5
1C
100
AcDbEntity
  8
0
100
AcDbBlockBegin
  2
*Paper_Space
 70
0
 10
0.0
 20
0.0
 30
0.0
  3
*Paper_Space
  1

  0
ENDBLK
  5
1D
100
AcDbEntity
  8
0
100
AcDbBlockEnd
  0
BLOCK
  5
206
100
AcDbEntity
  8
0
100
AcDbBlockBegin
  2
_FILLED
 70
64
 10
0.0
 20
0.0
  3
_FILLED
  1

  0
SOLID
  5
207
100
AcDbEntity
  8
0
  6
BYBLOCK
 62
0
100
AcDbTrace
 10
0.0
 20
0.0
 11
-1.0
 21
0.2
 12
-1.0
 22
-0.2
 13
-1.0
 23
-0.2
  0
ENDBLK
  5
208
100
AcDbEntity
  8
0
  6
BYBLOCK
 62
0
100
AcDbBlockEnd
  0
ENDSEC
  0
SECTION
  2
ENTITIES
  0
MTEXT
  5
209
100
AcDbEntity
  8
0
100
AcDbMText
 62
2
  6
CONTINUOUS
  7
STANDARD
 71
3
 72
1
 10
5.5130685383
 20
2.7576112886
 30
0.0
 11
1.0
 21
0.0
 31
0.0
 73
2
 44
0.9
  1
SCALE 1.000
 40
0.08
 41
0.704
  0
LINE
  5
20A
100
AcDbEntity
  8
0
100
AcDbLine
 62
7
  6
CONTINUOUS
 10
0.0
 20
0.0
 11
0.0
 21
8.5
  0
LINE
  5
20B
100
AcDbEntity
  8
0
100
AcDbLine
 62
7
  6
CONTINUOUS
 10
0.0
 20
0.0
 11
11.0
 21
0.0
  0
LINE
  5
20C
100
AcDbEntity
  8
0
100
AcDbLine
 62
7
  6
CONTINUOUS
 10
0.0
 20
8.5
 11
11.0
 21
8.5
  0
LINE
  5
20D
100
AcDbEntity
  8
0
100
AcDbLine
 62
7
  6
CONTINUOUS
 10
11.0
 20
0.0
 11
11.0
 21
8.5
  0
LINE
  5
20E
100
AcDbEntity
  8
0
100
AcDbLine
 62
7
  6
CONTINUOUS
 10
3.852972867
 20
5.8415032936
 11
3.832972867
 21
5.8215032936
  0
LINE
  5
20F
100
AcDbEntity
  8
0
100
AcDbLine
 62
7
  6
CONTINUOUS
 10
3.646722867
 20
4.3015048793
 11
3.646722867
 21
5.2815017079
  0
LINE
  5
210
100
AcDbEntity
  8
0
100
AcDbLine
 62
7
  6
CONTINUOUS
 10
3.676722867
 20
4.2718149254
 11
3.676722867
 21
4.2725530585
  0
LINE
  5
211
100
AcDbEntity
  8
0
100
AcDbLine
 62
7
  6
CONTINUOUS
 10
3.676722867
 20
4.2760816755
 11
3.676722867
 21
4.2782889659
  0
LINE
  5
212
100
AcDbEntity
  8
0
100
AcDbLine
 62
7
  6
CONTINUOUS
 10
3.676722867
 20
4.2853122175
 11
3.676722867
 21
4.2889674079
  0
LINE
  5
213
100
AcDbEntity
  8
0
100
AcDbLine
 62
7
  6
CONTINUOUS
 10
3.676722867
 20
4.2994176563
 11
3.676722867
 21
4.3044855452
  0
LINE
  5
214
100
AcDbEntity
  8
0
100
AcDbLine
 62
7
  6
CONTINUOUS
 10
3.676722867
 20
4.3182621488
 11
3.676722867
 21
4.3246939296
  0
LINE
  5
215
100
AcDbEntity
  8
0
100
AcDbLine
 62
7
  6
CONTINUOUS
 10
3.676722867
 20
4.3416642121
 11
3.676722867
 21
4.3493979434
  0
LINE
  5
216
100
AcDbEntity
  8
0
100
AcDbLine
 62
7
  6
CONTINUOUS
 10
3.676722867
 20
4.3693984718
 11
3.676722867
 21
4.3783596734
  0
LINE
  5
217
100
AcDbEntity
  8
0
100
AcDbLine
 62
7
  6
CONTINUOUS
 10
3.676722867
 20
4.4011978316
 11
3.676722867
 21
4.4113002023
  0
LINE
  5
218
100
AcDbEntity
  8
0
100
AcDbLine
 62
7
  6
CONTINUOUS
 10
3.676722867
 20
4.4367560464
 11
3.676722867
 21
4.4479022948
  0
LINE
  5
219
100
AcDbEntity
  8
0
100
AcDbLine
 62
7
  6
CONTINUOUS
 10
3.676722867
 20
4.4757306711
 11
3.676722867
 21
4.4878134528
  0
LINE
  5
21A
100
AcDbEntity
  8
0
100
AcDbLine
 62
7
  6
CONTINUOUS
 10
3.676722867
 20
4.5177463588
 11
3.676722867
 21
4.5306493099
  0
LINE
  5
21B
100
AcDbEntity
  8
0
100
AcDbLine
 62
7
  6
CONTINUOUS
 10
3.676722867
 20
4.5623984754
 11
3.676722867
 21
4.5759973335
  0
LINE
  5
21C
100
AcDbEntity
  8
0
100
AcDbLine
 62
7
  6
CONTINUOUS
 10
3.676722867
 20
4.6092569967
 11
3.676722867
 21
4.6234207973
  0
LINE
  5
21D
100
AcDbEntity
  8
0
100
AcDbLine
 62
7
  6
CONTINUOUS
 10
3.676722867
 20
4.6578706494
 11
3.676722867
 21
4.6724629875
  0
LINE
  5
21E
100
AcDbEntity
  8
0
100
AcDbLine
 62
7
  6
CONTINUOUS
 10
3.676722867
 20
4.7077712576
 11
3.676722867
 21
4.7226516008
  0
LINE
  5
21F
100
AcDbEntity
  8
0
100
AcDbLine
 62
7
  6
CONTINUOUS
 10
3.676722867
 20
4.758478251
 11
3.676722867
 21
4.7735032936
  0
LINE
  5
220
100
AcDbEntity
  8
0
100
AcDbLine
 62
7
  6
CONTINUOUS
 10
3.676722867
 20
4.8095032936
 11
3.676722867
 21
4.8245283362
  0
LINE
  5
221
100
AcDbEntity
  8
0
100
AcDbLine
 62
7
  6
CONTINUOUS
 10
3.676722867
 20
4.8603549864
 11
3.676722867
 21
4.8752353296
  0
LINE
  5
222
100
AcDbEntity
  8
0
100
AcDbLine
 62
7
  6
CONTINUOUS
 10
3.676722867
 20
4.9105435997
 11
3.676722867
 21
4.9251359378
  0
LINE
  5
223
100
AcDbEntity
  8
0
100
AcDbLine
 62
7
  6
CONTINUOUS
 10
3.676722867
 20
4.9595857899
 11
3.676722867
 21
4.9737495905
  0
LINE
  5
224
100
AcDbEntity
  8
0
100
AcDbLine
 62
7
  6
CONTINUOUS
 10
3.676722867
 20
5.0070092537
 11
3.676722867
 21
5.0206081118
  0
LINE
  5
225
100
AcDbEntity
  8
0
100
AcDbLine
 62
7
  6
CONTINUOUS
 10
3.676722867
 20
5.0523572773
 11
3.676722867
 21
5.0652602284
  0
LINE
  5
226
100
AcDbEntity
  8
0
100
AcDbLine
 62
7
  6
CONTINUOUS
 10
3.676722867
 20
5.0951931344
 11
3.676722867
 21
5.1072759161
  0
LINE
  5
227
100
AcDbEntity
  8
0
100
AcDbLine
 62
7
  6
CONTINUOUS
 10
3.676722867
 20
5.1351042924
 11
3.676722867
 21
5.1462505408
  0
LINE
  5
228
100
AcDbEntity
  8
0
100
AcDbLine
 62
7
  6
CONTINUOUS
 10
3.676722867
 20
5.1717063849
 11
3.676722867
 21
5.1818087556
  0
LINE
  5
229
100
AcDbEntity
  8
0
100
AcDbLine
 62
7
  6
CONTINUOUS
 10
3.676722867
 20
5.2046469138
 11
3.676722867
 21
5.2136081154
  0
LINE
  5
22A
100
AcDbEntity
  8
0
100
AcDbLine
 62
7
  6
CONTINUOUS
 10
3.676722867
 20
5.2336086438
 11
3.676722867
 21
5.2413423751
  0
LINE
  5
22B
100
AcDbEntity
  8
0
100
AcDbLine
 62
7
  6
CONTINUOUS
 10
3.676722867
 20
5.2583126576
 11
3.676722867
 21
5.2647444384
  0
LINE
  5
22C
100
AcDbEntity
  8
0
100
AcDbLine
 62
7
  6
CONTINUOUS
 10
3.676722867
 20
5.278521042
 11
3.676722867
 21
5.2835889309
  0
LINE
  5
22D
100
AcDbEntity
  8
0
100
AcDbLine
 62
7
  6
CONTINUOUS
 10
3.676722867
 20
5.3047176213
 11
3.676722867
 21
5.3069249117
  0
LINE
  5
22E
100
AcDbEntity
  8
0
100
AcDbLine
 62
7
  6
CONTINUOUS
 10
3.676722867
 20
5.2940391793
 11
3.676722867
 21
5.2976943697
  0
LINE
  5
22F
100
AcDbEntity
  8
0
100
AcDbLine
 62
7
  6
CONTINUOUS
 10
3.676722867
 20
5.3104535287
 11
3.676722867
 21
5.3111916618
  0
LINE
  5
230
100
AcDbEntity
  8
0
100
AcDbLine
 62
7
  6
CONTINUOUS
 10
3.832972867
 20
5.3111916618
 11
3.832972867
 21
5.8215032936
  0
LINE
  5
231
100
AcDbEntity
  8
0
100
AcDbLine
 62
7
  6
CONTINUOUS
 10
6.1647749941
 20
3.6665032936
 11
6.386722867
 21
3.6665032936
  0
LINE
  5
232
100
AcDbEntity
  8
0
100
AcDbLine
 62
7
  6
CONTINUOUS
 10
4.3985444578
 20
5.3104535287
 11
4.3999013664
 21
5.3111916618
  0
LINE
  5
233
100
AcDbEntity
  8
0
100
AcDbLine
 62
7
  6
CONTINUOUS
 10
4.400472867
 20
5.3111916618
 11
4.400472867
 21
5.8215032936
  0
LINE
  5
234
100
AcDbEntity
  8
0
100
AcDbLine
 62
7
  6
CONTINUOUS
 10
4.586722867
 20
4.2718149254
 11
3.6767228148
 21
4.2718149254
  0
LINE
  5
235
100
AcDbEntity
  8
0
100
AcDbLine
 62
7
  6
CONTINUOUS
 10
4.586722867
 20
4.2725530585
 11
3.676722867
 21
4.2725530585
  0
LINE
  5
236
100
AcDbEntity
  8
0
100
AcDbLine
 62
7
  6
CONTINUOUS
 10
4.586722867
 20
4.2760816755
 11
3.676722867
 21
4.2760816755
  0
LINE
  5
237
100
AcDbEntity
  8
0
100
AcDbLine
 62
7
  6
CONTINUOUS
 10
4.586722867
 20
4.2782889659
 11
3.676722867
 21
4.2782889659
  0
LINE
  5
238
100
AcDbEntity
  8
0
100
AcDbLine
 62
7
  6
CONTINUOUS
 10
4.586722867
 20
4.2853122175
 11
3.676722867
 21
4.2853122175
  0
LINE
  5
239
100
AcDbEntity
  8
0
100
AcDbLine
 62
7
  6
CONTINUOUS
 10
4.586722867
 20
4.2889674079
 11
3.676722867
 21
4.2889674079
  0
LINE
  5
23A
100
AcDbEntity
  8
0
100
AcDbLine
 62
7
  6
CONTINUOUS
 10
5.846722867
 20
4.2915032936
 11
4.646722867
 21
4.2915032936
  0
LINE
  5
23B
100
AcDbEntity
  8
0
100
AcDbLine
 62
7
  6
CONTINUOUS
 10
4.586722867
 20
4.2994176563
 11
3.676722867
 21
4.2994176563
  0
LINE
  5
23C
100
AcDbEntity
  8
0
100
AcDbLine
 62
7
  6
CONTINUOUS
 10
4.586722867
 20
4.3044855452
 11
3.676722867
 21
4.3044855452
  0
LINE
  5
23D
100
AcDbEntity
  8
0
100
AcDbLine
 62
7
  6
CONTINUOUS
 10
4.646722867
 20
4.3065032936
 11
4.586722867
 21
4.3065032936
  0
LINE
  5
23E
100
AcDbEntity
  8
0
100
AcDbLine
 62
7
  6
CONTINUOUS
 10
4.586722867
 20
4.3182621488
 11
3.676722867
 21
4.3182621488
  0
LINE
  5
23F
100
AcDbEntity
  8
0
100
AcDbLine
 62
7
  6
CONTINUOUS
 10
4.586722867
 20
4.3246939296
 11
3.676722867
 21
4.3246939296
  0
LINE
  5
240
100
AcDbEntity
  8
0
100
AcDbLine
 62
7
  6
CONTINUOUS
 10
4.586722867
 20
5.3111916618
 11
4.586722867
 21
4.2718149254
  0
LINE
  5
241
100
AcDbEntity
  8
0
100
AcDbLine
 62
7
  6
CONTINUOUS
 10
4.646722867
 20
4.2915046111
 11
4.646722867
 21
5.2915019761
  0
LINE
  5
242
100
AcDbEntity
  8
0
100
AcDbLine
 62
7
  6
CONTINUOUS
 10
4.586722867
 20
4.3416642121
 11
3.676722867
 21
4.3416642121
  0
LINE
  5
243
100
AcDbEntity
  8
0
100
AcDbLine
 62
7
  6
CONTINUOUS
 10
4.586722867
 20
4.3493979434
 11
3.676722867
 21
4.3493979434
  0
LINE
  5
244
100
AcDbEntity
  8
0
100
AcDbLine
 62
7
  6
CONTINUOUS
 10
5.876722867
 20
4.3665032936
 11
5.886722867
 21
4.3665032936
  0
LINE
  5
245
100
AcDbEntity
  8
0
100
AcDbLine
 62
7
  6
CONTINUOUS
 10
4.586722867
 20
4.3693984718
 11
3.676722867
 21
4.3693984718
  0
LINE
  5
246
100
AcDbEntity
  8
0
100
AcDbLine
 62
7
  6
CONTINUOUS
 10
4.586722867
 20
4.3783596734
 11
3.676722867
 21
4.3783596734
  0
LINE
  5
247
100
AcDbEntity
  8
0
100
AcDbLine
 62
7
  6
CONTINUOUS
 10
3.6513457119
 20
4.4003600042
 11
4.586722867
 21
4.4003600042
  0
LINE
  5
248
100
AcDbEntity
  8
0
100
AcDbLine
 62
7
  6
CONTINUOUS
 10
4.586722867
 20
4.4011978316
 11
3.676722867
 21
4.4011978316
  0
LINE
  5
249
100
AcDbEntity
  8
0
100
AcDbLine
 62
7
  6
CONTINUOUS
 10
4.586722867
 20
4.4113002023
 11
3.676722867
 21
4.4113002023
  0
LINE
  5
24A
100
AcDbEntity
  8
0
100
AcDbLine
 62
7
  6
CONTINUOUS
 10
3.6513457119
 20
4.4337072623
 11
4.586722867
 21
4.4337072623
  0
LINE
  5
24B
100
AcDbEntity
  8
0
100
AcDbLine
 62
7
  6
CONTINUOUS
 10
4.586722867
 20
4.4367560464
 11
3.676722867
 21
4.4367560464
  0
LINE
  5
24C
100
AcDbEntity
  8
0
100
AcDbLine
 62
7
  6
CONTINUOUS
 10
4.586722867
 20
4.4479022948
 11
3.676722867
 21
4.4479022948
  0
LINE
  5
24D
100
AcDbEntity
  8
0
100
AcDbLine
 62
7
  6
CONTINUOUS
 10
3.6513457119
 20
4.4705002918
 11
4.586722867
 21
4.4705002918
  0
LINE
  5
24E
100
AcDbEntity
  8
0
100
AcDbLine
 62
7
  6
CONTINUOUS
 10
4.586722867
 20
4.4757306711
 11
3.676722867
 21
4.4757306711
  0
LINE
  5
24F
100
AcDbEntity
  8
0
100
AcDbLine
 62
7
  6
CONTINUOUS
 10
4.586722867
 20
4.4878134528
 11
3.676722867
 21
4.4878134528
  0
LINE
  5
250
100
AcDbEntity
  8
0
100
AcDbLine
 62
7
  6
CONTINUOUS
 10
3.6513457119
 20
4.5103847557
 11
4.586722867
 21
4.5103847557
  0
LINE
  5
251
100
AcDbEntity
  8
0
100
AcDbLine
 62
7
  6
CONTINUOUS
 10
4.586722867
 20
4.5177463588
 11
3.676722867
 21
4.5177463588
  0
LINE
  5
252
100
AcDbEntity
  8
0
100
AcDbLine
 62
7
  6
CONTINUOUS
 10
4.586722867
 20
4.5306493099
 11
3.676722867
 21
4.5306493099
  0
LINE
  5
253
100
AcDbEntity
  8
0
100
AcDbLine
 62
7
  6
CONTINUOUS
 10
3.6513457119
 20
4.5529765448
 11
4.586722867
 21
4.5529765448
  0
LINE
  5
254
100
AcDbEntity
  8
0
100
AcDbLine
 62
7
  6
CONTINUOUS
 10
4.586722867
 20
4.5623984754
 11
3.676722867
 21
4.5623984754
  0
LINE
  5
255
100
AcDbEntity
  8
0
100
AcDbLine
 62
7
  6
CONTINUOUS
 10
4.586722867
 20
4.5759973335
 11
3.676722867
 21
4.5759973335
  0
LINE
  5
256
100
AcDbEntity
  8
0
100
AcDbLine
 62
7
  6
CONTINUOUS
 10
3.6513457119
 20
4.5978654768
 11
4.586722867
 21
4.5978654768
  0
LINE
  5
257
100
AcDbEntity
  8
0
100
AcDbLine
 62
7
  6
CONTINUOUS
 10
4.586722867
 20
4.6092569967
 11
3.676722867
 21
4.6092569967
  0
LINE
  5
258
100
AcDbEntity
  8
0
100
AcDbLine
 62
7
  6
CONTINUOUS
 10
4.586722867
 20
4.6234207973
 11
3.676722867
 21
4.6234207973
  0
LINE
  5
259
100
AcDbEntity
  8
0
100
AcDbLine
 62
7
  6
CONTINUOUS
 10
3.6513457119
 20
4.6446192469
 11
4.586722867
 21
4.6446192469
  0
LINE
  5
25A
100
AcDbEntity
  8
0
100
AcDbLine
 62
7
  6
CONTINUOUS
 10
4.586722867
 20
4.6578706494
 11
3.676722867
 21
4.6578706494
  0
LINE
  5
25B
100
AcDbEntity
  8
0
100
AcDbLine
 62
7
  6
CONTINUOUS
 10
4.586722867
 20
4.6724629875
 11
3.676722867
 21
4.6724629875
  0
LINE
  5
25C
100
AcDbEntity
  8
0
100
AcDbLine
 62
7
  6
CONTINUOUS
 10
3.8335443676
 20
5.3111916618
 11
3.8349012762
 21
5.3104535287
  0
LINE
  5
25D
100
AcDbEntity
  8
0
100
AcDbLine
 62
7
  6
CONTINUOUS
 10
3.6513457119
 20
4.6927875907
 11
4.586722867
 21
4.6927875907
  0
LINE
  5
25E
100
AcDbEntity
  8
0
100
AcDbLine
 62
7
  6
CONTINUOUS
 10
4.586722867
 20
4.7077712576
 11
3.676722867
 21
4.7077712576
  0
LINE
  5
25F
100
AcDbEntity
  8
0
100
AcDbLine
 62
7
  6
CONTINUOUS
 10
4.586722867
 20
4.7226516008
 11
3.676722867
 21
4.7226516008
  0
LINE
  5
260
100
AcDbEntity
  8
0
100
AcDbLine
 62
7
  6
CONTINUOUS
 10
3.6513457119
 20
4.7419066206
 11
4.586722867
 21
4.7419066206
  0
LINE
  5
261
100
AcDbEntity
  8
0
100
AcDbLine
 62
7
  6
CONTINUOUS
 10
4.586722867
 20
4.758478251
 11
3.676722867
 21
4.758478251
  0
LINE
  5
262
100
AcDbEntity
  8
0
100
AcDbLine
 62
7
  6
CONTINUOUS
 10
4.586722867
 20
4.7735032936
 11
3.676722867
 21
4.7735032936
  0
LINE
  5
263
100
AcDbEntity
  8
0
100
AcDbLine
 62
7
  6
CONTINUOUS
 10
3.6513457119
 20
4.7915032936
 11
4.586722867
 21
4.7915032936
  0
LINE
  5
264
100
AcDbEntity
  8
0
100
AcDbLine
 62
7
  6
CONTINUOUS
 10
4.586722867
 20
4.8095032936
 11
3.676722867
 21
4.8095032936
  0
LINE
  5
265
100
AcDbEntity
  8
0
100
AcDbLine
 62
7
  6
CONTINUOUS
 10
4.586722867
 20
4.8245283362
 11
3.676722867
 21
4.8245283362
  0
LINE
  5
266
100
AcDbEntity
  8
0
100
AcDbLine
 62
7
  6
CONTINUOUS
 10
3.6513457119
 20
4.8410999666
 11
4.586722867
 21
4.8410999666
  0
LINE
  5
267
100
AcDbEntity
  8
0
100
AcDbLine
 62
7
  6
CONTINUOUS
 10
4.586722867
 20
4.8603549864
 11
3.676722867
 21
4.8603549864
  0
LINE
  5
268
100
AcDbEntity
  8
0
100
AcDbLine
 62
7
  6
CONTINUOUS
 10
4.586722867
 20
4.8752353296
 11
3.676722867
 21
4.8752353296
  0
LINE
  5
269
100
AcDbEntity
  8
0
100
AcDbLine
 62
7
  6
CONTINUOUS
 10
3.6513457119
 20
4.8902189965
 11
4.586722867
 21
4.8902189965
  0
LINE
  5
26A
100
AcDbEntity
  8
0
100
AcDbLine
 62
7
  6
CONTINUOUS
 10
4.586722867
 20
4.9105435997
 11
3.676722867
 21
4.9105435997
  0
LINE
  5
26B
100
AcDbEntity
  8
0
100
AcDbLine
 62
7
  6
CONTINUOUS
 10
4.586722867
 20
4.9251359378
 11
3.676722867
 21
4.9251359378
  0
LINE
  5
26C
100
AcDbEntity
  8
0
100
AcDbLine
 62
7
  6
CONTINUOUS
 10
3.6513457119
 20
4.9383873403
 11
4.586722867
 21
4.9383873403
  0
LINE
  5
26D
100
AcDbEntity
  8
0
100
AcDbLine
 62
7
  6
CONTINUOUS
 10
4.586722867
 20
4.9595857899
 11
3.676722867
 21
4.9595857899
  0
LINE
  5
26E
100
AcDbEntity
  8
0
100
AcDbLine
 62
7
  6
CONTINUOUS
 10
4.586722867
 20
4.9737495905
 11
3.676722867
 21
4.9737495905
  0
LINE
  5
26F
100
AcDbEntity
  8
0
100
AcDbLine
 62
7
  6
CONTINUOUS
 10
3.6513457119
 20
4.9851411104
 11
4.586722867
 21
4.9851411104
  0
LINE
  5
270
100
AcDbEntity
  8
0
100
AcDbLine
 62
7
  6
CONTINUOUS
 10
4.586722867
 20
5.0070092537
 11
3.676722867
 21
5.0070092537
  0
LINE
  5
271
100
AcDbEntity
  8
0
100
AcDbLine
 62
7
  6
CONTINUOUS
 10
4.586722867
 20
5.0206081118
 11
3.676722867
 21
5.0206081118
  0
LINE
  5
272
100
AcDbEntity
  8
0
100
AcDbLine
 62
7
  6
CONTINUOUS
 10
3.6513457119
 20
5.0300300424
 11
4.586722867
 21
5.0300300424
  0
LINE
  5
273
100
AcDbEntity
  8
0
100
AcDbLine
 62
7
  6
CONTINUOUS
 10
4.586722867
 20
5.0523572773
 11
3.676722867
 21
5.0523572773
  0
LINE
  5
274
100
AcDbEntity
  8
0
100
AcDbLine
 62
7
  6
CONTINUOUS
 10
4.586722867
 20
5.0652602284
 11
3.676722867
 21
5.0652602284
  0
LINE
  5
275
100
AcDbEntity
  8
0
100
AcDbLine
 62
7
  6
CONTINUOUS
 10
3.6513457119
 20
5.0726218315
 11
4.586722867
 21
5.0726218315
  0
LINE
  5
276
100
AcDbEntity
  8
0
100
AcDbLine
 62
7
  6
CONTINUOUS
 10
4.586722867
 20
5.0951931344
 11
3.676722867
 21
5.0951931344
  0
LINE
  5
277
100
AcDbEntity
  8
0
100
AcDbLine
 62
7
  6
CONTINUOUS
 10
4.586722867
 20
5.1072759161
 11
3.676722867
 21
5.1072759161
  0
LINE
  5
278
100
AcDbEntity
  8
0
100
AcDbLine
 62
7
  6
CONTINUOUS
 10
3.6513457119
 20
5.1125062954
 11
4.586722867
 21
5.1125062954
  0
LINE
  5
279
100
AcDbEntity
  8
0
100
AcDbLine
 62
7
  6
CONTINUOUS
 10
4.586722867
 20
5.1351042924
 11
3.676722867
 21
5.1351042924
  0
LINE
  5
27A
100
AcDbEntity
  8
0
100
AcDbLine
 62
7
  6
CONTINUOUS
 10
4.586722867
 20
5.1462505408
 11
3.676722867
 21
5.1462505408
  0
LINE
  5
27B
100
AcDbEntity
  8
0
100
AcDbLine
 62
7
  6
CONTINUOUS
 10
3.6513457119
 20
5.1492993249
 11
4.586722867
 21
5.1492993249
  0
LINE
  5
27C
100
AcDbEntity
  8
0
100
AcDbLine
 62
7
  6
CONTINUOUS
 10
4.380472867
 20
5.8415032936
 11
4.400472867
 21
5.8215032936
  0
LINE
  5
27D
100
AcDbEntity
  8
0
100
AcDbLine
 62
7
  6
CONTINUOUS
 10
4.586722867
 20
5.1717063849
 11
3.676722867
 21
5.1717063849
  0
LINE
  5
27E
100
AcDbEntity
  8
0
100
AcDbLine
 62
7
  6
CONTINUOUS
 10
4.586722867
 20
5.1818087556
 11
3.676722867
 21
5.1818087556
  0
LINE
  5
27F
100
AcDbEntity
  8
0
100
AcDbLine
 62
7
  6
CONTINUOUS
 10
3.6513457119
 20
5.182646583
 11
4.586722867
 21
5.182646583
  0
LINE
  5
280
100
AcDbEntity
  8
0
100
AcDbLine
 62
7
  6
CONTINUOUS
 10
4.586722867
 20
5.2046469138
 11
3.676722867
 21
5.2046469138
  0
LINE
  5
281
100
AcDbEntity
  8
0
100
AcDbLine
 62
7
  6
CONTINUOUS
 10
4.586722867
 20
5.2136081154
 11
3.676722867
 21
5.2136081154
  0
LINE
  5
282
100
AcDbEntity
  8
0
100
AcDbLine
 62
7
  6
CONTINUOUS
 10
5.876722867
 20
5.2165032936
 11
5.886722867
 21
5.2165032936
  0
LINE
  5
283
100
AcDbEntity
  8
0
100
AcDbLine
 62
7
  6
CONTINUOUS
 10
4.586722867
 20
5.2336086438
 11
4.1913633598
 21
5.2336086438
  0
LINE
  5
284
100
AcDbEntity
  8
0
100
AcDbLine
 62
7
  6
CONTINUOUS
 10
4.0420823742
 20
5.2336086438
 11
3.676722867
 21
5.2336086438
  0
LINE
  5
285
100
AcDbEntity
  8
0
100
AcDbLine
 62
7
  6
CONTINUOUS
 10
4.586722867
 20
5.2413423751
 11
4.2283887154
 21
5.2413423751
  0
LINE
  5
286
100
AcDbEntity
  8
0
100
AcDbLine
 62
7
  6
CONTINUOUS
 10
4.0050570186
 20
5.2413423751
 11
3.676722867
 21
5.2413423751
  0
LINE
  5
287
100
AcDbEntity
  8
0
100
AcDbLine
 62
7
  6
CONTINUOUS
 10
4.586722867
 20
5.2583126576
 11
4.2841296912
 21
5.2583126576
  0
LINE
  5
288
100
AcDbEntity
  8
0
100
AcDbLine
 62
7
  6
CONTINUOUS
 10
3.9493160428
 20
5.2583126576
 11
3.676722867
 21
5.2583126576
  0
LINE
  5
289
100
AcDbEntity
  8
0
100
AcDbLine
 62
7
  6
CONTINUOUS
 10
4.586722867
 20
5.2647444384
 11
4.3013068416
 21
5.2647444384
  0
LINE
  5
28A
100
AcDbEntity
  8
0
100
AcDbLine
 62
7
  6
CONTINUOUS
 10
3.9321388924
 20
5.2647444384
 11
3.676722867
 21
5.2647444384
  0
LINE
  5
28B
100
AcDbEntity
  8
0
100
AcDbLine
 62
7
  6
CONTINUOUS
 10
4.646722867
 20
5.2765032936
 11
4.586722867
 21
5.2765032936
  0
LINE
  5
28C
100
AcDbEntity
  8
0
100
AcDbLine
 62
7
  6
CONTINUOUS
 10
4.586722867
 20
5.278521042
 11
4.3342093028
 21
5.278521042
  0
LINE
  5
28D
100
AcDbEntity
  8
0
100
AcDbLine
 62
7
  6
CONTINUOUS
 10
3.8992364312
 20
5.278521042
 11
3.676722867
 21
5.278521042
  0
LINE
  5
28E
100
AcDbEntity
  8
0
100
AcDbLine
 62
7
  6
CONTINUOUS
 10
4.586722867
 20
5.2835889309
 11
4.3453324402
 21
5.2835889309
  0
LINE
  5
28F
100
AcDbEntity
  8
0
100
AcDbLine
 62
7
  6
CONTINUOUS
 10
3.8881132938
 20
5.2835889309
 11
3.676722867
 21
5.2835889309
  0
LINE
  5
290
100
AcDbEntity
  8
0
100
AcDbLine
 62
7
  6
CONTINUOUS
 10
5.846722867
 20
5.2915032936
 11
4.646722867
 21
5.2915032936
  0
LINE
  5
291
100
AcDbEntity
  8
0
100
AcDbLine
 62
7
  6
CONTINUOUS
 10
4.586722867
 20
5.2940391793
 11
4.3670354294
 21
5.2940391793
  0
LINE
  5
292
100
AcDbEntity
  8
0
100
AcDbLine
 62
7
  6
CONTINUOUS
 10
3.8664103046
 20
5.2940391793
 11
3.676722867
 21
5.2940391793
  0
LINE
  5
293
100
AcDbEntity
  8
0
100
AcDbLine
 62
7
  6
CONTINUOUS
 10
4.586722867
 20
5.2976943697
 11
4.3742951249
 21
5.2976943697
  0
LINE
  5
294
100
AcDbEntity
  8
0
100
AcDbLine
 62
7
  6
CONTINUOUS
 10
3.8591506092
 20
5.2976943697
 11
3.676722867
 21
5.2976943697
  0
LINE
  5
295
100
AcDbEntity
  8
0
100
AcDbLine
 62
7
  6
CONTINUOUS
 10
4.586722867
 20
5.3047176213
 11
4.3878372499
 21
5.3047176213
  0
LINE
  5
296
100
AcDbEntity
  8
0
100
AcDbLine
 62
7
  6
CONTINUOUS
 10
3.8456084841
 20
5.3047176213
 11
3.676722867
 21
5.3047176213
  0
LINE
  5
297
100
AcDbEntity
  8
0
100
AcDbLine
 62
7
  6
CONTINUOUS
 10
4.586722867
 20
5.3069249117
 11
4.3919927471
 21
5.3069249117
  0
LINE
  5
298
100
AcDbEntity
  8
0
100
AcDbLine
 62
7
  6
CONTINUOUS
 10
3.8414529869
 20
5.3069249117
 11
3.676722867
 21
5.3069249117
  0
LINE
  5
299
100
AcDbEntity
  8
0
100
AcDbLine
 62
7
  6
CONTINUOUS
 10
4.586722867
 20
5.3104535287
 11
4.3985444578
 21
5.3104535287
  0
LINE
  5
29A
100
AcDbEntity
  8
0
100
AcDbLine
 62
7
  6
CONTINUOUS
 10
3.8349012762
 20
5.3104535287
 11
3.676722867
 21
5.3104535287
  0
LINE
  5
29B
100
AcDbEntity
  8
0
100
AcDbLine
 62
7
  6
CONTINUOUS
 10
4.586722867
 20
5.3111916618
 11
4.3999013664
 21
5.3111916618
  0
LINE
  5
29C
100
AcDbEntity
  8
0
100
AcDbLine
 62
7
  6
CONTINUOUS
 10
3.8335443676
 20
5.3111916618
 11
3.676722867
 21
5.3111916618
  0
LINE
  5
29D
100
AcDbEntity
  8
0
100
AcDbLine
 62
7
  6
CONTINUOUS
 10
5.846722867
 20
5.2915032936
 11
5.846722867
 21
4.2915032936
  0
LINE
  5
29E
100
AcDbEntity
  8
0
100
AcDbLine
 62
7
  6
CONTINUOUS
 10
5.876722867
 20
5.2615017725
 11
5.876722867
 21
4.3215048147
  0
LINE
  5
29F
100
AcDbEntity
  8
0
100
AcDbLine
 62
7
  6
CONTINUOUS
 10
5.886722867
 20
5.2637102957
 11
5.886722867
 21
4.3192962915
  0
LINE
  5
2A0
100
AcDbEntity
  8
0
100
AcDbLine
 62
7
  6
CONTINUOUS
 10
5.9123326231
 20
4.2896192674
 11
5.9123326231
 21
5.2933873198
  0
LINE
  5
2A1
100
AcDbEntity
  8
0
100
AcDbLine
 62
7
  6
CONTINUOUS
 10
6.0557220902
 20
4.1619374499
 11
6.0557220902
 21
5.4210691373
  0
LINE
  5
2A2
100
AcDbEntity
  8
0
100
AcDbLine
 62
7
  6
CONTINUOUS
 10
3.832972867
 20
5.8215032936
 11
4.400472867
 21
5.8215032936
  0
LINE
  5
2A3
100
AcDbEntity
  8
0
100
AcDbLine
 62
7
  6
CONTINUOUS
 10
3.8529743576
 20
5.8415032936
 11
4.3804713764
 21
5.8415032936
  0
LINE
  5
2A4
100
AcDbEntity
  8
0
100
AcDbLine
 62
7
  6
CONTINUOUS
 10
6.1348541144
 20
3.6943259195
 11
6.1348541144
 21
5.8886806677
  0
LINE
  5
2A5
100
AcDbEntity
  8
0
100
AcDbLine
 62
7
  6
CONTINUOUS
 10
6.1647749941
 20
3.6665032936
 11
6.1647749941
 21
5.9165032936
  0
LINE
  5
2A6
100
AcDbEntity
  8
0
100
AcDbLine
 62
7
  6
CONTINUOUS
 10
6.1647749941
 20
5.9165032936
 11
6.386722867
 21
5.9165032936
  0
LINE
  5
2A7
100
AcDbEntity
  8
0
100
AcDbLine
 62
7
  6
CONTINUOUS
 10
6.386722867
 20
3.6665054711
 11
6.386722867
 21
5.9165011161
  0
ARC
  5
2A8
100
AcDbEntity
  8
0
100
AcDbCircle
 62
7
  6
CONTINUOUS
 10
3.641447473
 20
6.0701285125
 40
2.5
100
AcDbArc
 50
344.9522620167
 51
355.8378620776
  0
ARC
  5
2A9
100
AcDbEntity
  8
0
100
AcDbCircle
 62
7
  6
CONTINUOUS
 10
3.641447473
 20
3.5128780747
 40
2.5
100
AcDbArc
 50
4.1621379224
 51
15.0477379833
  0
ARC
  5
2AA
100
AcDbEntity
  8
0
100
AcDbCircle
 62
7
  6
CONTINUOUS
 10
4.3322530215
 20
6.2259014096
 40
1.0418265103
100
AcDbArc
 50
241.8945528413
 51
242.1533260002
  0
ARC
  5
2AB
100
AcDbEntity
  8
0
100
AcDbCircle
 62
7
  6
CONTINUOUS
 10
3.9028098768
 20
6.2228568977
 40
1.0383791618
100
AcDbArc
 50
297.8462444444
 51
298.1058767141
  0
ARC
  5
2AC
100
AcDbEntity
  8
0
100
AcDbCircle
 62
7
  6
CONTINUOUS
 10
4.2904509172
 20
6.1452773236
 40
0.9510083172
100
AcDbArc
 50
243.0303177276
 51
243.5200071678
  0
ARC
  5
2AD
100
AcDbEntity
  8
0
100
AcDbCircle
 62
7
  6
CONTINUOUS
 10
3.9454583718
 20
6.1403843749
 40
0.9455302246
100
AcDbArc
 50
296.4785742733
 51
296.9711008313
  0
ARC
  5
2AE
100
AcDbEntity
  8
0
100
AcDbCircle
 62
7
  6
CONTINUOUS
 10
4.2350652553
 20
6.0303477009
 40
0.8234223242
100
AcDbArc
 50
245.0799244874
 51
245.9304560756
  0
ARC
  5
2AF
100
AcDbEntity
  8
0
100
AcDbCircle
 62
7
  6
CONTINUOUS
 10
4.0012946164
 20
6.0239516738
 40
0.8163939094
100
AcDbArc
 50
294.0658827016
 51
294.9237367354
  0
ARC
  5
2B0
100
AcDbEntity
  8
0
100
AcDbCircle
 62
7
  6
CONTINUOUS
 10
4.1755285326
 20
5.8886042029
 40
0.669656272
100
AcDbArc
 50
248.6874940726
 51
250.2568688033
  0
ARC
  5
2B1
100
AcDbEntity
  8
0
100
AcDbCircle
 62
7
  6
CONTINUOUS
 10
4.0607176172
 20
5.8811252224
 40
0.6616709498
100
AcDbArc
 50
289.7336606579
 51
291.3219764662
  0
ARC
  5
2B2
100
AcDbEntity
  8
0
100
AcDbCircle
 62
7
  6
CONTINUOUS
 10
4.1082783119
 20
5.7238761606
 40
0.4972578438
100
AcDbArc
 50
279.618462096
 51
283.9777760502
  0
ARC
  5
2B3
100
AcDbEntity
  8
0
100
AcDbCircle
 62
7
  6
CONTINUOUS
 10
4.1251672993
 20
5.7238755727
 40
0.4972572436
100
AcDbArc
 50
256.0222213178
 51
260.3815405361
  0
ARC
  5
2B4
100
AcDbEntity
  8
0
100
AcDbCircle
 62
7
  6
CONTINUOUS
 10
5.886722867
 20
5.4665032936
 40
0.175
100
AcDbArc
 50
278.4149680847
 51
344.9522620167
  0
ARC
  5
2B5
100
AcDbEntity
  8
0
100
AcDbCircle
 62
7
  6
CONTINUOUS
 10
5.886722867
 20
4.1165032936
 40
0.175
100
AcDbArc
 50
15.0477379833
 51
81.5850319153
  0
ARC
  5
2B6
100
AcDbEntity
  8
0
100
AcDbCircle
 62
7
  6
CONTINUOUS
 10
3.676722867
 20
5.2815032936
 40
0.03
100
AcDbArc
 50
147.7690473645
 51
180.0
  0
ARC
  5
2B7
100
AcDbEntity
  8
0
100
AcDbCircle
 62
7
  6
CONTINUOUS
 10
3.676722867
 20
4.3015032936
 40
0.03
100
AcDbArc
 50
180.0
 51
212.2309526355
  0
ARC
  5
2B8
100
AcDbEntity
  8
0
100
AcDbCircle
 62
7
  6
CONTINUOUS
 10
5.846722867
 20
5.2615032936
 40
0.03
100
AcDbArc
 50
0.0
 51
90.0
  0
ARC
  5
2B9
100
AcDbEntity
  8
0
100
AcDbCircle
 62
7
  6
CONTINUOUS
 10
5.846722867
 20
4.3215032936
 40
0.03
100
AcDbArc
 50
270.0
 51
360.0
  0
ARC
  5
2BA
100
AcDbEntity
  8
0
100
AcDbCircle
 62
7
  6
CONTINUOUS
 10
5.916722867
 20
5.2637102957
 40
0.03
100
AcDbArc
 50
98.4149680847
 51
180.0
  0
ARC
  5
2BB
100
AcDbEntity
  8
0
100
AcDbCircle
 62
7
  6
CONTINUOUS
 10
5.916722867
 20
4.3192962915
 40
0.03
100
AcDbArc
 50
180.0
 51
261.5850319153
  0
ARC
  5
2BC
100
AcDbEntity
  8
0
100
AcDbCircle
 62
7
  6
CONTINUOUS
 10
6.1647749941
 20
5.8865032936
 40
0.03
100
AcDbArc
 50
90.0
 51
175.8378620776
  0
ARC
  5
2BD
100
AcDbEntity
  8
0
100
AcDbCircle
 62
7
  6
CONTINUOUS
 10
6.1647749941
 20
3.6965032936
 40
0.03
100
AcDbArc
 50
184.1621379224
 51
270.0
  0
ARC
  5
2BE
100
AcDbEntity
  8
0
100
AcDbCircle
 62
7
  6
CONTINUOUS
 10
3.675663376
 20
5.2821752107
 40
0.0287454155
100
AcDbArc
 50
140.3813033215
 51
147.7756573918
  0
ARC
  5
2BF
100
AcDbEntity
  8
0
100
AcDbCircle
 62
7
  6
CONTINUOUS
 10
3.6756096521
 20
4.3007923898
 40
0.0286791781
100
AcDbArc
 50
212.2156841022
 51
219.6271300077
  0
SPLINE
  5
2C0
100
AcDbEntity
  8
0
100
AcDbSpline
 62
7
  6
CONTINUOUS
 70
0
 71
3
 72
15
 73
11
 74
0
 42
0.0000001
 43
0.0000001
 44
0.0000000001
 40
0.0
 40
0.0
 40
0.0
 40
0.0
 40
0.070530041
 40
0.1549832615
 40
0.2547007368
 40
0.3711194895
 40
0.5052744757
 40
0.6570451881
 40
0.8239856192
 40
1.0
 40
1.0
 40
1.0
 40
1.0
 10
3.6513457119
 20
4.3707796698
 30
0.0
 10
3.6519361767
 20
4.3706851721
 30
0.0
 10
3.6532377011
 20
4.3705025893
 30
0.0
 10
3.6553838728
 20
4.3702618154
 30
0.0
 10
3.6579224786
 20
4.3700352346
 30
0.0
 10
3.6608853465
 20
4.3698287594
 30
0.0
 10
3.6642920494
 20
4.3696503284
 30
0.0
 10
3.668129195
 20
4.3695100008
 30
0.0
 10
3.6723228165
 20
4.3694193002
 30
0.0
 10
3.6752305548
 20
4.3693984718
 30
0.0
 10
3.676722867
 20
4.3693984718
 30
0.0
  0
SPLINE
  5
2C1
100
AcDbEntity
  8
0
100
AcDbSpline
 62
7
  6
CONTINUOUS
 70
0
 71
3
 72
15
 73
11
 74
0
 42
0.0000001
 43
0.0000001
 44
0.0000000001
 40
0.0
 40
0.0
 40
0.0
 40
0.0
 40
0.0735130901
 40
0.159901897
 40
0.2606206033
 40
0.3771862327
 40
0.5107025095
 40
0.6611373983
 40
0.8261893619
 40
1.0
 40
1.0
 40
1.0
 40
1.0
 10
3.6513457119
 20
4.3452511338
 30
0.0
 10
3.6519286376
 20
4.3450088601
 30
0.0
 10
3.6532198075
 20
4.3445372507
 30
0.0
 10
3.6553693631
 20
4.3439099998
 30
0.0
 10
3.657910726
 20
4.3433202258
 30
0.0
 10
3.6608758989
 20
4.3427831122
 30
0.0
 10
3.6642847717
 20
4.3423190846
 30
0.0
 10
3.66812414
 20
4.3419542072
 30
0.0
 10
3.6723201564
 20
4.3417183781
 30
0.0
 10
3.6752303296
 20
4.3416642121
 30
0.0
 10
3.676722867
 20
4.3416642121
 30
0.0
  0
SPLINE
  5
2C2
100
AcDbEntity
  8
0
100
AcDbSpline
 62
7
  6
CONTINUOUS
 70
0
 71
3
 72
16
 73
12
 74
0
 42
0.0000001
 43
0.0000001
 44
0.0000000001
 40
0.0
 40
0.0
 40
0.0
 40
0.0
 40
0.0784322281
 40
0.168107753
 40
0.2705837043
 40
0.3874633102
 40
0.5199401504
 40
0.6681205573
 40
0.8299486374
 40
0.9144894844
 40
1.0
 40
1.0
 40
1.0
 40
1.0
 10
3.6513457119
 20
4.3240202502
 30
0.0
 10
3.6519185801
 20
4.3236380373
 30
0.0
 10
3.6531932362
 20
4.3228879408
 30
0.0
 10
3.6553462286
 20
4.3218768616
 30
0.0
 10
3.6578909254
 20
4.32092698
 30
0.0
 10
3.6608593695
 20
4.3200624335
 30
0.0
 10
3.6642717076
 20
4.3193157469
 30
0.0
 10
3.6681148237
 20
4.3187288017
 30
0.0
 10
3.6715674206
 20
4.3184166716
 30
0.0
 10
3.6744788134
 20
4.3182850062
 30
0.0
 10
3.6759720478
 20
4.3182621488
 30
0.0
 10
3.676722867
 20
4.3182621488
 30
0.0
  0
SPLINE
  5
2C3
100
AcDbEntity
  8
0
100
AcDbSpline
 62
7
  6
CONTINUOUS
 70
0
 71
3
 72
16
 73
12
 74
0
 42
0.0000001
 43
0.0000001
 44
0.0000000001
 40
0.0
 40
0.0
 40
0.0
 40
0.0
 40
0.1779805933
 40
0.2827859216
 40
0.4002055252
 40
0.5314928246
 40
0.6769049813
 40
0.7544915038
 40
0.8347165085
 40
0.9169173042
 40
1.0
 40
1.0
 40
1.0
 40
1.0
 10
3.6513457119
 20
4.3072914837
 30
0.0
 10
3.6525340091
 20
4.3062073515
 30
0.0
 10
3.654644057
 20
4.3047210171
 30
0.0
 10
3.6578660927
 20
4.3030728035
 30
0.0
 10
3.6608382839
 20
4.301886571
 30
0.0
 10
3.6642541825
 20
4.3008627631
 30
0.0
 10
3.6673923128
 20
4.3002060692
 30
0.0
 10
3.6701046133
 20
4.2998101559
 30
0.0
 10
3.6722628327
 20
4.2995858715
 30
0.0
 10
3.6744780295
 20
4.2994489454
 30
0.0
 10
3.6759719894
 20
4.2994176563
 30
0.0
 10
3.676722867
 20
4.2994176563
 30
0.0
  0
SPLINE
  5
2C4
100
AcDbEntity
  8
0
100
AcDbSpline
 62
7
  6
CONTINUOUS
 70
0
 71
3
 72
17
 73
13
 74
0
 42
0.0000001
 43
0.0000001
 44
0.0000000001
 40
0.0
 40
0.0
 40
0.0
 40
0.0
 40
0.0906305129
 40
0.1889056277
 40
0.2962921352
 40
0.4143658371
 40
0.544389621
 40
0.6867443701
 40
0.7622329593
 40
0.8400598936
 40
0.9196455243
 40
1.0
 40
1.0
 40
1.0
 40
1.0
 10
3.6513457119
 20
4.2952259417
 30
0.0
 10
3.6519018713
 20
4.2945870792
 30
0.0
 10
3.6531411654
 20
4.2933233443
 30
0.0
 10
3.6552939795
 20
4.2915731161
 30
0.0
 10
3.657840717
 20
4.2899285862
 30
0.0
 10
3.6608135902
 20
4.2884314964
 30
0.0
 10
3.6642328253
 20
4.2871383339
 30
0.0
 10
3.6673823968
 20
4.2863068791
 30
0.0
 10
3.670101097
 20
4.2858069348
 30
0.0
 10
3.6722604194
 20
4.2855242574
 30
0.0
 10
3.6744768069
 20
4.2853516869
 30
0.0
 10
3.6759718772
 20
4.2853122175
 30
0.0
 10
3.676722867
 20
4.2853122175
 30
0.0
  0
SPLINE
  5
2C5
100
AcDbEntity
  8
0
100
AcDbSpline
 62
7
  6
CONTINUOUS
 70
0
 71
3
 72
18
 73
14
 74
0
 42
0.0000001
 43
0.0000001
 44
0.0000000001
 40
0.0
 40
0.0
 40
0.0
 40
0.0
 40
0.0966574296
 40
0.1472040663
 40
0.1994252245
 40
0.309513315
 40
0.4284060342
 40
0.5573062153
 40
0.6966754997
 40
0.7700679351
 40
0.8454769949
 40
0.9224118847
 40
1.0
 40
1.0
 40
1.0
 40
1.0
 10
3.6513457119
 20
4.2879398219
 30
0.0
 10
3.651896327
 20
4.2871832745
 30
0.0
 10
3.6528009722
 20
4.2860772465
 30
0.0
 10
3.6541438767
 20
4.2846892891
 30
0.0
 10
3.6556583311
 20
4.2832905094
 30
0.0
 10
3.6578161049
 20
4.2816202703
 30
0.0
 10
3.6607886359
 20
4.2798257422
 30
0.0
 10
3.6642099568
 20
4.2782745228
 30
0.0
 10
3.6673716503
 20
4.2772739665
 30
0.0
 10
3.6700974766
 20
4.2766740968
 30
0.0
 10
3.672257883
 20
4.2763356014
 30
0.0
 10
3.6744754944
 20
4.2761289494
 30
0.0
 10
3.6759717663
 20
4.2760816755
 30
0.0
 10
3.676722867
 20
4.2760816755
 30
0.0
  0
SPLINE
  5
2C6
100
AcDbEntity
  8
0
100
AcDbSpline
 62
7
  6
CONTINUOUS
 70
0
 71
3
 72
19
 73
15
 74
0
 42
0.0000001
 43
0.0000001
 44
0.0000000001
 40
0.0
 40
0.0
 40
0.0
 40
0.0
 40
0.1021911791
 40
0.2091073385
 40
0.2646926149
 40
0.3218759295
 40
0.3808339223
 40
0.4417162073
 40
0.5696507541
 40
0.7062276737
 40
0.7776219089
 40
0.8507090048
 40
0.925086592
 40
1.0
 40
1.0
 40
1.0
 40
1.0
 10
3.6513457119
 20
4.2855032936
 30
0.0
 10
3.6518922506
 20
4.2846364438
 30
0.0
 10
3.6531058155
 20
4.282920785
 30
0.0
 10
3.6548714231
 20
4.2809310526
 30
0.0
 10
3.6564684981
 20
4.2794121488
 30
0.0
 10
3.657785038
 20
4.2783004765
 30
0.0
 10
3.6592086916
 20
4.277238202
 30
0.0
 10
3.6612885844
 20
4.2758764651
 30
0.0
 10
3.6641867652
 20
4.274356332
 30
0.0
 10
3.6673601543
 20
4.2731943938
 30
0.0
 10
3.6700935285
 20
4.2724996296
 30
0.0
 10
3.6722550591
 20
4.272108428
 30
0.0
 10
3.6744739987
 20
4.2718695778
 30
0.0
 10
3.6759715928
 20
4.2718149254
 30
0.0
 10
3.6767228148
 20
4.2718149254
 30
0.0
  0
SPLINE
  5
2C7
100
AcDbEntity
  8
0
100
AcDbSpline
 62
7
  6
CONTINUOUS
 70
0
 71
3
 72
19
 73
15
 74
0
 42
0.0000001
 43
0.0000001
 44
0.0000000001
 40
0.0
 40
0.0
 40
0.0
 40
0.0
 40
0.0749116262
 40
0.1492829024
 40
0.2223651157
 40
0.2937569949
 40
0.4303361644
 40
0.558273089
 40
0.6191585838
 40
0.6781175985
 40
0.7353021942
 40
0.7908889142
 40
0.8978073297
 40
1.0
 40
1.0
 40
1.0
 40
1.0
 10
3.676722867
 20
5.3111916618
 30
0.0
 10
3.6759716614
 20
5.3111916618
 30
0.0
 10
3.6744741446
 20
5.3111370516
 30
0.0
 10
3.6722553294
 20
5.3108982079
 30
0.0
 10
3.6700939314
 20
5.310507025
 30
0.0
 10
3.6673605782
 20
5.3098123597
 30
0.0
 10
3.6641871571
 20
5.3086504183
 30
0.0
 10
3.6612888749
 20
5.3071302971
 30
0.0
 10
3.6592089174
 20
5.3057685299
 30
0.0
 10
3.6577851876
 20
5.3047062595
 30
0.0
 10
3.6564686205
 20
5.3035945548
 30
0.0
 10
3.6548715103
 20
5.3020756108
 30
0.0
 10
3.6531058376
 20
5.3000858592
 30
0.0
 10
3.6518922596
 20
5.2983701577
 30
0.0
 10
3.6513457119
 20
5.2975032936
 30
0.0
  0
SPLINE
  5
2C8
100
AcDbEntity
  8
0
100
AcDbSpline
 62
7
  6
CONTINUOUS
 70
0
 71
3
 72
18
 73
14
 74
0
 42
0.0000001
 43
0.0000001
 44
0.0000000001
 40
0.0
 40
0.0
 40
0.0
 40
0.0
 40
0.0775862908
 40
0.1545146564
 40
0.2299186799
 40
0.3033087785
 40
0.4426804549
 40
0.5715831763
 40
0.6904803129
 40
0.8005710673
 40
0.8527933835
 40
0.903341152
 40
1.0
 40
1.0
 40
1.0
 40
1.0
 10
3.676722867
 20
5.3069249117
 30
0.0
 10
3.6759717838
 20
5.3069249117
 30
0.0
 10
3.6744755917
 20
5.3068776728
 30
0.0
 10
3.6722581089
 20
5.3066710222
 30
0.0
 10
3.6700978377
 20
5.3063325403
 30
0.0
 10
3.6673720421
 20
5.3057327551
 30
0.0
 10
3.6642103186
 20
5.3047321989
 30
0.0
 10
3.6607889027
 20
5.3031809769
 30
0.0
 10
3.6578162538
 20
5.301386457
 30
0.0
 10
3.6556584335
 20
5.2997161467
 30
0.0
 10
3.6541439246
 20
5.2983173557
 30
0.0
 10
3.6528009918
 20
5.2969293746
 30
0.0
 10
3.6518963351
 20
5.2958233239
 30
0.0
 10
3.6513457119
 20
5.2950667653
 30
0.0
  0
SPLINE
  5
2C9
100
AcDbEntity
  8
0
100
AcDbSpline
 62
7
  6
CONTINUOUS
 70
0
 71
3
 72
17
 73
13
 74
0
 42
0.0000001
 43
0.0000001
 44
0.0000000001
 40
0.0
 40
0.0
 40
0.0
 40
0.0
 40
0.0803525962
 40
0.1599314801
 40
0.2377532257
 40
0.31323951
 40
0.4555968302
 40
0.5856233453
 40
0.7037016594
 40
0.8110907667
 40
0.9093681761
 40
1.0
 40
1.0
 40
1.0
 40
1.0
 10
3.676722867
 20
5.2976943697
 30
0.0
 10
3.6759718947
 20
5.2976943697
 30
0.0
 10
3.6744769043
 20
5.2976549295
 30
0.0
 10
3.6722606452
 20
5.2974823603
 30
0.0
 10
3.6701014564
 20
5.2971996939
 30
0.0
 10
3.6673827899
 20
5.2966998204
 30
0.0
 10
3.6642331868
 20
5.2958683657
 30
0.0
 10
3.6608138561
 20
5.2945752003
 30
0.0
 10
3.6578408713
 20
5.2930781195
 30
0.0
 10
3.6552940713
 20
5.2914335222
 30
0.0
 10
3.6531411895
 20
5.2896832852
 30
0.0
 10
3.6519018794
 20
5.2884195173
 30
0.0
 10
3.6513457119
 20
5.2877806455
 30
0.0
  0
SPLINE
  5
2CA
100
AcDbEntity
  8
0
100
AcDbSpline
 62
7
  6
CONTINUOUS
 70
0
 71
3
 72
16
 73
12
 74
0
 42
0.0000001
 43
0.0000001
 44
0.0000000001
 40
0.0
 40
0.0
 40
0.0
 40
0.0
 40
0.0830827065
 40
0.1652835464
 40
0.2455085922
 40
0.3230951456
 40
0.468507294
 40
0.5997945765
 40
0.7172141305
 40
0.8220194318
 40
1.0
 40
1.0
 40
1.0
 40
1.0
 10
3.676722867
 20
5.2835889309
 30
0.0
 10
3.6759719894
 20
5.2835889309
 30
0.0
 10
3.6744780289
 20
5.2835576417
 30
0.0
 10
3.6722628312
 20
5.2834207156
 30
0.0
 10
3.6701046108
 20
5.2831964311
 30
0.0
 10
3.6673923098
 20
5.2828005174
 30
0.0
 10
3.6642541795
 20
5.2821438233
 30
0.0
 10
3.6608382816
 20
5.2811200154
 30
0.0
 10
3.6578660913
 20
5.2799337829
 30
0.0
 10
3.6546440563
 20
5.2782855698
 30
0.0
 10
3.652534009
 20
5.2767992355
 30
0.0
 10
3.6513457119
 20
5.2757151035
 30
0.0
  0
SPLINE
  5
2CB
100
AcDbEntity
  8
0
100
AcDbSpline
 62
7
  6
CONTINUOUS
 70
0
 71
3
 72
16
 73
12
 74
0
 42
0.0000001
 43
0.0000001
 44
0.0000000001
 40
0.0
 40
0.0
 40
0.0
 40
0.0
 40
0.0855085308
 40
0.1700422129
 40
0.3318625647
 40
0.4800458652
 40
0.6125257896
 40
0.7294103894
 40
0.8318888205
 40
0.9215666885
 40
1.0
 40
1.0
 40
1.0
 40
1.0
 10
3.676722867
 20
5.2647444384
 30
0.0
 10
3.6759720652
 20
5.2647444384
 30
0.0
 10
3.6744789108
 20
5.2647215988
 30
0.0
 10
3.6715676663
 20
5.2645899285
 30
0.0
 10
3.6681151725
 20
5.264277835
 30
0.0
 10
3.6642720684
 20
5.2636909073
 30
0.0
 10
3.6608596335
 20
5.2629442155
 30
0.0
 10
3.6578910886
 20
5.2620796792
 30
0.0
 10
3.6553463164
 20
5.2611297533
 30
0.0
 10
3.6531932666
 20
5.2601186739
 30
0.0
 10
3.6519185881
 20
5.2593685552
 30
0.0
 10
3.6513457119
 20
5.2589863371
 30
0.0
  0
SPLINE
  5
2CC
100
AcDbEntity
  8
0
100
AcDbSpline
 62
7
  6
CONTINUOUS
 70
0
 71
3
 72
15
 73
11
 74
0
 42
0.0000001
 43
0.0000001
 44
0.0000000001
 40
0.0
 40
0.0
 40
0.0
 40
0.0
 40
0.173801294
 40
0.3388454268
 40
0.4892833288
 40
0.6228028227
 40
0.7393735962
 40
0.8400947408
 40
0.9264859207
 40
1.0
 40
1.0
 40
1.0
 40
1.0
 10
3.676722867
 20
5.2413423751
 30
0.0
 10
3.6752304098
 20
5.2413423751
 30
0.0
 10
3.672320384
 20
5.2412882188
 30
0.0
 10
3.6681244884
 20
5.2410524093
 30
0.0
 10
3.6642851323
 20
5.2406875447
 30
0.0
 10
3.6608761618
 20
5.2402235131
 30
0.0
 10
3.6579108928
 20
5.2396864071
 30
0.0
 10
3.6553694489
 20
5.2390966041
 30
0.0
 10
3.6532198409
 20
5.2384693546
 30
0.0
 10
3.6519286454
 20
5.2379977304
 30
0.0
 10
3.6513457119
 20
5.2377554534
 30
0.0
  0
SPLINE
  5
2CD
100
AcDbEntity
  8
0
100
AcDbSpline
 62
7
  6
CONTINUOUS
 70
0
 71
3
 72
15
 73
11
 74
0
 42
0.0000001
 43
0.0000001
 44
0.0000000001
 40
0.0
 40
0.0
 40
0.0
 40
0.0
 40
0.1760049258
 40
0.3429374647
 40
0.4947112591
 40
0.6288695393
 40
0.7452935248
 40
0.8450134144
 40
0.9294690283
 40
1.0
 40
1.0
 40
1.0
 40
1.0
 10
3.676722867
 20
5.2136081154
 30
0.0
 10
3.6752306349
 20
5.2136081154
 30
0.0
 10
3.6723230437
 20
5.2135872907
 30
0.0
 10
3.668129543
 20
5.2134965976
 30
0.0
 10
3.6642924101
 20
5.213356275
 30
0.0
 10
3.6608856088
 20
5.2131778423
 30
0.0
 10
3.6579226476
 20
5.2129713703
 30
0.0
 10
3.6553839574
 20
5.2127447781
 30
0.0
 10
3.6532377366
 20
5.2125040051
 30
0.0
 10
3.6519361845
 20
5.2123214164
 30
0.0
 10
3.6513457119
 20
5.2122269174
 30
0.0
  0
SPLINE
  5
2CE
100
AcDbEntity
  8
0
100
AcDbSpline
 62
7
  6
CONTINUOUS
 70
0
 71
3
 72
18
 73
14
 74
0
 42
0.0000001
 43
0.0000001
 44
0.0000000001
 40
0.0
 40
0.0
 40
0.0
 40
0.0
 40
0.0686948098
 40
0.1371474397
 40
0.271638193
 40
0.4021186368
 40
0.528285881
 40
0.5898947415
 40
0.6505755664
 40
0.7104189995
 40
0.7695352567
 40
0.8858242431
 40
1.0
 40
1.0
 40
1.0
 40
1.0
 10
3.676722867
 20
4.7735032936
 30
0.0
 10
3.6759713039
 20
4.7735032936
 30
0.0
 10
3.6744698162
 20
4.7735754284
 30
0.0
 10
3.6715240092
 20
4.7739932031
 30
0.0
 10
3.6679965732
 20
4.7750049656
 30
0.0
 10
3.6641291091
 20
4.7768787131
 30
0.0
 10
3.6612565437
 20
4.7788704051
 30
0.0
 10
3.6591964065
 20
4.7806461691
 30
0.0
 10
3.6577737693
 20
4.7820434405
 30
0.0
 10
3.6564584389
 20
4.7835054013
 30
0.0
 10
3.6548512638
 20
4.7855172463
 30
0.0
 10
3.6530796102
 20
4.788151237
 30
0.0
 10
3.6518857684
 20
4.7903769186
 30
0.0
 10
3.6513457119
 20
4.7915032936
 30
0.0
  0
SPLINE
  5
2CF
100
AcDbEntity
  8
0
100
AcDbSpline
 62
7
  6
CONTINUOUS
 70
0
 71
3
 72
19
 73
15
 74
0
 42
0.0000001
 43
0.0000001
 44
0.0000000001
 40
0.0
 40
0.0
 40
0.0
 40
0.0
 40
0.1103899025
 40
0.2236751995
 40
0.2816420516
 40
0.3406059262
 40
0.4007012697
 40
0.4620389382
 40
0.5887029971
 40
0.7211000809
 40
0.7894224607
 40
0.8589026477
 40
0.9292817691
 40
1.0
 40
1.0
 40
1.0
 40
1.0
 10
3.6513457119
 20
4.7419066206
 30
0.0
 10
3.6518875276
 20
4.7429469913
 30
0.0
 10
3.6530869367
 20
4.7450039933
 30
0.0
 10
3.6548570951
 20
4.7474246991
 30
0.0
 10
3.656461371
 20
4.7492730325
 30
0.0
 10
3.6577771314
 20
4.7506190008
 30
0.0
 10
3.6592001066
 20
4.7519053541
 30
0.0
 10
3.6612666957
 20
4.7535447024
 30
0.0
 10
3.6641478893
 20
4.7553808735
 30
0.0
 10
3.6673399835
 20
4.7568014826
 30
0.0
 10
3.6700864946
 20
4.7576474991
 30
0.0
 10
3.6722499841
 20
4.7581220873
 30
0.0
 10
3.674471352
 20
4.7584119079
 30
0.0
 10
3.6759714153
 20
4.758478251
 30
0.0
 10
3.676722867
 20
4.758478251
 30
0.0
  0
SPLINE
  5
2D0
100
AcDbEntity
  8
0
100
AcDbSpline
 62
7
  6
CONTINUOUS
 70
0
 71
3
 72
19
 73
15
 74
0
 42
0.0000001
 43
0.0000001
 44
0.0000000001
 40
0.0
 40
0.0
 40
0.0
 40
0.0
 40
0.0669403681
 40
0.1337289017
 40
0.2654729282
 40
0.3303366039
 40
0.3944353411
 40
0.4577463287
 40
0.5202802463
 40
0.5821220094
 40
0.6433005534
 40
0.763913143
 40
0.8826995921
 40
1.0
 40
1.0
 40
1.0
 40
1.0
 10
3.676722867
 20
4.7226516008
 30
0.0
 10
3.6759711816
 20
4.7226516008
 30
0.0
 10
3.6744683317
 20
4.7227289085
 30
0.0
 10
3.6715173947
 20
4.7231767373
 30
0.0
 10
3.6686699984
 20
4.7240526978
 30
0.0
 10
3.6660122291
 20
4.7252862166
 30
0.0
 10
3.6641358698
 20
4.7263597428
 30
0.0
 10
3.6623732255
 20
4.727564417
 30
0.0
 10
3.6607259418
 20
4.7288820511
 30
0.0
 10
3.6591930842
 20
4.7302957802
 30
0.0
 10
3.6573060502
 20
4.7322788033
 30
0.0
 10
3.6552082778
 20
4.7349336299
 30
0.0
 10
3.6530742315
 20
4.7383307317
 30
0.0
 10
3.6518844526
 20
4.7407046468
 30
0.0
 10
3.6513457119
 20
4.7419066206
 30
0.0
  0
SPLINE
  5
2D1
100
AcDbEntity
  8
0
100
AcDbSpline
 62
7
  6
CONTINUOUS
 70
0
 71
3
 72
19
 73
15
 74
0
 42
0.0000001
 43
0.0000001
 44
0.0000000001
 40
0.0
 40
0.0
 40
0.0
 40
0.0
 40
0.1059661288
 40
0.2157923576
 40
0.2724569988
 40
0.3304407175
 40
0.3899024969
 40
0.4509761169
 40
0.5783019632
 40
0.712961321
 40
0.7829587392
 40
0.854411464
 40
0.9269812725
 40
1.0
 40
1.0
 40
1.0
 40
1.0
 10
3.6513457119
 20
4.6927875907
 30
0.0
 10
3.6518899088
 20
4.6937324026
 30
0.0
 10
3.6530965883
 20
4.6956016362
 30
0.0
 10
3.6548645723
 20
4.697785046
 30
0.0
 10
3.6564651361
 20
4.6994518233
 30
0.0
 10
3.6577813543
 20
4.7006687905
 30
0.0
 10
3.6592047431
 20
4.701831761
 30
0.0
 10
3.6612786395
 20
4.7033186131
 30
0.0
 10
3.664169537
 20
4.704981113
 30
0.0
 10
3.6673514119
 20
4.7062586204
 30
0.0
 10
3.6700905216
 20
4.7070210567
 30
0.0
 10
3.6722529139
 20
4.7074496618
 30
0.0
 10
3.6744728991
 20
4.7077113658
 30
0.0
 10
3.6759715465
 20
4.7077712576
 30
0.0
 10
3.676722867
 20
4.7077712576
 30
0.0
  0
SPLINE
  5
2D2
100
AcDbEntity
  8
0
100
AcDbSpline
 62
7
  6
CONTINUOUS
 70
0
 71
3
 72
20
 73
16
 74
0
 42
0.0000001
 43
0.0000001
 44
0.0000000001
 40
0.0
 40
0.0
 40
0.0
 40
0.0
 40
0.0654851007
 40
0.1308960763
 40
0.2603821205
 40
0.3244629999
 40
0.3880334331
 40
0.4510724603
 40
0.5135833347
 40
0.5756363001
 40
0.6372411514
 40
0.7592762584
 40
0.8198526739
 40
0.8801533968
 40
1.0
 40
1.0
 40
1.0
 40
1.0
 10
3.676722867
 20
4.6724629875
 30
0.0
 10
3.6759710709
 20
4.6724629875
 30
0.0
 10
3.6744670237
 20
4.6725447048
 30
0.0
 10
3.6715112952
 20
4.6730184147
 30
0.0
 10
3.6686616925
 20
4.6739455759
 30
0.0
 10
3.6660085085
 20
4.6752459931
 30
0.0
 10
3.6641322424
 20
4.6763795096
 30
0.0
 10
3.6623698662
 20
4.6776513343
 30
0.0
 10
3.6607229395
 20
4.6790422627
 30
0.0
 10
3.6591904679
 20
4.6805345113
 30
0.0
 10
3.6573009966
 20
4.6826308837
 30
0.0
 10
3.6556171392
 20
4.6848816775
 30
0.0
 10
3.6541290126
 20
4.6872411535
 30
0.0
 10
3.6527716554
 20
4.6896495066
 30
0.0
 10
3.6518834768
 20
4.6915211473
 30
0.0
 10
3.6513457119
 20
4.6927875907
 30
0.0
  0
SPLINE
  5
2D3
100
AcDbEntity
  8
0
100
AcDbSpline
 62
7
  6
CONTINUOUS
 70
0
 71
3
 72
18
 73
14
 74
0
 42
0.0000001
 43
0.0000001
 44
0.0000000001
 40
0.0
 40
0.0
 40
0.0
 40
0.0
 40
0.1008935461
 40
0.2068203367
 40
0.2620430786
 40
0.3189610432
 40
0.4385277058
 40
0.5666881825
 40
0.7039312572
 40
0.7758046202
 40
0.8494496593
 40
0.9244425803
 40
1.0
 40
1.0
 40
1.0
 40
1.0
 10
3.6513457119
 20
4.6446192469
 30
0.0
 10
3.6518931365
 20
4.6454597851
 30
0.0
 10
3.6531092428
 20
4.6471235235
 30
0.0
 10
3.6548738872
 20
4.6490478964
 30
0.0
 10
3.6564697288
 20
4.6505170208
 30
0.0
 10
3.6582542934
 20
4.6519755789
 30
0.0
 10
3.6607704869
 20
4.6536761729
 30
0.0
 10
3.6641922638
 20
4.655412666
 30
0.0
 10
3.667363057
 20
4.6565359987
 30
0.0
 10
3.6700945392
 20
4.6572080111
 30
0.0
 10
3.6722558022
 20
4.6575866154
 30
0.0
 10
3.674474411
 20
4.6578177628
 30
0.0
 10
3.6759716746
 20
4.6578706494
 30
0.0
 10
3.676722867
 20
4.6578706494
 30
0.0
  0
SPLINE
  5
2D4
100
AcDbEntity
  8
0
100
AcDbSpline
 62
7
  6
CONTINUOUS
 70
0
 71
3
 72
15
 73
11
 74
0
 42
0.0000001
 43
0.0000001
 44
0.0000000001
 40
0.0
 40
0.0
 40
0.0
 40
0.0
 40
0.1285335992
 40
0.2563204699
 40
0.3829109924
 40
0.5082463458
 40
0.5705215561
 40
0.6325169101
 40
0.7557754958
 40
1.0
 40
1.0
 40
1.0
 40
1.0
 10
3.676722867
 20
4.6234207973
 30
0.0
 10
3.6752214676
 20
4.6234207973
 30
0.0
 10
3.6722172019
 20
4.6237588997
 30
0.0
 10
3.6679539955
 20
4.6252083036
 30
0.0
 10
3.6640853834
 20
4.6274262508
 30
0.0
 10
3.6612350837
 20
4.6297624456
 30
0.0
 10
3.6591885446
 20
4.6318414593
 30
0.0
 10
3.6572969104
 20
4.6340308494
 30
0.0
 10
3.6543683544
 20
4.6381159104
 30
0.0
 10
3.6524214116
 20
4.6419770426
 30
0.0
 10
3.6513457119
 20
4.6446192469
 30
0.0
  0
SPLINE
  5
2D5
100
AcDbEntity
  8
0
100
AcDbSpline
 62
7
  6
CONTINUOUS
 70
0
 71
3
 72
15
 73
11
 74
0
 42
0.0000001
 43
0.0000001
 44
0.0000000001
 40
0.0
 40
0.0
 40
0.0
 40
0.0
 40
0.095281609
 40
0.1452755501
 40
0.197042416
 40
0.3065421685
 40
0.4253038364
 40
0.5545515427
 40
0.6947321258
 40
1.0
 40
1.0
 40
1.0
 40
1.0
 10
3.6513457119
 20
4.5978654768
 30
0.0
 10
3.6518975335
 20
4.5985938462
 30
0.0
 10
3.6528034925
 20
4.5996573655
 30
0.0
 10
3.6541450799
 20
4.6009892286
 30
0.0
 10
3.6556614483
 20
4.6023344892
 30
0.0
 10
3.6578220171
 20
4.6039402095
 30
0.0
 10
3.660794544
 20
4.6056632722
 30
0.0
 10
3.6642163545
 20
4.6071526447
 30
0.0
 10
3.669497981
 20
4.608757868
 30
0.0
 10
3.6737951925
 20
4.6092569967
 30
0.0
 10
3.676722867
 20
4.6092569967
 30
0.0
  0
SPLINE
  5
2D6
100
AcDbEntity
  8
0
100
AcDbSpline
 62
7
  6
CONTINUOUS
 70
0
 71
3
 72
17
 73
13
 74
0
 42
0.0000001
 43
0.0000001
 44
0.0000000001
 40
0.0
 40
0.0
 40
0.0
 40
0.0
 40
0.1267865803
 40
0.2531965026
 40
0.3789900531
 40
0.5041421811
 40
0.5665377105
 40
0.6287781979
 40
0.6908854781
 40
0.7529015428
 40
0.8766227912
 40
1.0
 40
1.0
 40
1.0
 40
1.0
 10
3.676722867
 20
4.5759973335
 30
0.0
 10
3.6752208787
 20
4.5759973335
 30
0.0
 10
3.6722105817
 20
4.5763473659
 30
0.0
 10
3.6679445876
 20
4.5778456598
 30
0.0
 10
3.6640764707
 20
4.5801357486
 30
0.0
 10
3.6612309253
 20
4.5825435112
 30
0.0
 10
3.6591870553
 20
4.5846856738
 30
0.0
 10
3.657765737
 20
4.5863829687
 30
0.0
 10
3.6564516565
 20
4.5881586097
 30
0.0
 10
3.654838517
 20
4.5906133838
 30
0.0
 10
3.6530645988
 20
4.5938238915
 30
0.0
 10
3.651882265
 20
4.5965059246
 30
0.0
 10
3.6513457119
 20
4.5978654768
 30
0.0
  0
SPLINE
  5
2D7
100
AcDbEntity
  8
0
100
AcDbSpline
 62
7
  6
CONTINUOUS
 70
0
 71
3
 72
17
 73
13
 74
0
 42
0.0000001
 43
0.0000001
 44
0.0000000001
 40
0.0
 40
0.0
 40
0.0
 40
0.0
 40
0.0891053752
 40
0.1862735364
 40
0.293004083
 40
0.4108943471
 40
0.5412119521
 40
0.6843106358
 40
0.760315653
 40
0.8387356576
 40
0.918969705
 40
1.0
 40
1.0
 40
1.0
 40
1.0
 10
3.6513457119
 20
4.5529765448
 30
0.0
 10
3.6519035017
 20
4.5535854949
 30
0.0
 10
3.6531467305
 20
4.5547895625
 30
0.0
 10
3.6553000742
 20
4.5564523414
 30
0.0
 10
3.6578470111
 20
4.5580145068
 30
0.0
 10
3.6608196676
 20
4.5594364394
 30
0.0
 10
3.6642382091
 20
4.5606645442
 30
0.0
 10
3.6673848632
 20
4.5614536187
 30
0.0
 10
3.6701019207
 20
4.5619284215
 30
0.0
 10
3.6722609919
 20
4.5621970075
 30
0.0
 10
3.674477102
 20
4.5623609753
 30
0.0
 10
3.6759719021
 20
4.5623984754
 30
0.0
 10
3.676722867
 20
4.5623984754
 30
0.0
  0
SPLINE
  5
2D8
100
AcDbEntity
  8
0
100
AcDbSpline
 62
7
  6
CONTINUOUS
 70
0
 71
3
 72
17
 73
13
 74
0
 42
0.0000001
 43
0.0000001
 44
0.0000000001
 40
0.0
 40
0.0
 40
0.0
 40
0.0
 40
0.1256321982
 40
0.2511411232
 40
0.3764283306
 40
0.5014884883
 40
0.5639801449
 40
0.6264000648
 40
0.6887616461
 40
0.7510987953
 40
0.8756312979
 40
1.0
 40
1.0
 40
1.0
 40
1.0
 10
3.676722867
 20
4.5306493099
 30
0.0
 10
3.6752204645
 20
4.5306493099
 30
0.0
 10
3.6722059402
 20
4.5310075887
 30
0.0
 10
3.6679380877
 20
4.5325395165
 30
0.0
 10
3.6640704199
 20
4.5348790686
 30
0.0
 10
3.6612281424
 20
4.5373357728
 30
0.0
 10
3.6591860696
 20
4.539521179
 30
0.0
 10
3.6577649132
 20
4.5412540508
 30
0.0
 10
3.6564509778
 20
4.543066892
 30
0.0
 10
3.6548372721
 20
4.5455742352
 30
0.0
 10
3.65306319
 20
4.5488530746
 30
0.0
 10
3.6518819433
 20
4.5515892829
 30
0.0
 10
3.6513457119
 20
4.5529765448
 30
0.0
  0
SPLINE
  5
2D9
100
AcDbEntity
  8
0
100
AcDbSpline
 62
7
  6
CONTINUOUS
 70
0
 71
3
 72
17
 73
13
 74
0
 42
0.0000001
 43
0.0000001
 44
0.0000000001
 40
0.0
 40
0.0
 40
0.0
 40
0.0
 40
0.082876738
 40
0.1756153367
 40
0.2797897986
 40
0.397032426
 40
0.5285892989
 40
0.6746804007
 40
0.7527394836
 40
0.833508284
 40
0.9163035637
 40
1.0
 40
1.0
 40
1.0
 40
1.0
 10
3.6513457119
 20
4.5103847557
 30
0.0
 10
3.6519113941
 20
4.5108672766
 30
0.0
 10
3.6531721459
 20
4.511818361
 30
0.0
 10
3.655326287
 20
4.5131144636
 30
0.0
 10
3.65787272
 20
4.5143318358
 30
0.0
 10
3.6608434618
 20
4.5154396707
 30
0.0
 10
3.6642585991
 20
4.516396299
 30
0.0
 10
3.6673940012
 20
4.5170094528
 30
0.0
 10
3.6701049491
 20
4.5173794431
 30
0.0
 10
3.672263082
 20
4.5175890983
 30
0.0
 10
3.6744781759
 20
4.5177170911
 30
0.0
 10
3.6759719927
 20
4.5177463588
 30
0.0
 10
3.676722867
 20
4.5177463588
 30
0.0
  0
SPLINE
  5
2DA
100
AcDbEntity
  8
0
100
AcDbSpline
 62
7
  6
CONTINUOUS
 70
0
 71
3
 72
17
 73
13
 74
0
 42
0.0000001
 43
0.0000001
 44
0.0000000001
 40
0.0
 40
0.0
 40
0.0
 40
0.0
 40
0.1250239391
 40
0.2500596801
 40
0.3750822961
 40
0.5000959502
 40
0.5626387358
 40
0.6251534501
 40
0.6876488818
 40
0.750154675
 40
0.8751124572
 40
1.0
 40
1.0
 40
1.0
 40
1.0
 10
3.676722867
 20
4.4878134528
 30
0.0
 10
3.6752202415
 20
4.4878134528
 30
0.0
 10
3.6722034352
 20
4.4881761383
 30
0.0
 10
3.6679346095
 20
4.489725991
 30
0.0
 10
3.6640672113
 20
4.4920918436
 30
0.0
 10
3.6612266755
 20
4.4945745308
 30
0.0
 10
3.6591855472
 20
4.4967829078
 30
0.0
 10
3.657764481
 20
4.49853469
 30
0.0
 10
3.6564506229
 20
4.5003673041
 30
0.0
 10
3.6548366277
 20
4.5029025912
 30
0.0
 10
3.653062467
 20
4.506217749
 30
0.0
 10
3.6518817786
 20
4.50898276
 30
0.0
 10
3.6513457119
 20
4.5103847557
 30
0.0
  0
SPLINE
  5
2DB
100
AcDbEntity
  8
0
100
AcDbSpline
 62
7
  6
CONTINUOUS
 70
0
 71
3
 72
16
 73
12
 74
0
 42
0.0000001
 43
0.0000001
 44
0.0000000001
 40
0.0
 40
0.0
 40
0.0
 40
0.0
 40
0.0770967891
 40
0.1658687036
 40
0.2678543625
 40
0.3846392286
 40
0.5173956059
 40
0.6661933956
 40
0.8289092229
 40
0.9139599788
 40
1.0
 40
1.0
 40
1.0
 40
1.0
 10
3.6513457119
 20
4.4705002918
 30
0.0
 10
3.6519210619
 20
4.4708489794
 30
0.0
 10
3.6532000988
 20
4.4715320517
 30
0.0
 10
3.6553524028
 20
4.4724495586
 30
0.0
 10
3.6578963426
 20
4.4733116684
 30
0.0
 10
3.6608639708
 20
4.4740964197
 30
0.0
 10
3.6642753917
 20
4.4747742349
 30
0.0
 10
3.6681174639
 20
4.4753070587
 30
0.0
 10
3.6715683151
 20
4.4755903505
 30
0.0
 10
3.6744789965
 20
4.475709913
 30
0.0
 10
3.675972063
 20
4.4757306711
 30
0.0
 10
3.676722867
 20
4.4757306711
 30
0.0
  0
SPLINE
  5
2DC
100
AcDbEntity
  8
0
100
AcDbSpline
 62
7
  6
CONTINUOUS
 70
0
 71
3
 72
17
 73
13
 74
0
 42
0.0000001
 43
0.0000001
 44
0.0000000001
 40
0.0
 40
0.0
 40
0.0
 40
0.0
 40
0.124957711
 40
0.2499414905
 40
0.3749352129
 40
0.4999438869
 40
0.5624924329
 40
0.6250175411
 40
0.6875276308
 40
0.7500518616
 40
0.8750559977
 40
1.0
 40
1.0
 40
1.0
 40
1.0
 10
3.676722867
 20
4.4479022948
 30
0.0
 10
3.6752202162
 20
4.4479022948
 30
0.0
 10
3.6722031637
 20
4.4482654637
 30
0.0
 10
3.6679342371
 20
4.4498172727
 30
0.0
 10
3.6640668753
 20
4.4521859977
 30
0.0
 10
3.6612265278
 20
4.4546715231
 30
0.0
 10
3.6591855001
 20
4.4568824132
 30
0.0
 10
3.6577644393
 20
4.4586362645
 30
0.0
 10
3.6564505886
 20
4.4604710432
 30
0.0
 10
3.654836561
 20
4.4630093892
 30
0.0
 10
3.6530623895
 20
4.4663285207
 30
0.0
 10
3.6518817611
 20
4.4690966838
 30
0.0
 10
3.6513457119
 20
4.4705002918
 30
0.0
  0
SPLINE
  5
2DD
100
AcDbEntity
  8
0
100
AcDbSpline
 62
7
  6
CONTINUOUS
 70
0
 71
3
 72
15
 73
11
 74
0
 42
0.0000001
 43
0.0000001
 44
0.0000000001
 40
0.0
 40
0.0
 40
0.0
 40
0.0
 40
0.0725691026
 40
0.1583404719
 40
0.2587369523
 40
0.375252506
 40
0.5089701821
 40
0.6598302537
 40
0.8254850734
 40
1.0
 40
1.0
 40
1.0
 40
1.0
 10
3.6513457119
 20
4.4337072623
 30
0.0
 10
3.6519308878
 20
4.4339139832
 30
0.0
 10
3.6532253204
 20
4.4343155365
 30
0.0
 10
3.6553739177
 20
4.434848181
 30
0.0
 10
3.6579144688
 20
4.4353491214
 30
0.0
 10
3.6608789355
 20
4.435805411
 30
0.0
 10
3.6642871265
 20
4.4361996459
 30
0.0
 10
3.6681257825
 20
4.4365096576
 30
0.0
 10
3.6723210229
 20
4.4367100278
 30
0.0
 10
3.6752304029
 20
4.4367560464
 30
0.0
 10
3.676722867
 20
4.4367560464
 30
0.0
  0
SPLINE
  5
2DE
100
AcDbEntity
  8
0
100
AcDbSpline
 62
7
  6
CONTINUOUS
 70
0
 71
3
 72
17
 73
13
 74
0
 42
0.0000001
 43
0.0000001
 44
0.0000000001
 40
0.0
 40
0.0
 40
0.0
 40
0.0
 40
0.125432857
 40
0.250786478
 40
0.3759867656
 40
0.5010315351
 40
0.56353995
 40
0.6259909316
 40
0.6883964102
 40
0.7507888908
 40
0.8754609642
 40
1.0
 40
1.0
 40
1.0
 40
1.0
 10
3.676722867
 20
4.4113002023
 30
0.0
 10
3.6752203916
 20
4.4113002023
 30
0.0
 10
3.6722051246
 20
4.4116599207
 30
0.0
 10
3.6679369538
 20
4.4131977064
 30
0.0
 10
3.664069373
 20
4.4155458592
 30
0.0
 10
3.6612276644
 20
4.4180110636
 30
0.0
 10
3.6591859008
 20
4.4202039845
 30
0.0
 10
3.6577647726
 20
4.4219430416
 30
0.0
 10
3.6564508622
 20
4.4237623506
 30
0.0
 10
3.6548370607
 20
4.426278834
 30
0.0
 10
3.6530629517
 20
4.4295695528
 30
0.0
 10
3.651881889
 20
4.4323151816
 30
0.0
 10
3.6513457119
 20
4.4337072623
 30
0.0
  0
SPLINE
  5
2DF
100
AcDbEntity
  8
0
100
AcDbSpline
 62
7
  6
CONTINUOUS
 70
0
 71
3
 72
14
 73
10
 74
0
 42
0.0000001
 43
0.0000001
 44
0.0000000001
 40
0.0
 40
0.0
 40
0.0
 40
0.0
 40
0.0701857097
 40
0.154418616
 40
0.2540239986
 40
0.3704283058
 40
0.5046579264
 40
0.6565819676
 40
1.0
 40
1.0
 40
1.0
 40
1.0
 10
3.6513457119
 20
4.4003600042
 30
0.0
 10
3.6519371335
 20
4.4004174189
 30
0.0
 10
3.6532398577
 20
4.400528239
 30
0.0
 10
3.6553855703
 20
4.4006742333
 30
0.0
 10
3.6579238213
 20
4.4008116383
 30
0.0
 10
3.6608864092
 20
4.4009368562
 30
0.0
 10
3.6642928621
 20
4.4010450938
 30
0.0
 10
3.6696216509
 20
4.4011631765
 30
0.0
 10
3.6738154423
 20
4.4011978316
 30
0.0
 10
3.676722867
 20
4.4011978316
 30
0.0
  0
SPLINE
  5
2E0
100
AcDbEntity
  8
0
100
AcDbSpline
 62
7
  6
CONTINUOUS
 70
0
 71
3
 72
17
 73
13
 74
0
 42
0.0000001
 43
0.0000001
 44
0.0000000001
 40
0.0
 40
0.0
 40
0.0
 40
0.0
 40
0.1264528158
 40
0.2526019494
 40
0.3782485784
 40
0.5033736131
 40
0.5657967731
 40
0.6280890602
 40
0.6902698811
 40
0.7523788954
 40
0.8763352267
 40
1.0
 40
1.0
 40
1.0
 40
1.0
 10
3.676722867
 20
4.3783596734
 30
0.0
 10
3.6752207603
 20
4.3783596734
 30
0.0
 10
3.6722092538
 20
4.3787120745
 30
0.0
 10
3.66794272
 20
4.3802200428
 30
0.0
 10
3.6640747234
 20
4.3825243734
 30
0.0
 10
3.6612301182
 20
4.3849462374
 30
0.0
 10
3.6591867689
 20
4.3871008559
 30
0.0
 10
3.6577654972
 20
4.3888083951
 30
0.0
 10
3.6564514586
 20
4.3905947478
 30
0.0
 10
3.6548381534
 20
4.3930646585
 30
0.0
 10
3.6530641863
 20
4.396294843
 30
0.0
 10
3.6518821707
 20
4.3989924742
 30
0.0
 10
3.6513457119
 20
4.4003600042
 30
0.0
  0
SPLINE
  5
2E1
100
AcDbEntity
  8
0
100
AcDbSpline
 62
7
  6
CONTINUOUS
 70
0
 71
3
 72
15
 73
11
 74
0
 42
0.0000001
 43
0.0000001
 44
0.0000000001
 40
0.0
 40
0.0
 40
0.0
 40
0.0
 40
0.1280630041
 40
0.2554805409
 40
0.381860842
 40
0.5071549186
 40
0.5694680056
 40
0.6315357622
 40
0.7550295944
 40
1.0
 40
1.0
 40
1.0
 40
1.0
 10
3.676722867
 20
4.3493979434
 30
0.0
 10
3.6752213082
 20
4.3493979434
 30
0.0
 10
3.672215408
 20
4.3497392992
 30
0.0
 10
3.66795143
 20
4.3512020622
 30
0.0
 10
3.6640829351
 20
4.3534397512
 30
0.0
 10
3.6612339329
 20
4.3557955503
 30
0.0
 10
3.659188133
 20
4.3578918598
 30
0.0
 10
3.657296119
 20
4.3601006982
 30
0.0
 10
3.6543662886
 20
4.3642233621
 30
0.0
 10
3.6524207986
 20
4.3681161402
 30
0.0
 10
3.6513457119
 20
4.3707796698
 30
0.0
  0
SPLINE
  5
2E2
100
AcDbEntity
  8
0
100
AcDbSpline
 62
7
  6
CONTINUOUS
 70
0
 71
3
 72
20
 73
16
 74
0
 42
0.0000001
 43
0.0000001
 44
0.0000000001
 40
0.0
 40
0.0
 40
0.0
 40
0.0
 40
0.0651736093
 40
0.130290063
 40
0.2592952443
 40
0.3232106643
 40
0.3866704545
 40
0.4496537949
 40
0.5121620924
 40
0.5742622285
 40
0.635959729
 40
0.7583000134
 40
0.8190803366
 40
0.8796139551
 40
1.0
 40
1.0
 40
1.0
 40
1.0
 10
3.676722867
 20
4.3246939296
 30
0.0
 10
3.675971046
 20
4.3246939296
 30
0.0
 10
3.6744667303
 20
4.3247766082
 30
0.0
 10
3.6715099317
 20
4.3252559676
 30
0.0
 10
3.6686598618
 20
4.3261943028
 30
0.0
 10
3.666007697
 20
4.3275092355
 30
0.0
 10
3.6641314585
 20
4.3286557984
 30
0.0
 10
3.6623691476
 20
4.3299422234
 30
0.0
 10
3.6607223026
 20
4.3313490871
 30
0.0
 10
3.6591899204
 20
4.3328584035
 30
0.0
 10
3.6572999333
 20
4.3349794475
 30
0.0
 10
3.6556163703
 20
4.3372559369
 30
0.0
 10
3.6541287495
 20
4.3396416676
 30
0.0
 10
3.6527711697
 20
4.3420780514
 30
0.0
 10
3.6518832802
 20
4.3439706651
 30
0.0
 10
3.6513457119
 20
4.3452511338
 30
0.0
  0
SPLINE
  5
2E3
100
AcDbEntity
  8
0
100
AcDbSpline
 62
7
  6
CONTINUOUS
 70
0
 71
3
 72
19
 73
15
 74
0
 42
0.0000001
 43
0.0000001
 44
0.0000000001
 40
0.0
 40
0.0
 40
0.0
 40
0.0
 40
0.0665573141
 40
0.132983056
 40
0.2641313811
 40
0.3287879188
 40
0.3927464173
 40
0.4559847428
 40
0.5185118062
 40
0.5804088194
 40
0.6416997983
 40
0.7626892357
 40
0.8820214411
 40
1.0
 40
1.0
 40
1.0
 40
1.0
 10
3.676722867
 20
4.3044855452
 30
0.0
 10
3.6759711532
 20
4.3044855452
 30
0.0
 10
3.6744679962
 20
4.3045640044
 30
0.0
 10
3.671515827
 20
4.3050185855
 30
0.0
 10
3.6686678452
 20
4.3059079055
 30
0.0
 10
3.6660112585
 20
4.3071589412
 30
0.0
 10
3.6641349181
 20
4.3082481539
 30
0.0
 10
3.6623723391
 20
4.3094703889
 30
0.0
 10
3.6607251441
 20
4.3108071927
 30
0.0
 10
3.6591923887
 20
4.3122414549
 30
0.0
 10
3.6573046802
 20
4.314254123
 30
0.0
 10
3.6552065894
 20
4.3169484393
 30
0.0
 10
3.6530730902
 20
4.3203945097
 30
0.0
 10
3.6518841854
 20
4.322801422
 30
0.0
 10
3.6513457119
 20
4.3240202502
 30
0.0
  0
SPLINE
  5
2E4
100
AcDbEntity
  8
0
100
AcDbSpline
 62
7
  6
CONTINUOUS
 70
0
 71
3
 72
18
 73
14
 74
0
 42
0.0000001
 43
0.0000001
 44
0.0000000001
 40
0.0
 40
0.0
 40
0.0
 40
0.0
 40
0.0682406058
 40
0.1362622492
 40
0.2700407652
 40
0.4000964268
 40
0.5261573057
 40
0.5878277329
 40
0.6486397297
 40
0.7086784702
 40
0.7680485687
 40
0.8849973132
 40
1.0
 40
1.0
 40
1.0
 40
1.0
 10
3.676722867
 20
4.2889674079
 30
0.0
 10
3.6759712731
 20
4.2889674079
 30
0.0
 10
3.6744694518
 20
4.2890408707
 30
0.0
 10
3.6715222904
 20
4.2894664201
 30
0.0
 10
3.6679923003
 20
4.2904977298
 30
0.0
 10
3.6641246639
 20
4.2924062541
 30
0.0
 10
3.6612542518
 20
4.2944330685
 30
0.0
 10
3.6591955514
 20
4.2962396886
 30
0.0
 10
3.6577730172
 20
4.2976621156
 30
0.0
 10
3.6564577911
 20
4.2991503753
 30
0.0
 10
3.6548500215
 20
4.3011993209
 30
0.0
 10
3.6530780988
 20
4.3038816691
 30
0.0
 10
3.6518854092
 20
4.306145592
 30
0.0
 10
3.6513457119
 20
4.3072914837
 30
0.0
  0
SPLINE
  5
2E5
100
AcDbEntity
  8
0
100
AcDbSpline
 62
7
  6
CONTINUOUS
 70
0
 71
3
 72
19
 73
15
 74
0
 42
0.0000001
 43
0.0000001
 44
0.0000000001
 40
0.0
 40
0.0
 40
0.0
 40
0.0
 40
0.0701930314
 40
0.1400683824
 40
0.2090969477
 40
0.2770390109
 40
0.4089334341
 40
0.5354605371
 40
0.5968659906
 40
0.6571093338
 40
0.7162985015
 40
0.7745616734
 40
0.8886250045
 40
1.0
 40
1.0
 40
1.0
 40
1.0
 10
3.676722867
 20
4.2782889659
 30
0.0
 10
3.6759714011
 20
4.2782889659
 30
0.0
 10
3.6744710715
 20
4.2783567475
 30
0.0
 10
3.6722494989
 20
4.2786530505
 30
0.0
 10
3.6700858918
 20
4.279138217
 30
0.0
 10
3.6673376479
 20
4.2800034418
 30
0.0
 10
3.6641432315
 20
4.2814571885
 30
0.0
 10
3.6612642761
 20
4.2833331582
 30
0.0
 10
3.6591992921
 20
4.2850074951
 30
0.0
 10
3.6577763446
 20
4.2863222225
 30
0.0
 10
3.6564606749
 20
4.287697893
 30
0.0
 10
3.6548555947
 20
4.2895880715
 30
0.0
 10
3.6530849634
 20
4.2920633685
 30
0.0
 10
3.6518870532
 20
4.2941635656
 30
0.0
 10
3.6513457119
 20
4.2952259417
 30
0.0
  0
SPLINE
  5
2E6
100
AcDbEntity
  8
0
100
AcDbSpline
 62
7
  6
CONTINUOUS
 70
0
 71
3
 72
19
 73
15
 74
0
 42
0.0000001
 43
0.0000001
 44
0.0000000001
 40
0.0
 40
0.0
 40
0.0
 40
0.0
 40
0.0724298504
 40
0.1444339624
 40
0.2153772142
 40
0.284942479
 40
0.4190195589
 40
0.5461707169
 40
0.607311681
 40
0.6669339227
 40
0.72516837
 40
0.7821678418
 40
0.8928869703
 40
1.0
 40
1.0
 40
1.0
 40
1.0
 10
3.676722867
 20
4.2725530585
 30
0.0
 10
3.6759715322
 20
4.2725530585
 30
0.0
 10
3.6744726181
 20
4.2726145396
 30
0.0
 10
3.6722524217
 20
4.272883369
 30
0.0
 10
3.670089894
 20
4.2733236148
 30
0.0
 10
3.6673489654
 20
4.2741070935
 30
0.0
 10
3.6641644475
 20
4.2754207866
 30
0.0
 10
3.6612758424
 20
4.2771274537
 30
0.0
 10
3.6592037527
 20
4.278653137
 30
0.0
 10
3.657780385
 20
4.2798474314
 30
0.0
 10
3.656464255
 20
4.2810971875
 30
0.0
 10
3.6548626614
 20
4.2828100705
 30
0.0
 10
3.6530939926
 20
4.2850537565
 30
0.0
 10
3.6518892655
 20
4.2869707391
 30
0.0
 10
3.6513457119
 20
4.2879398219
 30
0.0
  0
SPLINE
  5
2E7
100
AcDbEntity
  8
0
100
AcDbSpline
 62
7
  6
CONTINUOUS
 70
0
 71
3
 72
19
 73
15
 74
0
 42
0.0000001
 43
0.0000001
 44
0.0000000001
 40
0.0
 40
0.0
 40
0.0
 40
0.0
 40
0.1071114263
 40
0.2178282798
 40
0.2748262586
 40
0.3330594057
 40
0.3926807366
 40
0.453818544
 40
0.5809675091
 40
0.715042532
 40
0.7846102056
 40
0.8555582105
 40
0.9275684294
 40
1.0
 40
1.0
 40
1.0
 40
1.0
 10
3.6513457119
 20
5.2950667653
 30
0.0
 10
3.6518892573
 20
5.2960358335
 30
0.0
 10
3.6530939748
 20
5.2979527729
 30
0.0
 10
3.6548625796
 20
5.3001964373
 30
0.0
 10
3.6564641419
 20
5.3019092783
 30
0.0
 10
3.6577802491
 20
5.3031590007
 30
0.0
 10
3.6592035409
 20
5.3043532985
 30
0.0
 10
3.6612755727
 20
5.3058789505
 30
0.0
 10
3.6641640815
 20
5.3075856302
 30
0.0
 10
3.6673485768
 20
5.3088993189
 30
0.0
 10
3.670089529
 20
5.3096829065
 30
0.0
 10
3.6722521955
 20
5.310123171
 30
0.0
 10
3.6744725209
 20
5.3103920022
 30
0.0
 10
3.6759715145
 20
5.3104535287
 30
0.0
 10
3.676722867
 20
5.3104535287
 30
0.0
  0
SPLINE
  5
2E8
100
AcDbEntity
  8
0
100
AcDbSpline
 62
7
  6
CONTINUOUS
 70
0
 71
3
 72
19
 73
15
 74
0
 42
0.0000001
 43
0.0000001
 44
0.0000000001
 40
0.0
 40
0.0
 40
0.0
 40
0.0
 40
0.111373319
 40
0.2254343726
 40
0.2836960133
 40
0.3428838659
 40
0.4031263942
 40
0.4645287318
 40
0.5910537916
 40
0.7229463065
 40
0.7908908168
 40
0.8599240146
 40
0.9298052926
 40
1.0
 40
1.0
 40
1.0
 40
1.0
 10
3.6513457119
 20
5.2877806455
 30
0.0
 10
3.651887045
 20
5.2888430055
 30
0.0
 10
3.6530849469
 20
5.2909431569
 30
0.0
 10
3.6548555123
 20
5.2934184275
 30
0.0
 10
3.6564605618
 20
5.2953085609
 30
0.0
 10
3.6577762103
 20
5.2966841955
 30
0.0
 10
3.6591990795
 20
5.2979989243
 30
0.0
 10
3.6612640074
 20
5.2996732284
 30
0.0
 10
3.6641428649
 20
5.3015492106
 30
0.0
 10
3.6673372609
 20
5.3030029531
 30
0.0
 10
3.6700855249
 20
5.3038682971
 30
0.0
 10
3.6722492725
 20
5.3043534848
 30
0.0
 10
3.6744709744
 20
5.3046497897
 30
0.0
 10
3.6759713833
 20
5.3047176213
 30
0.0
 10
3.676722867
 20
5.3047176213
 30
0.0
  0
SPLINE
  5
2E9
100
AcDbEntity
  8
0
100
AcDbSpline
 62
7
  6
CONTINUOUS
 70
0
 71
3
 72
20
 73
16
 74
0
 42
0.0000001
 43
0.0000001
 44
0.0000000001
 40
0.0
 40
0.0
 40
0.0
 40
0.0
 40
0.1149782504
 40
0.2319016305
 40
0.2912584467
 40
0.3512840088
 40
0.4120832689
 40
0.4737384419
 40
0.5362975584
 40
0.5998586574
 40
0.66443166
 40
0.7299982026
 40
0.8637572391
 40
0.9317712257
 40
1.0
 40
1.0
 40
1.0
 40
1.0
 10
3.6513457119
 20
5.2757151035
 30
0.0
 10
3.651885401
 20
5.2768609777
 30
0.0
 10
3.6530780823
 20
5.2791248523
 30
0.0
 10
3.6548499415
 20
5.2818071717
 30
0.0
 10
3.6564576733
 20
5.2838560653
 30
0.0
 10
3.6577729025
 20
5.2853442994
 30
0.0
 10
3.6591952688
 20
5.2867666794
 30
0.0
 10
3.6607283797
 20
5.2881119607
 30
0.0
 10
3.6623759018
 20
5.2893657464
 30
0.0
 10
3.6641386552
 20
5.2905119752
 30
0.0
 10
3.6660149995
 20
5.2915333562
 30
0.0
 10
3.6686766827
 20
5.2927084406
 30
0.0
 10
3.6715222129
 20
5.2935402299
 30
0.0
 10
3.6744693193
 20
5.2939656386
 30
0.0
 10
3.6759712552
 20
5.2940391793
 30
0.0
 10
3.676722867
 20
5.2940391793
 30
0.0
  0
SPLINE
  5
2EA
100
AcDbEntity
  8
0
100
AcDbSpline
 62
7
  6
CONTINUOUS
 70
0
 71
3
 72
19
 73
15
 74
0
 42
0.0000001
 43
0.0000001
 44
0.0000000001
 40
0.0
 40
0.0
 40
0.0
 40
0.0
 40
0.1179767789
 40
0.2373067057
 40
0.3582932246
 40
0.4195835405
 40
0.481477503
 40
0.5440023929
 40
0.6072410457
 40
0.6711966174
 40
0.7358544973
 40
0.8670096947
 40
0.9334410764
 40
1.0
 40
1.0
 40
1.0
 40
1.0
 10
3.6513457119
 20
5.2589863371
 30
0.0
 10
3.6518841771
 20
5.2602051464
 30
0.0
 10
3.6530730764
 20
5.2626120078
 30
0.0
 10
3.6552064879
 20
5.2660580405
 30
0.0
 10
3.6573045718
 20
5.268752275
 30
0.0
 10
3.6591921768
 20
5.270764935
 30
0.0
 10
3.6607248708
 20
5.2721991667
 30
0.0
 10
3.6623720275
 20
5.2735359279
 30
0.0
 10
3.6641345252
 20
5.2747581806
 30
0.0
 10
3.6660108132
 20
5.2758474592
 30
0.0
 10
3.6686674683
 20
5.2770984857
 30
0.0
 10
3.6715155671
 20
5.2779879609
 30
0.0
 10
3.6744679005
 20
5.2784425216
 30
0.0
 10
3.6759711353
 20
5.278521042
 30
0.0
 10
3.676722867
 20
5.278521042
 30
0.0
  0
SPLINE
  5
2EB
100
AcDbEntity
  8
0
100
AcDbSpline
 62
7
  6
CONTINUOUS
 70
0
 71
3
 72
18
 73
14
 74
0
 42
0.0000001
 43
0.0000001
 44
0.0000000001
 40
0.0
 40
0.0
 40
0.0
 40
0.0
 40
0.1204389852
 40
0.1809988901
 40
0.2418058164
 40
0.4875254192
 40
0.6129808154
 40
0.6764666495
 40
0.740412477
 40
0.8048285473
 40
0.8696435561
 40
0.9347951612
 40
1.0
 40
1.0
 40
1.0
 40
1.0
 10
3.6513457119
 20
5.2377554534
 30
0.0
 10
3.651883272
 20
5.2390359024
 30
0.0
 10
3.6527710812
 20
5.2409283931
 30
0.0
 10
3.6541288234
 20
5.2433649713
 30
0.0
 10
3.6563678355
 20
5.246956247
 30
0.0
 10
3.6595763263
 20
5.2508464508
 30
0.0
 10
3.6635161089
 20
5.2539747476
 30
0.0
 10
3.6660070183
 20
5.255497067
 30
0.0
 10
3.6679917932
 20
5.2564808697
 30
0.0
 10
3.6700751947
 20
5.2572785075
 30
0.0
 10
3.6722414763
 20
5.2578690622
 30
0.0
 10
3.6744668021
 20
5.2582299829
 30
0.0
 10
3.675971028
 20
5.2583126576
 30
0.0
 10
3.676722867
 20
5.2583126576
 30
0.0
  0
SPLINE
  5
2EC
100
AcDbEntity
  8
0
100
AcDbSpline
 62
7
  6
CONTINUOUS
 70
0
 71
3
 72
16
 73
12
 74
0
 42
0.0000001
 43
0.0000001
 44
0.0000000001
 40
0.0
 40
0.0
 40
0.0
 40
0.0
 40
0.2449347854
 40
0.3684097508
 40
0.4304689528
 40
0.4927710072
 40
0.6180473249
 40
0.6811592974
 40
0.7445384811
 40
0.8719464129
 40
1.0
 40
1.0
 40
1.0
 40
1.0
 10
3.6513457119
 20
5.2122269174
 30
0.0
 10
3.6524207803
 20
5.2148904016
 30
0.0
 10
3.6543662105
 20
5.2187831366
 30
0.0
 10
3.6572959911
 20
5.2229056739
 30
0.0
 10
3.6591879581
 20
5.2251145309
 30
0.0
 10
3.6612334543
 20
5.2272106851
 30
0.0
 10
3.6635099322
 20
5.2290926038
 30
0.0
 10
3.6660042037
 20
5.2306784595
 30
0.0
 10
3.6686535091
 20
5.2320449811
 30
0.0
 10
3.6722155103
 20
5.233267471
 30
0.0
 10
3.6752212259
 20
5.2336086438
 30
0.0
 10
3.676722867
 20
5.2336086438
 30
0.0
  0
SPLINE
  5
2ED
100
AcDbEntity
  8
0
100
AcDbSpline
 62
7
  6
CONTINUOUS
 70
0
 71
3
 72
18
 73
14
 74
0
 42
0.0000001
 43
0.0000001
 44
0.0000000001
 40
0.0
 40
0.0
 40
0.0
 40
0.0
 40
0.1236466333
 40
0.247584368
 40
0.3096835719
 40
0.3718548553
 40
0.4341384103
 40
0.4965503567
 40
0.6216573469
 40
0.6844752726
 40
0.7474175351
 40
0.8735568363
 40
1.0
 40
1.0
 40
1.0
 40
1.0
 10
3.6513457119
 20
5.182646583
 30
0.0
 10
3.6518821624
 20
5.1840140918
 30
0.0
 10
3.6530641734
 20
5.1867116697
 30
0.0
 10
3.6548380683
 20
5.1899418109
 30
0.0
 10
3.6564513484
 20
5.1924116682
 30
0.0
 10
3.6577653563
 20
5.1941979717
 30
0.0
 10
3.6591865958
 20
5.1959055313
 30
0.0
 10
3.6612296318
 20
5.1980599809
 30
0.0
 10
3.6635051944
 20
5.1999968868
 30
0.0
 10
3.6660020358
 20
5.2016306721
 30
0.0
 10
3.6686485708
 20
5.2030356243
 30
0.0
 10
3.6722093622
 20
5.2042947001
 30
0.0
 10
3.6752206778
 20
5.2046469138
 30
0.0
 10
3.676722867
 20
5.2046469138
 30
0.0
  0
SPLINE
  5
2EE
100
AcDbEntity
  8
0
100
AcDbSpline
 62
7
  6
CONTINUOUS
 70
0
 71
3
 72
14
 73
10
 74
0
 42
0.0000001
 43
0.0000001
 44
0.0000000001
 40
0.0
 40
0.0
 40
0.0
 40
0.0
 40
0.3434006658
 40
0.4953277966
 40
0.62956072
 40
0.74597027
 40
0.8455780643
 40
0.9298133665
 40
1.0
 40
1.0
 40
1.0
 40
1.0
 10
3.676722867
 20
5.1818087556
 30
0.0
 10
3.6738155894
 20
5.1818087556
 30
0.0
 10
3.6696219188
 20
5.1818434066
 30
0.0
 10
3.6642932227
 20
5.1819614836
 30
0.0
 10
3.6608866714
 20
5.1820697221
 30
0.0
 10
3.6579239905
 20
5.1821949381
 30
0.0
 10
3.6553856546
 20
5.1823323502
 30
0.0
 10
3.6532398934
 20
5.1824783438
 30
0.0
 10
3.6519371413
 20
5.1825891676
 30
0.0
 10
3.6513457119
 20
5.182646583
 30
0.0
  0
SPLINE
  5
2EF
100
AcDbEntity
  8
0
100
AcDbSpline
 62
7
  6
CONTINUOUS
 70
0
 71
3
 72
18
 73
14
 74
0
 42
0.0000001
 43
0.0000001
 44
0.0000000001
 40
0.0
 40
0.0
 40
0.0
 40
0.0
 40
0.124520537
 40
0.2491736874
 40
0.3115561972
 40
0.37395199
 40
0.4363941227
 40
0.4988912049
 40
0.6239177428
 40
0.6865598366
 40
0.749233297
 40
0.8745769423
 40
1.0
 40
1.0
 40
1.0
 40
1.0
 10
3.6513457119
 20
5.1492993249
 30
0.0
 10
3.6518818807
 20
5.1506913841
 30
0.0
 10
3.6530629389
 20
5.1534369589
 30
0.0
 10
3.6548369754
 20
5.1567276331
 30
0.0
 10
3.6564507521
 20
5.1592440624
 30
0.0
 10
3.6577646317
 20
5.1610633213
 30
0.0
 10
3.6591857286
 20
5.1628023997
 30
0.0
 10
3.6612271731
 20
5.1649951436
 30
0.0
 10
3.6635021071
 20
5.166968177
 30
0.0
 10
3.6660006116
 20
5.1686335223
 30
0.0
 10
3.6686453007
 20
5.1700636941
 30
0.0
 10
3.672205237
 20
5.1713468563
 30
0.0
 10
3.675220309
 20
5.1717063849
 30
0.0
 10
3.676722867
 20
5.1717063849
 30
0.0
  0
SPLINE
  5
2F0
100
AcDbEntity
  8
0
100
AcDbSpline
 62
7
  6
CONTINUOUS
 70
0
 71
3
 72
15
 73
11
 74
0
 42
0.0000001
 43
0.0000001
 44
0.0000000001
 40
0.0
 40
0.0
 40
0.0
 40
0.0
 40
0.1745055471
 40
0.3401525165
 40
0.4910156233
 40
0.624736541
 40
0.7412572671
 40
0.841656178
 40
0.9274299266
 40
1.0
 40
1.0
 40
1.0
 40
1.0
 10
3.676722867
 20
5.1462505408
 30
0.0
 10
3.6752304831
 20
5.1462505408
 30
0.0
 10
3.6723212504
 20
5.1462965512
 30
0.0
 10
3.6681261308
 20
5.1464969047
 30
0.0
 10
3.6642874872
 20
5.1468069055
 30
0.0
 10
3.6608791983
 20
5.1472011439
 30
0.0
 10
3.6579146363
 20
5.1476574268
 30
0.0
 10
3.6553740032
 20
5.1481583921
 30
0.0
 10
3.6532253544
 20
5.1486910352
 30
0.0
 10
3.6519308957
 20
5.1490926012
 30
0.0
 10
3.6513457119
 20
5.1492993249
 30
0.0
  0
SPLINE
  5
2F1
100
AcDbEntity
  8
0
100
AcDbSpline
 62
7
  6
CONTINUOUS
 70
0
 71
3
 72
18
 73
14
 74
0
 42
0.0000001
 43
0.0000001
 44
0.0000000001
 40
0.0
 40
0.0
 40
0.0
 40
0.0
 40
0.1249253381
 40
0.249910401
 40
0.312424587
 40
0.3749249231
 40
0.4374411288
 40
0.4999782877
 40
0.6249686452
 40
0.6875295378
 40
0.7500784125
 40
0.875052153
 40
1.0
 40
1.0
 40
1.0
 40
1.0
 10
3.6513457119
 20
5.1125062954
 30
0.0
 10
3.6518817528
 20
5.1139098816
 30
0.0
 10
3.6530623769
 20
5.1166779904
 30
0.0
 10
3.6548364756
 20
5.1199970767
 30
0.0
 10
3.6564504786
 20
5.1225353683
 30
0.0
 10
3.6577642984
 20
5.1243700966
 30
0.0
 10
3.6591853284
 20
5.1261239696
 30
0.0
 10
3.6612260343
 20
5.1283346789
 30
0.0
 10
3.6635006658
 20
5.1303246659
 30
0.0
 10
3.6659999436
 20
5.1320048389
 30
0.0
 10
3.6686437598
 20
5.1334468367
 30
0.0
 10
3.6722032779
 20
5.1347413144
 30
0.0
 10
3.6752201336
 20
5.1351042924
 30
0.0
 10
3.676722867
 20
5.1351042924
 30
0.0
  0
SPLINE
  5
2F2
100
AcDbEntity
  8
0
100
AcDbSpline
 62
7
  6
CONTINUOUS
 70
0
 71
3
 72
16
 73
12
 74
0
 42
0.0000001
 43
0.0000001
 44
0.0000000001
 40
0.0
 40
0.0
 40
0.0
 40
0.0
 40
0.0860380259
 40
0.1710815742
 40
0.3337896451
 40
0.4825903614
 40
0.6153498596
 40
0.7321397607
 40
0.8341278877
 40
0.9229021528
 40
1.0
 40
1.0
 40
1.0
 40
1.0
 10
3.676722867
 20
5.1072759161
 30
0.0
 10
3.6759720804
 20
5.1072759161
 30
0.0
 10
3.6744790939
 20
5.107296658
 30
0.0
 10
3.6715685606
 20
5.107416225
 30
0.0
 10
3.6681178125
 20
5.1076994835
 30
0.0
 10
3.6642757524
 20
5.1082322914
 30
0.0
 10
3.6608642345
 20
5.1089101114
 30
0.0
 10
3.6578965068
 20
5.1096948531
 30
0.0
 10
3.6553524901
 20
5.1105570036
 30
0.0
 10
3.65320013
 20
5.1114745102
 30
0.0
 10
3.6519210698
 20
5.112157603
 30
0.0
 10
3.6513457119
 20
5.1125062954
 30
0.0
  0
SPLINE
  5
2F3
100
AcDbEntity
  8
0
100
AcDbSpline
 62
7
  6
CONTINUOUS
 70
0
 71
3
 72
17
 73
13
 74
0
 42
0.0000001
 43
0.0000001
 44
0.0000000001
 40
0.0
 40
0.0
 40
0.0
 40
0.0
 40
0.1248875944
 40
0.2498454524
 40
0.3123513081
 40
0.3748467985
 40
0.4373615511
 40
0.4999044686
 40
0.6249181327
 40
0.7499406576
 40
0.8749760667
 40
1.0
 40
1.0
 40
1.0
 40
1.0
 10
3.6513457119
 20
5.0726218315
 30
0.0
 10
3.6518817788
 20
5.0740238278
 30
0.0
 10
3.6530624675
 20
5.0767888404
 30
0.0
 10
3.6548366303
 20
5.0801039997
 30
0.0
 10
3.6564506265
 20
5.082639289
 30
0.0
 10
3.6577644853
 20
5.0844719049
 30
0.0
 10
3.6591855552
 20
5.0862236878
 30
0.0
 10
3.6612266853
 20
5.0884320659
 30
0.0
 10
3.6640672231
 20
5.0909147518
 30
0.0
 10
3.6679346177
 20
5.093280601
 30
0.0
 10
3.6722034395
 20
5.0948304491
 30
0.0
 10
3.6752202416
 20
5.0951931344
 30
0.0
 10
3.676722867
 20
5.0951931344
 30
0.0
  0
SPLINE
  5
2F4
100
AcDbEntity
  8
0
100
AcDbSpline
 62
7
  6
CONTINUOUS
 70
0
 71
3
 72
17
 73
13
 74
0
 42
0.0000001
 43
0.0000001
 44
0.0000000001
 40
0.0
 40
0.0
 40
0.0
 40
0.0
 40
0.0836944893
 40
0.1664827519
 40
0.247246177
 40
0.3253029855
 40
0.4713968695
 40
0.6029567037
 40
0.7202041886
 40
0.8243811726
 40
0.9171220938
 40
1.0
 40
1.0
 40
1.0
 40
1.0
 10
3.676722867
 20
5.0652602284
 30
0.0
 10
3.6759720101
 20
5.0652602284
 30
0.0
 10
3.6744782733
 20
5.0652894744
 30
0.0
 10
3.6722633077
 20
5.0654174662
 30
0.0
 10
3.6701053066
 20
5.0656271136
 30
0.0
 10
3.6673943956
 20
5.065997051
 30
0.0
 10
3.6642589602
 20
5.0666102046
 30
0.0
 10
3.6608437266
 20
5.0675668363
 30
0.0
 10
3.65787288
 20
5.0686746609
 30
0.0
 10
3.6553263764
 20
5.0698920871
 30
0.0
 10
3.6531721738
 20
5.0711881925
 30
0.0
 10
3.6519114021
 20
5.0721393038
 30
0.0
 10
3.6513457119
 20
5.0726218315
 30
0.0
  0
SPLINE
  5
2F5
100
AcDbEntity
  8
0
100
AcDbSpline
 62
7
  6
CONTINUOUS
 70
0
 71
3
 72
18
 73
14
 74
0
 42
0.0000001
 43
0.0000001
 44
0.0000000001
 40
0.0
 40
0.0
 40
0.0
 40
0.0
 40
0.1243502729
 40
0.248863916
 40
0.3111911255
 40
0.3735430498
 40
0.4359541434
 40
0.4984344904
 40
0.6234764525
 40
0.6861527476
 40
0.7488785967
 40
0.8743775732
 40
1.0
 40
1.0
 40
1.0
 40
1.0
 10
3.6513457119
 20
5.0300300424
 30
0.0
 10
3.651881935
 20
5.0314172829
 30
0.0
 10
3.6530631772
 20
5.0341534373
 30
0.0
 10
3.6548371869
 20
5.0374322323
 30
0.0
 10
3.6564508676
 20
5.0399395215
 30
0.0
 10
3.6577647723
 20
5.0417523129
 30
0.0
 10
3.6591858973
 20
5.0434852058
 30
0.0
 10
3.6612276521
 20
5.0456704367
 30
0.0
 10
3.6635027112
 20
5.0476363811
 30
0.0
 10
3.666000891
 20
5.0492955295
 30
0.0
 10
3.6686459438
 20
5.0507207548
 30
0.0
 10
3.6722060518
 20
5.0519991879
 30
0.0
 10
3.6752203819
 20
5.0523572773
 30
0.0
 10
3.676722867
 20
5.0523572773
 30
0.0
  0
SPLINE
  5
2F6
100
AcDbEntity
  8
0
100
AcDbSpline
 62
7
  6
CONTINUOUS
 70
0
 71
3
 72
17
 73
13
 74
0
 42
0.0000001
 43
0.0000001
 44
0.0000000001
 40
0.0
 40
0.0
 40
0.0
 40
0.0
 40
0.0810284018
 40
0.1612556478
 40
0.2396704261
 40
0.3156731452
 40
0.458774443
 40
0.5890948258
 40
0.7069897507
 40
0.8137228813
 40
0.9108933416
 40
1.0
 40
1.0
 40
1.0
 40
1.0
 10
3.676722867
 20
5.0206081118
 30
0.0
 10
3.6759719196
 20
5.0206081118
 30
0.0
 10
3.6744771994
 20
5.0206455841
 30
0.0
 10
3.6722612177
 20
5.0208095506
 30
0.0
 10
3.6701022797
 20
5.0210781264
 30
0.0
 10
3.6673852566
 20
5.0215528617
 30
0.0
 10
3.6642385706
 20
5.0223419362
 30
0.0
 10
3.6608199333
 20
5.023570044
 30
0.0
 10
3.6578471665
 20
5.0249919671
 30
0.0
 10
3.6553001656
 20
5.0265541975
 30
0.0
 10
3.6531467553
 20
5.028216984
 30
0.0
 10
3.6519035097
 20
5.0294210835
 30
0.0
 10
3.6513457119
 20
5.0300300424
 30
0.0
  0
SPLINE
  5
2F7
100
AcDbEntity
  8
0
100
AcDbSpline
 62
7
  6
CONTINUOUS
 70
0
 71
3
 72
18
 73
14
 74
0
 42
0.0000001
 43
0.0000001
 44
0.0000000001
 40
0.0
 40
0.0
 40
0.0
 40
0.0
 40
0.1233591874
 40
0.247061947
 40
0.3090682544
 40
0.3711660463
 40
0.4333978404
 40
0.4957821959
 40
0.620916342
 40
0.6837922566
 40
0.7468228822
 40
0.8732230212
 40
1.0
 40
1.0
 40
1.0
 40
1.0
 10
3.6513457119
 20
4.9851411104
 30
0.0
 10
3.6518822567
 20
4.9865006416
 30
0.0
 10
3.6530645858
 20
4.9891826215
 30
0.0
 10
3.6548384319
 20
4.9923930864
 30
0.0
 10
3.6564515463
 20
4.9948478074
 30
0.0
 10
3.6577655961
 20
4.9966233994
 30
0.0
 10
3.659186882
 20
4.9983207144
 30
0.0
 10
3.6612304405
 20
5.0004627107
 30
0.0
 10
3.6635062026
 20
5.0023878713
 30
0.0
 10
3.666002499
 20
5.0040114073
 30
0.0
 10
3.6686496297
 20
5.0054081548
 30
0.0
 10
3.6722106889
 20
5.0066594078
 30
0.0
 10
3.6752207962
 20
5.0070092537
 30
0.0
 10
3.676722867
 20
5.0070092537
 30
0.0
  0
SPLINE
  5
2F8
100
AcDbEntity
  8
0
100
AcDbSpline
 62
7
  6
CONTINUOUS
 70
0
 71
3
 72
15
 73
11
 74
0
 42
0.0000001
 43
0.0000001
 44
0.0000000001
 40
0.0
 40
0.0
 40
0.0
 40
0.0
 40
0.3052521077
 40
0.4454351152
 40
0.5746853981
 40
0.693451522
 40
0.8029539144
 40
0.854721943
 40
0.904717006
 40
1.0
 40
1.0
 40
1.0
 40
1.0
 10
3.676722867
 20
4.9737495905
 30
0.0
 10
3.6737953431
 20
4.9737495905
 30
0.0
 10
3.6694982595
 20
4.9742486582
 30
0.0
 10
3.6642167153
 20
4.9758538091
 30
0.0
 10
3.660794811
 20
4.9773431896
 30
0.0
 10
3.6578221671
 20
4.9790662422
 30
0.0
 10
3.6556615503
 20
4.9806720322
 30
0.0
 10
3.6541451281
 20
4.9820173032
 30
0.0
 10
3.6528035122
 20
4.9833491889
 30
0.0
 10
3.6518975417
 20
4.9844127303
 30
0.0
 10
3.6513457119
 20
4.9851411104
 30
0.0
  0
SPLINE
  5
2F9
100
AcDbEntity
  8
0
100
AcDbSpline
 62
7
  6
CONTINUOUS
 70
0
 71
3
 72
16
 73
12
 74
0
 42
0.0000001
 43
0.0000001
 44
0.0000000001
 40
0.0
 40
0.0
 40
0.0
 40
0.0
 40
0.24418921
 40
0.3674290768
 40
0.4294159328
 40
0.4916801685
 40
0.6169978562
 40
0.6801932057
 40
0.7436983958
 40
0.8714757383
 40
1.0
 40
1.0
 40
1.0
 40
1.0
 10
3.6513457119
 20
4.9383873403
 30
0.0
 10
3.6524213932
 20
4.9410294995
 30
0.0
 10
3.6543682763
 20
4.944890589
 30
0.0
 10
3.6572967825
 20
4.9489755245
 30
0.0
 10
3.6591883693
 20
4.9511649329
 30
0.0
 10
3.6612346074
 20
4.9532437945
 30
0.0
 10
3.6635113448
 20
4.9551094164
 30
0.0
 10
3.6660048461
 20
4.9566810883
 30
0.0
 10
3.6686549633
 20
4.9580362071
 30
0.0
 10
3.6722173023
 20
4.959247869
 30
0.0
 10
3.6752213853
 20
4.9595857899
 30
0.0
 10
3.676722867
 20
4.9595857899
 30
0.0
  0
SPLINE
  5
2FA
100
AcDbEntity
  8
0
100
AcDbSpline
 62
7
  6
CONTINUOUS
 70
0
 71
3
 72
18
 73
14
 74
0
 42
0.0000001
 43
0.0000001
 44
0.0000000001
 40
0.0
 40
0.0
 40
0.0
 40
0.0
 40
0.0755556362
 40
0.1505421973
 40
0.2241823121
 40
0.2960533123
 40
0.4332986474
 40
0.5614615266
 40
0.6810324704
 40
0.7379517145
 40
0.7931758942
 40
0.8991049602
 40
1.0
 40
1.0
 40
1.0
 40
1.0
 10
3.676722867
 20
4.9251359378
 30
0.0
 10
3.6759716923
 20
4.9251359378
 30
0.0
 10
3.6744745083
 20
4.9251887853
 30
0.0
 10
3.6722560283
 20
4.925419931
 30
0.0
 10
3.6700949017
 20
4.9257985199
 30
0.0
 10
3.6673634478
 20
4.9264704384
 30
0.0
 10
3.6641926261
 20
4.927593771
 30
0.0
 10
3.6607707533
 20
4.9293302655
 30
0.0
 10
3.6582544596
 20
4.9310308566
 30
0.0
 10
3.6564698413
 20
4.9324894605
 30
0.0
 10
3.6548739686
 20
4.9339586241
 30
0.0
 10
3.6531092624
 20
4.9358830115
 30
0.0
 10
3.6518931447
 20
4.9375467896
 30
0.0
 10
3.6513457119
 20
4.9383873403
 30
0.0
  0
SPLINE
  5
2FB
100
AcDbEntity
  8
0
100
AcDbSpline
 62
7
  6
CONTINUOUS
 70
0
 71
3
 72
21
 73
17
 74
0
 42
0.0000001
 43
0.0000001
 44
0.0000000001
 40
0.0
 40
0.0
 40
0.0
 40
0.0
 40
0.119825864
 40
0.1801158178
 40
0.24068162
 40
0.3626945101
 40
0.4242890103
 40
0.4863291414
 40
0.5488279802
 40
0.611857436
 40
0.6754149842
 40
0.7394870777
 40
0.8040807576
 40
0.8691174559
 40
0.9345236535
 40
1.0
 40
1.0
 40
1.0
 40
1.0
 10
3.6513457119
 20
4.8902189965
 30
0.0
 10
3.6518834685
 20
4.8914854204
 30
0.0
 10
3.6527716374
 20
4.8933570264
 30
0.0
 10
3.6541289679
 20
4.8957653387
 30
0.0
 10
3.6556170297
 20
4.8981247847
 30
0.0
 10
3.657300891
 20
4.9003755074
 30
0.0
 10
3.6591902546
 20
4.9024718702
 30
0.0
 10
3.66072267
 20
4.9039640884
 30
0.0
 10
3.6623695405
 20
4.905354968
 30
0.0
 10
3.6641319067
 20
4.9066268301
 30
0.0
 10
3.6660078472
 20
4.9077603407
 30
0.0
 10
3.6679925892
 20
4.9087328756
 30
0.0
 10
3.6700759033
 20
4.9095213784
 30
0.0
 10
3.6722420144
 20
4.9101051335
 30
0.0
 10
3.6744670943
 20
4.9104618848
 30
0.0
 10
3.6759710529
 20
4.9105435997
 30
0.0
 10
3.676722867
 20
4.9105435997
 30
0.0
  0
SPLINE
  5
2FC
100
AcDbEntity
  8
0
100
AcDbSpline
 62
7
  6
CONTINUOUS
 70
0
 71
3
 72
19
 73
15
 74
0
 42
0.0000001
 43
0.0000001
 44
0.0000000001
 40
0.0
 40
0.0
 40
0.0
 40
0.0
 40
0.0730169956
 40
0.14558065
 40
0.2170285899
 40
0.2870236088
 40
0.4216850624
 40
0.549013141
 40
0.610089929
 40
0.6695526449
 40
0.72753766
 40
0.784203784
 40
0.8940322876
 40
1.0
 40
1.0
 40
1.0
 40
1.0
 10
3.676722867
 20
4.8752353296
 30
0.0
 10
3.6759715642
 20
4.8752353296
 30
0.0
 10
3.6744729963
 20
4.8752951772
 30
0.0
 10
3.67225314
 20
4.8755568794
 30
0.0
 10
3.6700908862
 20
4.8759854665
 30
0.0
 10
3.6673518009
 20
4.8767477966
 30
0.0
 10
3.6641699028
 20
4.8780253084
 30
0.0
 10
3.6612789095
 20
4.8796877958
 30
0.0
 10
3.6592049546
 20
4.8811746786
 30
0.0
 10
3.6577814906
 20
4.8823376453
 30
0.0
 10
3.6564652492
 20
4.8835546457
 30
0.0
 10
3.654864654
 20
4.8852214641
 30
0.0
 10
3.6530966064
 20
4.8874048943
 30
0.0
 10
3.651889917
 20
4.8892741703
 30
0.0
 10
3.6513457119
 20
4.8902189965
 30
0.0
  0
SPLINE
  5
2FD
100
AcDbEntity
  8
0
100
AcDbSpline
 62
7
  6
CONTINUOUS
 70
0
 71
3
 72
19
 73
15
 74
0
 42
0.0000001
 43
0.0000001
 44
0.0000000001
 40
0.0
 40
0.0
 40
0.0
 40
0.0
 40
0.1172986391
 40
0.2360828107
 40
0.3566924905
 40
0.4178703563
 40
0.4797090625
 40
0.5422408028
 40
0.605552097
 40
0.669647878
 40
0.7345128984
 40
0.8662638109
 40
0.933058015
 40
1.0
 40
1.0
 40
1.0
 40
1.0
 10
3.6513457119
 20
4.8410999666
 30
0.0
 10
3.6518844443
 20
4.8423019219
 30
0.0
 10
3.6530742175
 20
4.8446757865
 30
0.0
 10
3.6552081765
 20
4.8480728517
 30
0.0
 10
3.6573059414
 20
4.850727597
 30
0.0
 10
3.6591928724
 20
4.8527106127
 30
0.0
 10
3.6607256685
 20
4.8541243116
 30
0.0
 10
3.6623729136
 20
4.8554419034
 30
0.0
 10
3.6641354768
 20
4.8566465954
 30
0.0
 10
3.6660117842
 20
4.8577201867
 30
0.0
 10
3.6686696213
 20
4.8589536961
 30
0.0
 10
3.6715171351
 20
4.8598298098
 30
0.0
 10
3.674468236
 20
4.8602776183
 30
0.0
 10
3.6759711636
 20
4.8603549864
 30
0.0
 10
3.676722867
 20
4.8603549864
 30
0.0
  0
SPLINE
  5
2FE
100
AcDbEntity
  8
0
100
AcDbSpline
 62
7
  6
CONTINUOUS
 70
0
 71
3
 72
19
 73
15
 74
0
 42
0.0000001
 43
0.0000001
 44
0.0000000001
 40
0.0
 40
0.0
 40
0.0
 40
0.0
 40
0.0707165446
 40
0.141089697
 40
0.2105652233
 40
0.2788851653
 40
0.4112841923
 40
0.5379503294
 40
0.599291123
 40
0.6593873035
 40
0.7183524897
 40
0.7763208642
 40
0.8896084378
 40
1.0
 40
1.0
 40
1.0
 40
1.0
 10
3.676722867
 20
4.8245283362
 30
0.0
 10
3.6759714331
 20
4.8245283362
 30
0.0
 10
3.6744714492
 20
4.8245946303
 30
0.0
 10
3.6722502104
 20
4.8248844491
 30
0.0
 10
3.670086861
 20
4.8253590167
 30
0.0
 10
3.6673403709
 20
4.8262049165
 30
0.0
 10
3.6641482558
 20
4.8276255298
 30
0.0
 10
3.6612669646
 20
4.8294616883
 30
0.0
 10
3.6592003189
 20
4.8311010691
 30
0.0
 10
3.657777266
 20
4.8323874204
 30
0.0
 10
3.6564614841
 20
4.8337334242
 30
0.0
 10
3.6548571773
 20
4.835581802
 30
0.0
 10
3.6530869535
 20
4.8380025331
 30
0.0
 10
3.6518875359
 20
4.8400595801
 30
0.0
 10
3.6513457119
 20
4.8410999666
 30
0.0
  0
SPLINE
  5
2FF
100
AcDbEntity
  8
0
100
AcDbSpline
 62
7
  6
CONTINUOUS
 70
0
 71
3
 72
18
 73
14
 74
0
 42
0.0000001
 43
0.0000001
 44
0.0000000001
 40
0.0
 40
0.0
 40
0.0
 40
0.0
 40
0.114174043
 40
0.2304607596
 40
0.2895754662
 40
0.3494175799
 40
0.4100976577
 40
0.4717034346
 40
0.5978687479
 40
0.728347397
 40
0.8628451002
 40
0.9313035388
 40
1.0
 40
1.0
 40
1.0
 40
1.0
 10
3.6513457119
 20
4.7915032936
 30
0.0
 10
3.6518857602
 20
4.7926296514
 30
0.0
 10
3.6530795944
 20
4.7948552857
 30
0.0
 10
3.6548511812
 20
4.7974892468
 30
0.0
 10
3.6564583259
 20
4.7995010444
 30
0.0
 10
3.6577736362
 20
4.8009629679
 30
0.0
 10
3.6591961937
 20
4.8023602392
 30
0.0
 10
3.6612562756
 20
4.8041359701
 30
0.0
 10
3.6641287446
 20
4.8061276685
 30
0.0
 10
3.6679962216
 20
4.8080014606
 30
0.0
 10
3.6715237534
 20
4.8090133425
 30
0.0
 10
3.67446972
 20
4.8094311033
 30
0.0
 10
3.675971286
 20
4.8095032936
 30
0.0
 10
3.676722867
 20
4.8095032936
 30
0.0
  0
ELLIPSE
  5
300
100
AcDbEntity
  8
0
100
AcDbEllipse
 62
7
  6
CONTINUOUS
 10
4.116722867
 20
6.0287338037
 30
0.0
 11
-0.0
 21
0.8241499501
 31
0.0
 40
0.3442941421
 41
-2.9934629429
 42
-2.8754102695
  0
ELLIPSE
  5
301
100
AcDbEntity
  8
0
100
AcDbEllipse
 62
7
  6
CONTINUOUS
 10
4.116722867
 20
5.7581841485
 30
0.0
 11
-0.0
 21
0.6190988766
 31
0.0
 40
0.4583274348
 41
-2.5586200395
 42
-2.5105585867
  0
ELLIPSE
  5
302
100
AcDbEntity
  8
0
100
AcDbEllipse
 62
7
  6
CONTINUOUS
 10
4.116722867
 20
5.5910454179
 30
0.0
 11
0.0
 21
0.4865876189
 31
0.0
 40
0.5831426632
 41
-2.3058022016
 42
-2.2682625713
  0
ELLIPSE
  5
303
100
AcDbEntity
  8
0
100
AcDbEllipse
 62
7
  6
CONTINUOUS
 10
4.116722867
 20
5.478826767
 30
0.0
 11
0.0
 21
0.3923702799
 31
0.0
 40
0.7231689415
 41
-2.0916116478
 42
-2.0611660217
  0
ELLIPSE
  5
304
100
AcDbEntity
  8
0
100
AcDbEllipse
 62
7
  6
CONTINUOUS
 10
4.116722867
 20
5.3993651784
 30
0.0
 11
0.0
 21
0.3207403713
 31
0.0
 40
0.8846719197
 41
-1.8933499485
 42
-1.8703469554
  0
ELLIPSE
  5
305
100
AcDbEntity
  8
0
100
AcDbEllipse
 62
7
  6
CONTINUOUS
 10
4.116722867
 20
5.3411172901
 30
0.0
 11
0.28375
 21
0.0
 31
0.0
 40
0.9285002803
 41
-0.1301490221
 42
-0.1166521975
  0
ELLIPSE
  5
306
100
AcDbEntity
  8
0
100
AcDbEllipse
 62
7
  6
CONTINUOUS
 10
4.116722867
 20
5.3411172901
 30
0.0
 11
0.28375
 21
-0.0
 31
0.0
 40
0.9285002803
 41
-3.0249404561
 42
-3.0114436315
  0
ELLIPSE
  5
307
100
AcDbEntity
  8
0
100
AcDbEllipse
 62
7
  6
CONTINUOUS
 10
4.116722867
 20
5.3993651784
 30
0.0
 11
0.0
 21
0.3207403713
 31
0.0
 40
0.8846719197
 41
-4.4128383518
 42
-4.3898353587
  0
ELLIPSE
  5
308
100
AcDbEntity
  8
0
100
AcDbEllipse
 62
7
  6
CONTINUOUS
 10
4.116722867
 20
5.478826767
 30
0.0
 11
0.0
 21
0.3923702799
 31
0.0
 40
0.7231689415
 41
-4.2220192855
 42
-4.1915736594
  0
ELLIPSE
  5
309
100
AcDbEntity
  8
0
100
AcDbEllipse
 62
7
  6
CONTINUOUS
 10
4.116722867
 20
5.5910454179
 30
0.0
 11
0.0
 21
0.4865876189
 31
0.0
 40
0.5831426632
 41
-4.0149227358
 42
-3.9773831055
  0
ELLIPSE
  5
30A
100
AcDbEntity
  8
0
100
AcDbEllipse
 62
7
  6
CONTINUOUS
 10
4.116722867
 20
5.7581841485
 30
0.0
 11
0.0
 21
0.6190988766
 31
0.0
 40
0.4583274348
 41
-3.7726267204
 42
-3.7245652677
  0
ELLIPSE
  5
30B
100
AcDbEntity
  8
0
100
AcDbEllipse
 62
7
  6
CONTINUOUS
 10
4.116722867
 20
6.0287338037
 30
0.0
 11
-0.0
 21
0.8241499501
 31
0.0
 40
0.3442941421
 41
-3.4077750377
 42
-3.2897221585
  0
ENDSEC
  0
SECTION
  2
OBJECTS
  0
DICTIONARY
  5
C
100
AcDbDictionary
280
0
281
1
  3
ACAD_GROUP
350
D
  3
ACAD_MLINESTYLE
350
17
  3
ACAD_LAYOUT
350
1A
  3
ACAD_PLOTSETTINGS
350
19
  3
ACAD_PLOTSTYLENAME
350
E
  0
DICTIONARY
  5
D
102
{ACAD_REACTORS
330
C
102
}
100
AcDbDictionary
280
0
281
1
  0
ACDBDICTIONARYWDFLT
  5
E
102
{ACAD_REACTORS
330
C
102
}
100
AcDbDictionary
281
1
  3
Normal
350
F
100
AcDbDictionaryWithDefault
340
F
  0
DICTIONARY
  5
17
102
{ACAD_REACTORS
330
C
102
}
100
AcDbDictionary
280
0
281
1
  3
Standard
350
18
  0
DICTIONARY
  5
19
102
{ACAD_REACTORS
330
C
102
}
100
AcDbDictionary
281
1
  0
DICTIONARY
  5
1A
102
{ACAD_REACTORS
330
C
102
}
100
AcDbDictionary
281
1
  3
Model
350
30C
  3
Layout1
350
30D
  0
ACDBPLACEHOLDER
  5
F
102
{ACAD_REACTORS
330
E
102
}
  0
MLINESTYLE
  5
18
102
{ACAD_REACTORS
330
17
102
}
100
AcDbMlineStyle
  2
STANDARD
 70
0
  3

 62
256
 51
90.0
 52
90.0
 71
2
 49
0.5
 62
256
  6
BYLAYER
 49
-0.5
 62
256
  6
BYLAYER
  0
LAYOUT
  5
30C
102
{ACAD_REACTORS
330
1A
102
}
100
AcDbPlotSettings
  1

  2
none_device
  4
ANSI_A_(11.00_x_8.50_Inches)
  6

 40
0.0
 41
0.0
 42
0.0
 43
0.0
 44
279.4
 45
215.9
 46
0.0
 47
0.0
 48
0.0
 49
0.0
140
0.0
141
0.0
142
1.0
143
1.0
 70
1024
 72
0
 73
0
 74
0
  7

 75
0
147
1.0
148
0.0
149
0.0
100
AcDbLayout
  1
Model
 70
0
 71
0
 10
0.0
 20
0.0
 11
11.0
 21
8.5
 12
0.0
 22
0.0
 32
0.0
 14
0.0
 24
0.0
 34
0.0
 15
0.0
 25
0.0
 35
0.0
146
0.0
 13
0.0
 23
0.0
 33
0.0
 16
1.0
 26
0.0
 36
0.0
 17
0.0
 27
1.0
 37
0.0
 76
0
330
202
345
0
346
0
  0
LAYOUT
  5
30D
102
{ACAD_REACTORS
330
1A
102
}
100
AcDbPlotSettings
  1

  2
none_device
  4
ANSI_A_(11.00_x_8.50_Inches)
  6

 40
0.0
 41
0.0
 42
0.0
 43
0.0
 44
279.4
 45
215.9
 46
0.0
 47
0.0
 48
0.0
 49
0.0
140
0.0
141
0.0
142
1.0
143
1.0
 70
0
 72
0
 73
0
 74
0
  7

 75
0
147
1.0
148
0.0
149
0.0
100
AcDbLayout
  1
Layout1
 70
0
 71
1
 10
0.0
 20
0.0
 11
11.0
 21
8.5
 12
0.0
 22
0.0
 32
0.0
 14
0.0
 24
0.0
 34
0.0
 15
0.0
 25
0.0
 35
0.0
146
0.0
 13
0.0
 23
0.0
 33
0.0
 16
1.0
 26
0.0
 36
0.0
 17
0.0
 27
1.0
 37
0.0
 76
0
330
203
345
0
346
0
  0
ENDSEC
  0
EOF
