999
DXF file: 3230-1650_TOP.dxf
999
Pro/ENGINEER 2019352 by Parametric Technology Corporation
  0
SECTION
  2
HEADER
  9
$ACADVER
  1
AC1032
  9
$DWGCODEPAGE
  3
ANSI_1252
  9
$EXTMAX
 10
11.0
 20
8.5
 30
0.0
  9
$EXTMIN
 10
0.0
 20
0.0
 30
0.0
  9
$LIMMIN
 10
0.0
 20
0.0
  9
$LIMMAX
 10
11.0
 20
8.5
  9
$VIEWCTR
 10
5.5
 20
4.25
  9
$VIEWSIZE
 40
8.5
  9
$CLAYER
  8
0
  9
$LTSCALE
 40
0.605
  9
$CELTYPE
  6
BYLAYER
  9
$DIMSCALE
 40
1.0
  9
$DIMASZ
 40
0.1
  9
$DIMEXO
 40
0.0625
  9
$DIMDLI
 40
0.418
  9
$DIMEXE
 40
0.125
  9
$DIMCEN
 40
0.099
  9
$DIMLFAC
 40
1.0
  9
$DIMBLK
  1
_FILLED
  9
$DIMALT
 70
1
  9
$DIMALTD
 70
2
  9
$DIMALTTD
 70
2
  9
$DIMALTF
 40
25.4
  9
$DIMTXT
 40
0.08
  9
$DIMTOL
 70
1
  9
$DIMLIM
 70
0
  9
$DIMTFAC
 40
1.0
  9
$DIMTP
 40
0.001
  9
$DIMTM
 40
0.001
  9
$DIMGAP
 40
0.09
  9
$DIMDSEP
 70
46
  9
$AUNITS
 70
0
  9
$PDMODE
 70
3
  9
$PDSIZE
 40
0.3125
  9
$HANDSEED
  5
309
  9
$TILEMODE
 70
1
  9
$MEASUREMENT
 70
0
  9
$INSUNITS
 70
1
  0
ENDSEC
  0
SECTION
  2
CLASSES
  0
CLASS
  1
ACDBDICTIONARYWDFLT
  2
AcDbDictionaryWithDefault
  3
AutoCAD 2000
 90
0
 91
1
280
0
281
0
  0
CLASS
  1
ACDBPLACEHOLDER
  2
AcDbPlaceHolder
  3
AutoCAD 2000
 90
0
 91
1
280
0
281
0
  0
CLASS
  1
LAYOUT
  2
AcDbLayout
  3
AutoCAD 2000
 90
0
 91
0
280
0
281
0
  0
ENDSEC
  0
SECTION
  2
TABLES
  0
TABLE
  2
VPORT
  5
8
100
AcDbSymbolTable
 70
2
  0
VPORT
  5
1F4
100
AcDbSymbolTableRecord
100
AcDbViewportTableRecord
  2
*ACTIVE
 70
0
 10
0.0
 20
0.0
 11
1.0
 21
1.0
 12
5.5
 22
4.25
 13
0.0
 23
0.0
 14
1.0
 24
1.0
 15
0.0
 25
0.0
 16
0.0
 26
0.0
 36
1.0
 17
0.0
 27
0.0
 37
0.0
 40
8.5
 41
1.2941176471
 42
50.0
 43
0.0
 44
0.0
 50
0.0
 51
0.0
 71
0
 72
100
 73
1
 74
1
 75
0
 76
0
 77
0
 78
0
  0
ENDTAB
  0
TABLE
  2
LTYPE
  5
5
100
AcDbSymbolTable
 70
6
  0
LTYPE
  5
14
100
AcDbSymbolTableRecord
100
AcDbLinetypeTableRecord
  2
BYBLOCK
 70
0
  3

 72
65
 73
0
 40
0.0
  0
LTYPE
  5
15
100
AcDbSymbolTableRecord
100
AcDbLinetypeTableRecord
  2
BYLAYER
 70
0
  3

 72
65
 73
0
 40
0.0
  0
LTYPE
  5
16
100
AcDbSymbolTableRecord
100
AcDbLinetypeTableRecord
  2
CONTINUOUS
 70
64
  3
Solid line
 72
65
 73
0
 40
0.0
  0
LTYPE
  5
1F5
100
AcDbSymbolTableRecord
100
AcDbLinetypeTableRecord
  2
CENTER
 70
64
  3
____ _ ____ _ ____ _ ____ _ ____ _ ____ _ ____
 72
65
 73
4
 40
0.6
 49
0.375
 74
0
 49
-0.075
 74
0
 49
0.075
 74
0
 49
-0.075
 74
0
  0
LTYPE
  5
1F6
100
AcDbSymbolTableRecord
100
AcDbLinetypeTableRecord
  2
HIDDEN
 70
64
  3
- - - - - - - - - - - - - - - - - - - -
 72
65
 73
2
 40
0.2
 49
0.1
 74
0
 49
-0.1
 74
0
  0
LTYPE
  5
1F7
100
AcDbSymbolTableRecord
100
AcDbLinetypeTableRecord
  2
PHANTOM
 70
64
  3
_____ _ _ _____ _ _ _____ _ _ _____
 72
65
 73
6
 40
0.8
 49
0.45
 74
0
 49
-0.05
 74
0
 49
0.1
 74
0
 49
-0.05
 74
0
 49
0.1
 74
0
 49
-0.05
 74
0
  0
LTYPE
  5
1F8
100
AcDbSymbolTableRecord
100
AcDbLinetypeTableRecord
  2
DOT
 70
64
  3
. . . . . . . . . . . . . . . . . . . .
 72
65
 73
2
 40
0.2
 49
0.1
 74
0
 49
-0.1
 74
0
  0
LTYPE
  5
1F9
100
AcDbSymbolTableRecord
100
AcDbLinetypeTableRecord
  2
DASHED
 70
64
  3
- - - - - - - - - - - - - - - - - - - -
 72
65
 73
2
 40
0.2
 49
0.1
 74
0
 49
-0.1
 74
0
  0
ENDTAB
  0
TABLE
  2
LAYER
  5
2
100
AcDbSymbolTable
 70
36
  0
LAYER
  5
10
100
AcDbSymbolTableRecord
100
AcDbLayerTableRecord
  2
0
 70
0
 62
7
  6
CONTINUOUS
370
-3
390
F
  0
LAYER
  5
1FA
100
AcDbSymbolTableRecord
100
AcDbLayerTableRecord
  2
DEFAULT_1
 70
0
 62
7
  6
CENTER
370
-3
390
F
  0
LAYER
  5
1FB
100
AcDbSymbolTableRecord
100
AcDbLayerTableRecord
  2
DEFAULT_2
 70
0
 62
8
  6
HIDDEN
370
-3
390
F
  0
LAYER
  5
1FC
100
AcDbSymbolTableRecord
100
AcDbLayerTableRecord
  2
DEFAULT_3
 70
0
 62
7
  6
PHANTOM
370
-3
390
F
  0
LAYER
  5
1FD
100
AcDbSymbolTableRecord
100
AcDbLayerTableRecord
  2
DEFAULT_COORDINATE_SYSTEM
 70
0
 62
7
  6
CONTINUOUS
370
-3
390
F
  0
LAYER
  5
1FE
100
AcDbSymbolTableRecord
100
AcDbLayerTableRecord
  2
DEFAULT_DATUM_AXES
 70
0
 62
7
  6
CONTINUOUS
370
-3
390
F
  0
LAYER
  5
1FF
100
AcDbSymbolTableRecord
100
AcDbLayerTableRecord
  2
DEFAULT_DATUM_PLANES
 70
0
 62
7
  6
CONTINUOUS
370
-3
390
F
  0
ENDTAB
  0
TABLE
  2
STYLE
  5
3
100
AcDbSymbolTable
 70
1
  0
STYLE
  5
11
100
AcDbSymbolTableRecord
100
AcDbTextStyleTableRecord
  2
STANDARD
 70
0
 40
0.0
 41
0.8
 50
0.0
 71
0
 42
0.2
  3
txt
  4

  0
STYLE
  5
200
100
AcDbSymbolTableRecord
100
AcDbTextStyleTableRecord
  2
TEXTSTYLE_1
 70
0
 40
0.0
 41
0.8
 50
0.0
 71
0
 42
0.2
  3
gdt
  4

  0
ENDTAB
  0
TABLE
  2
VIEW
  5
6
100
AcDbSymbolTable
 70
0
  0
ENDTAB
  0
TABLE
  2
UCS
  5
7
100
AcDbSymbolTable
 70
0
  0
ENDTAB
  0
TABLE
  2
APPID
  5
9
100
AcDbSymbolTable
 70
1
  0
APPID
  5
201
100
AcDbSymbolTableRecord
100
AcDbRegAppTableRecord
  2
ACAD
 70
0
  0
ENDTAB
  0
TABLE
  2
BLOCK_RECORD
  5
1
100
AcDbSymbolTable
 70
0
  0
BLOCK_RECORD
  5
202
100
AcDbSymbolTableRecord
100
AcDbBlockTableRecord
  2
*Model_Space
  0
BLOCK_RECORD
  5
203
100
AcDbSymbolTableRecord
100
AcDbBlockTableRecord
  2
*Paper_Space
  0
BLOCK_RECORD
  5
204
100
AcDbSymbolTableRecord
100
AcDbBlockTableRecord
  2
_FILLED
  0
ENDTAB
  0
TABLE
  2
DIMSTYLE
  5
A
100
AcDbSymbolTable
 70
1
100
AcDbDimStyleTable
 71
0
  0
DIMSTYLE
105
205
100
AcDbSymbolTableRecord
100
AcDbDimStyleTableRecord
  2
STANDARD
 70
0
  3

  4

 40
1.0
 41
0.1
 42
0.0625
 43
0.38
 44
0.125
 45
0.0
 46
0.0
 47
0.001
 48
0.001
140
0.08
141
0.09
142
0.0
143
25.4
144
1.0
145
0.0
146
1.0
147
0.09
 71
1.0
 72
0.0
 73
1
 74
1
 75
0
 76
0
 77
0
 78
4
 79
1
170
1
171
2
172
0
173
0
174
0
175
0
176
0
177
0
178
0
270
2
179
3
271
3
272
3
273
2
274
2
275
0
280
0
281
0
282
0
283
1
284
4
285
0
286
0
287
3
288
0
340
11
278
46
341
204
342
204
343
204
344
204
  0
ENDTAB
  0
ENDSEC
  0
SECTION
  2
BLOCKS
  0
BLOCK
  5
20
100
AcDbEntity
  8
0
100
AcDbBlockBegin
  2
*Model_Space
 70
0
 10
0.0
 20
0.0
 30
0.0
  3
*Model_Space
  1

  0
ENDBLK
  5
21
100
AcDbEntity
  8
0
100
AcDbBlockEnd
  0
BLOCK
  5
1C
100
AcDbEntity
  8
0
100
AcDbBlockBegin
  2
*Paper_Space
 70
0
 10
0.0
 20
0.0
 30
0.0
  3
*Paper_Space
  1

  0
ENDBLK
  5
1D
100
AcDbEntity
  8
0
100
AcDbBlockEnd
  0
BLOCK
  5
206
100
AcDbEntity
  8
0
100
AcDbBlockBegin
  2
_FILLED
 70
64
 10
0.0
 20
0.0
  3
_FILLED
  1

  0
SOLID
  5
207
100
AcDbEntity
  8
0
  6
BYBLOCK
 62
0
100
AcDbTrace
 10
0.0
 20
0.0
 11
-1.0
 21
0.2
 12
-1.0
 22
-0.2
 13
-1.0
 23
-0.2
  0
ENDBLK
  5
208
100
AcDbEntity
  8
0
  6
BYBLOCK
 62
0
100
AcDbBlockEnd
  0
ENDSEC
  0
SECTION
  2
ENTITIES
  0
MTEXT
  5
209
100
AcDbEntity
  8
0
100
AcDbMText
 62
2
  6
CONTINUOUS
  7
STANDARD
 71
3
 72
1
 10
5.4243059912
 20
2.5113370452
 30
0.0
 11
1.0
 21
0.0
 31
0.0
 73
2
 44
0.9
  1
SCALE 1.000
 40
0.08
 41
0.704
  0
LINE
  5
20A
100
AcDbEntity
  8
0
100
AcDbLine
 62
7
  6
CONTINUOUS
 10
0.0
 20
0.0
 11
0.0
 21
8.5
  0
LINE
  5
20B
100
AcDbEntity
  8
0
100
AcDbLine
 62
7
  6
CONTINUOUS
 10
0.0
 20
0.0
 11
11.0
 21
0.0
  0
LINE
  5
20C
100
AcDbEntity
  8
0
100
AcDbLine
 62
7
  6
CONTINUOUS
 10
0.0
 20
8.5
 11
11.0
 21
8.5
  0
LINE
  5
20D
100
AcDbEntity
  8
0
100
AcDbLine
 62
7
  6
CONTINUOUS
 10
11.0
 20
0.0
 11
11.0
 21
8.5
  0
LINE
  5
20E
100
AcDbEntity
  8
0
100
AcDbLine
 62
7
  6
CONTINUOUS
 10
5.506722867
 20
3.4215032936
 11
4.526722867
 21
3.4215032936
  0
LINE
  5
20F
100
AcDbEntity
  8
0
100
AcDbLine
 62
7
  6
CONTINUOUS
 10
5.5364112352
 20
3.4515032936
 11
5.5356731021
 21
3.4515032936
  0
LINE
  5
210
100
AcDbEntity
  8
0
100
AcDbLine
 62
7
  6
CONTINUOUS
 10
5.5321444851
 20
3.4515032936
 11
5.5299371947
 21
3.4515032936
  0
LINE
  5
211
100
AcDbEntity
  8
0
100
AcDbLine
 62
7
  6
CONTINUOUS
 10
5.5229139431
 20
3.4515032936
 11
5.5192587527
 21
3.4515032936
  0
LINE
  5
212
100
AcDbEntity
  8
0
100
AcDbLine
 62
7
  6
CONTINUOUS
 10
5.5088085043
 20
3.4515032936
 11
5.5037406154
 21
3.4515032936
  0
LINE
  5
213
100
AcDbEntity
  8
0
100
AcDbLine
 62
7
  6
CONTINUOUS
 10
5.4899640118
 20
3.4515032936
 11
5.483532231
 21
3.4515032936
  0
LINE
  5
214
100
AcDbEntity
  8
0
100
AcDbLine
 62
7
  6
CONTINUOUS
 10
5.4665619485
 20
3.4515032936
 11
5.4588282172
 21
3.4515032936
  0
LINE
  5
215
100
AcDbEntity
  8
0
100
AcDbLine
 62
7
  6
CONTINUOUS
 10
5.4388276888
 20
3.4515032936
 11
5.4298664872
 21
3.4515032936
  0
LINE
  5
216
100
AcDbEntity
  8
0
100
AcDbLine
 62
7
  6
CONTINUOUS
 10
5.407028329
 20
3.4515032936
 11
5.3969259583
 21
3.4515032936
  0
LINE
  5
217
100
AcDbEntity
  8
0
100
AcDbLine
 62
7
  6
CONTINUOUS
 10
5.3714701142
 20
3.4515032936
 11
5.3603238658
 21
3.4515032936
  0
LINE
  5
218
100
AcDbEntity
  8
0
100
AcDbLine
 62
7
  6
CONTINUOUS
 10
5.3324954895
 20
3.4515032936
 11
5.3204127078
 21
3.4515032936
  0
LINE
  5
219
100
AcDbEntity
  8
0
100
AcDbLine
 62
7
  6
CONTINUOUS
 10
5.2904798018
 20
3.4515032936
 11
5.2775768507
 21
3.4515032936
  0
LINE
  5
21A
100
AcDbEntity
  8
0
100
AcDbLine
 62
7
  6
CONTINUOUS
 10
5.2458276852
 20
3.4515032936
 11
5.2322288271
 21
3.4515032936
  0
LINE
  5
21B
100
AcDbEntity
  8
0
100
AcDbLine
 62
7
  6
CONTINUOUS
 10
5.1989691639
 20
3.4515032936
 11
5.1848053633
 21
3.4515032936
  0
LINE
  5
21C
100
AcDbEntity
  8
0
100
AcDbLine
 62
7
  6
CONTINUOUS
 10
5.1503555112
 20
3.4515032936
 11
5.1357631731
 21
3.4515032936
  0
LINE
  5
21D
100
AcDbEntity
  8
0
100
AcDbLine
 62
7
  6
CONTINUOUS
 10
5.100454903
 20
3.4515032936
 11
5.0855745598
 21
3.4515032936
  0
LINE
  5
21E
100
AcDbEntity
  8
0
100
AcDbLine
 62
7
  6
CONTINUOUS
 10
5.0497479096
 20
3.4515032936
 11
5.034722867
 21
3.4515032936
  0
LINE
  5
21F
100
AcDbEntity
  8
0
100
AcDbLine
 62
7
  6
CONTINUOUS
 10
4.998722867
 20
3.4515032936
 11
4.9836978244
 21
3.4515032936
  0
LINE
  5
220
100
AcDbEntity
  8
0
100
AcDbLine
 62
7
  6
CONTINUOUS
 10
4.9478711742
 20
3.4515032936
 11
4.932990831
 21
3.4515032936
  0
LINE
  5
221
100
AcDbEntity
  8
0
100
AcDbLine
 62
7
  6
CONTINUOUS
 10
4.8976825609
 20
3.4515032936
 11
4.8830902228
 21
3.4515032936
  0
LINE
  5
222
100
AcDbEntity
  8
0
100
AcDbLine
 62
7
  6
CONTINUOUS
 10
4.8486403707
 20
3.4515032936
 11
4.8344765701
 21
3.4515032936
  0
LINE
  5
223
100
AcDbEntity
  8
0
100
AcDbLine
 62
7
  6
CONTINUOUS
 10
4.8012169069
 20
3.4515032936
 11
4.7876180488
 21
3.4515032936
  0
LINE
  5
224
100
AcDbEntity
  8
0
100
AcDbLine
 62
7
  6
CONTINUOUS
 10
4.7558688833
 20
3.4515032936
 11
4.7429659322
 21
3.4515032936
  0
LINE
  5
225
100
AcDbEntity
  8
0
100
AcDbLine
 62
7
  6
CONTINUOUS
 10
4.7130330262
 20
3.4515032936
 11
4.7009502445
 21
3.4515032936
  0
LINE
  5
226
100
AcDbEntity
  8
0
100
AcDbLine
 62
7
  6
CONTINUOUS
 10
4.6731218682
 20
3.4515032936
 11
4.6619756198
 21
3.4515032936
  0
LINE
  5
227
100
AcDbEntity
  8
0
100
AcDbLine
 62
7
  6
CONTINUOUS
 10
4.6365197757
 20
3.4515032936
 11
4.626417405
 21
3.4515032936
  0
LINE
  5
228
100
AcDbEntity
  8
0
100
AcDbLine
 62
7
  6
CONTINUOUS
 10
4.6035792468
 20
3.4515032936
 11
4.5946180452
 21
3.4515032936
  0
LINE
  5
229
100
AcDbEntity
  8
0
100
AcDbLine
 62
7
  6
CONTINUOUS
 10
4.5746175168
 20
3.4515032936
 11
4.5668837856
 21
3.4515032936
  0
LINE
  5
22A
100
AcDbEntity
  8
0
100
AcDbLine
 62
7
  6
CONTINUOUS
 10
4.549913503
 20
3.4515032936
 11
4.5434817222
 21
3.4515032936
  0
LINE
  5
22B
100
AcDbEntity
  8
0
100
AcDbLine
 62
7
  6
CONTINUOUS
 10
4.5297051186
 20
3.4515032936
 11
4.5246372297
 21
3.4515032936
  0
LINE
  5
22C
100
AcDbEntity
  8
0
100
AcDbLine
 62
7
  6
CONTINUOUS
 10
4.5141869813
 20
3.4515032936
 11
4.5105317909
 21
3.4515032936
  0
LINE
  5
22D
100
AcDbEntity
  8
0
100
AcDbLine
 62
7
  6
CONTINUOUS
 10
4.5035085393
 20
3.4515032936
 11
4.5013012489
 21
3.4515032936
  0
LINE
  5
22E
100
AcDbEntity
  8
0
100
AcDbLine
 62
7
  6
CONTINUOUS
 10
4.4977726319
 20
3.4515032936
 11
4.4970344988
 21
3.4515032936
  0
LINE
  5
22F
100
AcDbEntity
  8
0
100
AcDbLine
 62
7
  6
CONTINUOUS
 10
3.891722867
 20
6.1615032936
 11
3.891722867
 21
5.9395554207
  0
LINE
  5
230
100
AcDbEntity
  8
0
100
AcDbLine
 62
7
  6
CONTINUOUS
 10
4.4970344988
 20
4.3615032936
 11
4.4970344988
 21
3.4515032936
  0
LINE
  5
231
100
AcDbEntity
  8
0
100
AcDbLine
 62
7
  6
CONTINUOUS
 10
4.4977726319
 20
4.3615032936
 11
4.4977726319
 21
3.4515032936
  0
LINE
  5
232
100
AcDbEntity
  8
0
100
AcDbLine
 62
7
  6
CONTINUOUS
 10
4.5013012489
 20
4.3615032936
 11
4.5013012489
 21
3.4515032936
  0
LINE
  5
233
100
AcDbEntity
  8
0
100
AcDbLine
 62
7
  6
CONTINUOUS
 10
4.5035085393
 20
4.3615032936
 11
4.5035085393
 21
3.4515032936
  0
LINE
  5
234
100
AcDbEntity
  8
0
100
AcDbLine
 62
7
  6
CONTINUOUS
 10
4.5105317909
 20
4.3615032936
 11
4.5105317909
 21
3.4515032936
  0
LINE
  5
235
100
AcDbEntity
  8
0
100
AcDbLine
 62
7
  6
CONTINUOUS
 10
4.5141869813
 20
4.3615032936
 11
4.5141869813
 21
3.4515032936
  0
LINE
  5
236
100
AcDbEntity
  8
0
100
AcDbLine
 62
7
  6
CONTINUOUS
 10
4.516722867
 20
5.6215032936
 11
4.516722867
 21
4.4215032936
  0
LINE
  5
237
100
AcDbEntity
  8
0
100
AcDbLine
 62
7
  6
CONTINUOUS
 10
4.5246372297
 20
4.3615032936
 11
4.5246372297
 21
3.4515032936
  0
LINE
  5
238
100
AcDbEntity
  8
0
100
AcDbLine
 62
7
  6
CONTINUOUS
 10
4.5297051186
 20
4.3615032936
 11
4.5297051186
 21
3.4515032936
  0
LINE
  5
239
100
AcDbEntity
  8
0
100
AcDbLine
 62
7
  6
CONTINUOUS
 10
4.531722867
 20
4.4215032936
 11
4.531722867
 21
4.3615032936
  0
LINE
  5
23A
100
AcDbEntity
  8
0
100
AcDbLine
 62
7
  6
CONTINUOUS
 10
4.5434817222
 20
4.3615032936
 11
4.5434817222
 21
3.4515032936
  0
LINE
  5
23B
100
AcDbEntity
  8
0
100
AcDbLine
 62
7
  6
CONTINUOUS
 10
4.549913503
 20
4.3615032936
 11
4.549913503
 21
3.4515032936
  0
LINE
  5
23C
100
AcDbEntity
  8
0
100
AcDbLine
 62
7
  6
CONTINUOUS
 10
4.5668837856
 20
4.3615032936
 11
4.5668837856
 21
3.4515032936
  0
LINE
  5
23D
100
AcDbEntity
  8
0
100
AcDbLine
 62
7
  6
CONTINUOUS
 10
4.5746175168
 20
4.3615032936
 11
4.5746175168
 21
3.4515032936
  0
LINE
  5
23E
100
AcDbEntity
  8
0
100
AcDbLine
 62
7
  6
CONTINUOUS
 10
4.591722867
 20
5.6515032936
 11
4.591722867
 21
5.6615032936
  0
LINE
  5
23F
100
AcDbEntity
  8
0
100
AcDbLine
 62
7
  6
CONTINUOUS
 10
4.5946180452
 20
4.3615032936
 11
4.5946180452
 21
3.4515032936
  0
LINE
  5
240
100
AcDbEntity
  8
0
100
AcDbLine
 62
7
  6
CONTINUOUS
 10
4.6035792468
 20
4.3615032936
 11
4.6035792468
 21
3.4515032936
  0
LINE
  5
241
100
AcDbEntity
  8
0
100
AcDbLine
 62
7
  6
CONTINUOUS
 10
4.6255795776
 20
3.4261261385
 11
4.6255795776
 21
4.3615032936
  0
LINE
  5
242
100
AcDbEntity
  8
0
100
AcDbLine
 62
7
  6
CONTINUOUS
 10
4.626417405
 20
4.3615032936
 11
4.626417405
 21
3.4515032936
  0
LINE
  5
243
100
AcDbEntity
  8
0
100
AcDbLine
 62
7
  6
CONTINUOUS
 10
4.6365197757
 20
4.3615032936
 11
4.6365197757
 21
3.4515032936
  0
LINE
  5
244
100
AcDbEntity
  8
0
100
AcDbLine
 62
7
  6
CONTINUOUS
 10
4.6589268357
 20
3.4261261385
 11
4.6589268357
 21
4.3615032936
  0
LINE
  5
245
100
AcDbEntity
  8
0
100
AcDbLine
 62
7
  6
CONTINUOUS
 10
4.6619756198
 20
4.3615032936
 11
4.6619756198
 21
3.4515032936
  0
LINE
  5
246
100
AcDbEntity
  8
0
100
AcDbLine
 62
7
  6
CONTINUOUS
 10
4.6731218682
 20
4.3615032936
 11
4.6731218682
 21
3.4515032936
  0
LINE
  5
247
100
AcDbEntity
  8
0
100
AcDbLine
 62
7
  6
CONTINUOUS
 10
4.4970344988
 20
4.3615032936
 11
5.5364112352
 21
4.3615032936
  0
LINE
  5
248
100
AcDbEntity
  8
0
100
AcDbLine
 62
7
  6
CONTINUOUS
 10
5.516722867
 20
4.4215032936
 11
4.516722867
 21
4.4215032936
  0
LINE
  5
249
100
AcDbEntity
  8
0
100
AcDbLine
 62
7
  6
CONTINUOUS
 10
4.6957198652
 20
3.4261261385
 11
4.6957198652
 21
4.3615032936
  0
LINE
  5
24A
100
AcDbEntity
  8
0
100
AcDbLine
 62
7
  6
CONTINUOUS
 10
4.7009502445
 20
4.3615032936
 11
4.7009502445
 21
3.4515032936
  0
LINE
  5
24B
100
AcDbEntity
  8
0
100
AcDbLine
 62
7
  6
CONTINUOUS
 10
4.7130330262
 20
4.3615032936
 11
4.7130330262
 21
3.4515032936
  0
LINE
  5
24C
100
AcDbEntity
  8
0
100
AcDbLine
 62
7
  6
CONTINUOUS
 10
4.7356043291
 20
3.4261261385
 11
4.7356043291
 21
3.8529490442
  0
LINE
  5
24D
100
AcDbEntity
  8
0
100
AcDbLine
 62
7
  6
CONTINUOUS
 10
4.7356043291
 20
3.930057543
 11
4.7356043291
 21
4.3615032936
  0
LINE
  5
24E
100
AcDbEntity
  8
0
100
AcDbLine
 62
7
  6
CONTINUOUS
 10
4.7429659322
 20
4.3615032936
 11
4.7429659322
 21
3.9661437864
  0
LINE
  5
24F
100
AcDbEntity
  8
0
100
AcDbLine
 62
7
  6
CONTINUOUS
 10
4.7429659322
 20
3.8168628008
 11
4.7429659322
 21
3.4515032936
  0
LINE
  5
250
100
AcDbEntity
  8
0
100
AcDbLine
 62
7
  6
CONTINUOUS
 10
4.7558688833
 20
4.3615032936
 11
4.7558688833
 21
4.003169142
  0
LINE
  5
251
100
AcDbEntity
  8
0
100
AcDbLine
 62
7
  6
CONTINUOUS
 10
4.7558688833
 20
3.7798374452
 11
4.7558688833
 21
3.4515032936
  0
LINE
  5
252
100
AcDbEntity
  8
0
100
AcDbLine
 62
7
  6
CONTINUOUS
 10
4.7781961182
 20
3.4261261385
 11
4.7781961182
 21
3.7378183803
  0
LINE
  5
253
100
AcDbEntity
  8
0
100
AcDbLine
 62
7
  6
CONTINUOUS
 10
4.7781961182
 20
4.0451882069
 11
4.7781961182
 21
4.3615032936
  0
LINE
  5
254
100
AcDbEntity
  8
0
100
AcDbLine
 62
7
  6
CONTINUOUS
 10
4.7876180488
 20
4.3615032936
 11
4.7876180488
 21
4.0589101178
  0
LINE
  5
255
100
AcDbEntity
  8
0
100
AcDbLine
 62
7
  6
CONTINUOUS
 10
4.7876180488
 20
3.7240964694
 11
4.7876180488
 21
3.4515032936
  0
LINE
  5
256
100
AcDbEntity
  8
0
100
AcDbLine
 62
7
  6
CONTINUOUS
 10
4.8012169069
 20
4.3615032936
 11
4.8012169069
 21
4.0760872682
  0
LINE
  5
257
100
AcDbEntity
  8
0
100
AcDbLine
 62
7
  6
CONTINUOUS
 10
4.8012169069
 20
3.706919319
 11
4.8012169069
 21
3.4515032936
  0
LINE
  5
258
100
AcDbEntity
  8
0
100
AcDbLine
 62
7
  6
CONTINUOUS
 10
4.8230850502
 20
3.4261261385
 11
4.8230850502
 21
3.6840943777
  0
LINE
  5
259
100
AcDbEntity
  8
0
100
AcDbLine
 62
7
  6
CONTINUOUS
 10
4.8230850502
 20
4.0989122095
 11
4.8230850502
 21
4.3615032936
  0
LINE
  5
25A
100
AcDbEntity
  8
0
100
AcDbLine
 62
7
  6
CONTINUOUS
 10
4.8344765701
 20
4.3615032936
 11
4.8344765701
 21
4.1089897294
  0
LINE
  5
25B
100
AcDbEntity
  8
0
100
AcDbLine
 62
7
  6
CONTINUOUS
 10
4.8344765701
 20
3.6740168578
 11
4.8344765701
 21
3.4515032936
  0
LINE
  5
25C
100
AcDbEntity
  8
0
100
AcDbLine
 62
7
  6
CONTINUOUS
 10
4.8486403707
 20
4.3615032936
 11
4.8486403707
 21
4.1201128668
  0
LINE
  5
25D
100
AcDbEntity
  8
0
100
AcDbLine
 62
7
  6
CONTINUOUS
 10
4.8486403707
 20
3.6628937204
 11
4.8486403707
 21
3.4515032936
  0
LINE
  5
25E
100
AcDbEntity
  8
0
100
AcDbLine
 62
7
  6
CONTINUOUS
 10
4.8698388203
 20
3.4261261385
 11
4.8698388203
 21
3.6487294496
  0
LINE
  5
25F
100
AcDbEntity
  8
0
100
AcDbLine
 62
7
  6
CONTINUOUS
 10
4.8698388203
 20
4.1342771376
 11
4.8698388203
 21
4.3615032936
  0
LINE
  5
260
100
AcDbEntity
  8
0
100
AcDbLine
 62
7
  6
CONTINUOUS
 10
4.8830902228
 20
4.3615032936
 11
4.8830902228
 21
4.141815856
  0
LINE
  5
261
100
AcDbEntity
  8
0
100
AcDbLine
 62
7
  6
CONTINUOUS
 10
4.8830902228
 20
3.6411907312
 11
4.8830902228
 21
3.4515032936
  0
LINE
  5
262
100
AcDbEntity
  8
0
100
AcDbLine
 62
7
  6
CONTINUOUS
 10
4.8976825609
 20
4.3615032936
 11
4.8976825609
 21
4.1490755515
  0
LINE
  5
263
100
AcDbEntity
  8
0
100
AcDbLine
 62
7
  6
CONTINUOUS
 10
4.8976825609
 20
3.6339310358
 11
4.8976825609
 21
3.4515032936
  0
LINE
  5
264
100
AcDbEntity
  8
0
100
AcDbLine
 62
7
  6
CONTINUOUS
 10
4.9180071641
 20
3.4261261385
 11
4.9180071641
 21
3.6254783465
  0
LINE
  5
265
100
AcDbEntity
  8
0
100
AcDbLine
 62
7
  6
CONTINUOUS
 10
4.9180071641
 20
4.1575282407
 11
4.9180071641
 21
4.3615032936
  0
LINE
  5
266
100
AcDbEntity
  8
0
100
AcDbLine
 62
7
  6
CONTINUOUS
 10
4.932990831
 20
4.3615032936
 11
4.932990831
 21
4.1626176765
  0
LINE
  5
267
100
AcDbEntity
  8
0
100
AcDbLine
 62
7
  6
CONTINUOUS
 10
4.932990831
 20
3.6203889107
 11
4.932990831
 21
3.4515032936
  0
LINE
  5
268
100
AcDbEntity
  8
0
100
AcDbLine
 62
7
  6
CONTINUOUS
 10
4.9478711742
 20
4.3615032936
 11
4.9478711742
 21
4.1667731737
  0
LINE
  5
269
100
AcDbEntity
  8
0
100
AcDbLine
 62
7
  6
CONTINUOUS
 10
4.9478711742
 20
3.6162334135
 11
4.9478711742
 21
3.4515032936
  0
LINE
  5
26A
100
AcDbEntity
  8
0
100
AcDbLine
 62
7
  6
CONTINUOUS
 10
4.967126194
 20
3.4261261385
 11
4.967126194
 21
3.6121214178
  0
LINE
  5
26B
100
AcDbEntity
  8
0
100
AcDbLine
 62
7
  6
CONTINUOUS
 10
4.967126194
 20
4.1708851694
 11
4.967126194
 21
4.3615032936
  0
LINE
  5
26C
100
AcDbEntity
  8
0
100
AcDbLine
 62
7
  6
CONTINUOUS
 10
4.9836978244
 20
4.3615032936
 11
4.9836978244
 21
4.1733248844
  0
LINE
  5
26D
100
AcDbEntity
  8
0
100
AcDbLine
 62
7
  6
CONTINUOUS
 10
4.9836978244
 20
3.6096817028
 11
4.9836978244
 21
3.4515032936
  0
LINE
  5
26E
100
AcDbEntity
  8
0
100
AcDbLine
 62
7
  6
CONTINUOUS
 10
4.998722867
 20
4.3615032936
 11
4.998722867
 21
4.174681793
  0
LINE
  5
26F
100
AcDbEntity
  8
0
100
AcDbLine
 62
7
  6
CONTINUOUS
 10
4.998722867
 20
3.6083247942
 11
4.998722867
 21
3.4515032936
  0
LINE
  5
270
100
AcDbEntity
  8
0
100
AcDbLine
 62
7
  6
CONTINUOUS
 10
5.016722867
 20
3.4261261385
 11
5.016722867
 21
3.6077532936
  0
LINE
  5
271
100
AcDbEntity
  8
0
100
AcDbLine
 62
7
  6
CONTINUOUS
 10
5.016722867
 20
4.1752532936
 11
5.016722867
 21
4.3615032936
  0
LINE
  5
272
100
AcDbEntity
  8
0
100
AcDbLine
 62
7
  6
CONTINUOUS
 10
5.034722867
 20
4.3615032936
 11
5.034722867
 21
4.174681793
  0
LINE
  5
273
100
AcDbEntity
  8
0
100
AcDbLine
 62
7
  6
CONTINUOUS
 10
5.034722867
 20
3.6083247942
 11
5.034722867
 21
3.4515032936
  0
LINE
  5
274
100
AcDbEntity
  8
0
100
AcDbLine
 62
7
  6
CONTINUOUS
 10
5.0497479096
 20
4.3615032936
 11
5.0497479096
 21
4.1733248844
  0
LINE
  5
275
100
AcDbEntity
  8
0
100
AcDbLine
 62
7
  6
CONTINUOUS
 10
5.0497479096
 20
3.6096817028
 11
5.0497479096
 21
3.4515032936
  0
LINE
  5
276
100
AcDbEntity
  8
0
100
AcDbLine
 62
7
  6
CONTINUOUS
 10
5.06631954
 20
3.4261261385
 11
5.06631954
 21
3.6121214178
  0
LINE
  5
277
100
AcDbEntity
  8
0
100
AcDbLine
 62
7
  6
CONTINUOUS
 10
5.06631954
 20
4.1708851694
 11
5.06631954
 21
4.3615032936
  0
LINE
  5
278
100
AcDbEntity
  8
0
100
AcDbLine
 62
7
  6
CONTINUOUS
 10
5.0855745598
 20
4.3615032936
 11
5.0855745598
 21
4.1667731737
  0
LINE
  5
279
100
AcDbEntity
  8
0
100
AcDbLine
 62
7
  6
CONTINUOUS
 10
5.0855745598
 20
3.6162334135
 11
5.0855745598
 21
3.4515032936
  0
LINE
  5
27A
100
AcDbEntity
  8
0
100
AcDbLine
 62
7
  6
CONTINUOUS
 10
5.100454903
 20
4.3615032936
 11
5.100454903
 21
4.1626176765
  0
LINE
  5
27B
100
AcDbEntity
  8
0
100
AcDbLine
 62
7
  6
CONTINUOUS
 10
5.100454903
 20
3.6203889107
 11
5.100454903
 21
3.4515032936
  0
LINE
  5
27C
100
AcDbEntity
  8
0
100
AcDbLine
 62
7
  6
CONTINUOUS
 10
5.1154385699
 20
3.4261261385
 11
5.1154385699
 21
3.6254783465
  0
LINE
  5
27D
100
AcDbEntity
  8
0
100
AcDbLine
 62
7
  6
CONTINUOUS
 10
5.1154385699
 20
4.1575282407
 11
5.1154385699
 21
4.3615032936
  0
LINE
  5
27E
100
AcDbEntity
  8
0
100
AcDbLine
 62
7
  6
CONTINUOUS
 10
5.1357631731
 20
4.3615032936
 11
5.1357631731
 21
4.1490755515
  0
LINE
  5
27F
100
AcDbEntity
  8
0
100
AcDbLine
 62
7
  6
CONTINUOUS
 10
5.1357631731
 20
3.6339310358
 11
5.1357631731
 21
3.4515032936
  0
LINE
  5
280
100
AcDbEntity
  8
0
100
AcDbLine
 62
7
  6
CONTINUOUS
 10
5.1503555112
 20
4.3615032936
 11
5.1503555112
 21
4.141815856
  0
LINE
  5
281
100
AcDbEntity
  8
0
100
AcDbLine
 62
7
  6
CONTINUOUS
 10
5.1503555112
 20
3.6411907312
 11
5.1503555112
 21
3.4515032936
  0
LINE
  5
282
100
AcDbEntity
  8
0
100
AcDbLine
 62
7
  6
CONTINUOUS
 10
5.1636069137
 20
3.4261261385
 11
5.1636069137
 21
3.6487294496
  0
LINE
  5
283
100
AcDbEntity
  8
0
100
AcDbLine
 62
7
  6
CONTINUOUS
 10
5.1636069137
 20
4.1342771376
 11
5.1636069137
 21
4.3615032936
  0
LINE
  5
284
100
AcDbEntity
  8
0
100
AcDbLine
 62
7
  6
CONTINUOUS
 10
5.1848053633
 20
4.3615032936
 11
5.1848053633
 21
4.1201128668
  0
LINE
  5
285
100
AcDbEntity
  8
0
100
AcDbLine
 62
7
  6
CONTINUOUS
 10
5.1848053633
 20
3.6628937204
 11
5.1848053633
 21
3.4515032936
  0
LINE
  5
286
100
AcDbEntity
  8
0
100
AcDbLine
 62
7
  6
CONTINUOUS
 10
5.1989691639
 20
4.3615032936
 11
5.1989691639
 21
4.1089897294
  0
LINE
  5
287
100
AcDbEntity
  8
0
100
AcDbLine
 62
7
  6
CONTINUOUS
 10
5.1989691639
 20
3.6740168578
 11
5.1989691639
 21
3.4515032936
  0
LINE
  5
288
100
AcDbEntity
  8
0
100
AcDbLine
 62
7
  6
CONTINUOUS
 10
5.2103606838
 20
3.4261261385
 11
5.2103606838
 21
3.6840943777
  0
LINE
  5
289
100
AcDbEntity
  8
0
100
AcDbLine
 62
7
  6
CONTINUOUS
 10
5.2103606838
 20
4.0989122095
 11
5.2103606838
 21
4.3615032936
  0
LINE
  5
28A
100
AcDbEntity
  8
0
100
AcDbLine
 62
7
  6
CONTINUOUS
 10
5.2322288271
 20
4.3615032936
 11
5.2322288271
 21
4.0760872682
  0
LINE
  5
28B
100
AcDbEntity
  8
0
100
AcDbLine
 62
7
  6
CONTINUOUS
 10
5.2322288271
 20
3.706919319
 11
5.2322288271
 21
3.4515032936
  0
LINE
  5
28C
100
AcDbEntity
  8
0
100
AcDbLine
 62
7
  6
CONTINUOUS
 10
5.2458276852
 20
4.3615032936
 11
5.2458276852
 21
4.0589101178
  0
LINE
  5
28D
100
AcDbEntity
  8
0
100
AcDbLine
 62
7
  6
CONTINUOUS
 10
5.2458276852
 20
3.7240964694
 11
5.2458276852
 21
3.4515032936
  0
LINE
  5
28E
100
AcDbEntity
  8
0
100
AcDbLine
 62
7
  6
CONTINUOUS
 10
5.2552496158
 20
3.4261261385
 11
5.2552496158
 21
3.7378183803
  0
LINE
  5
28F
100
AcDbEntity
  8
0
100
AcDbLine
 62
7
  6
CONTINUOUS
 10
5.2552496158
 20
4.0451882069
 11
5.2552496158
 21
4.3615032936
  0
LINE
  5
290
100
AcDbEntity
  8
0
100
AcDbLine
 62
7
  6
CONTINUOUS
 10
5.2775768507
 20
4.3615032936
 11
5.2775768507
 21
4.003169142
  0
LINE
  5
291
100
AcDbEntity
  8
0
100
AcDbLine
 62
7
  6
CONTINUOUS
 10
5.2775768507
 20
3.7798374452
 11
5.2775768507
 21
3.4515032936
  0
LINE
  5
292
100
AcDbEntity
  8
0
100
AcDbLine
 62
7
  6
CONTINUOUS
 10
5.2904798018
 20
4.3615032936
 11
5.2904798018
 21
3.9661437864
  0
LINE
  5
293
100
AcDbEntity
  8
0
100
AcDbLine
 62
7
  6
CONTINUOUS
 10
5.2904798018
 20
3.8168628008
 11
5.2904798018
 21
3.4515032936
  0
LINE
  5
294
100
AcDbEntity
  8
0
100
AcDbLine
 62
7
  6
CONTINUOUS
 10
5.2978414049
 20
3.4261261385
 11
5.2978414049
 21
3.8529490442
  0
LINE
  5
295
100
AcDbEntity
  8
0
100
AcDbLine
 62
7
  6
CONTINUOUS
 10
5.2978414049
 20
3.930057543
 11
5.2978414049
 21
4.3615032936
  0
LINE
  5
296
100
AcDbEntity
  8
0
100
AcDbLine
 62
7
  6
CONTINUOUS
 10
5.3204127078
 20
4.3615032936
 11
5.3204127078
 21
3.4515032936
  0
LINE
  5
297
100
AcDbEntity
  8
0
100
AcDbLine
 62
7
  6
CONTINUOUS
 10
5.3324954895
 20
4.3615032936
 11
5.3324954895
 21
3.4515032936
  0
LINE
  5
298
100
AcDbEntity
  8
0
100
AcDbLine
 62
7
  6
CONTINUOUS
 10
5.3377258688
 20
3.4261261385
 11
5.3377258688
 21
4.3615032936
  0
LINE
  5
299
100
AcDbEntity
  8
0
100
AcDbLine
 62
7
  6
CONTINUOUS
 10
5.3603238658
 20
4.3615032936
 11
5.3603238658
 21
3.4515032936
  0
LINE
  5
29A
100
AcDbEntity
  8
0
100
AcDbLine
 62
7
  6
CONTINUOUS
 10
5.3714701142
 20
4.3615032936
 11
5.3714701142
 21
3.4515032936
  0
LINE
  5
29B
100
AcDbEntity
  8
0
100
AcDbLine
 62
7
  6
CONTINUOUS
 10
5.3745188983
 20
3.4261261385
 11
5.3745188983
 21
4.3615032936
  0
LINE
  5
29C
100
AcDbEntity
  8
0
100
AcDbLine
 62
7
  6
CONTINUOUS
 10
5.3969259583
 20
4.3615032936
 11
5.3969259583
 21
3.4515032936
  0
LINE
  5
29D
100
AcDbEntity
  8
0
100
AcDbLine
 62
7
  6
CONTINUOUS
 10
5.407028329
 20
4.3615032936
 11
5.407028329
 21
3.4515032936
  0
LINE
  5
29E
100
AcDbEntity
  8
0
100
AcDbLine
 62
7
  6
CONTINUOUS
 10
5.4078661564
 20
3.4261261385
 11
5.4078661564
 21
4.3615032936
  0
LINE
  5
29F
100
AcDbEntity
  8
0
100
AcDbLine
 62
7
  6
CONTINUOUS
 10
5.4298664872
 20
4.3615032936
 11
5.4298664872
 21
3.4515032936
  0
LINE
  5
2A0
100
AcDbEntity
  8
0
100
AcDbLine
 62
7
  6
CONTINUOUS
 10
5.4388276888
 20
4.3615032936
 11
5.4388276888
 21
3.4515032936
  0
LINE
  5
2A1
100
AcDbEntity
  8
0
100
AcDbLine
 62
7
  6
CONTINUOUS
 10
5.441722867
 20
5.6515032936
 11
5.441722867
 21
5.6615032936
  0
LINE
  5
2A2
100
AcDbEntity
  8
0
100
AcDbLine
 62
7
  6
CONTINUOUS
 10
5.4588282172
 20
4.3615032936
 11
5.4588282172
 21
3.4515032936
  0
LINE
  5
2A3
100
AcDbEntity
  8
0
100
AcDbLine
 62
7
  6
CONTINUOUS
 10
5.4665619485
 20
4.3615032936
 11
5.4665619485
 21
3.4515032936
  0
LINE
  5
2A4
100
AcDbEntity
  8
0
100
AcDbLine
 62
7
  6
CONTINUOUS
 10
5.483532231
 20
4.3615032936
 11
5.483532231
 21
3.4515032936
  0
LINE
  5
2A5
100
AcDbEntity
  8
0
100
AcDbLine
 62
7
  6
CONTINUOUS
 10
5.4899640118
 20
4.3615032936
 11
5.4899640118
 21
3.4515032936
  0
LINE
  5
2A6
100
AcDbEntity
  8
0
100
AcDbLine
 62
7
  6
CONTINUOUS
 10
5.501722867
 20
4.4215032936
 11
5.501722867
 21
4.3615032936
  0
LINE
  5
2A7
100
AcDbEntity
  8
0
100
AcDbLine
 62
7
  6
CONTINUOUS
 10
5.5037406154
 20
4.3615032936
 11
5.5037406154
 21
3.4515032936
  0
LINE
  5
2A8
100
AcDbEntity
  8
0
100
AcDbLine
 62
7
  6
CONTINUOUS
 10
5.5088085043
 20
4.3615032936
 11
5.5088085043
 21
3.4515032936
  0
LINE
  5
2A9
100
AcDbEntity
  8
0
100
AcDbLine
 62
7
  6
CONTINUOUS
 10
5.516722867
 20
5.6215032936
 11
5.516722867
 21
4.4215032936
  0
LINE
  5
2AA
100
AcDbEntity
  8
0
100
AcDbLine
 62
7
  6
CONTINUOUS
 10
5.5192587527
 20
4.3615032936
 11
5.5192587527
 21
3.4515032936
  0
LINE
  5
2AB
100
AcDbEntity
  8
0
100
AcDbLine
 62
7
  6
CONTINUOUS
 10
5.5229139431
 20
4.3615032936
 11
5.5229139431
 21
3.4515032936
  0
LINE
  5
2AC
100
AcDbEntity
  8
0
100
AcDbLine
 62
7
  6
CONTINUOUS
 10
5.5299371947
 20
4.3615032936
 11
5.5299371947
 21
3.4515032936
  0
LINE
  5
2AD
100
AcDbEntity
  8
0
100
AcDbLine
 62
7
  6
CONTINUOUS
 10
5.5321444851
 20
4.3615032936
 11
5.5321444851
 21
3.4515032936
  0
LINE
  5
2AE
100
AcDbEntity
  8
0
100
AcDbLine
 62
7
  6
CONTINUOUS
 10
5.5356731021
 20
4.3615032936
 11
5.5356731021
 21
3.4515032936
  0
LINE
  5
2AF
100
AcDbEntity
  8
0
100
AcDbLine
 62
7
  6
CONTINUOUS
 10
5.5364112352
 20
4.3615032936
 11
5.5364112352
 21
3.4515032936
  0
LINE
  5
2B0
100
AcDbEntity
  8
0
100
AcDbLine
 62
7
  6
CONTINUOUS
 10
4.516722867
 20
5.6215032936
 11
5.516722867
 21
5.6215032936
  0
LINE
  5
2B1
100
AcDbEntity
  8
0
100
AcDbLine
 62
7
  6
CONTINUOUS
 10
4.546722867
 20
5.6515032936
 11
5.486722867
 21
5.6515032936
  0
LINE
  5
2B2
100
AcDbEntity
  8
0
100
AcDbLine
 62
7
  6
CONTINUOUS
 10
5.4889298691
 20
5.6615032936
 11
4.5445158649
 21
5.6615032936
  0
LINE
  5
2B3
100
AcDbEntity
  8
0
100
AcDbLine
 62
7
  6
CONTINUOUS
 10
5.5186068932
 20
5.6871130497
 11
4.5148388408
 21
5.6871130497
  0
LINE
  5
2B4
100
AcDbEntity
  8
0
100
AcDbLine
 62
7
  6
CONTINUOUS
 10
5.6462887107
 20
5.8305025168
 11
4.3871570233
 21
5.8305025168
  0
LINE
  5
2B5
100
AcDbEntity
  8
0
100
AcDbLine
 62
7
  6
CONTINUOUS
 10
6.141722867
 20
6.1615032936
 11
6.141722867
 21
5.9395554207
  0
LINE
  5
2B6
100
AcDbEntity
  8
0
100
AcDbLine
 62
7
  6
CONTINUOUS
 10
6.1139002411
 20
5.909634541
 11
3.9195454929
 21
5.909634541
  0
LINE
  5
2B7
100
AcDbEntity
  8
0
100
AcDbLine
 62
7
  6
CONTINUOUS
 10
6.141722867
 20
5.9395554207
 11
3.891722867
 21
5.9395554207
  0
LINE
  5
2B8
100
AcDbEntity
  8
0
100
AcDbLine
 62
7
  6
CONTINUOUS
 10
6.141722867
 20
6.1615032936
 11
3.891722867
 21
6.1615032936
  0
ARC
  5
2B9
100
AcDbEntity
  8
0
100
AcDbCircle
 62
7
  6
CONTINUOUS
 10
6.2953480859
 20
3.4162278996
 40
2.5
100
AcDbArc
 50
94.1621379224
 51
105.0477379833
  0
ARC
  5
2BA
100
AcDbEntity
  8
0
100
AcDbCircle
 62
7
  6
CONTINUOUS
 10
3.7380976481
 20
3.4162278996
 40
2.5
100
AcDbArc
 50
74.9522620167
 51
85.8378620776
  0
CIRCLE
  5
2BB
100
AcDbEntity
  8
0
100
AcDbCircle
 62
7
  6
CONTINUOUS
 10
5.016722867
 20
3.8915032936
 40
0.28375
  0
CIRCLE
  5
2BC
100
AcDbEntity
  8
0
100
AcDbCircle
 62
7
  6
CONTINUOUS
 10
5.016722867
 20
3.8915032936
 40
0.26375
  0
ARC
  5
2BD
100
AcDbEntity
  8
0
100
AcDbCircle
 62
7
  6
CONTINUOUS
 10
4.341722867
 20
5.6615032936
 40
0.175
100
AcDbArc
 50
8.4149680847
 51
74.9522620167
  0
ARC
  5
2BE
100
AcDbEntity
  8
0
100
AcDbCircle
 62
7
  6
CONTINUOUS
 10
5.691722867
 20
5.6615032936
 40
0.175
100
AcDbArc
 50
105.0477379833
 51
171.5850319153
  0
ARC
  5
2BF
100
AcDbEntity
  8
0
100
AcDbCircle
 62
7
  6
CONTINUOUS
 10
3.921722867
 20
5.9395554207
 40
0.03
100
AcDbArc
 50
180.0
 51
265.8378620776
  0
ARC
  5
2C0
100
AcDbEntity
  8
0
100
AcDbCircle
 62
7
  6
CONTINUOUS
 10
6.111722867
 20
5.9395554207
 40
0.03
100
AcDbArc
 50
274.1621379224
 51
360.0
  0
ARC
  5
2C1
100
AcDbEntity
  8
0
100
AcDbCircle
 62
7
  6
CONTINUOUS
 10
4.5445158649
 20
5.6915032936
 40
0.03
100
AcDbArc
 50
188.4149680847
 51
270.0
  0
ARC
  5
2C2
100
AcDbEntity
  8
0
100
AcDbCircle
 62
7
  6
CONTINUOUS
 10
5.4889298691
 20
5.6915032936
 40
0.03
100
AcDbArc
 50
270.0
 51
351.5850319153
  0
ARC
  5
2C3
100
AcDbEntity
  8
0
100
AcDbCircle
 62
7
  6
CONTINUOUS
 10
5.486722867
 20
5.6215032936
 40
0.03
100
AcDbArc
 50
0.0
 51
90.0
  0
ARC
  5
2C4
100
AcDbEntity
  8
0
100
AcDbCircle
 62
7
  6
CONTINUOUS
 10
4.546722867
 20
5.6215032936
 40
0.03
100
AcDbArc
 50
90.0
 51
180.0
  0
ARC
  5
2C5
100
AcDbEntity
  8
0
100
AcDbCircle
 62
7
  6
CONTINUOUS
 10
4.526722867
 20
3.4515032936
 40
0.03
100
AcDbArc
 50
237.7690473541
 51
270.0
  0
ARC
  5
2C6
100
AcDbEntity
  8
0
100
AcDbCircle
 62
7
  6
CONTINUOUS
 10
5.506722867
 20
3.4515032936
 40
0.03
100
AcDbArc
 50
270.0
 51
302.2309526459
  0
SPLINE
  5
2C7
100
AcDbEntity
  8
0
100
AcDbSpline
 62
7
  6
CONTINUOUS
 70
0
 71
3
 72
19
 73
15
 74
0
 42
0.0000001
 43
0.0000001
 44
0.0000000001
 40
0.0
 40
0.0
 40
0.0
 40
0.0
 40
0.102191153
 40
0.2091072939
 40
0.2646925653
 40
0.3218758778
 40
0.3808338716
 40
0.4417161627
 40
0.5696507292
 40
0.7062276806
 40
0.7776219286
 40
0.8507090264
 40
0.9250866053
 40
1.0
 40
1.0
 40
1.0
 40
1.0
 10
5.522722867
 20
3.4261261385
 30
0.0
 10
5.5235897181
 20
3.426672678
 30
0.0
 10
5.5253053794
 20
3.4278862448
 30
0.0
 10
5.5272951145
 20
3.4296518558
 30
0.0
 10
5.5288140201
 20
3.4312489339
 30
0.0
 10
5.5299256936
 20
3.4325654766
 30
0.0
 10
5.5309879692
 20
3.4339891333
 30
0.0
 10
5.5323497072
 20
3.4360690308
 30
0.0
 10
5.5338698407
 20
3.4389672186
 30
0.0
 10
5.5350317776
 20
3.442140615
 30
0.0
 10
5.5357265403
 20
3.4448739952
 30
0.0
 10
5.5361177393
 20
3.4470355301
 30
0.0
 10
5.5363565847
 20
3.449254474
 30
0.0
 10
5.5364112352
 20
3.4507520704
 30
0.0
 10
5.5364112352
 20
3.4515032936
 30
0.0
  0
SPLINE
  5
2C8
100
AcDbEntity
  8
0
100
AcDbSpline
 62
7
  6
CONTINUOUS
 70
0
 71
3
 72
18
 73
14
 74
0
 42
0.0000001
 43
0.0000001
 44
0.0000000001
 40
0.0
 40
0.0
 40
0.0
 40
0.0
 40
0.0966574296
 40
0.1472040663
 40
0.1994252245
 40
0.3095133151
 40
0.4284060343
 40
0.5573062154
 40
0.6966754998
 40
0.7700679352
 40
0.8454769949
 40
0.9224118847
 40
1.0
 40
1.0
 40
1.0
 40
1.0
 10
5.5202863387
 20
3.4261261385
 30
0.0
 10
5.5210428861
 20
3.4266767536
 30
0.0
 10
5.5221489141
 20
3.4275813988
 30
0.0
 10
5.5235368715
 20
3.4289243033
 30
0.0
 10
5.5249356512
 20
3.4304387577
 30
0.0
 10
5.5266058903
 20
3.4325965315
 30
0.0
 10
5.5284004184
 20
3.4355690625
 30
0.0
 10
5.5299516378
 20
3.4389903834
 30
0.0
 10
5.5309521941
 20
3.4421520769
 30
0.0
 10
5.5315520638
 20
3.4448779032
 30
0.0
 10
5.5318905592
 20
3.4470383096
 30
0.0
 10
5.5320972112
 20
3.449255921
 30
0.0
 10
5.5321444851
 20
3.4507521929
 30
0.0
 10
5.5321444851
 20
3.4515032936
 30
0.0
  0
SPLINE
  5
2C9
100
AcDbEntity
  8
0
100
AcDbSpline
 62
7
  6
CONTINUOUS
 70
0
 71
3
 72
17
 73
13
 74
0
 42
0.0000001
 43
0.0000001
 44
0.0000000001
 40
0.0
 40
0.0
 40
0.0
 40
0.0
 40
0.0906305129
 40
0.1889056277
 40
0.2962921352
 40
0.4143658371
 40
0.544389621
 40
0.6867443701
 40
0.7622329593
 40
0.8400598936
 40
0.9196455243
 40
1.0
 40
1.0
 40
1.0
 40
1.0
 10
5.5130002189
 20
3.4261261385
 30
0.0
 10
5.5136390814
 20
3.4266822979
 30
0.0
 10
5.5149028163
 20
3.427921592
 30
0.0
 10
5.5166530445
 20
3.4300744061
 30
0.0
 10
5.5182975744
 20
3.4326211436
 30
0.0
 10
5.5197946642
 20
3.4355940168
 30
0.0
 10
5.5210878267
 20
3.4390132519
 30
0.0
 10
5.5219192815
 20
3.4421628234
 30
0.0
 10
5.5224192258
 20
3.4448815236
 30
0.0
 10
5.5227019032
 20
3.447040846
 30
0.0
 10
5.5228744737
 20
3.4492572335
 30
0.0
 10
5.5229139431
 20
3.4507523038
 30
0.0
 10
5.5229139431
 20
3.4515032936
 30
0.0
  0
SPLINE
  5
2CA
100
AcDbEntity
  8
0
100
AcDbSpline
 62
7
  6
CONTINUOUS
 70
0
 71
3
 72
16
 73
12
 74
0
 42
0.0000001
 43
0.0000001
 44
0.0000000001
 40
0.0
 40
0.0
 40
0.0
 40
0.0
 40
0.1779771703
 40
0.2827799992
 40
0.4001948795
 40
0.531479252
 40
0.6768886502
 40
0.7544774309
 40
0.8347077203
 40
0.9169153973
 40
1.0
 40
1.0
 40
1.0
 40
1.0
 10
5.5009346769
 20
3.4261261385
 30
0.0
 10
5.5020187882
 20
3.4273144129
 30
0.0
 10
5.5035051083
 20
3.4294244053
 30
0.0
 10
5.5051532639
 20
3.4326463624
 30
0.0
 10
5.5063395042
 20
3.43561845
 30
0.0
 10
5.5073633097
 20
3.4390342527
 30
0.0
 10
5.5080200032
 20
3.44217235
 30
0.0
 10
5.5084159724
 20
3.444884686
 30
0.0
 10
5.5086402651
 20
3.4470430362
 30
0.0
 10
5.5087771923
 20
3.4492583599
 30
0.0
 10
5.5088085043
 20
3.4507523988
 30
0.0
 10
5.5088085043
 20
3.4515032936
 30
0.0
  0
SPLINE
  5
2CB
100
AcDbEntity
  8
0
100
AcDbSpline
 62
7
  6
CONTINUOUS
 70
0
 71
3
 72
16
 73
12
 74
0
 42
0.0000001
 43
0.0000001
 44
0.0000000001
 40
0.0
 40
0.0
 40
0.0
 40
0.0
 40
0.0784322281
 40
0.168107753
 40
0.2705837043
 40
0.3874633102
 40
0.5199401504
 40
0.6681205574
 40
0.8299486374
 40
0.9144894844
 40
1.0
 40
1.0
 40
1.0
 40
1.0
 10
5.4842059105
 20
3.4261261385
 30
0.0
 10
5.4845881233
 20
3.4266990067
 30
0.0
 10
5.4853382198
 20
3.4279736628
 30
0.0
 10
5.486349299
 20
3.4301266552
 30
0.0
 10
5.4872991806
 20
3.432671352
 30
0.0
 10
5.4881637271
 20
3.4356397961
 30
0.0
 10
5.4889104137
 20
3.4390521342
 30
0.0
 10
5.4894973589
 20
3.4428952503
 30
0.0
 10
5.489809489
 20
3.4463478472
 30
0.0
 10
5.4899411544
 20
3.44925924
 30
0.0
 10
5.4899640118
 20
3.4507524744
 30
0.0
 10
5.4899640118
 20
3.4515032936
 30
0.0
  0
SPLINE
  5
2CC
100
AcDbEntity
  8
0
100
AcDbSpline
 62
7
  6
CONTINUOUS
 70
0
 71
3
 72
15
 73
11
 74
0
 42
0.0000001
 43
0.0000001
 44
0.0000000001
 40
0.0
 40
0.0
 40
0.0
 40
0.0
 40
0.0735130901
 40
0.159901897
 40
0.2606206033
 40
0.3771862327
 40
0.5107025095
 40
0.6611373984
 40
0.8261893619
 40
1.0
 40
1.0
 40
1.0
 40
1.0
 10
5.4629750268
 20
3.4261261385
 30
0.0
 10
5.4632173005
 20
3.4267090642
 30
0.0
 10
5.4636889099
 20
3.4280002341
 30
0.0
 10
5.4643161608
 20
3.4301497897
 30
0.0
 10
5.4649059348
 20
3.4326911526
 30
0.0
 10
5.4654430484
 20
3.4356563255
 30
0.0
 10
5.465907076
 20
3.4390651983
 30
0.0
 10
5.4662719534
 20
3.4429045666
 30
0.0
 10
5.4665077825
 20
3.447100583
 30
0.0
 10
5.4665619485
 20
3.4500107562
 30
0.0
 10
5.4665619485
 20
3.4515032936
 30
0.0
  0
SPLINE
  5
2CD
100
AcDbEntity
  8
0
100
AcDbSpline
 62
7
  6
CONTINUOUS
 70
0
 71
3
 72
15
 73
11
 74
0
 42
0.0000001
 43
0.0000001
 44
0.0000000001
 40
0.0
 40
0.0
 40
0.0
 40
0.0
 40
0.0705309718
 40
0.154986583
 40
0.2547064619
 40
0.3711304222
 40
0.5052886993
 40
0.6570625402
 40
0.8239951626
 40
1.0
 40
1.0
 40
1.0
 40
1.0
 10
5.4374464908
 20
3.4261261385
 30
0.0
 10
5.4375409898
 20
3.4267166111
 30
0.0
 10
5.4377235785
 20
3.4280181632
 30
0.0
 10
5.4379643515
 20
3.4301643838
 30
0.0
 10
5.4381909437
 20
3.4327030737
 30
0.0
 10
5.4383974157
 20
3.4356660346
 30
0.0
 10
5.4385758484
 20
3.4390728361
 30
0.0
 10
5.438716171
 20
3.4429099701
 30
0.0
 10
5.4388068642
 20
3.4471034711
 30
0.0
 10
5.4388276888
 20
3.4500110623
 30
0.0
 10
5.4388276888
 20
3.4515032936
 30
0.0
  0
SPLINE
  5
2CE
100
AcDbEntity
  8
0
100
AcDbSpline
 62
7
  6
CONTINUOUS
 70
0
 71
3
 72
19
 73
15
 74
0
 42
0.0000001
 43
0.0000001
 44
0.0000000001
 40
0.0
 40
0.0
 40
0.0
 40
0.0
 40
0.0749116262
 40
0.1492829024
 40
0.2223651157
 40
0.2937569949
 40
0.4303361644
 40
0.558273089
 40
0.6191585838
 40
0.6781175985
 40
0.7353021942
 40
0.7908889142
 40
0.8978073297
 40
1.0
 40
1.0
 40
1.0
 40
1.0
 10
4.4970344988
 20
3.4515032936
 30
0.0
 10
4.4970344988
 20
3.450752088
 30
0.0
 10
4.497089109
 20
3.4492545712
 30
0.0
 10
4.4973279527
 20
3.447035756
 30
0.0
 10
4.4977191356
 20
3.444874358
 30
0.0
 10
4.4984138009
 20
3.4421410048
 30
0.0
 10
4.4995757423
 20
3.4389675837
 30
0.0
 10
4.5010958635
 20
3.4360693015
 30
0.0
 10
4.5024576307
 20
3.433989344
 30
0.0
 10
4.5035199011
 20
3.4325656142
 30
0.0
 10
4.5046316058
 20
3.4312490471
 30
0.0
 10
4.5061505498
 20
3.4296519369
 30
0.0
 10
4.5081403014
 20
3.4278862642
 30
0.0
 10
4.5098560029
 20
3.4266726862
 30
0.0
 10
4.510722867
 20
3.4261261385
 30
0.0
  0
SPLINE
  5
2CF
100
AcDbEntity
  8
0
100
AcDbSpline
 62
7
  6
CONTINUOUS
 70
0
 71
3
 72
18
 73
14
 74
0
 42
0.0000001
 43
0.0000001
 44
0.0000000001
 40
0.0
 40
0.0
 40
0.0
 40
0.0
 40
0.0775862908
 40
0.1545146564
 40
0.2299186799
 40
0.3033087785
 40
0.4426804549
 40
0.5715831763
 40
0.6904803129
 40
0.8005710673
 40
0.8527933835
 40
0.903341152
 40
1.0
 40
1.0
 40
1.0
 40
1.0
 10
4.5013012489
 20
3.4515032936
 30
0.0
 10
4.5013012489
 20
3.4507522104
 30
0.0
 10
4.5013484878
 20
3.4492560183
 30
0.0
 10
4.5015551384
 20
3.4470385355
 30
0.0
 10
4.5018936203
 20
3.4448782643
 30
0.0
 10
4.5024934055
 20
3.4421524687
 30
0.0
 10
4.5034939617
 20
3.4389907452
 30
0.0
 10
4.5050451837
 20
3.4355693293
 30
0.0
 10
4.5068397036
 20
3.4325966804
 30
0.0
 10
4.5085100139
 20
3.4304388601
 30
0.0
 10
4.5099088049
 20
3.4289243512
 30
0.0
 10
4.511296786
 20
3.4275814184
 30
0.0
 10
4.5124028367
 20
3.4266767617
 30
0.0
 10
4.5131593953
 20
3.4261261385
 30
0.0
  0
SPLINE
  5
2D0
100
AcDbEntity
  8
0
100
AcDbSpline
 62
7
  6
CONTINUOUS
 70
0
 71
3
 72
17
 73
13
 74
0
 42
0.0000001
 43
0.0000001
 44
0.0000000001
 40
0.0
 40
0.0
 40
0.0
 40
0.0
 40
0.0803525962
 40
0.1599314801
 40
0.2377532257
 40
0.31323951
 40
0.4555968302
 40
0.5856233453
 40
0.7037016594
 40
0.8110907667
 40
0.9093681761
 40
1.0
 40
1.0
 40
1.0
 40
1.0
 10
4.5105317909
 20
3.4515032936
 30
0.0
 10
4.5105317909
 20
3.4507523213
 30
0.0
 10
4.5105712311
 20
3.4492573309
 30
0.0
 10
4.5107438003
 20
3.4470410718
 30
0.0
 10
4.5110264667
 20
3.444881883
 30
0.0
 10
4.5115263402
 20
3.4421632165
 30
0.0
 10
4.5123577949
 20
3.4390136134
 30
0.0
 10
4.5136509603
 20
3.4355942827
 30
0.0
 10
4.5151480411
 20
3.4326212979
 30
0.0
 10
4.5167926384
 20
3.4300744979
 30
0.0
 10
4.5185428754
 20
3.4279216161
 30
0.0
 10
4.5198066433
 20
3.426682306
 30
0.0
 10
4.5204455151
 20
3.4261261385
 30
0.0
  0
SPLINE
  5
2D1
100
AcDbEntity
  8
0
100
AcDbSpline
 62
7
  6
CONTINUOUS
 70
0
 71
3
 72
16
 73
12
 74
0
 42
0.0000001
 43
0.0000001
 44
0.0000000001
 40
0.0
 40
0.0
 40
0.0
 40
0.0
 40
0.0830826712
 40
0.1652833837
 40
0.2455083352
 40
0.3230948386
 40
0.4685069858
 40
0.5997942818
 40
0.717213978
 40
0.8220193483
 40
1.0
 40
1.0
 40
1.0
 40
1.0
 10
4.5246372297
 20
3.4515032936
 30
0.0
 10
4.5246372297
 20
3.4507524163
 30
0.0
 10
4.5246685185
 20
3.4492584573
 30
0.0
 10
4.5248054446
 20
3.4470432619
 30
0.0
 10
4.5250297289
 20
3.4448850439
 30
0.0
 10
4.5254256415
 20
3.4421727441
 30
0.0
 10
4.5260823351
 20
3.439034614
 30
0.0
 10
4.5271061433
 20
3.4356187148
 30
0.0
 10
4.5282923751
 20
3.432646522
 30
0.0
 10
4.5299405899
 20
3.4294244849
 30
0.0
 10
4.5314269246
 20
3.4273144361
 30
0.0
 10
4.5325110571
 20
3.4261261385
 30
0.0
  0
SPLINE
  5
2D2
100
AcDbEntity
  8
0
100
AcDbSpline
 62
7
  6
CONTINUOUS
 70
0
 71
3
 72
16
 73
12
 74
0
 42
0.0000001
 43
0.0000001
 44
0.0000000001
 40
0.0
 40
0.0
 40
0.0
 40
0.0
 40
0.0855085308
 40
0.1700422129
 40
0.3318625647
 40
0.4800458652
 40
0.6125257896
 40
0.7294103894
 40
0.8318888205
 40
0.9215666885
 40
1.0
 40
1.0
 40
1.0
 40
1.0
 10
4.5434817222
 20
3.4515032936
 30
0.0
 10
4.5434817222
 20
3.4507524918
 30
0.0
 10
4.5435045618
 20
3.4492593374
 30
0.0
 10
4.5436362321
 20
3.4463480929
 30
0.0
 10
4.5439483256
 20
3.4428955991
 30
0.0
 10
4.5445352533
 20
3.439052495
 30
0.0
 10
4.5452819451
 20
3.4356400601
 30
0.0
 10
4.5461464814
 20
3.4326715152
 30
0.0
 10
4.5470964073
 20
3.430126743
 30
0.0
 10
4.5481074867
 20
3.4279736932
 30
0.0
 10
4.5488576054
 20
3.4266990147
 30
0.0
 10
4.5492398236
 20
3.4261261385
 30
0.0
  0
SPLINE
  5
2D3
100
AcDbEntity
  8
0
100
AcDbSpline
 62
7
  6
CONTINUOUS
 70
0
 71
3
 72
15
 73
11
 74
0
 42
0.0000001
 43
0.0000001
 44
0.0000000001
 40
0.0
 40
0.0
 40
0.0
 40
0.0
 40
0.173801294
 40
0.3388454268
 40
0.4892833288
 40
0.6228028227
 40
0.7393735962
 40
0.8400947408
 40
0.9264859207
 40
1.0
 40
1.0
 40
1.0
 40
1.0
 10
4.5668837856
 20
3.4515032936
 30
0.0
 10
4.5668837856
 20
3.4500108364
 30
0.0
 10
4.5669379418
 20
3.4471008106
 30
0.0
 10
4.5671737513
 20
3.442904915
 30
0.0
 10
4.5675386159
 20
3.4390655589
 30
0.0
 10
4.5680026475
 20
3.4356565884
 30
0.0
 10
4.5685397535
 20
3.4326913194
 30
0.0
 10
4.5691295565
 20
3.4301498755
 30
0.0
 10
4.569756806
 20
3.4280002675
 30
0.0
 10
4.5702284302
 20
3.426709072
 30
0.0
 10
4.5704707072
 20
3.4261261385
 30
0.0
  0
SPLINE
  5
2D4
100
AcDbEntity
  8
0
100
AcDbSpline
 62
7
  6
CONTINUOUS
 70
0
 71
3
 72
15
 73
11
 74
0
 42
0.0000001
 43
0.0000001
 44
0.0000000001
 40
0.0
 40
0.0
 40
0.0
 40
0.0
 40
0.1760048441
 40
0.3429378824
 40
0.4947117968
 40
0.6288700061
 40
0.7452937305
 40
0.8450135152
 40
0.9294690545
 40
1.0
 40
1.0
 40
1.0
 40
1.0
 10
4.5946180452
 20
3.4515032936
 30
0.0
 10
4.5946180452
 20
3.4500110622
 30
0.0
 10
4.5946388698
 20
3.4471034674
 30
0.0
 10
4.5947295633
 20
3.4429099622
 30
0.0
 10
4.5948698861
 20
3.4390728247
 30
0.0
 10
4.5950483188
 20
3.4356660251
 30
0.0
 10
4.595254791
 20
3.4327030676
 30
0.0
 10
4.5954813827
 20
3.4301643812
 30
0.0
 10
4.5957221557
 20
3.4280181621
 30
0.0
 10
4.5959047443
 20
3.4267166109
 30
0.0
 10
4.5959992432
 20
3.4261261385
 30
0.0
  0
SPLINE
  5
2D5
100
AcDbEntity
  8
0
100
AcDbSpline
 62
7
  6
CONTINUOUS
 70
0
 71
3
 72
19
 73
15
 74
0
 42
0.0000001
 43
0.0000001
 44
0.0000000001
 40
0.0
 40
0.0
 40
0.0
 40
0.0
 40
0.0724298504
 40
0.1444339624
 40
0.2153772143
 40
0.2849424791
 40
0.419019559
 40
0.546170717
 40
0.6073116811
 40
0.6669339228
 40
0.72516837
 40
0.7821678418
 40
0.8928869703
 40
1.0
 40
1.0
 40
1.0
 40
1.0
 10
5.5356731021
 20
3.4515032936
 30
0.0
 10
5.5356731021
 20
3.4507519588
 30
0.0
 10
5.535611621
 20
3.4492530447
 30
0.0
 10
5.5353427916
 20
3.4470328483
 30
0.0
 10
5.5349025458
 20
3.4448703206
 30
0.0
 10
5.5341190671
 20
3.442129392
 30
0.0
 10
5.532805374
 20
3.4389448741
 30
0.0
 10
5.5310987069
 20
3.436056269
 30
0.0
 10
5.5295730236
 20
3.4339841793
 30
0.0
 10
5.5283787292
 20
3.4325608116
 30
0.0
 10
5.5271289731
 20
3.4312446816
 30
0.0
 10
5.5254160901
 20
3.429643088
 30
0.0
 10
5.5231724041
 20
3.4278744192
 30
0.0
 10
5.5212554215
 20
3.4266696921
 30
0.0
 10
5.5202863387
 20
3.4261261385
 30
0.0
  0
SPLINE
  5
2D6
100
AcDbEntity
  8
0
100
AcDbSpline
 62
7
  6
CONTINUOUS
 70
0
 71
3
 72
19
 73
15
 74
0
 42
0.0000001
 43
0.0000001
 44
0.0000000001
 40
0.0
 40
0.0
 40
0.0
 40
0.0
 40
0.0701930314
 40
0.1400683824
 40
0.2090969477
 40
0.2770390109
 40
0.4089334341
 40
0.5354605371
 40
0.5968659906
 40
0.6571093339
 40
0.7162985015
 40
0.7745616734
 40
0.8886250045
 40
1.0
 40
1.0
 40
1.0
 40
1.0
 10
5.5299371947
 20
3.4515032936
 30
0.0
 10
5.5299371947
 20
3.4507518277
 30
0.0
 10
5.5298694131
 20
3.4492514981
 30
0.0
 10
5.5295731101
 20
3.4470299255
 30
0.0
 10
5.5290879436
 20
3.4448663184
 30
0.0
 10
5.5282227188
 20
3.4421180745
 30
0.0
 10
5.5267689721
 20
3.4389236581
 30
0.0
 10
5.5248930024
 20
3.4360447027
 30
0.0
 10
5.5232186655
 20
3.4339797187
 30
0.0
 10
5.5219039381
 20
3.4325567712
 30
0.0
 10
5.5205282676
 20
3.4312411015
 30
0.0
 10
5.5186380891
 20
3.4296360213
 30
0.0
 10
5.5161627921
 20
3.42786539
 30
0.0
 10
5.514062595
 20
3.4266674798
 30
0.0
 10
5.5130002189
 20
3.4261261385
 30
0.0
  0
SPLINE
  5
2D7
100
AcDbEntity
  8
0
100
AcDbSpline
 62
7
  6
CONTINUOUS
 70
0
 71
3
 72
18
 73
14
 74
0
 42
0.0000001
 43
0.0000001
 44
0.0000000001
 40
0.0
 40
0.0
 40
0.0
 40
0.0
 40
0.0682406058
 40
0.1362622492
 40
0.2700407651
 40
0.4000964268
 40
0.5261573057
 40
0.5878277329
 40
0.6486397297
 40
0.7086784702
 40
0.7680485687
 40
0.8849973132
 40
1.0
 40
1.0
 40
1.0
 40
1.0
 10
5.5192587527
 20
3.4515032936
 30
0.0
 10
5.5192587527
 20
3.4507516997
 30
0.0
 10
5.5191852899
 20
3.4492498784
 30
0.0
 10
5.5187597405
 20
3.446302717
 30
0.0
 10
5.5177284308
 20
3.4427727269
 30
0.0
 10
5.5158199065
 20
3.4389050905
 30
0.0
 10
5.5137930921
 20
3.4360346784
 30
0.0
 10
5.511986472
 20
3.433975978
 30
0.0
 10
5.510564045
 20
3.4325534438
 30
0.0
 10
5.5090757853
 20
3.4312382177
 30
0.0
 10
5.5070268397
 20
3.4296304481
 30
0.0
 10
5.5043444915
 20
3.4278585254
 30
0.0
 10
5.5020805686
 20
3.4266658358
 30
0.0
 10
5.5009346769
 20
3.4261261385
 30
0.0
  0
SPLINE
  5
2D8
100
AcDbEntity
  8
0
100
AcDbSpline
 62
7
  6
CONTINUOUS
 70
0
 71
3
 72
19
 73
15
 74
0
 42
0.0000001
 43
0.0000001
 44
0.0000000001
 40
0.0
 40
0.0
 40
0.0
 40
0.0
 40
0.0665573141
 40
0.132983056
 40
0.2641313812
 40
0.3287879189
 40
0.3927464173
 40
0.4559847429
 40
0.5185118062
 40
0.5804088194
 40
0.6416997983
 40
0.7626892357
 40
0.8820214411
 40
1.0
 40
1.0
 40
1.0
 40
1.0
 10
5.5037406154
 20
3.4515032936
 30
0.0
 10
5.5037406154
 20
3.4507515798
 30
0.0
 10
5.5036621562
 20
3.4492484228
 30
0.0
 10
5.5032075751
 20
3.4462962536
 30
0.0
 10
5.5023182552
 20
3.4434482718
 30
0.0
 10
5.5010672194
 20
3.4407916851
 30
0.0
 10
5.4999780067
 20
3.4389153447
 30
0.0
 10
5.4987557717
 20
3.4371527657
 30
0.0
 10
5.4974189679
 20
3.4355055707
 30
0.0
 10
5.4959847057
 20
3.4339728153
 30
0.0
 10
5.4939720376
 20
3.4320851068
 30
0.0
 10
5.4912777213
 20
3.429987016
 30
0.0
 10
5.4878316509
 20
3.4278535168
 30
0.0
 10
5.4854247386
 20
3.426664612
 30
0.0
 10
5.4842059105
 20
3.4261261385
 30
0.0
  0
SPLINE
  5
2D9
100
AcDbEntity
  8
0
100
AcDbSpline
 62
7
  6
CONTINUOUS
 70
0
 71
3
 72
20
 73
16
 74
0
 42
0.0000001
 43
0.0000001
 44
0.0000000001
 40
0.0
 40
0.0
 40
0.0
 40
0.0
 40
0.0651736093
 40
0.130290063
 40
0.2592952443
 40
0.3232106644
 40
0.3866704545
 40
0.4496537949
 40
0.5121620924
 40
0.5742622285
 40
0.635959729
 40
0.7583000134
 40
0.8190803367
 40
0.8796139551
 40
1.0
 40
1.0
 40
1.0
 40
1.0
 10
5.483532231
 20
3.4515032936
 30
0.0
 10
5.483532231
 20
3.4507514726
 30
0.0
 10
5.4834495524
 20
3.4492471569
 30
0.0
 10
5.482970193
 20
3.4462903583
 30
0.0
 10
5.4820318578
 20
3.4434402884
 30
0.0
 10
5.4807169251
 20
3.4407881236
 30
0.0
 10
5.4795703622
 20
3.4389118851
 30
0.0
 10
5.4782839372
 20
3.4371495742
 30
0.0
 10
5.4768770735
 20
3.4355027292
 30
0.0
 10
5.4753677571
 20
3.433970347
 30
0.0
 10
5.4732467131
 20
3.4320803599
 30
0.0
 10
5.4709702237
 20
3.4303967969
 30
0.0
 10
5.468584493
 20
3.4289091761
 30
0.0
 10
5.4661481092
 20
3.4275515963
 30
0.0
 10
5.4642554955
 20
3.4266637068
 30
0.0
 10
5.4629750268
 20
3.4261261385
 30
0.0
  0
SPLINE
  5
2DA
100
AcDbEntity
  8
0
100
AcDbSpline
 62
7
  6
CONTINUOUS
 70
0
 71
3
 72
15
 73
11
 74
0
 42
0.0000001
 43
0.0000001
 44
0.0000000001
 40
0.0
 40
0.0
 40
0.0
 40
0.0
 40
0.1280630041
 40
0.255480541
 40
0.381860842
 40
0.5071549187
 40
0.5694680057
 40
0.6315357622
 40
0.7550295944
 40
1.0
 40
1.0
 40
1.0
 40
1.0
 10
5.4588282172
 20
3.4515032936
 30
0.0
 10
5.4588282172
 20
3.4500017348
 30
0.0
 10
5.4584868614
 20
3.4469958346
 30
0.0
 10
5.4570240985
 20
3.4427318566
 30
0.0
 10
5.4547864094
 20
3.4388633617
 30
0.0
 10
5.4524306103
 20
3.4360143595
 30
0.0
 10
5.4503343008
 20
3.4339685596
 30
0.0
 10
5.4481254624
 20
3.4320765456
 30
0.0
 10
5.4440027985
 20
3.4291467152
 30
0.0
 10
5.4401100204
 20
3.4272012252
 30
0.0
 10
5.4374464908
 20
3.4261261385
 30
0.0
  0
SPLINE
  5
2DB
100
AcDbEntity
  8
0
100
AcDbSpline
 62
7
  6
CONTINUOUS
 70
0
 71
3
 72
17
 73
13
 74
0
 42
0.0000001
 43
0.0000001
 44
0.0000000001
 40
0.0
 40
0.0
 40
0.0
 40
0.0
 40
0.1264528158
 40
0.2526019494
 40
0.3782485785
 40
0.5033736132
 40
0.5657967732
 40
0.6280890603
 40
0.6902698812
 40
0.7523788954
 40
0.8763352267
 40
1.0
 40
1.0
 40
1.0
 40
1.0
 10
5.4298664872
 20
3.4515032936
 30
0.0
 10
5.4298664872
 20
3.4500011869
 30
0.0
 10
5.4295140861
 20
3.4469896804
 30
0.0
 10
5.4280061178
 20
3.4427231466
 30
0.0
 10
5.4257017872
 20
3.43885515
 30
0.0
 10
5.4232799232
 20
3.4360105448
 30
0.0
 10
5.4211253047
 20
3.4339671955
 30
0.0
 10
5.4194177655
 20
3.4325459238
 30
0.0
 10
5.4176314128
 20
3.4312318852
 30
0.0
 10
5.4151615021
 20
3.42961858
 30
0.0
 10
5.4119313176
 20
3.4278446129
 30
0.0
 10
5.4092336864
 20
3.4266625973
 30
0.0
 10
5.4078661564
 20
3.4261261385
 30
0.0
  0
SPLINE
  5
2DC
100
AcDbEntity
  8
0
100
AcDbSpline
 62
7
  6
CONTINUOUS
 70
0
 71
3
 72
14
 73
10
 74
0
 42
0.0000001
 43
0.0000001
 44
0.0000000001
 40
0.0
 40
0.0
 40
0.0
 40
0.0
 40
0.0701857097
 40
0.154418616
 40
0.2540239986
 40
0.3704283058
 40
0.5046579265
 40
0.6565819677
 40
1.0
 40
1.0
 40
1.0
 40
1.0
 10
5.4078661564
 20
3.4261261385
 30
0.0
 10
5.4078087417
 20
3.4267175601
 30
0.0
 10
5.4076979216
 20
3.4280202843
 30
0.0
 10
5.4075519273
 20
3.4301659969
 30
0.0
 10
5.4074145223
 20
3.4327042479
 30
0.0
 10
5.4072893044
 20
3.4356668358
 30
0.0
 10
5.4071810668
 20
3.4390732887
 30
0.0
 10
5.4070629841
 20
3.4444020775
 30
0.0
 10
5.407028329
 20
3.4485958689
 30
0.0
 10
5.407028329
 20
3.4515032936
 30
0.0
  0
SPLINE
  5
2DD
100
AcDbEntity
  8
0
100
AcDbSpline
 62
7
  6
CONTINUOUS
 70
0
 71
3
 72
17
 73
13
 74
0
 42
0.0000001
 43
0.0000001
 44
0.0000000001
 40
0.0
 40
0.0
 40
0.0
 40
0.0
 40
0.125432857
 40
0.250786478
 40
0.3759867656
 40
0.5010315351
 40
0.56353995
 40
0.6259909316
 40
0.6883964102
 40
0.7507888908
 40
0.8754609642
 40
1.0
 40
1.0
 40
1.0
 40
1.0
 10
5.3969259583
 20
3.4515032936
 30
0.0
 10
5.3969259583
 20
3.4500008182
 30
0.0
 10
5.3965662399
 20
3.4469855512
 30
0.0
 10
5.3950284542
 20
3.4427173804
 30
0.0
 10
5.3926803014
 20
3.4388497996
 30
0.0
 10
5.390215097
 20
3.436008091
 30
0.0
 10
5.3880221761
 20
3.4339663274
 30
0.0
 10
5.386283119
 20
3.4325451992
 30
0.0
 10
5.38446381
 20
3.4312312888
 30
0.0
 10
5.3819473266
 20
3.4296174873
 30
0.0
 10
5.3786566078
 20
3.4278433783
 30
0.0
 10
5.375910979
 20
3.4266623156
 30
0.0
 10
5.3745188983
 20
3.4261261385
 30
0.0
  0
SPLINE
  5
2DE
100
AcDbEntity
  8
0
100
AcDbSpline
 62
7
  6
CONTINUOUS
 70
0
 71
3
 72
15
 73
11
 74
0
 42
0.0000001
 43
0.0000001
 44
0.0000000001
 40
0.0
 40
0.0
 40
0.0
 40
0.0
 40
0.0725691026
 40
0.1583404719
 40
0.2587369523
 40
0.375252506
 40
0.5089701821
 40
0.6598302537
 40
0.8254850734
 40
1.0
 40
1.0
 40
1.0
 40
1.0
 10
5.3745188983
 20
3.4261261385
 30
0.0
 10
5.3743121774
 20
3.4267113144
 30
0.0
 10
5.3739106241
 20
3.428005747
 30
0.0
 10
5.3733779796
 20
3.4301543443
 30
0.0
 10
5.3728770392
 20
3.4326948954
 30
0.0
 10
5.3724207496
 20
3.4356593621
 30
0.0
 10
5.3720265147
 20
3.4390675531
 30
0.0
 10
5.371716503
 20
3.4429062091
 30
0.0
 10
5.3715161328
 20
3.4471014495
 30
0.0
 10
5.3714701142
 20
3.4500108295
 30
0.0
 10
5.3714701142
 20
3.4515032936
 30
0.0
  0
SPLINE
  5
2DF
100
AcDbEntity
  8
0
100
AcDbSpline
 62
7
  6
CONTINUOUS
 70
0
 71
3
 72
17
 73
13
 74
0
 42
0.0000001
 43
0.0000001
 44
0.0000000001
 40
0.0
 40
0.0
 40
0.0
 40
0.0
 40
0.124957711
 40
0.2499414905
 40
0.374935213
 40
0.4999438869
 40
0.5624924329
 40
0.6250175411
 40
0.6875276308
 40
0.7500518616
 40
0.8750559977
 40
1.0
 40
1.0
 40
1.0
 40
1.0
 10
5.3603238658
 20
3.4515032936
 30
0.0
 10
5.3603238658
 20
3.4500006428
 30
0.0
 10
5.3599606969
 20
3.4469835903
 30
0.0
 10
5.3584088879
 20
3.4427146637
 30
0.0
 10
5.3560401629
 20
3.4388473019
 30
0.0
 10
5.3535546375
 20
3.4360069544
 30
0.0
 10
5.3513437474
 20
3.4339659267
 30
0.0
 10
5.3495898961
 20
3.4325448659
 30
0.0
 10
5.3477551174
 20
3.4312310152
 30
0.0
 10
5.3452167714
 20
3.4296169876
 30
0.0
 10
5.3418976399
 20
3.4278428161
 30
0.0
 10
5.3391294768
 20
3.4266621877
 30
0.0
 10
5.3377258688
 20
3.4261261385
 30
0.0
  0
SPLINE
  5
2E0
100
AcDbEntity
  8
0
100
AcDbSpline
 62
7
  6
CONTINUOUS
 70
0
 71
3
 72
16
 73
12
 74
0
 42
0.0000001
 43
0.0000001
 44
0.0000000001
 40
0.0
 40
0.0
 40
0.0
 40
0.0
 40
0.0770967891
 40
0.1658687036
 40
0.2678543625
 40
0.3846392286
 40
0.5173956059
 40
0.6661933956
 40
0.8289092229
 40
0.9139599788
 40
1.0
 40
1.0
 40
1.0
 40
1.0
 10
5.3377258688
 20
3.4261261385
 30
0.0
 10
5.3373771812
 20
3.4267014885
 30
0.0
 10
5.3366941089
 20
3.4279805254
 30
0.0
 10
5.335776602
 20
3.4301328294
 30
0.0
 10
5.3349144922
 20
3.4326767692
 30
0.0
 10
5.3341297409
 20
3.4356443974
 30
0.0
 10
5.3334519257
 20
3.4390558183
 30
0.0
 10
5.3329191019
 20
3.4428978905
 30
0.0
 10
5.3326358101
 20
3.4463487417
 30
0.0
 10
5.3325162476
 20
3.4492594231
 30
0.0
 10
5.3324954895
 20
3.4507524896
 30
0.0
 10
5.3324954895
 20
3.4515032936
 30
0.0
  0
SPLINE
  5
2E1
100
AcDbEntity
  8
0
100
AcDbSpline
 62
7
  6
CONTINUOUS
 70
0
 71
3
 72
19
 73
15
 74
0
 42
0.0000001
 43
0.0000001
 44
0.0000000001
 40
0.0
 40
0.0
 40
0.0
 40
0.0
 40
0.1071114263
 40
0.2178282798
 40
0.2748262586
 40
0.3330594057
 40
0.3926807366
 40
0.453818544
 40
0.5809675091
 40
0.715042532
 40
0.7846102056
 40
0.8555582105
 40
0.9275684294
 40
1.0
 40
1.0
 40
1.0
 40
1.0
 10
4.5131593953
 20
3.4261261385
 30
0.0
 10
4.5121903271
 20
3.4266696839
 30
0.0
 10
4.5102733877
 20
3.4278744014
 30
0.0
 10
4.5080297233
 20
3.4296430062
 30
0.0
 10
4.5063168823
 20
3.4312445685
 30
0.0
 10
4.5050671599
 20
3.4325606757
 30
0.0
 10
4.5038728621
 20
3.4339839675
 30
0.0
 10
4.5023472101
 20
3.4360559993
 30
0.0
 10
4.5006405304
 20
3.4389445081
 30
0.0
 10
4.4993268417
 20
3.4421290034
 30
0.0
 10
4.4985432541
 20
3.4448699556
 30
0.0
 10
4.4981029896
 20
3.4470326221
 30
0.0
 10
4.4978341584
 20
3.4492529475
 30
0.0
 10
4.4977726319
 20
3.4507519411
 30
0.0
 10
4.4977726319
 20
3.4515032936
 30
0.0
  0
SPLINE
  5
2E2
100
AcDbEntity
  8
0
100
AcDbSpline
 62
7
  6
CONTINUOUS
 70
0
 71
3
 72
19
 73
15
 74
0
 42
0.0000001
 43
0.0000001
 44
0.0000000001
 40
0.0
 40
0.0
 40
0.0
 40
0.0
 40
0.111373319
 40
0.2254343726
 40
0.2836960133
 40
0.3428838659
 40
0.4031263942
 40
0.4645287318
 40
0.5910537916
 40
0.7229463065
 40
0.7908908168
 40
0.8599240146
 40
0.9298052926
 40
1.0
 40
1.0
 40
1.0
 40
1.0
 10
4.5204455151
 20
3.4261261385
 30
0.0
 10
4.5193831551
 20
3.4266674716
 30
0.0
 10
4.5172830037
 20
3.4278653735
 30
0.0
 10
4.5148077331
 20
3.4296359389
 30
0.0
 10
4.5129175997
 20
3.4312409884
 30
0.0
 10
4.5115419651
 20
3.4325566369
 30
0.0
 10
4.5102272363
 20
3.4339795061
 30
0.0
 10
4.5085529322
 20
3.436044434
 30
0.0
 10
4.50667695
 20
3.4389232915
 30
0.0
 10
4.5052232075
 20
3.4421176875
 30
0.0
 10
4.5043578635
 20
3.4448659515
 30
0.0
 10
4.5038726758
 20
3.4470296991
 30
0.0
 10
4.5035763709
 20
3.449251401
 30
0.0
 10
4.5035085393
 20
3.4507518099
 30
0.0
 10
4.5035085393
 20
3.4515032936
 30
0.0
  0
SPLINE
  5
2E3
100
AcDbEntity
  8
0
100
AcDbSpline
 62
7
  6
CONTINUOUS
 70
0
 71
3
 72
20
 73
16
 74
0
 42
0.0000001
 43
0.0000001
 44
0.0000000001
 40
0.0
 40
0.0
 40
0.0
 40
0.0
 40
0.1149782504
 40
0.2319016305
 40
0.2912584467
 40
0.3512840088
 40
0.4120832689
 40
0.4737384419
 40
0.5362975584
 40
0.5998586574
 40
0.66443166
 40
0.7299982026
 40
0.8637572391
 40
0.9317712257
 40
1.0
 40
1.0
 40
1.0
 40
1.0
 10
4.5325110571
 20
3.4261261385
 30
0.0
 10
4.5313651829
 20
3.4266658276
 30
0.0
 10
4.5291013083
 20
3.4278585089
 30
0.0
 10
4.5264189889
 20
3.4296303681
 30
0.0
 10
4.5243700953
 20
3.4312380999
 30
0.0
 10
4.5228818612
 20
3.4325533291
 30
0.0
 10
4.5214594812
 20
3.4339756954
 30
0.0
 10
4.5201141999
 20
3.4355088063
 30
0.0
 10
4.5188604142
 20
3.4371563284
 30
0.0
 10
4.5177141854
 20
3.4389190818
 30
0.0
 10
4.5166928044
 20
3.4407954261
 30
0.0
 10
4.51551772
 20
3.4434571093
 30
0.0
 10
4.5146859307
 20
3.4463026395
 30
0.0
 10
4.514260522
 20
3.4492497459
 30
0.0
 10
4.5141869813
 20
3.4507516818
 30
0.0
 10
4.5141869813
 20
3.4515032936
 30
0.0
  0
SPLINE
  5
2E4
100
AcDbEntity
  8
0
100
AcDbSpline
 62
7
  6
CONTINUOUS
 70
0
 71
3
 72
19
 73
15
 74
0
 42
0.0000001
 43
0.0000001
 44
0.0000000001
 40
0.0
 40
0.0
 40
0.0
 40
0.0
 40
0.1179767789
 40
0.2373067057
 40
0.3582932246
 40
0.4195835405
 40
0.481477503
 40
0.5440023929
 40
0.6072410457
 40
0.6711966174
 40
0.7358544973
 40
0.8670096947
 40
0.9334410764
 40
1.0
 40
1.0
 40
1.0
 40
1.0
 10
4.5492398236
 20
3.4261261385
 30
0.0
 10
4.5480210142
 20
3.4266646037
 30
0.0
 10
4.5456141528
 20
3.427853503
 30
0.0
 10
4.5421681201
 20
3.4299869145
 30
0.0
 10
4.5394738856
 20
3.4320849984
 30
0.0
 10
4.5374612256
 20
3.4339726034
 30
0.0
 10
4.5360269939
 20
3.4355052974
 30
0.0
 10
4.5346902327
 20
3.4371524541
 30
0.0
 10
4.53346798
 20
3.4389149518
 30
0.0
 10
4.5323787014
 20
3.4407912398
 30
0.0
 10
4.5311276749
 20
3.4434478949
 30
0.0
 10
4.5302381997
 20
3.4462959937
 30
0.0
 10
4.529783639
 20
3.4492483271
 30
0.0
 10
4.5297051186
 20
3.4507515619
 30
0.0
 10
4.5297051186
 20
3.4515032936
 30
0.0
  0
SPLINE
  5
2E5
100
AcDbEntity
  8
0
100
AcDbSpline
 62
7
  6
CONTINUOUS
 70
0
 71
3
 72
18
 73
14
 74
0
 42
0.0000001
 43
0.0000001
 44
0.0000000001
 40
0.0
 40
0.0
 40
0.0
 40
0.0
 40
0.1204389852
 40
0.1809988901
 40
0.2418058164
 40
0.4875254192
 40
0.6129808155
 40
0.6764666495
 40
0.740412477
 40
0.8048285473
 40
0.8696435561
 40
0.9347951612
 40
1.0
 40
1.0
 40
1.0
 40
1.0
 10
4.5704707072
 20
3.4261261385
 30
0.0
 10
4.5691902582
 20
3.4266636986
 30
0.0
 10
4.5672977675
 20
3.4275515078
 30
0.0
 10
4.5648611893
 20
3.42890925
 30
0.0
 10
4.5612699136
 20
3.4311482621
 30
0.0
 10
4.5573797098
 20
3.4343567529
 30
0.0
 10
4.554251413
 20
3.4382965355
 30
0.0
 10
4.5527290936
 20
3.4407874449
 30
0.0
 10
4.5517452909
 20
3.4427722198
 30
0.0
 10
4.5509476532
 20
3.4448556213
 30
0.0
 10
4.5503570984
 20
3.4470219029
 30
0.0
 10
4.5499961778
 20
3.4492472287
 30
0.0
 10
4.549913503
 20
3.4507514546
 30
0.0
 10
4.549913503
 20
3.4515032936
 30
0.0
  0
SPLINE
  5
2E6
100
AcDbEntity
  8
0
100
AcDbSpline
 62
7
  6
CONTINUOUS
 70
0
 71
3
 72
16
 73
12
 74
0
 42
0.0000001
 43
0.0000001
 44
0.0000000001
 40
0.0
 40
0.0
 40
0.0
 40
0.0
 40
0.2449347854
 40
0.3684097508
 40
0.4304689528
 40
0.4927710072
 40
0.6180473249
 40
0.6811592974
 40
0.7445384811
 40
0.8719464129
 40
1.0
 40
1.0
 40
1.0
 40
1.0
 10
4.5959992432
 20
3.4261261385
 30
0.0
 10
4.593335759
 20
3.4272012069
 30
0.0
 10
4.589443024
 20
3.4291466371
 30
0.0
 10
4.5853204867
 20
3.4320764177
 30
0.0
 10
4.5831116297
 20
3.4339683847
 30
0.0
 10
4.5810154755
 20
3.4360138809
 30
0.0
 10
4.5791335568
 20
3.4382903588
 30
0.0
 10
4.5775477011
 20
3.4407846303
 30
0.0
 10
4.5761811795
 20
3.4434339357
 30
0.0
 10
4.5749586896
 20
3.4469959369
 30
0.0
 10
4.5746175168
 20
3.4500016525
 30
0.0
 10
4.5746175168
 20
3.4515032936
 30
0.0
  0
SPLINE
  5
2E7
100
AcDbEntity
  8
0
100
AcDbSpline
 62
7
  6
CONTINUOUS
 70
0
 71
3
 72
18
 73
14
 74
0
 42
0.0000001
 43
0.0000001
 44
0.0000000001
 40
0.0
 40
0.0
 40
0.0
 40
0.0
 40
0.1236466333
 40
0.247584368
 40
0.3096835719
 40
0.3718548553
 40
0.4341384103
 40
0.4965503568
 40
0.6216573469
 40
0.6844752727
 40
0.7474175351
 40
0.8735568363
 40
1.0
 40
1.0
 40
1.0
 40
1.0
 10
4.6255795776
 20
3.4261261385
 30
0.0
 10
4.6242120688
 20
3.426662589
 30
0.0
 10
4.6215144909
 20
3.4278446
 30
0.0
 10
4.6182843497
 20
3.4296184949
 30
0.0
 10
4.6158144924
 20
3.431231775
 30
0.0
 10
4.6140281889
 20
3.4325457829
 30
0.0
 10
4.6123206293
 20
3.4339670224
 30
0.0
 10
4.6101661797
 20
3.4360100584
 30
0.0
 10
4.6082292738
 20
3.438285621
 30
0.0
 10
4.6065954885
 20
3.4407824624
 30
0.0
 10
4.6051905363
 20
3.4434289974
 30
0.0
 10
4.6039314605
 20
3.4469897888
 30
0.0
 10
4.6035792468
 20
3.4500011044
 30
0.0
 10
4.6035792468
 20
3.4515032936
 30
0.0
  0
SPLINE
  5
2E8
100
AcDbEntity
  8
0
100
AcDbSpline
 62
7
  6
CONTINUOUS
 70
0
 71
3
 72
14
 73
10
 74
0
 42
0.0000001
 43
0.0000001
 44
0.0000000001
 40
0.0
 40
0.0
 40
0.0
 40
0.0
 40
0.3434006659
 40
0.4953277967
 40
0.62956072
 40
0.74597027
 40
0.8455780643
 40
0.9298133665
 40
1.0
 40
1.0
 40
1.0
 40
1.0
 10
4.626417405
 20
3.4515032936
 30
0.0
 10
4.626417405
 20
3.448596016
 30
0.0
 10
4.626382754
 20
3.4444023454
 30
0.0
 10
4.626264677
 20
3.4390736493
 30
0.0
 10
4.6261564385
 20
3.435667098
 30
0.0
 10
4.6260312225
 20
3.4327044171
 30
0.0
 10
4.6258938104
 20
3.4301660812
 30
0.0
 10
4.6257478168
 20
3.42802032
 30
0.0
 10
4.625636993
 20
3.4267175679
 30
0.0
 10
4.6255795776
 20
3.4261261385
 30
0.0
  0
SPLINE
  5
2E9
100
AcDbEntity
  8
0
100
AcDbSpline
 62
7
  6
CONTINUOUS
 70
0
 71
3
 72
18
 73
14
 74
0
 42
0.0000001
 43
0.0000001
 44
0.0000000001
 40
0.0
 40
0.0
 40
0.0
 40
0.0
 40
0.124520537
 40
0.2491736874
 40
0.3115561972
 40
0.37395199
 40
0.4363941227
 40
0.4988912049
 40
0.6239177428
 40
0.6865598367
 40
0.749233297
 40
0.8745769423
 40
1.0
 40
1.0
 40
1.0
 40
1.0
 10
4.6589268357
 20
3.4261261385
 30
0.0
 10
4.6575347765
 20
3.4266623073
 30
0.0
 10
4.6547892017
 20
3.4278433655
 30
0.0
 10
4.6514985275
 20
3.429617402
 30
0.0
 10
4.6489820982
 20
3.4312311787
 30
0.0
 10
4.6471628393
 20
3.4325450583
 30
0.0
 10
4.6454237609
 20
3.4339661552
 30
0.0
 10
4.643231017
 20
3.4360075997
 30
0.0
 10
4.6412579836
 20
3.4382825337
 30
0.0
 10
4.6395926383
 20
3.4407810382
 30
0.0
 10
4.6381624665
 20
3.4434257273
 30
0.0
 10
4.6368793043
 20
3.4469856636
 30
0.0
 10
4.6365197757
 20
3.4500007356
 30
0.0
 10
4.6365197757
 20
3.4515032936
 30
0.0
  0
SPLINE
  5
2EA
100
AcDbEntity
  8
0
100
AcDbSpline
 62
7
  6
CONTINUOUS
 70
0
 71
3
 72
15
 73
11
 74
0
 42
0.0000001
 43
0.0000001
 44
0.0000000001
 40
0.0
 40
0.0
 40
0.0
 40
0.0
 40
0.1745055471
 40
0.3401525165
 40
0.4910156233
 40
0.624736541
 40
0.7412572671
 40
0.841656178
 40
0.9274299266
 40
1.0
 40
1.0
 40
1.0
 40
1.0
 10
4.6619756198
 20
3.4515032936
 30
0.0
 10
4.6619756198
 20
3.4500109097
 30
0.0
 10
4.6619296094
 20
3.447101677
 30
0.0
 10
4.6617292559
 20
3.4429065574
 30
0.0
 10
4.6614192551
 20
3.4390679138
 30
0.0
 10
4.6610250167
 20
3.4356596249
 30
0.0
 10
4.6605687338
 20
3.4326950629
 30
0.0
 10
4.6600677685
 20
3.4301544298
 30
0.0
 10
4.6595351254
 20
3.428005781
 30
0.0
 10
4.6591335594
 20
3.4267113223
 30
0.0
 10
4.6589268357
 20
3.4261261385
 30
0.0
  0
SPLINE
  5
2EB
100
AcDbEntity
  8
0
100
AcDbSpline
 62
7
  6
CONTINUOUS
 70
0
 71
3
 72
18
 73
14
 74
0
 42
0.0000001
 43
0.0000001
 44
0.0000000001
 40
0.0
 40
0.0
 40
0.0
 40
0.0
 40
0.1249253381
 40
0.249910401
 40
0.312424587
 40
0.3749249231
 40
0.4374411288
 40
0.4999782877
 40
0.6249686452
 40
0.6875295378
 40
0.7500784125
 40
0.875052153
 40
1.0
 40
1.0
 40
1.0
 40
1.0
 10
4.6957198652
 20
3.4261261385
 30
0.0
 10
4.694316279
 20
3.4266621794
 30
0.0
 10
4.6915481702
 20
3.4278428035
 30
0.0
 10
4.6882290839
 20
3.4296169022
 30
0.0
 10
4.6856907923
 20
3.4312309052
 30
0.0
 10
4.683856064
 20
3.432544725
 30
0.0
 10
4.682102191
 20
3.433965755
 30
0.0
 10
4.6798914817
 20
3.4360064609
 30
0.0
 10
4.6779014947
 20
3.4382810924
 30
0.0
 10
4.6762213217
 20
3.4407803702
 30
0.0
 10
4.6747793239
 20
3.4434241864
 30
0.0
 10
4.6734848462
 20
3.4469837045
 30
0.0
 10
4.6731218682
 20
3.4500005602
 30
0.0
 10
4.6731218682
 20
3.4515032936
 30
0.0
  0
SPLINE
  5
2EC
100
AcDbEntity
  8
0
100
AcDbSpline
 62
7
  6
CONTINUOUS
 70
0
 71
3
 72
16
 73
12
 74
0
 42
0.0000001
 43
0.0000001
 44
0.0000000001
 40
0.0
 40
0.0
 40
0.0
 40
0.0
 40
0.0860380259
 40
0.1710815742
 40
0.3337896451
 40
0.4825903614
 40
0.6153498596
 40
0.7321397607
 40
0.8341278877
 40
0.9229021528
 40
1.0
 40
1.0
 40
1.0
 40
1.0
 10
4.7009502445
 20
3.4515032936
 30
0.0
 10
4.7009502445
 20
3.450752507
 30
0.0
 10
4.7009295026
 20
3.4492595205
 30
0.0
 10
4.7008099356
 20
3.4463489872
 30
0.0
 10
4.7005266771
 20
3.4428982391
 30
0.0
 10
4.6999938692
 20
3.439056179
 30
0.0
 10
4.6993160492
 20
3.4356446611
 30
0.0
 10
4.6985313075
 20
3.4326769334
 30
0.0
 10
4.697669157
 20
3.4301329167
 30
0.0
 10
4.6967516504
 20
3.4279805566
 30
0.0
 10
4.6960685576
 20
3.4267014964
 30
0.0
 10
4.6957198652
 20
3.4261261385
 30
0.0
  0
SPLINE
  5
2ED
100
AcDbEntity
  8
0
100
AcDbSpline
 62
7
  6
CONTINUOUS
 70
0
 71
3
 72
18
 73
14
 74
0
 42
0.0000001
 43
0.0000001
 44
0.0000000001
 40
0.0
 40
0.0
 40
0.0
 40
0.0
 40
0.1248689526
 40
0.2498077631
 40
0.3123035909
 40
0.3747893442
 40
0.4372952087
 40
0.4998267609
 40
0.6248221165
 40
0.6873943102
 40
0.7499605412
 40
0.8749858576
 40
1.0
 40
1.0
 40
1.0
 40
1.0
 10
4.7356043291
 20
3.4261261385
 30
0.0
 10
4.7342023545
 20
3.4266621971
 30
0.0
 10
4.7314373961
 20
3.4278428814
 30
0.0
 10
4.7281222818
 20
3.4296169716
 30
0.0
 10
4.7255870467
 20
3.4312309432
 30
0.0
 10
4.7237544811
 20
3.4325447713
 30
0.0
 10
4.7220026763
 20
3.4339658107
 30
0.0
 10
4.7197944783
 20
3.4360066195
 30
0.0
 10
4.7178068612
 20
3.4382812936
 30
0.0
 10
4.7161287617
 20
3.4407804636
 30
0.0
 10
4.7146884167
 20
3.443424402
 30
0.0
 10
4.7133955213
 20
3.4469839792
 30
0.0
 10
4.7130330262
 20
3.4500005848
 30
0.0
 10
4.7130330262
 20
3.4515032936
 30
0.0
  0
SPLINE
  5
2EE
100
AcDbEntity
  8
0
100
AcDbSpline
 62
7
  6
CONTINUOUS
 70
0
 71
3
 72
17
 73
13
 74
0
 42
0.0000001
 43
0.0000001
 44
0.0000000001
 40
0.0
 40
0.0
 40
0.0
 40
0.0
 40
0.0836944893
 40
0.1664827519
 40
0.247246177
 40
0.3253029855
 40
0.4713968696
 40
0.6029567037
 40
0.7202041886
 40
0.8243811727
 40
0.9171220938
 40
1.0
 40
1.0
 40
1.0
 40
1.0
 10
4.7429659322
 20
3.4515032936
 30
0.0
 10
4.7429659322
 20
3.4507524367
 30
0.0
 10
4.7429366862
 20
3.4492586999
 30
0.0
 10
4.7428086944
 20
3.4470437343
 30
0.0
 10
4.742599047
 20
3.4448857332
 30
0.0
 10
4.7422291096
 20
3.4421748222
 30
0.0
 10
4.741615956
 20
3.4390393868
 30
0.0
 10
4.7406593243
 20
3.4356241532
 30
0.0
 10
4.7395514997
 20
3.4326533066
 30
0.0
 10
4.7383340735
 20
3.430106803
 30
0.0
 10
4.7370379681
 20
3.4279526004
 30
0.0
 10
4.7360868568
 20
3.4266918287
 30
0.0
 10
4.7356043291
 20
3.4261261385
 30
0.0
  0
SPLINE
  5
2EF
100
AcDbEntity
  8
0
100
AcDbSpline
 62
7
  6
CONTINUOUS
 70
0
 71
3
 72
18
 73
14
 74
0
 42
0.0000001
 43
0.0000001
 44
0.0000000001
 40
0.0
 40
0.0
 40
0.0
 40
0.0
 40
0.1243502729
 40
0.248863916
 40
0.3111911255
 40
0.3735430498
 40
0.4359541434
 40
0.4984344904
 40
0.6234764525
 40
0.6861527476
 40
0.7488785968
 40
0.8743775732
 40
1.0
 40
1.0
 40
1.0
 40
1.0
 10
4.7781961182
 20
3.4261261385
 30
0.0
 10
4.7768088777
 20
3.4266623616
 30
0.0
 10
4.7740727233
 20
3.4278436038
 30
0.0
 10
4.7707939283
 20
3.4296176135
 30
0.0
 10
4.7682866391
 20
3.4312312942
 30
0.0
 10
4.7664738477
 20
3.4325451989
 30
0.0
 10
4.7647409548
 20
3.4339663239
 30
0.0
 10
4.7625557239
 20
3.4360080787
 30
0.0
 10
4.7605897795
 20
3.4382831378
 30
0.0
 10
4.7589306311
 20
3.4407813176
 30
0.0
 10
4.7575054058
 20
3.4434263704
 30
0.0
 10
4.7562269727
 20
3.4469864784
 30
0.0
 10
4.7558688833
 20
3.4500008085
 30
0.0
 10
4.7558688833
 20
3.4515032936
 30
0.0
  0
SPLINE
  5
2F0
100
AcDbEntity
  8
0
100
AcDbSpline
 62
7
  6
CONTINUOUS
 70
0
 71
3
 72
17
 73
13
 74
0
 42
0.0000001
 43
0.0000001
 44
0.0000000001
 40
0.0
 40
0.0
 40
0.0
 40
0.0
 40
0.0810284018
 40
0.1612556478
 40
0.2396704262
 40
0.3156731452
 40
0.458774443
 40
0.5890948258
 40
0.7069897508
 40
0.8137228813
 40
0.9108933416
 40
1.0
 40
1.0
 40
1.0
 40
1.0
 10
4.7876180488
 20
3.4515032936
 30
0.0
 10
4.7876180488
 20
3.4507523462
 30
0.0
 10
4.7875805765
 20
3.449257626
 30
0.0
 10
4.78741661
 20
3.4470416443
 30
0.0
 10
4.7871480342
 20
3.4448827063
 30
0.0
 10
4.7866732989
 20
3.4421656832
 30
0.0
 10
4.7858842244
 20
3.4390189972
 30
0.0
 10
4.7846561166
 20
3.4356003599
 30
0.0
 10
4.7832341935
 20
3.4326275931
 30
0.0
 10
4.7816719631
 20
3.4300805922
 30
0.0
 10
4.7800091766
 20
3.4279271819
 30
0.0
 10
4.7788050771
 20
3.4266839363
 30
0.0
 10
4.7781961182
 20
3.4261261385
 30
0.0
  0
SPLINE
  5
2F1
100
AcDbEntity
  8
0
100
AcDbSpline
 62
7
  6
CONTINUOUS
 70
0
 71
3
 72
18
 73
14
 74
0
 42
0.0000001
 43
0.0000001
 44
0.0000000001
 40
0.0
 40
0.0
 40
0.0
 40
0.0
 40
0.1233591874
 40
0.247061947
 40
0.3090682544
 40
0.3711660463
 40
0.4333978404
 40
0.4957821959
 40
0.620916342
 40
0.6837922566
 40
0.7468228822
 40
0.8732230212
 40
1.0
 40
1.0
 40
1.0
 40
1.0
 10
4.8230850502
 20
3.4261261385
 30
0.0
 10
4.821725519
 20
3.4266626833
 30
0.0
 10
4.8190435391
 20
3.4278450124
 30
0.0
 10
4.8158330742
 20
3.4296188585
 30
0.0
 10
4.8133783532
 20
3.4312319729
 30
0.0
 10
4.8116027612
 20
3.4325460227
 30
0.0
 10
4.8099054462
 20
3.4339673086
 30
0.0
 10
4.8077634499
 20
3.4360108671
 30
0.0
 10
4.8058382893
 20
3.4382866292
 30
0.0
 10
4.8042147533
 20
3.4407829256
 30
0.0
 10
4.8028180058
 20
3.4434300563
 30
0.0
 10
4.8015667528
 20
3.4469911155
 30
0.0
 10
4.8012169069
 20
3.4500012228
 30
0.0
 10
4.8012169069
 20
3.4515032936
 30
0.0
  0
SPLINE
  5
2F2
100
AcDbEntity
  8
0
100
AcDbSpline
 62
7
  6
CONTINUOUS
 70
0
 71
3
 72
15
 73
11
 74
0
 42
0.0000001
 43
0.0000001
 44
0.0000000001
 40
0.0
 40
0.0
 40
0.0
 40
0.0
 40
0.3052521077
 40
0.4454351152
 40
0.5746853981
 40
0.693451522
 40
0.8029539144
 40
0.854721943
 40
0.904717006
 40
1.0
 40
1.0
 40
1.0
 40
1.0
 10
4.8344765701
 20
3.4515032936
 30
0.0
 10
4.8344765701
 20
3.4485757697
 30
0.0
 10
4.8339775024
 20
3.4442786861
 30
0.0
 10
4.8323723515
 20
3.4389971419
 30
0.0
 10
4.830882971
 20
3.4355752376
 30
0.0
 10
4.8291599184
 20
3.4326025937
 30
0.0
 10
4.8275541284
 20
3.4304419769
 30
0.0
 10
4.8262088574
 20
3.4289255547
 30
0.0
 10
4.8248769717
 20
3.4275839388
 30
0.0
 10
4.8238134303
 20
3.4266779683
 30
0.0
 10
4.8230850502
 20
3.4261261385
 30
0.0
  0
SPLINE
  5
2F3
100
AcDbEntity
  8
0
100
AcDbSpline
 62
7
  6
CONTINUOUS
 70
0
 71
3
 72
15
 73
11
 74
0
 42
0.0000001
 43
0.0000001
 44
0.0000000001
 40
0.0
 40
0.0
 40
0.0
 40
0.0
 40
0.2442244345
 40
0.3674829694
 40
0.4294783115
 40
0.4917534674
 40
0.6170888339
 40
0.743679379
 40
0.8714663151
 40
1.0
 40
1.0
 40
1.0
 40
1.0
 10
4.8698388203
 20
3.4261261385
 30
0.0
 10
4.8671966168
 20
3.4272018378
 30
0.0
 10
4.8633354853
 20
3.4291487794
 30
0.0
 10
4.8592504263
 20
3.4320773353
 30
0.0
 10
4.8570610363
 20
3.4339689675
 30
0.0
 10
4.8549820227
 20
3.4360155057
 30
0.0
 10
4.8526458279
 20
3.4388658053
 30
0.0
 10
4.850427879
 20
3.4427344176
 30
0.0
 10
4.8489784738
 20
3.4469976257
 30
0.0
 10
4.8486403707
 20
3.4500018932
 30
0.0
 10
4.8486403707
 20
3.4515032936
 30
0.0
  0
SPLINE
  5
2F4
100
AcDbEntity
  8
0
100
AcDbSpline
 62
7
  6
CONTINUOUS
 70
0
 71
3
 72
18
 73
14
 74
0
 42
0.0000001
 43
0.0000001
 44
0.0000000001
 40
0.0
 40
0.0
 40
0.0
 40
0.0
 40
0.0755556362
 40
0.1505421974
 40
0.2241823122
 40
0.2960533123
 40
0.4332986474
 40
0.5614615266
 40
0.6810324704
 40
0.7379517145
 40
0.7931758942
 40
0.8991049602
 40
1.0
 40
1.0
 40
1.0
 40
1.0
 10
4.8830902228
 20
3.4515032936
 30
0.0
 10
4.8830902228
 20
3.4507521189
 30
0.0
 10
4.8830373753
 20
3.4492549349
 30
0.0
 10
4.8828062296
 20
3.4470364549
 30
0.0
 10
4.8824276407
 20
3.4448753283
 30
0.0
 10
4.8817557222
 20
3.4421438744
 30
0.0
 10
4.8806323896
 20
3.4389730527
 30
0.0
 10
4.8788958951
 20
3.4355511799
 30
0.0
 10
4.877195304
 20
3.4330348862
 30
0.0
 10
4.8757367001
 20
3.4312502679
 30
0.0
 10
4.8742675365
 20
3.4296543952
 30
0.0
 10
4.8723431491
 20
3.427889689
 30
0.0
 10
4.870679371
 20
3.4266735713
 30
0.0
 10
4.8698388203
 20
3.4261261385
 30
0.0
  0
SPLINE
  5
2F5
100
AcDbEntity
  8
0
100
AcDbSpline
 62
7
  6
CONTINUOUS
 70
0
 71
3
 72
21
 73
17
 74
0
 42
0.0000001
 43
0.0000001
 44
0.0000000001
 40
0.0
 40
0.0
 40
0.0
 40
0.0
 40
0.119825864
 40
0.1801158178
 40
0.24068162
 40
0.3626945101
 40
0.4242890103
 40
0.4863291414
 40
0.5488279802
 40
0.611857436
 40
0.6754149842
 40
0.7394870777
 40
0.8040807576
 40
0.8691174559
 40
0.9345236535
 40
1.0
 40
1.0
 40
1.0
 40
1.0
 10
4.9180071641
 20
3.4261261385
 30
0.0
 10
4.9167407402
 20
3.4266638951
 30
0.0
 10
4.9148691342
 20
3.427552064
 30
0.0
 10
4.9124608219
 20
3.4289093945
 30
0.0
 10
4.9101013759
 20
3.4303974563
 30
0.0
 10
4.9078506532
 20
3.4320813176
 30
0.0
 10
4.9057542904
 20
3.4339706812
 30
0.0
 10
4.9042620722
 20
3.4355030966
 30
0.0
 10
4.9028711926
 20
3.4371499671
 30
0.0
 10
4.9015993305
 20
3.4389123333
 30
0.0
 10
4.9004658199
 20
3.4407882738
 30
0.0
 10
4.899493285
 20
3.4427730158
 30
0.0
 10
4.8987047822
 20
3.4448563299
 30
0.0
 10
4.8981210271
 20
3.447022441
 30
0.0
 10
4.8977642758
 20
3.4492475209
 30
0.0
 10
4.8976825609
 20
3.4507514795
 30
0.0
 10
4.8976825609
 20
3.4515032936
 30
0.0
  0
SPLINE
  5
2F6
100
AcDbEntity
  8
0
100
AcDbSpline
 62
7
  6
CONTINUOUS
 70
0
 71
3
 72
19
 73
15
 74
0
 42
0.0000001
 43
0.0000001
 44
0.0000000001
 40
0.0
 40
0.0
 40
0.0
 40
0.0
 40
0.0730169956
 40
0.14558065
 40
0.2170285899
 40
0.2870236088
 40
0.4216850624
 40
0.5490131411
 40
0.610089929
 40
0.6695526449
 40
0.72753766
 40
0.784203784
 40
0.8940322876
 40
1.0
 40
1.0
 40
1.0
 40
1.0
 10
4.932990831
 20
3.4515032936
 30
0.0
 10
4.932990831
 20
3.4507519908
 30
0.0
 10
4.9329309834
 20
3.4492534229
 30
0.0
 10
4.9326692813
 20
3.4470335666
 30
0.0
 10
4.9322406941
 20
3.4448713128
 30
0.0
 10
4.931478364
 20
3.4421322275
 30
0.0
 10
4.9302008522
 20
3.4389503294
 30
0.0
 10
4.9285383648
 20
3.4360593361
 30
0.0
 10
4.927051482
 20
3.4339853812
 30
0.0
 10
4.9258885153
 20
3.4325619172
 30
0.0
 10
4.9246715149
 20
3.4312456758
 30
0.0
 10
4.9230046965
 20
3.4296450806
 30
0.0
 10
4.9208212663
 20
3.427877033
 30
0.0
 10
4.9189519903
 20
3.4266703436
 30
0.0
 10
4.9180071641
 20
3.4261261385
 30
0.0
  0
SPLINE
  5
2F7
100
AcDbEntity
  8
0
100
AcDbSpline
 62
7
  6
CONTINUOUS
 70
0
 71
3
 72
19
 73
15
 74
0
 42
0.0000001
 43
0.0000001
 44
0.0000000001
 40
0.0
 40
0.0
 40
0.0
 40
0.0
 40
0.1172986391
 40
0.2360828107
 40
0.3566924905
 40
0.4178703563
 40
0.4797090625
 40
0.5422408028
 40
0.605552097
 40
0.669647878
 40
0.7345128984
 40
0.8662638109
 40
0.933058015
 40
1.0
 40
1.0
 40
1.0
 40
1.0
 10
4.967126194
 20
3.4261261385
 30
0.0
 10
4.9659242387
 20
3.4266648709
 30
0.0
 10
4.9635503741
 20
3.4278546441
 30
0.0
 10
4.9601533089
 20
3.4299886031
 30
0.0
 10
4.9574985636
 20
3.432086368
 30
0.0
 10
4.9555155479
 20
3.433973299
 30
0.0
 10
4.9541018491
 20
3.4355060951
 30
0.0
 10
4.9527842572
 20
3.4371533402
 30
0.0
 10
4.9515795652
 20
3.4389159034
 30
0.0
 10
4.9505059739
 20
3.4407922108
 30
0.0
 10
4.9492724645
 20
3.4434500479
 30
0.0
 10
4.9483963508
 20
3.4462975617
 30
0.0
 10
4.9479485423
 20
3.4492486626
 30
0.0
 10
4.9478711742
 20
3.4507515902
 30
0.0
 10
4.9478711742
 20
3.4515032936
 30
0.0
  0
SPLINE
  5
2F8
100
AcDbEntity
  8
0
100
AcDbSpline
 62
7
  6
CONTINUOUS
 70
0
 71
3
 72
19
 73
15
 74
0
 42
0.0000001
 43
0.0000001
 44
0.0000000001
 40
0.0
 40
0.0
 40
0.0
 40
0.0
 40
0.0707165446
 40
0.141089697
 40
0.2105652233
 40
0.2788851653
 40
0.4112841923
 40
0.5379503294
 40
0.599291123
 40
0.6593873035
 40
0.7183524897
 40
0.7763208642
 40
0.8896084378
 40
1.0
 40
1.0
 40
1.0
 40
1.0
 10
4.9836978244
 20
3.4515032936
 30
0.0
 10
4.9836978244
 20
3.4507518597
 30
0.0
 10
4.9836315303
 20
3.4492518758
 30
0.0
 10
4.9833417115
 20
3.447030637
 30
0.0
 10
4.9828671439
 20
3.4448672876
 30
0.0
 10
4.9820212442
 20
3.4421207975
 30
0.0
 10
4.9806006308
 20
3.4389286824
 30
0.0
 10
4.9787644723
 20
3.4360473912
 30
0.0
 10
4.9771250915
 20
3.4339807455
 30
0.0
 10
4.9758387402
 20
3.4325576926
 30
0.0
 10
4.9744927364
 20
3.4312419107
 30
0.0
 10
4.9726443586
 20
3.4296376039
 30
0.0
 10
4.9702236275
 20
3.4278673801
 30
0.0
 10
4.9681665805
 20
3.4266679625
 30
0.0
 10
4.967126194
 20
3.4261261385
 30
0.0
  0
SPLINE
  5
2F9
100
AcDbEntity
  8
0
100
AcDbSpline
 62
7
  6
CONTINUOUS
 70
0
 71
3
 72
18
 73
14
 74
0
 42
0.0000001
 43
0.0000001
 44
0.0000000001
 40
0.0
 40
0.0
 40
0.0
 40
0.0
 40
0.1141740425
 40
0.2304607577
 40
0.2895754631
 40
0.3494175759
 40
0.4100976532
 40
0.4717034288
 40
0.5978687399
 40
0.7283473869
 40
0.8628450954
 40
0.9313035378
 40
1.0
 40
1.0
 40
1.0
 40
1.0
 10
5.016722867
 20
3.4261261385
 30
0.0
 10
5.0155965092
 20
3.4266661868
 30
0.0
 10
5.013370875
 20
3.427860021
 30
0.0
 10
5.0107369139
 20
3.4296316078
 30
0.0
 10
5.0087251163
 20
3.4312387524
 30
0.0
 10
5.0072631928
 20
3.4325540627
 30
0.0
 10
5.0058659215
 20
3.4339766202
 30
0.0
 10
5.0040901906
 20
3.436036702
 30
0.0
 10
5.0020984922
 20
3.438909171
 30
0.0
 10
5.0002247001
 20
3.442776648
 30
0.0
 10
4.9992128181
 20
3.4463041798
 30
0.0
 10
4.9987950573
 20
3.4492501466
 30
0.0
 10
4.998722867
 20
3.4507517126
 30
0.0
 10
4.998722867
 20
3.4515032936
 30
0.0
  0
SPLINE
  5
2FA
100
AcDbEntity
  8
0
100
AcDbSpline
 62
7
  6
CONTINUOUS
 70
0
 71
3
 72
18
 73
14
 74
0
 42
0.0000001
 43
0.0000001
 44
0.0000000001
 40
0.0
 40
0.0
 40
0.0
 40
0.0
 40
0.0686948098
 40
0.1371474397
 40
0.271638193
 40
0.4021186368
 40
0.5282858811
 40
0.5898947416
 40
0.6505755664
 40
0.7104189996
 40
0.7695352567
 40
0.8858242431
 40
1.0
 40
1.0
 40
1.0
 40
1.0
 10
5.034722867
 20
3.4515032936
 30
0.0
 10
5.034722867
 20
3.4507517305
 30
0.0
 10
5.0346507322
 20
3.4492502428
 30
0.0
 10
5.0342329575
 20
3.4463044358
 30
0.0
 10
5.033221195
 20
3.4427769998
 30
0.0
 10
5.0313474475
 20
3.4389095357
 30
0.0
 10
5.0293557555
 20
3.4360369703
 30
0.0
 10
5.0275799915
 20
3.4339768331
 30
0.0
 10
5.0261827201
 20
3.4325541959
 30
0.0
 10
5.0247207593
 20
3.4312388655
 30
0.0
 10
5.0227089143
 20
3.4296316904
 30
0.0
 10
5.0200749236
 20
3.4278600368
 30
0.0
 10
5.017849242
 20
3.426666195
 30
0.0
 10
5.016722867
 20
3.4261261385
 30
0.0
  0
SPLINE
  5
2FB
100
AcDbEntity
  8
0
100
AcDbSpline
 62
7
  6
CONTINUOUS
 70
0
 71
3
 72
19
 73
15
 74
0
 42
0.0000001
 43
0.0000001
 44
0.0000000001
 40
0.0
 40
0.0
 40
0.0
 40
0.0
 40
0.1103899025
 40
0.2236751995
 40
0.2816420516
 40
0.3406059262
 40
0.4007012697
 40
0.4620389382
 40
0.5887029971
 40
0.7211000809
 40
0.7894224607
 40
0.8589026477
 40
0.9292817691
 40
1.0
 40
1.0
 40
1.0
 40
1.0
 10
5.06631954
 20
3.4261261385
 30
0.0
 10
5.0652791693
 20
3.4266679542
 30
0.0
 10
5.0632221674
 20
3.4278673633
 30
0.0
 10
5.0608014615
 20
3.4296375217
 30
0.0
 10
5.0589531281
 20
3.4312417976
 30
0.0
 10
5.0576071598
 20
3.432557558
 30
0.0
 10
5.0563208065
 20
3.4339805332
 30
0.0
 10
5.0546814582
 20
3.4360471223
 30
0.0
 10
5.0528452871
 20
3.4389283159
 30
0.0
 10
5.051424678
 20
3.4421204101
 30
0.0
 10
5.0505786615
 20
3.4448669212
 30
0.0
 10
5.0501040733
 20
3.4470304107
 30
0.0
 10
5.0498142527
 20
3.4492517786
 30
0.0
 10
5.0497479096
 20
3.4507518419
 30
0.0
 10
5.0497479096
 20
3.4515032936
 30
0.0
  0
SPLINE
  5
2FC
100
AcDbEntity
  8
0
100
AcDbSpline
 62
7
  6
CONTINUOUS
 70
0
 71
3
 72
19
 73
15
 74
0
 42
0.0000001
 43
0.0000001
 44
0.0000000001
 40
0.0
 40
0.0
 40
0.0
 40
0.0
 40
0.0669403681
 40
0.1337289018
 40
0.2654729282
 40
0.3303366039
 40
0.3944353411
 40
0.4577463288
 40
0.5202802463
 40
0.5821220094
 40
0.6433005535
 40
0.763913143
 40
0.8826995922
 40
1.0
 40
1.0
 40
1.0
 40
1.0
 10
5.0855745598
 20
3.4515032936
 30
0.0
 10
5.0855745598
 20
3.4507516082
 30
0.0
 10
5.0854972521
 20
3.4492487583
 30
0.0
 10
5.0850494233
 20
3.4462978213
 30
0.0
 10
5.0841734629
 20
3.443450425
 30
0.0
 10
5.082939944
 20
3.4407926557
 30
0.0
 10
5.0818664178
 20
3.4389162964
 30
0.0
 10
5.0806617436
 20
3.4371536521
 30
0.0
 10
5.0793441095
 20
3.4355063684
 30
0.0
 10
5.0779303804
 20
3.4339735108
 30
0.0
 10
5.0759473573
 20
3.4320864768
 30
0.0
 10
5.0732925307
 20
3.4299887044
 30
0.0
 10
5.0698954289
 20
3.4278546581
 30
0.0
 10
5.0675215138
 20
3.4266648792
 30
0.0
 10
5.06631954
 20
3.4261261385
 30
0.0
  0
SPLINE
  5
2FD
100
AcDbEntity
  8
0
100
AcDbSpline
 62
7
  6
CONTINUOUS
 70
0
 71
3
 72
19
 73
15
 74
0
 42
0.0000001
 43
0.0000001
 44
0.0000000001
 40
0.0
 40
0.0
 40
0.0
 40
0.0
 40
0.1059661288
 40
0.2157923576
 40
0.2724569988
 40
0.3304407175
 40
0.3899024969
 40
0.4509761169
 40
0.5783019632
 40
0.712961321
 40
0.7829587392
 40
0.854411464
 40
0.9269812725
 40
1.0
 40
1.0
 40
1.0
 40
1.0
 10
5.1154385699
 20
3.4261261385
 30
0.0
 10
5.114493758
 20
3.4266703354
 30
0.0
 10
5.1126245244
 20
3.4278770149
 30
0.0
 10
5.1104411146
 20
3.4296449989
 30
0.0
 10
5.1087743373
 20
3.4312455627
 30
0.0
 10
5.1075573701
 20
3.4325617809
 30
0.0
 10
5.1063943996
 20
3.4339851697
 30
0.0
 10
5.1049075475
 20
3.4360590661
 30
0.0
 10
5.1032450476
 20
3.4389499636
 30
0.0
 10
5.1019675402
 20
3.4421318385
 30
0.0
 10
5.1012051039
 20
3.4448709482
 30
0.0
 10
5.1007764988
 20
3.4470333405
 30
0.0
 10
5.1005147948
 20
3.4492533257
 30
0.0
 10
5.100454903
 20
3.4507519731
 30
0.0
 10
5.100454903
 20
3.4515032936
 30
0.0
  0
SPLINE
  5
2FE
100
AcDbEntity
  8
0
100
AcDbSpline
 62
7
  6
CONTINUOUS
 70
0
 71
3
 72
20
 73
16
 74
0
 42
0.0000001
 43
0.0000001
 44
0.0000000001
 40
0.0
 40
0.0
 40
0.0
 40
0.0
 40
0.0654851007
 40
0.1308960763
 40
0.2603821205
 40
0.3244629999
 40
0.3880334331
 40
0.4510724604
 40
0.5135833348
 40
0.5756363001
 40
0.6372411514
 40
0.7592762584
 40
0.8198526739
 40
0.8801533968
 40
1.0
 40
1.0
 40
1.0
 40
1.0
 10
5.1357631731
 20
3.4515032936
 30
0.0
 10
5.1357631731
 20
3.4507514975
 30
0.0
 10
5.1356814558
 20
3.4492474503
 30
0.0
 10
5.1352077459
 20
3.4462917218
 30
0.0
 10
5.1342805847
 20
3.4434421191
 30
0.0
 10
5.1329801675
 20
3.4407889351
 30
0.0
 10
5.131846651
 20
3.438912669
 30
0.0
 10
5.1305748263
 20
3.4371502928
 30
0.0
 10
5.1291838979
 20
3.4355033661
 30
0.0
 10
5.1276916493
 20
3.4339708945
 30
0.0
 10
5.1255952769
 20
3.4320814232
 30
0.0
 10
5.1233444831
 20
3.4303975658
 30
0.0
 10
5.1209850071
 20
3.4289094392
 30
0.0
 10
5.118576654
 20
3.427552082
 30
0.0
 10
5.1167050133
 20
3.4266639034
 30
0.0
 10
5.1154385699
 20
3.4261261385
 30
0.0
  0
SPLINE
  5
2FF
100
AcDbEntity
  8
0
100
AcDbSpline
 62
7
  6
CONTINUOUS
 70
0
 71
3
 72
18
 73
14
 74
0
 42
0.0000001
 43
0.0000001
 44
0.0000000001
 40
0.0
 40
0.0
 40
0.0
 40
0.0
 40
0.1008935461
 40
0.2068203367
 40
0.2620430786
 40
0.3189610432
 40
0.4385277058
 40
0.5666881826
 40
0.7039312572
 40
0.7758046202
 40
0.8494496593
 40
0.9244425803
 40
1.0
 40
1.0
 40
1.0
 40
1.0
 10
5.1636069137
 20
3.4261261385
 30
0.0
 10
5.1627663755
 20
3.4266735631
 30
0.0
 10
5.1611026371
 20
3.4278896694
 30
0.0
 10
5.1591782642
 20
3.4296543138
 30
0.0
 10
5.1577091398
 20
3.4312501554
 30
0.0
 10
5.1562505818
 20
3.43303472
 30
0.0
 10
5.1545499877
 20
3.4355509135
 30
0.0
 10
5.1528134946
 20
3.4389726904
 30
0.0
 10
5.1516901619
 20
3.4421434836
 30
0.0
 10
5.1510181495
 20
3.4448749658
 30
0.0
 10
5.1506395452
 20
3.4470362288
 30
0.0
 10
5.1504083978
 20
3.4492548376
 30
0.0
 10
5.1503555112
 20
3.4507521012
 30
0.0
 10
5.1503555112
 20
3.4515032936
 30
0.0
  0
SPLINE
  5
300
100
AcDbEntity
  8
0
100
AcDbSpline
 62
7
  6
CONTINUOUS
 70
0
 71
3
 72
15
 73
11
 74
0
 42
0.0000001
 43
0.0000001
 44
0.0000000001
 40
0.0
 40
0.0
 40
0.0
 40
0.0
 40
0.1285337286
 40
0.2563207279
 40
0.3829112733
 40
0.5082466326
 40
0.5705217588
 40
0.6325170928
 40
0.7557755956
 40
1.0
 40
1.0
 40
1.0
 40
1.0
 10
5.1848053633
 20
3.4515032936
 30
0.0
 10
5.1848053633
 20
3.4500018927
 30
0.0
 10
5.1844672598
 20
3.446997624
 30
0.0
 10
5.1830178536
 20
3.4427344148
 30
0.0
 10
5.1807999039
 20
3.4388658022
 30
0.0
 10
5.1784637092
 20
3.4360155033
 30
0.0
 10
5.1763846957
 20
3.4339689656
 30
0.0
 10
5.1741953059
 20
3.4320773344
 30
0.0
 10
5.1701102479
 20
3.4291487786
 30
0.0
 10
5.1662491169
 20
3.4272018377
 30
0.0
 10
5.1636069137
 20
3.4261261385
 30
0.0
  0
SPLINE
  5
301
100
AcDbEntity
  8
0
100
AcDbSpline
 62
7
  6
CONTINUOUS
 70
0
 71
3
 72
15
 73
11
 74
0
 42
0.0000001
 43
0.0000001
 44
0.0000000001
 40
0.0
 40
0.0
 40
0.0
 40
0.0
 40
0.095281609
 40
0.1452755501
 40
0.197042416
 40
0.3065421685
 40
0.4253038364
 40
0.5545515427
 40
0.6947321258
 40
1.0
 40
1.0
 40
1.0
 40
1.0
 10
5.2103606838
 20
3.4261261385
 30
0.0
 10
5.2096323144
 20
3.4266779601
 30
0.0
 10
5.2085687951
 20
3.4275839191
 30
0.0
 10
5.207236932
 20
3.4289255065
 30
0.0
 10
5.2058916714
 20
3.4304418749
 30
0.0
 10
5.2042859511
 20
3.4326024437
 30
0.0
 10
5.2025628884
 20
3.4355749706
 30
0.0
 10
5.2010735159
 20
3.4389967811
 30
0.0
 10
5.1994682926
 20
3.4442784076
 30
0.0
 10
5.1989691639
 20
3.4485756191
 30
0.0
 10
5.1989691639
 20
3.4515032936
 30
0.0
  0
SPLINE
  5
302
100
AcDbEntity
  8
0
100
AcDbSpline
 62
7
  6
CONTINUOUS
 70
0
 71
3
 72
17
 73
13
 74
0
 42
0.0000001
 43
0.0000001
 44
0.0000000001
 40
0.0
 40
0.0
 40
0.0
 40
0.0
 40
0.1267865803
 40
0.2531965026
 40
0.3789900532
 40
0.5041421812
 40
0.5665377105
 40
0.628778198
 40
0.6908854781
 40
0.7529015428
 40
0.8766227912
 40
1.0
 40
1.0
 40
1.0
 40
1.0
 10
5.2322288271
 20
3.4515032936
 30
0.0
 10
5.2322288271
 20
3.4500013053
 30
0.0
 10
5.2318787947
 20
3.4469910083
 30
0.0
 10
5.2303805008
 20
3.4427250142
 30
0.0
 10
5.228090412
 20
3.4388568973
 30
0.0
 10
5.2256826494
 20
3.4360113519
 30
0.0
 10
5.2235404868
 20
3.4339674819
 30
0.0
 10
5.2218431919
 20
3.4325461636
 30
0.0
 10
5.2200675509
 20
3.4312320831
 30
0.0
 10
5.2176127768
 20
3.4296189436
 30
0.0
 10
5.2144022691
 20
3.4278450254
 30
0.0
 10
5.211720236
 20
3.4266626916
 30
0.0
 10
5.2103606838
 20
3.4261261385
 30
0.0
  0
SPLINE
  5
303
100
AcDbEntity
  8
0
100
AcDbSpline
 62
7
  6
CONTINUOUS
 70
0
 71
3
 72
17
 73
13
 74
0
 42
0.0000001
 43
0.0000001
 44
0.0000000001
 40
0.0
 40
0.0
 40
0.0
 40
0.0
 40
0.0891053752
 40
0.1862735364
 40
0.293004083
 40
0.4108943471
 40
0.5412119521
 40
0.6843106359
 40
0.760315653
 40
0.8387356576
 40
0.9189697051
 40
1.0
 40
1.0
 40
1.0
 40
1.0
 10
5.2552496158
 20
3.4261261385
 30
0.0
 10
5.2546406658
 20
3.4266839283
 30
0.0
 10
5.2534365981
 20
3.4279271571
 30
0.0
 10
5.2517738192
 20
3.4300805008
 30
0.0
 10
5.2502116538
 20
3.4326274377
 30
0.0
 10
5.2487897212
 20
3.4356000942
 30
0.0
 10
5.2475616164
 20
3.4390186357
 30
0.0
 10
5.2467725419
 20
3.4421652898
 30
0.0
 10
5.2462977391
 20
3.4448823473
 30
0.0
 10
5.2460291531
 20
3.4470414185
 30
0.0
 10
5.2458651853
 20
3.4492575286
 30
0.0
 10
5.2458276852
 20
3.4507523287
 30
0.0
 10
5.2458276852
 20
3.4515032936
 30
0.0
  0
SPLINE
  5
304
100
AcDbEntity
  8
0
100
AcDbSpline
 62
7
  6
CONTINUOUS
 70
0
 71
3
 72
17
 73
13
 74
0
 42
0.0000001
 43
0.0000001
 44
0.0000000001
 40
0.0
 40
0.0
 40
0.0
 40
0.0
 40
0.1256321982
 40
0.2511411232
 40
0.3764283306
 40
0.5014884883
 40
0.5639801449
 40
0.6264000649
 40
0.6887616461
 40
0.7510987953
 40
0.8756312979
 40
1.0
 40
1.0
 40
1.0
 40
1.0
 10
5.2775768507
 20
3.4515032936
 30
0.0
 10
5.2775768507
 20
3.4500008911
 30
0.0
 10
5.2772185719
 20
3.4469863668
 30
0.0
 10
5.2756866441
 20
3.4427185143
 30
0.0
 10
5.273347092
 20
3.4388508465
 30
0.0
 10
5.2708903878
 20
3.436008569
 30
0.0
 10
5.2687049816
 20
3.4339664962
 30
0.0
 10
5.2669721098
 20
3.4325453398
 30
0.0
 10
5.2651592686
 20
3.4312314044
 30
0.0
 10
5.2626519254
 20
3.4296176987
 30
0.0
 10
5.259373086
 20
3.4278436166
 30
0.0
 10
5.2566368777
 20
3.4266623699
 30
0.0
 10
5.2552496158
 20
3.4261261385
 30
0.0
  0
SPLINE
  5
305
100
AcDbEntity
  8
0
100
AcDbSpline
 62
7
  6
CONTINUOUS
 70
0
 71
3
 72
17
 73
13
 74
0
 42
0.0000001
 43
0.0000001
 44
0.0000000001
 40
0.0
 40
0.0
 40
0.0
 40
0.0
 40
0.082876738
 40
0.1756153367
 40
0.2797897986
 40
0.397032426
 40
0.528589299
 40
0.6746804007
 40
0.7527394836
 40
0.833508284
 40
0.9163035637
 40
1.0
 40
1.0
 40
1.0
 40
1.0
 10
5.2978414049
 20
3.4261261385
 30
0.0
 10
5.297358884
 20
3.4266918207
 30
0.0
 10
5.2964077996
 20
3.4279525725
 30
0.0
 10
5.295111697
 20
3.4301067136
 30
0.0
 10
5.2938943248
 20
3.4326531466
 30
0.0
 10
5.2927864899
 20
3.4356238884
 30
0.0
 10
5.2918298616
 20
3.4390390257
 30
0.0
 10
5.2912167078
 20
3.4421744278
 30
0.0
 10
5.2908467175
 20
3.4448853757
 30
0.0
 10
5.2906370623
 20
3.4470435086
 30
0.0
 10
5.2905090695
 20
3.4492586025
 30
0.0
 10
5.2904798018
 20
3.4507524193
 30
0.0
 10
5.2904798018
 20
3.4515032936
 30
0.0
  0
SPLINE
  5
306
100
AcDbEntity
  8
0
100
AcDbSpline
 62
7
  6
CONTINUOUS
 70
0
 71
3
 72
17
 73
13
 74
0
 42
0.0000001
 43
0.0000001
 44
0.0000000001
 40
0.0
 40
0.0
 40
0.0
 40
0.0
 40
0.1250239976
 40
0.2500593442
 40
0.375081832
 40
0.5000954923
 40
0.562638424
 40
0.6251531836
 40
0.6876486811
 40
0.7501545433
 40
0.8751124061
 40
1.0
 40
1.0
 40
1.0
 40
1.0
 10
5.3204127078
 20
3.4515032936
 30
0.0
 10
5.3204127078
 20
3.4500006674
 30
0.0
 10
5.3200500219
 20
3.4469838653
 30
0.0
 10
5.3185001744
 20
3.4427150439
 30
0.0
 10
5.3161343255
 20
3.4388476505
 30
0.0
 10
5.3136516402
 20
3.4360071127
 30
0.0
 10
5.3114432619
 20
3.4339659824
 30
0.0
 10
5.3096914788
 20
3.4325449122
 30
0.0
 10
5.3078588628
 20
3.4312310532
 30
0.0
 10
5.3053235733
 20
3.4296170569
 30
0.0
 10
5.3020084138
 20
3.4278428941
 30
0.0
 10
5.2992434012
 20
3.4266622054
 30
0.0
 10
5.2978414049
 20
3.4261261385
 30
0.0
  0
ENDSEC
  0
SECTION
  2
OBJECTS
  0
DICTIONARY
  5
C
100
AcDbDictionary
280
0
281
1
  3
ACAD_GROUP
350
D
  3
ACAD_MLINESTYLE
350
17
  3
ACAD_LAYOUT
350
1A
  3
ACAD_PLOTSETTINGS
350
19
  3
ACAD_PLOTSTYLENAME
350
E
  0
DICTIONARY
  5
D
102
{ACAD_REACTORS
330
C
102
}
100
AcDbDictionary
280
0
281
1
  0
ACDBDICTIONARYWDFLT
  5
E
102
{ACAD_REACTORS
330
C
102
}
100
AcDbDictionary
281
1
  3
Normal
350
F
100
AcDbDictionaryWithDefault
340
F
  0
DICTIONARY
  5
17
102
{ACAD_REACTORS
330
C
102
}
100
AcDbDictionary
280
0
281
1
  3
Standard
350
18
  0
DICTIONARY
  5
19
102
{ACAD_REACTORS
330
C
102
}
100
AcDbDictionary
281
1
  0
DICTIONARY
  5
1A
102
{ACAD_REACTORS
330
C
102
}
100
AcDbDictionary
281
1
  3
Model
350
307
  3
Layout1
350
308
  0
ACDBPLACEHOLDER
  5
F
102
{ACAD_REACTORS
330
E
102
}
  0
MLINESTYLE
  5
18
102
{ACAD_REACTORS
330
17
102
}
100
AcDbMlineStyle
  2
STANDARD
 70
0
  3

 62
256
 51
90.0
 52
90.0
 71
2
 49
0.5
 62
256
  6
BYLAYER
 49
-0.5
 62
256
  6
BYLAYER
  0
LAYOUT
  5
307
102
{ACAD_REACTORS
330
1A
102
}
100
AcDbPlotSettings
  1

  2
none_device
  4
ANSI_A_(11.00_x_8.50_Inches)
  6

 40
0.0
 41
0.0
 42
0.0
 43
0.0
 44
279.4
 45
215.9
 46
0.0
 47
0.0
 48
0.0
 49
0.0
140
0.0
141
0.0
142
1.0
143
1.0
 70
1024
 72
0
 73
0
 74
0
  7

 75
0
147
1.0
148
0.0
149
0.0
100
AcDbLayout
  1
Model
 70
0
 71
0
 10
0.0
 20
0.0
 11
11.0
 21
8.5
 12
0.0
 22
0.0
 32
0.0
 14
0.0
 24
0.0
 34
0.0
 15
0.0
 25
0.0
 35
0.0
146
0.0
 13
0.0
 23
0.0
 33
0.0
 16
1.0
 26
0.0
 36
0.0
 17
0.0
 27
1.0
 37
0.0
 76
0
330
202
345
0
346
0
  0
LAYOUT
  5
308
102
{ACAD_REACTORS
330
1A
102
}
100
AcDbPlotSettings
  1

  2
none_device
  4
ANSI_A_(11.00_x_8.50_Inches)
  6

 40
0.0
 41
0.0
 42
0.0
 43
0.0
 44
279.4
 45
215.9
 46
0.0
 47
0.0
 48
0.0
 49
0.0
140
0.0
141
0.0
142
1.0
143
1.0
 70
0
 72
0
 73
0
 74
0
  7

 75
0
147
1.0
148
0.0
149
0.0
100
AcDbLayout
  1
Layout1
 70
0
 71
1
 10
0.0
 20
0.0
 11
11.0
 21
8.5
 12
0.0
 22
0.0
 32
0.0
 14
0.0
 24
0.0
 34
0.0
 15
0.0
 25
0.0
 35
0.0
146
0.0
 13
0.0
 23
0.0
 33
0.0
 16
1.0
 26
0.0
 36
0.0
 17
0.0
 27
1.0
 37
0.0
 76
0
330
203
345
0
346
0
  0
ENDSEC
  0
EOF
