999
DXF file: 3230-1660_right.dxf
999
Pro/ENGINEER 2019352 by Parametric Technology Corporation
  0
SECTION
  2
HEADER
  9
$ACADVER
  1
AC1032
  9
$DWGCODEPAGE
  3
ANSI_1252
  9
$EXTMAX
 10
11.0
 20
8.5
 30
0.0
  9
$EXTMIN
 10
0.0
 20
0.0
 30
0.0
  9
$LIMMIN
 10
0.0
 20
0.0
  9
$LIMMAX
 10
11.0
 20
8.5
  9
$VIEWCTR
 10
5.5
 20
4.25
  9
$VIEWSIZE
 40
8.5
  9
$CLAYER
  8
0
  9
$LTSCALE
 40
0.605
  9
$CELTYPE
  6
BYLAYER
  9
$DIMSCALE
 40
1.0
  9
$DIMASZ
 40
0.1
  9
$DIMEXO
 40
0.0625
  9
$DIMDLI
 40
0.418
  9
$DIMEXE
 40
0.125
  9
$DIMCEN
 40
0.099
  9
$DIMLFAC
 40
1.0
  9
$DIMBLK
  1
_FILLED
  9
$DIMALT
 70
1
  9
$DIMALTD
 70
2
  9
$DIMALTTD
 70
2
  9
$DIMALTF
 40
25.4
  9
$DIMTXT
 40
0.08
  9
$DIMTOL
 70
1
  9
$DIMLIM
 70
0
  9
$DIMTFAC
 40
1.0
  9
$DIMTP
 40
0.001
  9
$DIMTM
 40
0.001
  9
$DIMGAP
 40
0.09
  9
$DIMDSEP
 70
46
  9
$AUNITS
 70
0
  9
$PDMODE
 70
3
  9
$PDSIZE
 40
0.3125
  9
$HANDSEED
  5
318
  9
$TILEMODE
 70
1
  9
$MEASUREMENT
 70
0
  9
$INSUNITS
 70
1
  0
ENDSEC
  0
SECTION
  2
CLASSES
  0
CLASS
  1
ACDBDICTIONARYWDFLT
  2
AcDbDictionaryWithDefault
  3
AutoCAD 2000
 90
0
 91
1
280
0
281
0
  0
CLASS
  1
ACDBPLACEHOLDER
  2
AcDbPlaceHolder
  3
AutoCAD 2000
 90
0
 91
1
280
0
281
0
  0
CLASS
  1
LAYOUT
  2
AcDbLayout
  3
AutoCAD 2000
 90
0
 91
0
280
0
281
0
  0
ENDSEC
  0
SECTION
  2
TABLES
  0
TABLE
  2
VPORT
  5
8
100
AcDbSymbolTable
 70
2
  0
VPORT
  5
1F4
100
AcDbSymbolTableRecord
100
AcDbViewportTableRecord
  2
*ACTIVE
 70
0
 10
0.0
 20
0.0
 11
1.0
 21
1.0
 12
5.5
 22
4.25
 13
0.0
 23
0.0
 14
1.0
 24
1.0
 15
0.0
 25
0.0
 16
0.0
 26
0.0
 36
1.0
 17
0.0
 27
0.0
 37
0.0
 40
8.5
 41
1.2941176471
 42
50.0
 43
0.0
 44
0.0
 50
0.0
 51
0.0
 71
0
 72
100
 73
1
 74
1
 75
0
 76
0
 77
0
 78
0
  0
ENDTAB
  0
TABLE
  2
LTYPE
  5
5
100
AcDbSymbolTable
 70
6
  0
LTYPE
  5
14
100
AcDbSymbolTableRecord
100
AcDbLinetypeTableRecord
  2
BYBLOCK
 70
0
  3

 72
65
 73
0
 40
0.0
  0
LTYPE
  5
15
100
AcDbSymbolTableRecord
100
AcDbLinetypeTableRecord
  2
BYLAYER
 70
0
  3

 72
65
 73
0
 40
0.0
  0
LTYPE
  5
16
100
AcDbSymbolTableRecord
100
AcDbLinetypeTableRecord
  2
CONTINUOUS
 70
64
  3
Solid line
 72
65
 73
0
 40
0.0
  0
LTYPE
  5
1F5
100
AcDbSymbolTableRecord
100
AcDbLinetypeTableRecord
  2
CENTER
 70
64
  3
____ _ ____ _ ____ _ ____ _ ____ _ ____ _ ____
 72
65
 73
4
 40
0.6
 49
0.375
 74
0
 49
-0.075
 74
0
 49
0.075
 74
0
 49
-0.075
 74
0
  0
LTYPE
  5
1F6
100
AcDbSymbolTableRecord
100
AcDbLinetypeTableRecord
  2
HIDDEN
 70
64
  3
- - - - - - - - - - - - - - - - - - - -
 72
65
 73
2
 40
0.2
 49
0.1
 74
0
 49
-0.1
 74
0
  0
LTYPE
  5
1F7
100
AcDbSymbolTableRecord
100
AcDbLinetypeTableRecord
  2
PHANTOM
 70
64
  3
_____ _ _ _____ _ _ _____ _ _ _____
 72
65
 73
6
 40
0.8
 49
0.45
 74
0
 49
-0.05
 74
0
 49
0.1
 74
0
 49
-0.05
 74
0
 49
0.1
 74
0
 49
-0.05
 74
0
  0
LTYPE
  5
1F8
100
AcDbSymbolTableRecord
100
AcDbLinetypeTableRecord
  2
DOT
 70
64
  3
. . . . . . . . . . . . . . . . . . . .
 72
65
 73
2
 40
0.2
 49
0.1
 74
0
 49
-0.1
 74
0
  0
LTYPE
  5
1F9
100
AcDbSymbolTableRecord
100
AcDbLinetypeTableRecord
  2
DASHED
 70
64
  3
- - - - - - - - - - - - - - - - - - - -
 72
65
 73
2
 40
0.2
 49
0.1
 74
0
 49
-0.1
 74
0
  0
ENDTAB
  0
TABLE
  2
LAYER
  5
2
100
AcDbSymbolTable
 70
36
  0
LAYER
  5
10
100
AcDbSymbolTableRecord
100
AcDbLayerTableRecord
  2
0
 70
0
 62
7
  6
CONTINUOUS
370
-3
390
F
  0
LAYER
  5
1FA
100
AcDbSymbolTableRecord
100
AcDbLayerTableRecord
  2
DEFAULT_1
 70
0
 62
7
  6
CENTER
370
-3
390
F
  0
LAYER
  5
1FB
100
AcDbSymbolTableRecord
100
AcDbLayerTableRecord
  2
DEFAULT_2
 70
0
 62
8
  6
HIDDEN
370
-3
390
F
  0
LAYER
  5
1FC
100
AcDbSymbolTableRecord
100
AcDbLayerTableRecord
  2
DEFAULT_3
 70
0
 62
7
  6
PHANTOM
370
-3
390
F
  0
LAYER
  5
1FD
100
AcDbSymbolTableRecord
100
AcDbLayerTableRecord
  2
DEFAULT_COORDINATE_SYSTEM
 70
0
 62
7
  6
CONTINUOUS
370
-3
390
F
  0
LAYER
  5
1FE
100
AcDbSymbolTableRecord
100
AcDbLayerTableRecord
  2
DEFAULT_DATUM_AXES
 70
0
 62
7
  6
CONTINUOUS
370
-3
390
F
  0
LAYER
  5
1FF
100
AcDbSymbolTableRecord
100
AcDbLayerTableRecord
  2
DEFAULT_DATUM_PLANES
 70
0
 62
7
  6
CONTINUOUS
370
-3
390
F
  0
ENDTAB
  0
TABLE
  2
STYLE
  5
3
100
AcDbSymbolTable
 70
1
  0
STYLE
  5
11
100
AcDbSymbolTableRecord
100
AcDbTextStyleTableRecord
  2
STANDARD
 70
0
 40
0.0
 41
0.8
 50
0.0
 71
0
 42
0.2
  3
txt
  4

  0
STYLE
  5
200
100
AcDbSymbolTableRecord
100
AcDbTextStyleTableRecord
  2
TEXTSTYLE_1
 70
0
 40
0.0
 41
0.8
 50
0.0
 71
0
 42
0.2
  3
gdt
  4

  0
ENDTAB
  0
TABLE
  2
VIEW
  5
6
100
AcDbSymbolTable
 70
0
  0
ENDTAB
  0
TABLE
  2
UCS
  5
7
100
AcDbSymbolTable
 70
0
  0
ENDTAB
  0
TABLE
  2
APPID
  5
9
100
AcDbSymbolTable
 70
1
  0
APPID
  5
201
100
AcDbSymbolTableRecord
100
AcDbRegAppTableRecord
  2
ACAD
 70
0
  0
ENDTAB
  0
TABLE
  2
BLOCK_RECORD
  5
1
100
AcDbSymbolTable
 70
0
  0
BLOCK_RECORD
  5
202
100
AcDbSymbolTableRecord
100
AcDbBlockTableRecord
  2
*Model_Space
  0
BLOCK_RECORD
  5
203
100
AcDbSymbolTableRecord
100
AcDbBlockTableRecord
  2
*Paper_Space
  0
BLOCK_RECORD
  5
204
100
AcDbSymbolTableRecord
100
AcDbBlockTableRecord
  2
_FILLED
  0
ENDTAB
  0
TABLE
  2
DIMSTYLE
  5
A
100
AcDbSymbolTable
 70
1
100
AcDbDimStyleTable
 71
0
  0
DIMSTYLE
105
205
100
AcDbSymbolTableRecord
100
AcDbDimStyleTableRecord
  2
STANDARD
 70
0
  3

  4

 40
1.0
 41
0.1
 42
0.0625
 43
0.38
 44
0.125
 45
0.0
 46
0.0
 47
0.001
 48
0.001
140
0.08
141
0.09
142
0.0
143
25.4
144
1.0
145
0.0
146
1.0
147
0.09
 71
1.0
 72
0.0
 73
1
 74
1
 75
0
 76
0
 77
0
 78
4
 79
1
170
1
171
2
172
0
173
0
174
0
175
0
176
0
177
0
178
0
270
2
179
3
271
3
272
3
273
2
274
2
275
0
280
0
281
0
282
0
283
1
284
4
285
0
286
0
287
3
288
0
340
11
278
46
341
204
342
204
343
204
344
204
  0
ENDTAB
  0
ENDSEC
  0
SECTION
  2
BLOCKS
  0
BLOCK
  5
20
100
AcDbEntity
  8
0
100
AcDbBlockBegin
  2
*Model_Space
 70
0
 10
0.0
 20
0.0
 30
0.0
  3
*Model_Space
  1

  0
ENDBLK
  5
21
100
AcDbEntity
  8
0
100
AcDbBlockEnd
  0
BLOCK
  5
1C
100
AcDbEntity
  8
0
100
AcDbBlockBegin
  2
*Paper_Space
 70
0
 10
0.0
 20
0.0
 30
0.0
  3
*Paper_Space
  1

  0
ENDBLK
  5
1D
100
AcDbEntity
  8
0
100
AcDbBlockEnd
  0
BLOCK
  5
206
100
AcDbEntity
  8
0
100
AcDbBlockBegin
  2
_FILLED
 70
64
 10
0.0
 20
0.0
  3
_FILLED
  1

  0
SOLID
  5
207
100
AcDbEntity
  8
0
  6
BYBLOCK
 62
0
100
AcDbTrace
 10
0.0
 20
0.0
 11
-1.0
 21
0.2
 12
-1.0
 22
-0.2
 13
-1.0
 23
-0.2
  0
ENDBLK
  5
208
100
AcDbEntity
  8
0
  6
BYBLOCK
 62
0
100
AcDbBlockEnd
  0
ENDSEC
  0
SECTION
  2
ENTITIES
  0
MTEXT
  5
209
100
AcDbEntity
  8
0
100
AcDbMText
 62
2
  6
CONTINUOUS
  7
STANDARD
 71
3
 72
1
 10
5.4021425154
 20
2.5350776349
 30
0.0
 11
1.0
 21
0.0
 31
0.0
 73
2
 44
0.9
  1
SCALE 1.000
 40
0.08
 41
0.704
  0
LINE
  5
20A
100
AcDbEntity
  8
0
100
AcDbLine
 62
7
  6
CONTINUOUS
 10
0.0
 20
0.0
 11
0.0
 21
8.5
  0
LINE
  5
20B
100
AcDbEntity
  8
0
100
AcDbLine
 62
7
  6
CONTINUOUS
 10
0.0
 20
0.0
 11
11.0
 21
0.0
  0
LINE
  5
20C
100
AcDbEntity
  8
0
100
AcDbLine
 62
7
  6
CONTINUOUS
 10
0.0
 20
8.5
 11
11.0
 21
8.5
  0
LINE
  5
20D
100
AcDbEntity
  8
0
100
AcDbLine
 62
7
  6
CONTINUOUS
 10
11.0
 20
0.0
 11
11.0
 21
8.5
  0
LINE
  5
20E
100
AcDbEntity
  8
0
100
AcDbLine
 62
7
  6
CONTINUOUS
 10
3.7748204203
 20
4.3015032936
 11
3.7748204203
 21
5.2815032936
  0
LINE
  5
20F
100
AcDbEntity
  8
0
100
AcDbLine
 62
7
  6
CONTINUOUS
 10
3.8048204203
 20
4.2718149254
 11
3.8048204203
 21
4.2725530585
  0
LINE
  5
210
100
AcDbEntity
  8
0
100
AcDbLine
 62
7
  6
CONTINUOUS
 10
3.8048204203
 20
4.2760816755
 11
3.8048204203
 21
4.2782889659
  0
LINE
  5
211
100
AcDbEntity
  8
0
100
AcDbLine
 62
7
  6
CONTINUOUS
 10
3.8048204203
 20
4.2853122175
 11
3.8048204203
 21
4.2889674079
  0
LINE
  5
212
100
AcDbEntity
  8
0
100
AcDbLine
 62
7
  6
CONTINUOUS
 10
3.8048204203
 20
4.2994176563
 11
3.8048204203
 21
4.3044855452
  0
LINE
  5
213
100
AcDbEntity
  8
0
100
AcDbLine
 62
7
  6
CONTINUOUS
 10
3.8048204203
 20
4.3182621488
 11
3.8048204203
 21
4.3246939296
  0
LINE
  5
214
100
AcDbEntity
  8
0
100
AcDbLine
 62
7
  6
CONTINUOUS
 10
3.8048204203
 20
4.3416642121
 11
3.8048204203
 21
4.3493979434
  0
LINE
  5
215
100
AcDbEntity
  8
0
100
AcDbLine
 62
7
  6
CONTINUOUS
 10
3.8048204203
 20
4.3693984718
 11
3.8048204203
 21
4.3783596734
  0
LINE
  5
216
100
AcDbEntity
  8
0
100
AcDbLine
 62
7
  6
CONTINUOUS
 10
3.8048204203
 20
4.4011978316
 11
3.8048204203
 21
4.4113002023
  0
LINE
  5
217
100
AcDbEntity
  8
0
100
AcDbLine
 62
7
  6
CONTINUOUS
 10
3.8048204203
 20
4.4367560464
 11
3.8048204203
 21
4.4479022948
  0
LINE
  5
218
100
AcDbEntity
  8
0
100
AcDbLine
 62
7
  6
CONTINUOUS
 10
3.8048204203
 20
4.4757306711
 11
3.8048204203
 21
4.4878134528
  0
LINE
  5
219
100
AcDbEntity
  8
0
100
AcDbLine
 62
7
  6
CONTINUOUS
 10
3.8048204203
 20
4.5177463588
 11
3.8048204203
 21
4.5306493099
  0
LINE
  5
21A
100
AcDbEntity
  8
0
100
AcDbLine
 62
7
  6
CONTINUOUS
 10
3.8048204203
 20
4.5623984754
 11
3.8048204203
 21
4.5759973335
  0
LINE
  5
21B
100
AcDbEntity
  8
0
100
AcDbLine
 62
7
  6
CONTINUOUS
 10
3.8048204203
 20
4.6092569967
 11
3.8048204203
 21
4.6234207973
  0
LINE
  5
21C
100
AcDbEntity
  8
0
100
AcDbLine
 62
7
  6
CONTINUOUS
 10
3.8048204203
 20
4.6578706494
 11
3.8048204203
 21
4.6724629875
  0
LINE
  5
21D
100
AcDbEntity
  8
0
100
AcDbLine
 62
7
  6
CONTINUOUS
 10
3.8048204203
 20
4.7077712576
 11
3.8048204203
 21
4.7226516008
  0
LINE
  5
21E
100
AcDbEntity
  8
0
100
AcDbLine
 62
7
  6
CONTINUOUS
 10
3.8048204203
 20
4.758478251
 11
3.8048204203
 21
4.7735032936
  0
LINE
  5
21F
100
AcDbEntity
  8
0
100
AcDbLine
 62
7
  6
CONTINUOUS
 10
3.8048204203
 20
4.8095032936
 11
3.8048204203
 21
4.8245283362
  0
LINE
  5
220
100
AcDbEntity
  8
0
100
AcDbLine
 62
7
  6
CONTINUOUS
 10
3.8048204203
 20
4.8603549864
 11
3.8048204203
 21
4.8752353296
  0
LINE
  5
221
100
AcDbEntity
  8
0
100
AcDbLine
 62
7
  6
CONTINUOUS
 10
3.8048204203
 20
4.9105435997
 11
3.8048204203
 21
4.9251359378
  0
LINE
  5
222
100
AcDbEntity
  8
0
100
AcDbLine
 62
7
  6
CONTINUOUS
 10
3.8048204203
 20
4.9595857899
 11
3.8048204203
 21
4.9737495905
  0
LINE
  5
223
100
AcDbEntity
  8
0
100
AcDbLine
 62
7
  6
CONTINUOUS
 10
3.8048204203
 20
5.0070092537
 11
3.8048204203
 21
5.0206081118
  0
LINE
  5
224
100
AcDbEntity
  8
0
100
AcDbLine
 62
7
  6
CONTINUOUS
 10
3.8048204203
 20
5.0523572773
 11
3.8048204203
 21
5.0652602284
  0
LINE
  5
225
100
AcDbEntity
  8
0
100
AcDbLine
 62
7
  6
CONTINUOUS
 10
3.8048204203
 20
5.0951931344
 11
3.8048204203
 21
5.1072759161
  0
LINE
  5
226
100
AcDbEntity
  8
0
100
AcDbLine
 62
7
  6
CONTINUOUS
 10
3.8048204203
 20
5.1351042924
 11
3.8048204203
 21
5.1462505408
  0
LINE
  5
227
100
AcDbEntity
  8
0
100
AcDbLine
 62
7
  6
CONTINUOUS
 10
3.8048204203
 20
5.1717063849
 11
3.8048204203
 21
5.1818087556
  0
LINE
  5
228
100
AcDbEntity
  8
0
100
AcDbLine
 62
7
  6
CONTINUOUS
 10
3.8048204203
 20
5.2046469138
 11
3.8048204203
 21
5.2136081154
  0
LINE
  5
229
100
AcDbEntity
  8
0
100
AcDbLine
 62
7
  6
CONTINUOUS
 10
3.8048204203
 20
5.2336086438
 11
3.8048204203
 21
5.2413423751
  0
LINE
  5
22A
100
AcDbEntity
  8
0
100
AcDbLine
 62
7
  6
CONTINUOUS
 10
3.8048204203
 20
5.2583126576
 11
3.8048204203
 21
5.2647444384
  0
LINE
  5
22B
100
AcDbEntity
  8
0
100
AcDbLine
 62
7
  6
CONTINUOUS
 10
3.8048204203
 20
5.278521042
 11
3.8048204203
 21
5.2835889309
  0
LINE
  5
22C
100
AcDbEntity
  8
0
100
AcDbLine
 62
7
  6
CONTINUOUS
 10
3.8048204203
 20
5.3047176213
 11
3.8048204203
 21
5.3069249117
  0
LINE
  5
22D
100
AcDbEntity
  8
0
100
AcDbLine
 62
7
  6
CONTINUOUS
 10
3.8048204203
 20
5.2940391793
 11
3.8048204203
 21
5.2976943697
  0
LINE
  5
22E
100
AcDbEntity
  8
0
100
AcDbLine
 62
7
  6
CONTINUOUS
 10
3.8048204203
 20
5.3104535287
 11
3.8048204203
 21
5.3111916618
  0
LINE
  5
22F
100
AcDbEntity
  8
0
100
AcDbLine
 62
7
  6
CONTINUOUS
 10
6.2928725474
 20
3.6665032936
 11
6.5148204203
 21
3.6665032936
  0
LINE
  5
230
100
AcDbEntity
  8
0
100
AcDbLine
 62
7
  6
CONTINUOUS
 10
4.1198204203
 20
4.7915032936
 11
4.1198204203
 21
5.2915032936
  0
LINE
  5
231
100
AcDbEntity
  8
0
100
AcDbLine
 62
7
  6
CONTINUOUS
 10
4.3698204203
 20
4.7915032936
 11
4.3698204203
 21
5.2915032936
  0
LINE
  5
232
100
AcDbEntity
  8
0
100
AcDbLine
 62
7
  6
CONTINUOUS
 10
4.7148204203
 20
4.2718149254
 11
3.8048203693
 21
4.2718149254
  0
LINE
  5
233
100
AcDbEntity
  8
0
100
AcDbLine
 62
7
  6
CONTINUOUS
 10
4.7148204203
 20
4.2725530585
 11
3.8048204203
 21
4.2725530585
  0
LINE
  5
234
100
AcDbEntity
  8
0
100
AcDbLine
 62
7
  6
CONTINUOUS
 10
4.7148204203
 20
4.2760816755
 11
3.8048204203
 21
4.2760816755
  0
LINE
  5
235
100
AcDbEntity
  8
0
100
AcDbLine
 62
7
  6
CONTINUOUS
 10
4.7148204203
 20
4.2782889659
 11
3.8048204203
 21
4.2782889659
  0
LINE
  5
236
100
AcDbEntity
  8
0
100
AcDbLine
 62
7
  6
CONTINUOUS
 10
4.7148204203
 20
4.2853122175
 11
3.8048204203
 21
4.2853122175
  0
LINE
  5
237
100
AcDbEntity
  8
0
100
AcDbLine
 62
7
  6
CONTINUOUS
 10
4.7148204203
 20
4.2889674079
 11
3.8048204203
 21
4.2889674079
  0
LINE
  5
238
100
AcDbEntity
  8
0
100
AcDbLine
 62
7
  6
CONTINUOUS
 10
5.9748204203
 20
4.2915032936
 11
4.7748204203
 21
4.2915032936
  0
LINE
  5
239
100
AcDbEntity
  8
0
100
AcDbLine
 62
7
  6
CONTINUOUS
 10
4.7148204203
 20
4.2994176563
 11
3.8048204203
 21
4.2994176563
  0
LINE
  5
23A
100
AcDbEntity
  8
0
100
AcDbLine
 62
7
  6
CONTINUOUS
 10
4.7148204203
 20
4.3044855452
 11
3.8048204203
 21
4.3044855452
  0
LINE
  5
23B
100
AcDbEntity
  8
0
100
AcDbLine
 62
7
  6
CONTINUOUS
 10
4.7748204203
 20
4.3065032936
 11
4.7148204203
 21
4.3065032936
  0
LINE
  5
23C
100
AcDbEntity
  8
0
100
AcDbLine
 62
7
  6
CONTINUOUS
 10
4.7148204203
 20
4.3182621488
 11
3.8048204203
 21
4.3182621488
  0
LINE
  5
23D
100
AcDbEntity
  8
0
100
AcDbLine
 62
7
  6
CONTINUOUS
 10
4.7148204203
 20
4.3246939296
 11
3.8048204203
 21
4.3246939296
  0
LINE
  5
23E
100
AcDbEntity
  8
0
100
AcDbLine
 62
7
  6
CONTINUOUS
 10
4.7148204203
 20
5.3111916618
 11
4.7148204203
 21
4.2718149254
  0
LINE
  5
23F
100
AcDbEntity
  8
0
100
AcDbLine
 62
7
  6
CONTINUOUS
 10
4.7748204203
 20
4.2915061194
 11
4.7748204203
 21
5.2915004678
  0
LINE
  5
240
100
AcDbEntity
  8
0
100
AcDbLine
 62
7
  6
CONTINUOUS
 10
4.7148204203
 20
4.3416642121
 11
3.8048204203
 21
4.3416642121
  0
LINE
  5
241
100
AcDbEntity
  8
0
100
AcDbLine
 62
7
  6
CONTINUOUS
 10
4.7148204203
 20
4.3493979434
 11
3.8048204203
 21
4.3493979434
  0
LINE
  5
242
100
AcDbEntity
  8
0
100
AcDbLine
 62
7
  6
CONTINUOUS
 10
6.0048204203
 20
4.3665032936
 11
6.0148204203
 21
4.3665032936
  0
LINE
  5
243
100
AcDbEntity
  8
0
100
AcDbLine
 62
7
  6
CONTINUOUS
 10
4.7148204203
 20
4.3693984718
 11
3.8048204203
 21
4.3693984718
  0
LINE
  5
244
100
AcDbEntity
  8
0
100
AcDbLine
 62
7
  6
CONTINUOUS
 10
4.7148204203
 20
4.3783596734
 11
3.8048204203
 21
4.3783596734
  0
LINE
  5
245
100
AcDbEntity
  8
0
100
AcDbLine
 62
7
  6
CONTINUOUS
 10
3.7794432652
 20
4.4003600042
 11
4.7148204203
 21
4.4003600042
  0
LINE
  5
246
100
AcDbEntity
  8
0
100
AcDbLine
 62
7
  6
CONTINUOUS
 10
4.7148204203
 20
4.4011978316
 11
3.8048204203
 21
4.4011978316
  0
LINE
  5
247
100
AcDbEntity
  8
0
100
AcDbLine
 62
7
  6
CONTINUOUS
 10
4.7148204203
 20
4.4113002023
 11
3.8048204203
 21
4.4113002023
  0
LINE
  5
248
100
AcDbEntity
  8
0
100
AcDbLine
 62
7
  6
CONTINUOUS
 10
3.7794432652
 20
4.4337072623
 11
4.7148204203
 21
4.4337072623
  0
LINE
  5
249
100
AcDbEntity
  8
0
100
AcDbLine
 62
7
  6
CONTINUOUS
 10
4.7148204203
 20
4.4367560464
 11
3.8048204203
 21
4.4367560464
  0
LINE
  5
24A
100
AcDbEntity
  8
0
100
AcDbLine
 62
7
  6
CONTINUOUS
 10
4.7148204203
 20
4.4479022948
 11
3.8048204203
 21
4.4479022948
  0
LINE
  5
24B
100
AcDbEntity
  8
0
100
AcDbLine
 62
7
  6
CONTINUOUS
 10
3.7794432652
 20
4.4705002918
 11
4.7148204203
 21
4.4705002918
  0
LINE
  5
24C
100
AcDbEntity
  8
0
100
AcDbLine
 62
7
  6
CONTINUOUS
 10
4.7148204203
 20
4.4757306711
 11
3.8048204203
 21
4.4757306711
  0
LINE
  5
24D
100
AcDbEntity
  8
0
100
AcDbLine
 62
7
  6
CONTINUOUS
 10
4.7148204203
 20
4.4878134528
 11
3.8048204203
 21
4.4878134528
  0
LINE
  5
24E
100
AcDbEntity
  8
0
100
AcDbLine
 62
7
  6
CONTINUOUS
 10
3.7794432652
 20
4.5103847557
 11
4.7148204203
 21
4.5103847557
  0
LINE
  5
24F
100
AcDbEntity
  8
0
100
AcDbLine
 62
7
  6
CONTINUOUS
 10
4.7148204203
 20
4.5177463588
 11
3.8048204203
 21
4.5177463588
  0
LINE
  5
250
100
AcDbEntity
  8
0
100
AcDbLine
 62
7
  6
CONTINUOUS
 10
4.7148204203
 20
4.5306493099
 11
3.8048204203
 21
4.5306493099
  0
LINE
  5
251
100
AcDbEntity
  8
0
100
AcDbLine
 62
7
  6
CONTINUOUS
 10
3.7794432652
 20
4.5529765448
 11
4.7148204203
 21
4.5529765448
  0
LINE
  5
252
100
AcDbEntity
  8
0
100
AcDbLine
 62
7
  6
CONTINUOUS
 10
4.7148204203
 20
4.5623984754
 11
3.8048204203
 21
4.5623984754
  0
LINE
  5
253
100
AcDbEntity
  8
0
100
AcDbLine
 62
7
  6
CONTINUOUS
 10
4.7148204203
 20
4.5759973335
 11
3.8048204203
 21
4.5759973335
  0
LINE
  5
254
100
AcDbEntity
  8
0
100
AcDbLine
 62
7
  6
CONTINUOUS
 10
3.7794432652
 20
4.5978654768
 11
4.7148204203
 21
4.5978654768
  0
LINE
  5
255
100
AcDbEntity
  8
0
100
AcDbLine
 62
7
  6
CONTINUOUS
 10
4.7148204203
 20
4.6092569967
 11
3.8048204203
 21
4.6092569967
  0
LINE
  5
256
100
AcDbEntity
  8
0
100
AcDbLine
 62
7
  6
CONTINUOUS
 10
4.7148204203
 20
4.6234207973
 11
3.8048204203
 21
4.6234207973
  0
LINE
  5
257
100
AcDbEntity
  8
0
100
AcDbLine
 62
7
  6
CONTINUOUS
 10
3.7794432652
 20
4.6446192469
 11
4.7148204203
 21
4.6446192469
  0
LINE
  5
258
100
AcDbEntity
  8
0
100
AcDbLine
 62
7
  6
CONTINUOUS
 10
4.7148204203
 20
4.6578706494
 11
3.8048204203
 21
4.6578706494
  0
LINE
  5
259
100
AcDbEntity
  8
0
100
AcDbLine
 62
7
  6
CONTINUOUS
 10
4.7148204203
 20
4.6724629875
 11
4.2829570892
 21
4.6724629875
  0
LINE
  5
25A
100
AcDbEntity
  8
0
100
AcDbLine
 62
7
  6
CONTINUOUS
 10
4.2066837514
 20
4.6724629875
 11
3.8048204203
 21
4.6724629875
  0
LINE
  5
25B
100
AcDbEntity
  8
0
100
AcDbLine
 62
7
  6
CONTINUOUS
 10
3.7794432652
 20
4.6927875907
 11
4.168137893
 21
4.6927875907
  0
LINE
  5
25C
100
AcDbEntity
  8
0
100
AcDbLine
 62
7
  6
CONTINUOUS
 10
4.3215029476
 20
4.6927875907
 11
4.7148204203
 21
4.6927875907
  0
LINE
  5
25D
100
AcDbEntity
  8
0
100
AcDbLine
 62
7
  6
CONTINUOUS
 10
4.7148204203
 20
4.7077712576
 11
4.3376317674
 21
4.7077712576
  0
LINE
  5
25E
100
AcDbEntity
  8
0
100
AcDbLine
 62
7
  6
CONTINUOUS
 10
4.1520090733
 20
4.7077712576
 11
3.8048204203
 21
4.7077712576
  0
LINE
  5
25F
100
AcDbEntity
  8
0
100
AcDbLine
 62
7
  6
CONTINUOUS
 10
4.7148204203
 20
4.7226516008
 11
4.349148961
 21
4.7226516008
  0
LINE
  5
260
100
AcDbEntity
  8
0
100
AcDbLine
 62
7
  6
CONTINUOUS
 10
4.1404918796
 20
4.7226516008
 11
3.8048204203
 21
4.7226516008
  0
LINE
  5
261
100
AcDbEntity
  8
0
100
AcDbLine
 62
7
  6
CONTINUOUS
 10
3.7794432652
 20
4.7419066206
 11
4.1300808455
 21
4.7419066206
  0
LINE
  5
262
100
AcDbEntity
  8
0
100
AcDbLine
 62
7
  6
CONTINUOUS
 10
4.3595599951
 20
4.7419066206
 11
4.7148204203
 21
4.7419066206
  0
LINE
  5
263
100
AcDbEntity
  8
0
100
AcDbLine
 62
7
  6
CONTINUOUS
 10
4.7148204203
 20
4.758478251
 11
4.3653788981
 21
4.758478251
  0
LINE
  5
264
100
AcDbEntity
  8
0
100
AcDbLine
 62
7
  6
CONTINUOUS
 10
4.1242619426
 20
4.758478251
 11
3.8048204203
 21
4.758478251
  0
LINE
  5
265
100
AcDbEntity
  8
0
100
AcDbLine
 62
7
  6
CONTINUOUS
 10
4.7148204203
 20
4.7735032936
 11
4.3685176313
 21
4.7735032936
  0
LINE
  5
266
100
AcDbEntity
  8
0
100
AcDbLine
 62
7
  6
CONTINUOUS
 10
4.1211232094
 20
4.7735032936
 11
3.8048204203
 21
4.7735032936
  0
LINE
  5
267
100
AcDbEntity
  8
0
100
AcDbLine
 62
7
  6
CONTINUOUS
 10
3.7794432652
 20
4.7915032936
 11
4.1198204203
 21
4.7915032936
  0
LINE
  5
268
100
AcDbEntity
  8
0
100
AcDbLine
 62
7
  6
CONTINUOUS
 10
4.3698204203
 20
4.7915032936
 11
4.7148204203
 21
4.7915032936
  0
LINE
  5
269
100
AcDbEntity
  8
0
100
AcDbLine
 62
7
  6
CONTINUOUS
 10
4.7148204203
 20
4.8095032936
 11
4.3698204203
 21
4.8095032936
  0
LINE
  5
26A
100
AcDbEntity
  8
0
100
AcDbLine
 62
7
  6
CONTINUOUS
 10
4.1198204203
 20
4.8095032936
 11
3.8048204203
 21
4.8095032936
  0
LINE
  5
26B
100
AcDbEntity
  8
0
100
AcDbLine
 62
7
  6
CONTINUOUS
 10
4.7148204203
 20
4.8245283362
 11
4.3698204203
 21
4.8245283362
  0
LINE
  5
26C
100
AcDbEntity
  8
0
100
AcDbLine
 62
7
  6
CONTINUOUS
 10
4.1198204203
 20
4.8245283362
 11
3.8048204203
 21
4.8245283362
  0
LINE
  5
26D
100
AcDbEntity
  8
0
100
AcDbLine
 62
7
  6
CONTINUOUS
 10
3.7794432652
 20
4.8410999666
 11
4.1198204203
 21
4.8410999666
  0
LINE
  5
26E
100
AcDbEntity
  8
0
100
AcDbLine
 62
7
  6
CONTINUOUS
 10
4.3698204203
 20
4.8410999666
 11
4.7148204203
 21
4.8410999666
  0
LINE
  5
26F
100
AcDbEntity
  8
0
100
AcDbLine
 62
7
  6
CONTINUOUS
 10
4.7148204203
 20
4.8603549864
 11
4.3698204203
 21
4.8603549864
  0
LINE
  5
270
100
AcDbEntity
  8
0
100
AcDbLine
 62
7
  6
CONTINUOUS
 10
4.1198204203
 20
4.8603549864
 11
3.8048204203
 21
4.8603549864
  0
LINE
  5
271
100
AcDbEntity
  8
0
100
AcDbLine
 62
7
  6
CONTINUOUS
 10
4.7148204203
 20
4.8752353296
 11
4.3698204203
 21
4.8752353296
  0
LINE
  5
272
100
AcDbEntity
  8
0
100
AcDbLine
 62
7
  6
CONTINUOUS
 10
4.1198204203
 20
4.8752353296
 11
3.8048204203
 21
4.8752353296
  0
LINE
  5
273
100
AcDbEntity
  8
0
100
AcDbLine
 62
7
  6
CONTINUOUS
 10
3.7794432652
 20
4.8902189965
 11
4.1198204203
 21
4.8902189965
  0
LINE
  5
274
100
AcDbEntity
  8
0
100
AcDbLine
 62
7
  6
CONTINUOUS
 10
4.3698204203
 20
4.8902189965
 11
4.7148204203
 21
4.8902189965
  0
LINE
  5
275
100
AcDbEntity
  8
0
100
AcDbLine
 62
7
  6
CONTINUOUS
 10
4.7148204203
 20
4.9105435997
 11
4.3698204203
 21
4.9105435997
  0
LINE
  5
276
100
AcDbEntity
  8
0
100
AcDbLine
 62
7
  6
CONTINUOUS
 10
4.1198204203
 20
4.9105435997
 11
3.8048204203
 21
4.9105435997
  0
LINE
  5
277
100
AcDbEntity
  8
0
100
AcDbLine
 62
7
  6
CONTINUOUS
 10
4.7148204203
 20
4.9251359378
 11
4.3698204203
 21
4.9251359378
  0
LINE
  5
278
100
AcDbEntity
  8
0
100
AcDbLine
 62
7
  6
CONTINUOUS
 10
4.1198204203
 20
4.9251359378
 11
3.8048204203
 21
4.9251359378
  0
LINE
  5
279
100
AcDbEntity
  8
0
100
AcDbLine
 62
7
  6
CONTINUOUS
 10
3.7794432652
 20
4.9383873403
 11
4.1198204203
 21
4.9383873403
  0
LINE
  5
27A
100
AcDbEntity
  8
0
100
AcDbLine
 62
7
  6
CONTINUOUS
 10
4.3698204203
 20
4.9383873403
 11
4.7148204203
 21
4.9383873403
  0
LINE
  5
27B
100
AcDbEntity
  8
0
100
AcDbLine
 62
7
  6
CONTINUOUS
 10
4.7148204203
 20
4.9595857899
 11
4.3698204203
 21
4.9595857899
  0
LINE
  5
27C
100
AcDbEntity
  8
0
100
AcDbLine
 62
7
  6
CONTINUOUS
 10
4.1198204203
 20
4.9595857899
 11
3.8048204203
 21
4.9595857899
  0
LINE
  5
27D
100
AcDbEntity
  8
0
100
AcDbLine
 62
7
  6
CONTINUOUS
 10
4.7148204203
 20
4.9737495905
 11
4.3698204203
 21
4.9737495905
  0
LINE
  5
27E
100
AcDbEntity
  8
0
100
AcDbLine
 62
7
  6
CONTINUOUS
 10
4.1198204203
 20
4.9737495905
 11
3.8048204203
 21
4.9737495905
  0
LINE
  5
27F
100
AcDbEntity
  8
0
100
AcDbLine
 62
7
  6
CONTINUOUS
 10
3.7794432652
 20
4.9851411104
 11
4.1198204203
 21
4.9851411104
  0
LINE
  5
280
100
AcDbEntity
  8
0
100
AcDbLine
 62
7
  6
CONTINUOUS
 10
4.3698204203
 20
4.9851411104
 11
4.7148204203
 21
4.9851411104
  0
LINE
  5
281
100
AcDbEntity
  8
0
100
AcDbLine
 62
7
  6
CONTINUOUS
 10
4.7148204203
 20
5.0070092537
 11
4.3698204203
 21
5.0070092537
  0
LINE
  5
282
100
AcDbEntity
  8
0
100
AcDbLine
 62
7
  6
CONTINUOUS
 10
4.1198204203
 20
5.0070092537
 11
3.8048204203
 21
5.0070092537
  0
LINE
  5
283
100
AcDbEntity
  8
0
100
AcDbLine
 62
7
  6
CONTINUOUS
 10
4.7148204203
 20
5.0206081118
 11
4.3698204203
 21
5.0206081118
  0
LINE
  5
284
100
AcDbEntity
  8
0
100
AcDbLine
 62
7
  6
CONTINUOUS
 10
4.1198204203
 20
5.0206081118
 11
3.8048204203
 21
5.0206081118
  0
LINE
  5
285
100
AcDbEntity
  8
0
100
AcDbLine
 62
7
  6
CONTINUOUS
 10
3.7794432652
 20
5.0300300424
 11
4.1198204203
 21
5.0300300424
  0
LINE
  5
286
100
AcDbEntity
  8
0
100
AcDbLine
 62
7
  6
CONTINUOUS
 10
4.3698204203
 20
5.0300300424
 11
4.7148204203
 21
5.0300300424
  0
LINE
  5
287
100
AcDbEntity
  8
0
100
AcDbLine
 62
7
  6
CONTINUOUS
 10
4.7148204203
 20
5.0523572773
 11
4.3698204203
 21
5.0523572773
  0
LINE
  5
288
100
AcDbEntity
  8
0
100
AcDbLine
 62
7
  6
CONTINUOUS
 10
4.1198204203
 20
5.0523572773
 11
3.8048204203
 21
5.0523572773
  0
LINE
  5
289
100
AcDbEntity
  8
0
100
AcDbLine
 62
7
  6
CONTINUOUS
 10
4.7148204203
 20
5.0652602284
 11
4.3698204203
 21
5.0652602284
  0
LINE
  5
28A
100
AcDbEntity
  8
0
100
AcDbLine
 62
7
  6
CONTINUOUS
 10
4.1198204203
 20
5.0652602284
 11
3.8048204203
 21
5.0652602284
  0
LINE
  5
28B
100
AcDbEntity
  8
0
100
AcDbLine
 62
7
  6
CONTINUOUS
 10
3.7794432652
 20
5.0726218315
 11
4.1198204203
 21
5.0726218315
  0
LINE
  5
28C
100
AcDbEntity
  8
0
100
AcDbLine
 62
7
  6
CONTINUOUS
 10
4.3698204203
 20
5.0726218315
 11
4.7148204203
 21
5.0726218315
  0
LINE
  5
28D
100
AcDbEntity
  8
0
100
AcDbLine
 62
7
  6
CONTINUOUS
 10
4.7148204203
 20
5.0951931344
 11
4.3698204203
 21
5.0951931344
  0
LINE
  5
28E
100
AcDbEntity
  8
0
100
AcDbLine
 62
7
  6
CONTINUOUS
 10
4.1198204203
 20
5.0951931344
 11
3.8048204203
 21
5.0951931344
  0
LINE
  5
28F
100
AcDbEntity
  8
0
100
AcDbLine
 62
7
  6
CONTINUOUS
 10
4.7148204203
 20
5.1072759161
 11
4.3698204203
 21
5.1072759161
  0
LINE
  5
290
100
AcDbEntity
  8
0
100
AcDbLine
 62
7
  6
CONTINUOUS
 10
4.1198204203
 20
5.1072759161
 11
3.8048204203
 21
5.1072759161
  0
LINE
  5
291
100
AcDbEntity
  8
0
100
AcDbLine
 62
7
  6
CONTINUOUS
 10
3.7794432652
 20
5.1125062954
 11
4.1198204203
 21
5.1125062954
  0
LINE
  5
292
100
AcDbEntity
  8
0
100
AcDbLine
 62
7
  6
CONTINUOUS
 10
4.3698204203
 20
5.1125062954
 11
4.7148204203
 21
5.1125062954
  0
LINE
  5
293
100
AcDbEntity
  8
0
100
AcDbLine
 62
7
  6
CONTINUOUS
 10
4.7148204203
 20
5.1351042924
 11
4.3698204203
 21
5.1351042924
  0
LINE
  5
294
100
AcDbEntity
  8
0
100
AcDbLine
 62
7
  6
CONTINUOUS
 10
4.1198204203
 20
5.1351042924
 11
3.8048204203
 21
5.1351042924
  0
LINE
  5
295
100
AcDbEntity
  8
0
100
AcDbLine
 62
7
  6
CONTINUOUS
 10
4.7148204203
 20
5.1462505408
 11
4.3698204203
 21
5.1462505408
  0
LINE
  5
296
100
AcDbEntity
  8
0
100
AcDbLine
 62
7
  6
CONTINUOUS
 10
4.1198204203
 20
5.1462505408
 11
3.8048204203
 21
5.1462505408
  0
LINE
  5
297
100
AcDbEntity
  8
0
100
AcDbLine
 62
7
  6
CONTINUOUS
 10
3.7794432652
 20
5.1492993249
 11
4.1198204203
 21
5.1492993249
  0
LINE
  5
298
100
AcDbEntity
  8
0
100
AcDbLine
 62
7
  6
CONTINUOUS
 10
4.3698204203
 20
5.1492993249
 11
4.7148204203
 21
5.1492993249
  0
LINE
  5
299
100
AcDbEntity
  8
0
100
AcDbLine
 62
7
  6
CONTINUOUS
 10
4.7148204203
 20
5.1717063849
 11
4.3698204203
 21
5.1717063849
  0
LINE
  5
29A
100
AcDbEntity
  8
0
100
AcDbLine
 62
7
  6
CONTINUOUS
 10
4.1198204203
 20
5.1717063849
 11
3.8048204203
 21
5.1717063849
  0
LINE
  5
29B
100
AcDbEntity
  8
0
100
AcDbLine
 62
7
  6
CONTINUOUS
 10
4.7148204203
 20
5.1818087556
 11
4.3698204203
 21
5.1818087556
  0
LINE
  5
29C
100
AcDbEntity
  8
0
100
AcDbLine
 62
7
  6
CONTINUOUS
 10
4.1198204203
 20
5.1818087556
 11
3.8048204203
 21
5.1818087556
  0
LINE
  5
29D
100
AcDbEntity
  8
0
100
AcDbLine
 62
7
  6
CONTINUOUS
 10
3.7794432652
 20
5.182646583
 11
4.1198204203
 21
5.182646583
  0
LINE
  5
29E
100
AcDbEntity
  8
0
100
AcDbLine
 62
7
  6
CONTINUOUS
 10
4.3698204203
 20
5.182646583
 11
4.7148204203
 21
5.182646583
  0
LINE
  5
29F
100
AcDbEntity
  8
0
100
AcDbLine
 62
7
  6
CONTINUOUS
 10
4.7148204203
 20
5.2046469138
 11
4.3698204203
 21
5.2046469138
  0
LINE
  5
2A0
100
AcDbEntity
  8
0
100
AcDbLine
 62
7
  6
CONTINUOUS
 10
4.1198204203
 20
5.2046469138
 11
3.8048204203
 21
5.2046469138
  0
LINE
  5
2A1
100
AcDbEntity
  8
0
100
AcDbLine
 62
7
  6
CONTINUOUS
 10
4.7148204203
 20
5.2136081154
 11
4.3698204203
 21
5.2136081154
  0
LINE
  5
2A2
100
AcDbEntity
  8
0
100
AcDbLine
 62
7
  6
CONTINUOUS
 10
4.1198204203
 20
5.2136081154
 11
3.8048204203
 21
5.2136081154
  0
LINE
  5
2A3
100
AcDbEntity
  8
0
100
AcDbLine
 62
7
  6
CONTINUOUS
 10
6.0048204203
 20
5.2165032936
 11
6.0148204203
 21
5.2165032936
  0
LINE
  5
2A4
100
AcDbEntity
  8
0
100
AcDbLine
 62
7
  6
CONTINUOUS
 10
4.7148204203
 20
5.2336086438
 11
4.3698204203
 21
5.2336086438
  0
LINE
  5
2A5
100
AcDbEntity
  8
0
100
AcDbLine
 62
7
  6
CONTINUOUS
 10
4.1198204203
 20
5.2336086438
 11
3.8048204203
 21
5.2336086438
  0
LINE
  5
2A6
100
AcDbEntity
  8
0
100
AcDbLine
 62
7
  6
CONTINUOUS
 10
4.7148204203
 20
5.2413423751
 11
4.3698204203
 21
5.2413423751
  0
LINE
  5
2A7
100
AcDbEntity
  8
0
100
AcDbLine
 62
7
  6
CONTINUOUS
 10
4.1198204203
 20
5.2413423751
 11
3.8048204203
 21
5.2413423751
  0
LINE
  5
2A8
100
AcDbEntity
  8
0
100
AcDbLine
 62
7
  6
CONTINUOUS
 10
4.7148204203
 20
5.2583126576
 11
4.3698204203
 21
5.2583126576
  0
LINE
  5
2A9
100
AcDbEntity
  8
0
100
AcDbLine
 62
7
  6
CONTINUOUS
 10
4.1198204203
 20
5.2583126576
 11
3.8048204203
 21
5.2583126576
  0
LINE
  5
2AA
100
AcDbEntity
  8
0
100
AcDbLine
 62
7
  6
CONTINUOUS
 10
4.7148204203
 20
5.2647444384
 11
4.3698204203
 21
5.2647444384
  0
LINE
  5
2AB
100
AcDbEntity
  8
0
100
AcDbLine
 62
7
  6
CONTINUOUS
 10
4.1198204203
 20
5.2647444384
 11
3.8048204203
 21
5.2647444384
  0
LINE
  5
2AC
100
AcDbEntity
  8
0
100
AcDbLine
 62
7
  6
CONTINUOUS
 10
4.7748204203
 20
5.2765032936
 11
4.7148204203
 21
5.2765032936
  0
LINE
  5
2AD
100
AcDbEntity
  8
0
100
AcDbLine
 62
7
  6
CONTINUOUS
 10
4.7148204203
 20
5.278521042
 11
4.3698204203
 21
5.278521042
  0
LINE
  5
2AE
100
AcDbEntity
  8
0
100
AcDbLine
 62
7
  6
CONTINUOUS
 10
4.1198204203
 20
5.278521042
 11
3.8048204203
 21
5.278521042
  0
LINE
  5
2AF
100
AcDbEntity
  8
0
100
AcDbLine
 62
7
  6
CONTINUOUS
 10
4.7148204203
 20
5.2835889309
 11
4.3698204203
 21
5.2835889309
  0
LINE
  5
2B0
100
AcDbEntity
  8
0
100
AcDbLine
 62
7
  6
CONTINUOUS
 10
4.1198204203
 20
5.2835889309
 11
3.8048204203
 21
5.2835889309
  0
LINE
  5
2B1
100
AcDbEntity
  8
0
100
AcDbLine
 62
7
  6
CONTINUOUS
 10
5.9748204203
 20
5.2915032936
 11
4.7748204203
 21
5.2915032936
  0
LINE
  5
2B2
100
AcDbEntity
  8
0
100
AcDbLine
 62
7
  6
CONTINUOUS
 10
4.1091738207
 20
5.2915032936
 11
4.38046702
 21
5.2915032936
  0
LINE
  5
2B3
100
AcDbEntity
  8
0
100
AcDbLine
 62
7
  6
CONTINUOUS
 10
4.7148204203
 20
5.2940391793
 11
4.3841953418
 21
5.2940391793
  0
LINE
  5
2B4
100
AcDbEntity
  8
0
100
AcDbLine
 62
7
  6
CONTINUOUS
 10
4.1054454988
 20
5.2940391793
 11
3.8048204203
 21
5.2940391793
  0
LINE
  5
2B5
100
AcDbEntity
  8
0
100
AcDbLine
 62
7
  6
CONTINUOUS
 10
4.7148204203
 20
5.2976943697
 11
4.3895692931
 21
5.2976943697
  0
LINE
  5
2B6
100
AcDbEntity
  8
0
100
AcDbLine
 62
7
  6
CONTINUOUS
 10
4.1000715476
 20
5.2976943697
 11
3.8048204203
 21
5.2976943697
  0
LINE
  5
2B7
100
AcDbEntity
  8
0
100
AcDbLine
 62
7
  6
CONTINUOUS
 10
4.7148204203
 20
5.3047176213
 11
4.3989769794
 21
5.3047176213
  0
LINE
  5
2B8
100
AcDbEntity
  8
0
100
AcDbLine
 62
7
  6
CONTINUOUS
 10
4.0906638613
 20
5.3047176213
 11
3.8048204203
 21
5.3047176213
  0
LINE
  5
2B9
100
AcDbEntity
  8
0
100
AcDbLine
 62
7
  6
CONTINUOUS
 10
4.7148204203
 20
5.3069249117
 11
4.4017148044
 21
5.3069249117
  0
LINE
  5
2BA
100
AcDbEntity
  8
0
100
AcDbLine
 62
7
  6
CONTINUOUS
 10
4.0879260362
 20
5.3069249117
 11
3.8048204203
 21
5.3069249117
  0
LINE
  5
2BB
100
AcDbEntity
  8
0
100
AcDbLine
 62
7
  6
CONTINUOUS
 10
4.7148204203
 20
5.3104535287
 11
4.4059692846
 21
5.3104535287
  0
LINE
  5
2BC
100
AcDbEntity
  8
0
100
AcDbLine
 62
7
  6
CONTINUOUS
 10
4.0836715561
 20
5.3104535287
 11
3.8048204203
 21
5.3104535287
  0
LINE
  5
2BD
100
AcDbEntity
  8
0
100
AcDbLine
 62
7
  6
CONTINUOUS
 10
4.7148204203
 20
5.3111916618
 11
4.4068592571
 21
5.3111916618
  0
LINE
  5
2BE
100
AcDbEntity
  8
0
100
AcDbLine
 62
7
  6
CONTINUOUS
 10
4.0827815835
 20
5.3111916618
 11
3.8048204203
 21
5.3111916618
  0
LINE
  5
2BF
100
AcDbEntity
  8
0
100
AcDbLine
 62
7
  6
CONTINUOUS
 10
5.9748204203
 20
5.2915032936
 11
5.9748204203
 21
4.2915032936
  0
LINE
  5
2C0
100
AcDbEntity
  8
0
100
AcDbLine
 62
7
  6
CONTINUOUS
 10
6.0048204203
 20
5.2615032936
 11
6.0048204203
 21
4.3215032936
  0
LINE
  5
2C1
100
AcDbEntity
  8
0
100
AcDbLine
 62
7
  6
CONTINUOUS
 10
6.0148204203
 20
4.3192962915
 11
6.0148204203
 21
5.2637064392
  0
LINE
  5
2C2
100
AcDbEntity
  8
0
100
AcDbLine
 62
7
  6
CONTINUOUS
 10
6.0404301764
 20
4.2896192674
 11
6.0404301764
 21
5.2933873198
  0
LINE
  5
2C3
100
AcDbEntity
  8
0
100
AcDbLine
 62
7
  6
CONTINUOUS
 10
6.1838196435
 20
4.1619374499
 11
6.1838196435
 21
5.4210691373
  0
LINE
  5
2C4
100
AcDbEntity
  8
0
100
AcDbLine
 62
7
  6
CONTINUOUS
 10
6.2629516677
 20
3.6943259195
 11
6.2629516677
 21
5.8886806677
  0
LINE
  5
2C5
100
AcDbEntity
  8
0
100
AcDbLine
 62
7
  6
CONTINUOUS
 10
6.2928725474
 20
3.6665032936
 11
6.2928725474
 21
5.9165032936
  0
LINE
  5
2C6
100
AcDbEntity
  8
0
100
AcDbLine
 62
7
  6
CONTINUOUS
 10
6.2928725474
 20
5.9165032936
 11
6.5148204203
 21
5.9165032936
  0
LINE
  5
2C7
100
AcDbEntity
  8
0
100
AcDbLine
 62
7
  6
CONTINUOUS
 10
6.5148204203
 20
3.6665032936
 11
6.5148204203
 21
5.9165032936
  0
ARC
  5
2C8
100
AcDbEntity
  8
0
100
AcDbCircle
 62
7
  6
CONTINUOUS
 10
3.7695450263
 20
6.0701285125
 40
2.5
100
AcDbArc
 50
344.9522620167
 51
355.8378620776
  0
ARC
  5
2C9
100
AcDbEntity
  8
0
100
AcDbCircle
 62
7
  6
CONTINUOUS
 10
3.7695450263
 20
3.5128780747
 40
2.5
100
AcDbArc
 50
4.1621379224
 51
15.0477379833
  0
ARC
  5
2CA
100
AcDbEntity
  8
0
100
AcDbCircle
 62
7
  6
CONTINUOUS
 10
4.2448204203
 20
5.5015032936
 40
0.25
100
AcDbArc
 50
302.8598803789
 51
237.1401196211
  0
ARC
  5
2CB
100
AcDbEntity
  8
0
100
AcDbCircle
 62
7
  6
CONTINUOUS
 10
6.0148204203
 20
5.4665032936
 40
0.175
100
AcDbArc
 50
278.4149680847
 51
344.9522620167
  0
ARC
  5
2CC
100
AcDbEntity
  8
0
100
AcDbCircle
 62
7
  6
CONTINUOUS
 10
6.0148204203
 20
4.1165032936
 40
0.175
100
AcDbArc
 50
15.0477379833
 51
81.5850319153
  0
ARC
  5
2CD
100
AcDbEntity
  8
0
100
AcDbCircle
 62
7
  6
CONTINUOUS
 10
4.2448204203
 20
4.7915032936
 40
0.125
100
AcDbArc
 50
180.0
 51
360.0
  0
ARC
  5
2CE
100
AcDbEntity
  8
0
100
AcDbCircle
 62
7
  6
CONTINUOUS
 10
5.9748204203
 20
5.2615032936
 40
0.03
100
AcDbArc
 50
0.0
 51
90.0
  0
ARC
  5
2CF
100
AcDbEntity
  8
0
100
AcDbCircle
 62
7
  6
CONTINUOUS
 10
5.9748204203
 20
4.3215032936
 40
0.03
100
AcDbArc
 50
270.0
 51
360.0
  0
ARC
  5
2D0
100
AcDbEntity
  8
0
100
AcDbCircle
 62
7
  6
CONTINUOUS
 10
6.0448204203
 20
5.2637102957
 40
0.03
100
AcDbArc
 50
98.4149680847
 51
180.0
  0
ARC
  5
2D1
100
AcDbEntity
  8
0
100
AcDbCircle
 62
7
  6
CONTINUOUS
 10
6.0448204203
 20
4.3192962915
 40
0.03
100
AcDbArc
 50
180.0
 51
261.5850319153
  0
ARC
  5
2D2
100
AcDbEntity
  8
0
100
AcDbCircle
 62
7
  6
CONTINUOUS
 10
6.2928725474
 20
5.8865032936
 40
0.03
100
AcDbArc
 50
90.0
 51
175.8378620776
  0
ARC
  5
2D3
100
AcDbEntity
  8
0
100
AcDbCircle
 62
7
  6
CONTINUOUS
 10
6.2928725474
 20
3.6965032936
 40
0.03
100
AcDbArc
 50
184.1621379224
 51
270.0
  0
ARC
  5
2D4
100
AcDbEntity
  8
0
100
AcDbCircle
 62
7
  6
CONTINUOUS
 10
3.8048204203
 20
4.3015032936
 40
0.03
100
AcDbArc
 50
180.0
 51
212.2309526459
  0
ARC
  5
2D5
100
AcDbEntity
  8
0
100
AcDbCircle
 62
7
  6
CONTINUOUS
 10
3.8048204203
 20
5.2815032936
 40
0.03
100
AcDbArc
 50
147.7690473541
 51
180.0
  0
SPLINE
  5
2D6
100
AcDbEntity
  8
0
100
AcDbSpline
 62
7
  6
CONTINUOUS
 70
0
 71
3
 72
17
 73
13
 74
0
 42
0.0000001
 43
0.0000001
 44
0.0000000001
 40
0.0
 40
0.0
 40
0.0
 40
0.0
 40
0.0748953929
 40
0.149330522
 40
0.2224996861
 40
0.2939087638
 40
0.4305284529
 40
0.5584825455
 40
0.678243715
 40
0.79096247
 40
0.8978534914
 40
1.0
 40
1.0
 40
1.0
 40
1.0
 10
3.8048204203
 20
5.3111916618
 30
0.0
 10
3.8040694571
 20
5.3111916618
 30
0.0
 10
3.8025716244
 20
5.3111364832
 30
0.0
 10
3.8003517922
 20
5.3108972013
 30
0.0
 10
3.7981886782
 20
5.3105071312
 30
0.0
 10
3.7954546457
 20
5.309810574
 30
0.0
 10
3.792280294
 20
5.3086493223
 30
0.0
 10
3.7888593292
 20
5.3068525468
 30
0.0
 10
3.7858879837
 20
5.3047791435
 30
0.0
 10
3.7833480936
 20
5.3025027096
 30
0.0
 10
3.7812023599
 20
5.3000848803
 30
0.0
 10
3.7799895081
 20
5.2983696743
 30
0.0
 10
3.7794432652
 20
5.2975032936
 30
0.0
  0
SPLINE
  5
2D7
100
AcDbEntity
  8
0
100
AcDbSpline
 62
7
  6
CONTINUOUS
 70
0
 71
3
 72
17
 73
13
 74
0
 42
0.0000001
 43
0.0000001
 44
0.0000000001
 40
0.0
 40
0.0
 40
0.0
 40
0.0
 40
0.0775642836
 40
0.1545535933
 40
0.2300434024
 40
0.3034450918
 40
0.4428484768
 40
0.5717564078
 40
0.6906199945
 40
0.8006960527
 40
0.9033920864
 40
1.0
 40
1.0
 40
1.0
 40
1.0
 10
3.8048204203
 20
5.3069249117
 30
0.0
 10
3.8040695809
 20
5.3069249117
 30
0.0
 10
3.8025730752
 20
5.3068771821
 30
0.0
 10
3.8003545478
 20
5.3066701447
 30
0.0
 10
3.798192637
 20
5.3063326437
 30
0.0
 10
3.7954660428
 20
5.305731193
 30
0.0
 10
3.7923037279
 20
5.3047313444
 30
0.0
 10
3.7888832473
 20
5.3031784962
 30
0.0
 10
3.7859103638
 20
5.3013851347
 30
0.0
 10
3.7833671638
 20
5.2994143609
 30
0.0
 10
3.7812178031
 20
5.2973201165
 30
0.0
 10
3.7799935758
 20
5.2958228944
 30
0.0
 10
3.7794432652
 20
5.2950667653
 30
0.0
  0
SPLINE
  5
2D8
100
AcDbEntity
  8
0
100
AcDbSpline
 62
7
  6
CONTINUOUS
 70
0
 71
3
 72
17
 73
13
 74
0
 42
0.0000001
 43
0.0000001
 44
0.0000000001
 40
0.0
 40
0.0
 40
0.0
 40
0.0
 40
0.0803263745
 40
0.159964949
 40
0.237872972
 40
0.3133668253
 40
0.4557501415
 40
0.5857728173
 40
0.7038137439
 40
0.8111796208
 40
0.9094208699
 40
1.0
 40
1.0
 40
1.0
 40
1.0
 10
3.8048204203
 20
5.2976943697
 30
0.0
 10
3.8040696929
 20
5.2976943697
 30
0.0
 10
3.8025743909
 20
5.2976545206
 30
0.0
 10
3.8003570631
 20
5.2974816227
 30
0.0
 10
3.7981963
 20
5.2971997882
 30
0.0
 10
3.7954767512
 20
5.2966985077
 30
0.0
 10
3.7923266849
 20
5.2958676884
 30
0.0
 10
3.7889080707
 20
5.2945730688
 30
0.0
 10
3.7859351876
 20
5.2930771161
 30
0.0
 10
3.7833898959
 20
5.2914318248
 30
0.0
 10
3.7812376073
 20
5.2896825632
 30
0.0
 10
3.7799991095
 20
5.288419146
 30
0.0
 10
3.7794432652
 20
5.2877806455
 30
0.0
  0
SPLINE
  5
2D9
100
AcDbEntity
  8
0
100
AcDbSpline
 62
7
  6
CONTINUOUS
 70
0
 71
3
 72
16
 73
12
 74
0
 42
0.0000001
 43
0.0000001
 44
0.0000000001
 40
0.0
 40
0.0
 40
0.0
 40
0.0
 40
0.0830554429
 40
0.1653177399
 40
0.245632476
 40
0.3232256269
 40
0.4686638265
 40
0.5999436526
 40
0.7173269512
 40
0.8221048998
 40
1.0
 40
1.0
 40
1.0
 40
1.0
 10
3.8048204203
 20
5.2835889309
 30
0.0
 10
3.8040697889
 20
5.2835889309
 30
0.0
 10
3.8025755201
 20
5.2835573183
 30
0.0
 10
3.8003592348
 20
5.2834201274
 30
0.0
 10
3.7981994997
 20
5.283196512
 30
0.0
 10
3.7954862448
 20
5.2827994721
 30
0.0
 10
3.7923477629
 20
5.2821433105
 30
0.0
 10
3.788932403
 20
5.2811182981
 30
0.0
 10
3.7859605283
 20
5.2799330081
 30
0.0
 10
3.7827402668
 20
5.2782842342
 30
0.0
 10
3.7806309919
 20
5.2767987151
 30
0.0
 10
3.7794432652
 20
5.2757151035
 30
0.0
  0
SPLINE
  5
2DA
100
AcDbEntity
  8
0
100
AcDbSpline
 62
7
  6
CONTINUOUS
 70
0
 71
3
 72
16
 73
12
 74
0
 42
0.0000001
 43
0.0000001
 44
0.0000000001
 40
0.0
 40
0.0
 40
0.0
 40
0.0
 40
0.0854804281
 40
0.1700773979
 40
0.3319961922
 40
0.4802056428
 40
0.6126749074
 40
0.7295240104
 40
0.8319710529
 40
0.9216152656
 40
1.0
 40
1.0
 40
1.0
 40
1.0
 10
3.8048204203
 20
5.2647444384
 30
0.0
 10
3.8040698653
 20
5.2647444384
 30
0.0
 10
3.8025764059
 20
5.2647213238
 30
0.0
 10
3.7996639906
 20
5.2645896352
 30
0.0
 10
3.7962098576
 20
5.2642774106
 30
0.0
 10
3.7923657171
 20
5.2636904766
 30
0.0
 10
3.7889536671
 20
5.2629429434
 30
0.0
 10
3.7859855996
 20
5.2620791644
 30
0.0
 10
3.7834419689
 20
5.2611287054
 30
0.0
 10
3.7812897271
 20
5.2601182738
 30
0.0
 10
3.7800157866
 20
5.2593683185
 30
0.0
 10
3.7794432652
 20
5.2589863371
 30
0.0
  0
SPLINE
  5
2DB
100
AcDbEntity
  8
0
100
AcDbSpline
 62
7
  6
CONTINUOUS
 70
0
 71
3
 72
15
 73
11
 74
0
 42
0.0000001
 43
0.0000001
 44
0.0000000001
 40
0.0
 40
0.0
 40
0.0
 40
0.0
 40
0.1738371327
 40
0.3389817404
 40
0.4894458583
 40
0.6229522036
 40
0.7394881246
 40
0.8401745965
 40
0.9265330329
 40
1.0
 40
1.0
 40
1.0
 40
1.0
 10
3.8048204203
 20
5.2413423751
 30
0.0
 10
3.8033276552
 20
5.2413423751
 30
0.0
 10
3.8004164627
 20
5.2412879429
 30
0.0
 10
3.7962191746
 20
5.2410521616
 30
0.0
 10
3.792378828
 20
5.2406872811
 30
0.0
 10
3.7889701293
 20
5.2402227088
 30
0.0
 10
3.7860054848
 20
5.2396861056
 30
0.0
 10
3.7834650288
 20
5.2390959341
 30
0.0
 10
3.7813163233
 20
5.2384691126
 30
0.0
 10
3.7800258252
 20
5.2379975751
 30
0.0
 10
3.7794432652
 20
5.2377554534
 30
0.0
  0
SPLINE
  5
2DC
100
AcDbEntity
  8
0
100
AcDbSpline
 62
7
  6
CONTINUOUS
 70
0
 71
3
 72
15
 73
11
 74
0
 42
0.0000001
 43
0.0000001
 44
0.0000000001
 40
0.0
 40
0.0
 40
0.0
 40
0.0
 40
0.1760401938
 40
0.343073574
 40
0.4948743158
 40
0.6290186643
 40
0.7454083798
 40
0.8450917656
 40
0.9295152676
 40
1.0
 40
1.0
 40
1.0
 40
1.0
 10
3.8048204203
 20
5.2136081154
 30
0.0
 10
3.8033278892
 20
5.2136081154
 30
0.0
 10
3.8004191445
 20
5.2135871863
 30
0.0
 10
3.796224262
 20
5.2134965016
 30
0.0
 10
3.7923861612
 20
5.2133561772
 30
0.0
 10
3.788979553
 20
5.2131775306
 30
0.0
 10
3.7860172966
 20
5.2129712596
 30
0.0
 10
3.7834794959
 20
5.2127445162
 30
0.0
 10
3.7813342362
 20
5.2125039143
 30
0.0
 10
3.7800333507
 20
5.2123213544
 30
0.0
 10
3.7794432652
 20
5.2122269174
 30
0.0
  0
SPLINE
  5
2DD
100
AcDbEntity
  8
0
100
AcDbSpline
 62
7
  6
CONTINUOUS
 70
0
 71
3
 72
15
 73
11
 74
0
 42
0.0000001
 43
0.0000001
 44
0.0000000001
 40
0.0
 40
0.0
 40
0.0
 40
0.0
 40
0.0704847008
 40
0.1549081324
 40
0.2545914224
 40
0.3709809529
 40
0.5051247634
 40
0.6569250037
 40
0.8239590697
 40
1.0
 40
1.0
 40
1.0
 40
1.0
 10
3.7794432652
 20
4.3707796698
 30
0.0
 10
3.7800333505
 20
4.3706852328
 30
0.0
 10
3.7813342351
 20
4.3705026731
 30
0.0
 10
3.7834794931
 20
4.3702620713
 30
0.0
 10
3.7860172909
 20
4.3700353282
 30
0.0
 10
3.7889795402
 20
4.3698290573
 30
0.0
 10
3.7923861381
 20
4.3696504114
 30
0.0
 10
3.7962242358
 20
4.3695100855
 30
0.0
 10
3.8004191262
 20
4.3694194022
 30
0.0
 10
3.803327883
 20
4.3693984718
 30
0.0
 10
3.8048204203
 20
4.3693984718
 30
0.0
  0
SPLINE
  5
2DE
100
AcDbEntity
  8
0
100
AcDbSpline
 62
7
  6
CONTINUOUS
 70
0
 71
3
 72
15
 73
11
 74
0
 42
0.0000001
 43
0.0000001
 44
0.0000000001
 40
0.0
 40
0.0
 40
0.0
 40
0.0
 40
0.0734657182
 40
0.1598215572
 40
0.2605051849
 40
0.3770374204
 40
0.5105335223
 40
0.6609990847
 40
0.8261551944
 40
1.0
 40
1.0
 40
1.0
 40
1.0
 10
3.7794432652
 20
4.3452511338
 30
0.0
 10
3.7800258153
 20
4.3450090162
 30
0.0
 10
3.7813162837
 20
4.3445374944
 30
0.0
 10
3.7834649298
 20
4.3439106747
 30
0.0
 10
3.7860053114
 20
4.3433205297
 30
0.0
 10
3.7889698091
 20
4.3427839258
 30
0.0
 10
3.7923784002
 20
4.3423193595
 30
0.0
 10
3.7962187664
 20
4.3419544365
 30
0.0
 10
3.8004162332
 20
4.3417186809
 30
0.0
 10
3.8033275894
 20
4.3416642121
 30
0.0
 10
3.8048204203
 20
4.3416642121
 30
0.0
  0
SPLINE
  5
2DF
100
AcDbEntity
  8
0
100
AcDbSpline
 62
7
  6
CONTINUOUS
 70
0
 71
3
 72
16
 73
12
 74
0
 42
0.0000001
 43
0.0000001
 44
0.0000000001
 40
0.0
 40
0.0
 40
0.0
 40
0.0
 40
0.0783833797
 40
0.1680250098
 40
0.27046917
 40
0.387314753
 40
0.5197739962
 40
0.6679850182
 40
0.8299150691
 40
0.9145181638
 40
1.0
 40
1.0
 40
1.0
 40
1.0
 10
3.7794432652
 20
4.3240202502
 30
0.0
 10
3.7800157767
 20
4.3236382753
 30
0.0
 10
3.7812896904
 20
4.3228883438
 30
0.0
 10
3.7834418683
 20
4.3218779173
 30
0.0
 10
3.7859854297
 20
4.3209274989
 30
0.0
 10
3.7889533463
 20
4.3200637205
 30
0.0
 10
3.7923652901
 20
4.3193161962
 30
0.0
 10
3.796209446
 20
4.318729195
 30
0.0
 10
3.7996637493
 20
4.318417
 30
0.0
 10
3.8025763275
 20
4.3182852806
 30
0.0
 10
3.804069853
 20
4.3182621488
 30
0.0
 10
3.8048204203
 20
4.3182621488
 30
0.0
  0
SPLINE
  5
2E0
100
AcDbEntity
  8
0
100
AcDbSpline
 62
7
  6
CONTINUOUS
 70
0
 71
3
 72
16
 73
12
 74
0
 42
0.0000001
 43
0.0000001
 44
0.0000000001
 40
0.0
 40
0.0
 40
0.0
 40
0.0
 40
0.1778910707
 40
0.282666078
 40
0.4000460543
 40
0.531316126
 40
0.6767560561
 40
0.7543507258
 40
0.8346749151
 40
0.9169431845
 40
1.0
 40
1.0
 40
1.0
 40
1.0
 10
3.7794432652
 20
4.3072914837
 30
0.0
 10
3.7806309649
 20
4.3062078967
 30
0.0
 10
3.7827401771
 20
4.3047223978
 30
0.0
 10
3.7859603619
 20
4.3030736797
 30
0.0
 10
3.7889320821
 20
4.3018883962
 30
0.0
 10
3.7923473364
 20
4.3008633878
 30
0.0
 10
3.7954857502
 20
4.3002071934
 30
0.0
 10
3.798199114
 20
4.2998100967
 30
0.0
 10
3.8003590079
 20
4.2995865268
 30
0.0
 10
3.8025754411
 20
4.2994492896
 30
0.0
 10
3.8040697766
 20
4.2994176563
 30
0.0
 10
3.8048204203
 20
4.2994176563
 30
0.0
  0
SPLINE
  5
2E1
100
AcDbEntity
  8
0
100
AcDbSpline
 62
7
  6
CONTINUOUS
 70
0
 71
3
 72
17
 73
13
 74
0
 42
0.0000001
 43
0.0000001
 44
0.0000000001
 40
0.0
 40
0.0
 40
0.0
 40
0.0
 40
0.090577516
 40
0.188816191
 40
0.2961790707
 40
0.4142169021
 40
0.5442301319
 40
0.686615379
 40
0.7621107647
 40
0.8400278996
 40
0.9196722843
 40
1.0
 40
1.0
 40
1.0
 40
1.0
 10
3.7794432652
 20
4.2952259417
 30
0.0
 10
3.7799990996
 20
4.2945874526
 30
0.0
 10
3.7812375766
 20
4.2933240713
 30
0.0
 10
3.783389792
 20
4.2915748263
 30
0.0
 10
3.7859350265
 20
4.2899295968
 30
0.0
 10
3.7889077495
 20
4.2884336536
 30
0.0
 10
3.7923262597
 20
4.2871390387
 30
0.0
 10
3.7954762552
 20
4.2863081786
 30
0.0
 10
3.7981959121
 20
4.2858068264
 30
0.0
 10
3.8003568377
 20
4.2855250487
 30
0.0
 10
3.8025743114
 20
4.2853520927
 30
0.0
 10
3.8040696804
 20
4.2853122175
 30
0.0
 10
3.8048204203
 20
4.2853122175
 30
0.0
  0
SPLINE
  5
2E2
100
AcDbEntity
  8
0
100
AcDbSpline
 62
7
  6
CONTINUOUS
 70
0
 71
3
 72
17
 73
13
 74
0
 42
0.0000001
 43
0.0000001
 44
0.0000000001
 40
0.0
 40
0.0
 40
0.0
 40
0.0
 40
0.0966061751
 40
0.1992996284
 40
0.3093726261
 40
0.4282333369
 40
0.5571321225
 40
0.6965376484
 40
0.7699408847
 40
0.8454394548
 40
0.9224344094
 40
1.0
 40
1.0
 40
1.0
 40
1.0
 10
3.7794432652
 20
4.2879398219
 30
0.0
 10
3.7799935659
 20
4.2871837065
 30
0.0
 10
3.7812177748
 20
4.2856865251
 30
0.0
 10
3.7833670585
 20
4.2835923039
 30
0.0
 10
3.785910207
 20
4.2816215999
 30
0.0
 10
3.7888829262
 20
4.2798282533
 30
0.0
 10
3.792303304
 20
4.2782754099
 30
0.0
 10
3.7954655455
 20
4.2772755135
 30
0.0
 10
3.7981922466
 20
4.2766739766
 30
0.0
 10
3.8003543241
 20
4.2763365429
 30
0.0
 10
3.8025729951
 20
4.2761294364
 30
0.0
 10
3.8040695683
 20
4.2760816755
 30
0.0
 10
3.8048204203
 20
4.2760816755
 30
0.0
  0
SPLINE
  5
2E3
100
AcDbEntity
  8
0
100
AcDbSpline
 62
7
  6
CONTINUOUS
 70
0
 71
3
 72
17
 73
13
 74
0
 42
0.0000001
 43
0.0000001
 44
0.0000000001
 40
0.0
 40
0.0
 40
0.0
 40
0.0
 40
0.1021446845
 40
0.2090331337
 40
0.321748776
 40
0.4415072731
 40
0.5694524902
 40
0.7060744979
 40
0.777485127
 40
0.8506627044
 40
0.9251033218
 40
1.0
 40
1.0
 40
1.0
 40
1.0
 10
3.7794432652
 20
4.2855032936
 30
0.0
 10
3.7799894974
 20
4.28463693
 30
0.0
 10
3.7812023308
 20
4.2829217711
 30
0.0
 10
3.7833479807
 20
4.2805039751
 30
0.0
 10
3.7858878194
 20
4.2782276203
 30
0.0
 10
3.7888589905
 20
4.2761542396
 30
0.0
 10
3.7922798459
 20
4.2743574688
 30
0.0
 10
3.7954541142
 20
4.2731961629
 30
0.0
 10
3.7981882463
 20
4.2724995038
 30
0.0
 10
3.8003515272
 20
4.2721095072
 30
0.0
 10
3.8025714961
 20
4.2718701419
 30
0.0
 10
3.8040693946
 20
4.2718149254
 30
0.0
 10
3.8048203693
 20
4.2718149254
 30
0.0
  0
SPLINE
  5
2E4
100
AcDbEntity
  8
0
100
AcDbSpline
 62
7
  6
CONTINUOUS
 70
0
 71
3
 72
17
 73
13
 74
0
 42
0.0000001
 43
0.0000001
 44
0.0000000001
 40
0.0
 40
0.0
 40
0.0
 40
0.0
 40
0.1070642065
 40
0.2177533006
 40
0.3329339995
 40
0.453606858
 40
0.5807707455
 40
0.7148915718
 40
0.7844769015
 40
0.8555121552
 40
0.9275839885
 40
1.0
 40
1.0
 40
1.0
 40
1.0
 10
3.7794432652
 20
5.2950667653
 30
0.0
 10
3.7799865099
 20
5.2960352973
 30
0.0
 10
3.7811904888
 20
5.2979516642
 30
0.0
 10
3.7833324798
 20
5.300668745
 30
0.0
 10
3.7858684778
 20
5.303227873
 30
0.0
 10
3.7888370259
 20
5.305560783
 30
0.0
 10
3.7922570856
 20
5.3075842994
 30
0.0
 10
3.7954425747
 20
5.3088973398
 30
0.0
 10
3.7981841961
 20
5.3096830346
 30
0.0
 10
3.800348688
 20
5.3101219639
 30
0.0
 10
3.8025700132
 20
5.3103913653
 30
0.0
 10
3.8040693137
 20
5.3104535287
 30
0.0
 10
3.8048204203
 20
5.3104535287
 30
0.0
  0
SPLINE
  5
2E5
100
AcDbEntity
  8
0
100
AcDbSpline
 62
7
  6
CONTINUOUS
 70
0
 71
3
 72
17
 73
13
 74
0
 42
0.0000001
 43
0.0000001
 44
0.0000000001
 40
0.0
 40
0.0
 40
0.0
 40
0.0
 40
0.1113252563
 40
0.2253582947
 40
0.3427603068
 40
0.4643158442
 40
0.5908593708
 40
0.7227980388
 40
0.7907612184
 40
0.8598785409
 40
0.9298199782
 40
1.0
 40
1.0
 40
1.0
 40
1.0
 10
3.7794432652
 20
5.2877806455
 30
0.0
 10
3.7799843019
 20
5.2888424238
 30
0.0
 10
3.7811814555
 20
5.2909419358
 30
0.0
 10
3.7833201022
 20
5.2939314594
 30
0.0
 10
3.7858522192
 20
5.2967479023
 30
0.0
 10
3.7888175477
 20
5.2993171796
 30
0.0
 10
3.792235803
 20
5.3015477017
 30
0.0
 10
3.795431297
 20
5.303000783
 30
0.0
 10
3.7981801432
 20
5.3038684242
 30
0.0
 10
3.8003457901
 20
5.3043521636
 30
0.0
 10
3.8025684629
 20
5.304649086
 30
0.0
 10
3.804069181
 20
5.3047176213
 30
0.0
 10
3.8048204203
 20
5.3047176213
 30
0.0
  0
SPLINE
  5
2E6
100
AcDbEntity
  8
0
100
AcDbSpline
 62
7
  6
CONTINUOUS
 70
0
 71
3
 72
18
 73
14
 74
0
 42
0.0000001
 43
0.0000001
 44
0.0000000001
 40
0.0
 40
0.0
 40
0.0
 40
0.0
 40
0.1149286677
 40
0.2318230018
 40
0.3511602045
 40
0.4119369793
 40
0.4735882851
 40
0.5996430381
 40
0.7297167998
 40
0.7962717301
 40
0.8637132616
 40
0.9317856378
 40
1.0
 40
1.0
 40
1.0
 40
1.0
 10
3.7794432652
 20
5.2757151035
 30
0.0
 10
3.7799826611
 20
5.2768603552
 30
0.0
 10
3.7811746239
 20
5.2791235676
 30
0.0
 10
3.7833102054
 20
5.2823562083
 30
0.0
 10
3.7854050452
 20
5.2848796839
 30
0.0
 10
3.7872892703
 20
5.286763881
 30
0.0
 10
3.7893482316
 20
5.2885696845
 30
0.0
 10
3.7922168011
 20
5.2905984274
 30
0.0
 10
3.7954206951
 20
5.2921777771
 30
0.0
 10
3.7981762814
 20
5.2931193288
 30
0.0
 10
3.8003429865
 20
5.2936432784
 30
0.0
 10
3.8025669525
 20
5.2939649166
 30
0.0
 10
3.8040690515
 20
5.2940391793
 30
0.0
 10
3.8048204203
 20
5.2940391793
 30
0.0
  0
SPLINE
  5
2E7
100
AcDbEntity
  8
0
100
AcDbSpline
 62
7
  6
CONTINUOUS
 70
0
 71
3
 72
18
 73
14
 74
0
 42
0.0000001
 43
0.0000001
 44
0.0000000001
 40
0.0
 40
0.0
 40
0.0
 40
0.0
 40
0.1179139653
 40
0.2372018952
 40
0.3581833821
 40
0.4812616109
 40
0.606945642
 40
0.6708891701
 40
0.7355909073
 40
0.8009594961
 40
0.8669803974
 40
0.9334619643
 40
1.0
 40
1.0
 40
1.0
 40
1.0
 10
3.7794432652
 20
5.2589863371
 30
0.0
 10
3.7799814397
 20
5.2602044882
 30
0.0
 10
3.7811693888
 20
5.2626104357
 30
0.0
 10
3.7833027277
 20
5.2660552648
 30
0.0
 10
3.78582825
 20
5.2693013823
 30
0.0
 10
3.7887863536
 20
5.2722650987
 30
0.0
 10
3.7916171435
 20
5.2744016333
 30
0.0
 10
3.7941039641
 20
5.2758450632
 30
0.0
 10
3.7960890294
 20
5.2767797858
 30
0.0
 10
3.7981728053
 20
5.2775393943
 30
0.0
 10
3.8003403651
 20
5.2780984599
 30
0.0
 10
3.8025655443
 20
5.2784417632
 30
0.0
 10
3.8040689302
 20
5.278521042
 30
0.0
 10
3.8048204203
 20
5.278521042
 30
0.0
  0
SPLINE
  5
2E8
100
AcDbEntity
  8
0
100
AcDbSpline
 62
7
  6
CONTINUOUS
 70
0
 71
3
 72
18
 73
14
 74
0
 42
0.0000001
 43
0.0000001
 44
0.0000000001
 40
0.0
 40
0.0
 40
0.0
 40
0.0
 40
0.1203239401
 40
0.2415596102
 40
0.3638969642
 40
0.487587847
 40
0.613001636
 40
0.6764486311
 40
0.7404109933
 40
0.8048132305
 40
0.8696700746
 40
0.9348432474
 40
1.0
 40
1.0
 40
1.0
 40
1.0
 10
3.7794432652
 20
5.2377554534
 30
0.0
 10
3.7799805363
 20
5.239035214
 30
0.0
 10
3.781165491
 20
5.241561733
 30
0.0
 10
3.7832969209
 20
5.2451854593
 30
0.0
 10
3.7858198356
 20
5.2486002126
 30
0.0
 10
3.7887750035
 20
5.2517187169
 30
0.0
 10
3.791609118
 20
5.2539723637
 30
0.0
 10
3.7941003799
 20
5.2554946372
 30
0.0
 10
3.7960855546
 20
5.2564787392
 30
0.0
 10
3.7981696951
 20
5.2572786265
 30
0.0
 10
3.8003380567
 20
5.2578674804
 30
0.0
 10
3.8025642816
 20
5.2582291213
 30
0.0
 10
3.8040688217
 20
5.2583126576
 30
0.0
 10
3.8048204203
 20
5.2583126576
 30
0.0
  0
SPLINE
  5
2E9
100
AcDbEntity
  8
0
100
AcDbSpline
 62
7
  6
CONTINUOUS
 70
0
 71
3
 72
18
 73
14
 74
0
 42
0.0000001
 43
0.0000001
 44
0.0000000001
 40
0.0
 40
0.0
 40
0.0
 40
0.0
 40
0.1221911111
 40
0.2449444243
 40
0.3683481799
 40
0.4925331124
 40
0.6177529232
 40
0.6808180774
 40
0.7442056124
 40
0.8078514959
 40
0.8717930091
 40
0.9359342723
 40
1.0
 40
1.0
 40
1.0
 40
1.0
 10
3.7794432652
 20
5.2122269174
 30
0.0
 10
3.7799798816
 20
5.2135563856
 30
0.0
 10
3.7811626399
 20
5.216180139
 30
0.0
 10
3.7832926076
 20
5.2199480225
 30
0.0
 10
3.7858134622
 20
5.2234985923
 30
0.0
 10
3.7887661996
 20
5.2267416976
 30
0.0
 10
3.791602721
 20
5.2290898947
 30
0.0
 10
3.7940974804
 20
5.2306759346
 30
0.0
 10
3.7960827066
 20
5.2316998718
 30
0.0
 10
3.7981671152
 20
5.232532274
 30
0.0
 10
3.8003361236
 20
5.2331451959
 30
0.0
 10
3.8025632178
 20
5.2335216624
 30
0.0
 10
3.8040687302
 20
5.2336086438
 30
0.0
 10
3.8048204203
 20
5.2336086438
 30
0.0
  0
SPLINE
  5
2EA
100
AcDbEntity
  8
0
100
AcDbSpline
 62
7
  6
CONTINUOUS
 70
0
 71
3
 72
18
 73
14
 74
0
 42
0.0000001
 43
0.0000001
 44
0.0000000001
 40
0.0
 40
0.0
 40
0.0
 40
0.0
 40
0.123548095
 40
0.2474089517
 40
0.3715963275
 40
0.4961509935
 40
0.6212385829
 40
0.684028004
 40
0.7469968679
 40
0.810088951
 40
0.8733578003
 40
0.9367389212
 40
1.0
 40
1.0
 40
1.0
 40
1.0
 10
3.7794432652
 20
5.182646583
 30
0.0
 10
3.7799794289
 20
5.1840133606
 30
0.0
 10
3.7811606554
 20
5.1867100754
 30
0.0
 10
3.783289572
 20
5.1905860628
 30
0.0
 10
3.7858089122
 20
5.1942384403
 30
0.0
 10
3.7887598026
 20
5.1975749046
 30
0.0
 10
3.7915979748
 20
5.1999940888
 30
0.0
 10
3.794095304
 20
5.2016280729
 30
0.0
 10
3.7960805468
 20
5.2026819048
 30
0.0
 10
3.7981651401
 20
5.203538721
 30
0.0
 10
3.8003346322
 20
5.2041697276
 30
0.0
 10
3.802562393
 20
5.2045573404
 30
0.0
 10
3.8040686592
 20
5.2046469138
 30
0.0
 10
3.8048204203
 20
5.2046469138
 30
0.0
  0
SPLINE
  5
2EB
100
AcDbEntity
  8
0
100
AcDbSpline
 62
7
  6
CONTINUOUS
 70
0
 71
3
 72
13
 73
9
 74
0
 42
0.0000001
 43
0.0000001
 44
0.0000000001
 40
0.0
 40
0.0
 40
0.0
 40
0.0
 40
0.3435398807
 40
0.6297090994
 40
0.7460846063
 40
0.8456558775
 40
0.9298593174
 40
1.0
 40
1.0
 40
1.0
 40
1.0
 10
3.8048204203
 20
5.1818087556
 30
0.0
 10
3.8019119738
 20
5.1818087556
 30
0.0
 10
3.7965806781
 20
5.1818532267
 30
0.0
 10
3.7902659098
 20
5.1820157551
 30
0.0
 10
3.7860186375
 20
5.1821949878
 30
0.0
 10
3.7834811844
 20
5.1823325132
 30
0.0
 10
3.7813363934
 20
5.1824783981
 30
0.0
 10
3.7800343054
 20
5.1825892053
 30
0.0
 10
3.7794432652
 20
5.182646583
 30
0.0
  0
SPLINE
  5
2EC
100
AcDbEntity
  8
0
100
AcDbSpline
 62
7
  6
CONTINUOUS
 70
0
 71
3
 72
17
 73
13
 74
0
 42
0.0000001
 43
0.0000001
 44
0.0000000001
 40
0.0
 40
0.0
 40
0.0
 40
0.0
 40
0.2488115329
 40
0.3735366944
 40
0.4983641709
 40
0.6234012793
 40
0.6860296366
 40
0.7487443994
 40
0.8114940957
 40
0.874342669
 40
0.9372460344
 40
1.0
 40
1.0
 40
1.0
 40
1.0
 10
3.7794432652
 20
5.1492993249
 30
0.0
 10
3.7805146451
 20
5.1520809567
 30
0.0
 10
3.7824523642
 20
5.1561493051
 30
0.0
 10
3.7858058924
 20
5.1611013536
 30
0.0
 10
3.7887557311
 20
5.1644995278
 30
0.0
 10
3.7915948775
 20
5.1669653108
 30
0.0
 10
3.794093875
 20
5.1686308757
 30
0.0
 10
3.7960791172
 20
5.1697043638
 30
0.0
 10
3.7981638238
 20
5.1705772413
 30
0.0
 10
3.8003336327
 20
5.1712201512
 30
0.0
 10
3.8025618382
 20
5.1716151037
 30
0.0
 10
3.8040686114
 20
5.1717063849
 30
0.0
 10
3.8048204203
 20
5.1717063849
 30
0.0
  0
SPLINE
  5
2ED
100
AcDbEntity
  8
0
100
AcDbSpline
 62
7
  6
CONTINUOUS
 70
0
 71
3
 72
15
 73
11
 74
0
 42
0.0000001
 43
0.0000001
 44
0.0000000001
 40
0.0
 40
0.0
 40
0.0
 40
0.0
 40
0.1745414984
 40
0.340289327
 40
0.4911786684
 40
0.624885983
 40
0.7413719774
 40
0.8417355931
 40
0.9274767699
 40
1.0
 40
1.0
 40
1.0
 40
1.0
 10
3.8048204203
 20
5.1462505408
 30
0.0
 10
3.8033277289
 20
5.1462505408
 30
0.0
 10
3.8004173288
 20
5.1462967856
 30
0.0
 10
3.7962208172
 20
5.1464971155
 30
0.0
 10
3.7923811915
 20
5.1468071282
 30
0.0
 10
3.7889731534
 20
5.1472018295
 30
0.0
 10
3.786009244
 20
5.1476576799
 30
0.0
 10
3.7834695689
 20
5.1481589646
 30
0.0
 10
3.7813218416
 20
5.1486912395
 30
0.0
 10
3.7800280713
 20
5.1490927346
 30
0.0
 10
3.7794432652
 20
5.1492993249
 30
0.0
  0
SPLINE
  5
2EE
100
AcDbEntity
  8
0
100
AcDbSpline
 62
7
  6
CONTINUOUS
 70
0
 71
3
 72
17
 73
13
 74
0
 42
0.0000001
 43
0.0000001
 44
0.0000000001
 40
0.0
 40
0.0
 40
0.0
 40
0.0
 40
0.2495481409
 40
0.374509136
 40
0.4994499386
 40
0.6244503778
 40
0.6869971613
 40
0.7495869153
 40
0.8121703043
 40
0.8748160583
 40
0.9374896198
 40
1.0
 40
1.0
 40
1.0
 40
1.0
 10
3.7794432652
 20
5.1125062954
 30
0.0
 10
3.7805140865
 20
5.1153101675
 30
0.0
 10
3.7824504382
 20
5.1194114337
 30
0.0
 10
3.7858045647
 20
5.1244071217
 30
0.0
 10
3.7887538295
 20
5.1278340651
 30
0.0
 10
3.7915934336
 20
5.1303217728
 30
0.0
 10
3.7940932042
 20
5.132002169
 30
0.0
 10
3.7960784438
 20
5.1330848865
 30
0.0
 10
3.7981632013
 20
5.1339653059
 30
0.0
 10
3.8003331584
 20
5.1346138074
 30
0.0
 10
3.8025615744
 20
5.1350122085
 30
0.0
 10
3.8040685887
 20
5.1351042924
 30
0.0
 10
3.8048204203
 20
5.1351042924
 30
0.0
  0
SPLINE
  5
2EF
100
AcDbEntity
  8
0
100
AcDbSpline
 62
7
  6
CONTINUOUS
 70
0
 71
3
 72
16
 73
12
 74
0
 42
0.0000001
 43
0.0000001
 44
0.0000000001
 40
0.0
 40
0.0
 40
0.0
 40
0.0
 40
0.0860097268
 40
0.1711169294
 40
0.3339240026
 40
0.4827508848
 40
0.6154990308
 40
0.7322536152
 40
0.8342094588
 40
0.9229503207
 40
1.0
 40
1.0
 40
1.0
 40
1.0
 10
3.8048204203
 20
5.1072759161
 30
0.0
 10
3.8040698807
 20
5.1072759161
 30
0.0
 10
3.8025765889
 20
5.1072969078
 30
0.0
 10
3.7996648851
 20
5.1074164913
 30
0.0
 10
3.7962124982
 20
5.1076998697
 30
0.0
 10
3.7923694142
 20
5.1082326792
 30
0.0
 10
3.7889582499
 20
5.108911272
 30
0.0
 10
3.7859910397
 20
5.1096953131
 30
0.0
 10
3.7834481231
 20
5.1105579623
 30
0.0
 10
3.781296596
 20
5.111474871
 30
0.0
 10
3.7800182636
 20
5.1121578208
 30
0.0
 10
3.7794432652
 20
5.1125062954
 30
0.0
  0
SPLINE
  5
2F0
100
AcDbEntity
  8
0
100
AcDbSpline
 62
7
  6
CONTINUOUS
 70
0
 71
3
 72
17
 73
13
 74
0
 42
0.0000001
 43
0.0000001
 44
0.0000000001
 40
0.0
 40
0.0
 40
0.0
 40
0.0
 40
0.2494455186
 40
0.3743736268
 40
0.4992985962
 40
0.6243041018
 40
0.6868622385
 40
0.7494694078
 40
0.8120759796
 40
0.8747500181
 40
0.9374556361
 40
1.0
 40
1.0
 40
1.0
 40
1.0
 10
3.7794432652
 20
5.0726218315
 30
0.0
 10
3.7805141639
 20
5.0754225939
 30
0.0
 10
3.7824507055
 20
5.0795192585
 30
0.0
 10
3.7858047493
 20
5.0845088458
 30
0.0
 10
3.7887540943
 20
5.0879317676
 30
0.0
 10
3.7915936352
 20
5.09041641
 30
0.0
 10
3.794093298
 20
5.0920947323
 30
0.0
 10
3.796078538
 20
5.0931761594
 30
0.0
 10
3.7981632885
 20
5.0940555243
 30
0.0
 10
3.8003332249
 20
5.094703244
 30
0.0
 10
3.8025616114
 20
5.0951011628
 30
0.0
 10
3.8040685919
 20
5.0951931344
 30
0.0
 10
3.8048204203
 20
5.0951931344
 30
0.0
  0
SPLINE
  5
2F1
100
AcDbEntity
  8
0
100
AcDbSpline
 62
7
  6
CONTINUOUS
 70
0
 71
3
 72
16
 73
12
 74
0
 42
0.0000001
 43
0.0000001
 44
0.0000000001
 40
0.0
 40
0.0
 40
0.0
 40
0.0
 40
0.083687124
 40
0.1665572881
 40
0.2474306976
 40
0.3255126884
 40
0.4716677189
 40
0.6032508324
 40
0.7204903002
 40
0.8246638622
 40
1.0
 40
1.0
 40
1.0
 40
1.0
 10
3.8048204203
 20
5.0652602284
 30
0.0
 10
3.8040698096
 20
5.0652602284
 30
0.0
 10
3.8025757631
 20
5.065289777
 30
0.0
 10
3.8003597037
 20
5.0654180168
 30
0.0
 10
3.7982001957
 20
5.0656270382
 30
0.0
 10
3.7954883237
 20
5.0659980267
 30
0.0
 10
3.7923524938
 20
5.0666107105
 30
0.0
 10
3.788938004
 20
5.067568358
 30
0.0
 10
3.7859667579
 20
5.0686756699
 30
0.0
 10
3.7827551603
 20
5.070212344
 30
0.0
 10
3.7806397498
 20
5.0716012428
 30
0.0
 10
3.7794432652
 20
5.0726218315
 30
0.0
  0
SPLINE
  5
2F2
100
AcDbEntity
  8
0
100
AcDbSpline
 62
7
  6
CONTINUOUS
 70
0
 71
3
 72
17
 73
13
 74
0
 42
0.0000001
 43
0.0000001
 44
0.0000000001
 40
0.0
 40
0.0
 40
0.0
 40
0.0
 40
0.2485018018
 40
0.373127955
 40
0.4979080036
 40
0.6229607402
 40
0.6856234549
 40
0.7483907839
 40
0.8112103431
 40
0.8741440582
 40
0.9371438494
 40
1.0
 40
1.0
 40
1.0
 40
1.0
 10
3.7794432652
 20
5.0300300424
 30
0.0
 10
3.7805148821
 20
5.0328023778
 30
0.0
 10
3.7824531792
 20
5.0368569624
 30
0.0
 10
3.7858064527
 20
5.0417907646
 30
0.0
 10
3.7887565312
 20
5.0451769085
 30
0.0
 10
3.7915954826
 20
5.0476335262
 30
0.0
 10
3.7940941555
 20
5.0492928927
 30
0.0
 10
3.7960793983
 20
5.0503625223
 30
0.0
 10
3.7981640832
 20
5.0512322472
 30
0.0
 10
3.80033383
 20
5.0518728202
 30
0.0
 10
3.8025619479
 20
5.0522663315
 30
0.0
 10
3.8040686209
 20
5.0523572773
 30
0.0
 10
3.8048204203
 20
5.0523572773
 30
0.0
  0
SPLINE
  5
2F3
100
AcDbEntity
  8
0
100
AcDbSpline
 62
7
  6
CONTINUOUS
 70
0
 71
3
 72
17
 73
13
 74
0
 42
0.0000001
 43
0.0000001
 44
0.0000000001
 40
0.0
 40
0.0
 40
0.0
 40
0.0
 40
0.0810019258
 40
0.1612893261
 40
0.2397912502
 40
0.3158012981
 40
0.4589285935
 40
0.5892442193
 40
0.7071020028
 40
0.813810877
 40
0.9109454978
 40
1.0
 40
1.0
 40
1.0
 40
1.0
 10
3.8048204203
 20
5.0206081118
 30
0.0
 10
3.8040697181
 20
5.0206081118
 30
0.0
 10
3.8025746867
 20
5.0206459724
 30
0.0
 10
3.8003576308
 20
5.0208102525
 30
0.0
 10
3.7981971333
 20
5.021078035
 30
0.0
 10
3.7954792092
 20
5.0215541108
 30
0.0
 10
3.7923320876
 20
5.0223425722
 30
0.0
 10
3.7889141245
 20
5.0235720803
 30
0.0
 10
3.7859415065
 20
5.0249929068
 30
0.0
 10
3.7833959692
 20
5.026555823
 30
0.0
 10
3.7812431779
 20
5.028217667
 30
0.0
 10
3.7800007367
 20
5.0294214398
 30
0.0
 10
3.7794432652
 20
5.0300300424
 30
0.0
  0
SPLINE
  5
2F4
100
AcDbEntity
  8
0
100
AcDbSpline
 62
7
  6
CONTINUOUS
 70
0
 71
3
 72
18
 73
14
 74
0
 42
0.0000001
 43
0.0000001
 44
0.0000000001
 40
0.0
 40
0.0
 40
0.0
 40
0.0
 40
0.1232612506
 40
0.2468876736
 40
0.3709088054
 40
0.4953845645
 40
0.6204994773
 40
0.6833470516
 40
0.7464044729
 40
0.8096139059
 40
0.8730254698
 40
0.9365679959
 40
1.0
 40
1.0
 40
1.0
 40
1.0
 10
3.7794432652
 20
4.9851411104
 30
0.0
 10
3.779979523
 20
4.9864999143
 30
0.0
 10
3.7811610689
 20
4.9891810373
 30
0.0
 10
3.7832902068
 20
4.9930339277
 30
0.0
 10
3.7858098682
 20
4.9966645564
 30
0.0
 10
3.7887611545
 20
4.9999810799
 30
0.0
 10
3.7915989849
 20
5.0023850921
 30
0.0
 10
3.794095769
 20
5.004008824
 30
0.0
 10
3.7960810099
 20
5.0050562673
 30
0.0
 10
3.7981655649
 20
5.0059078652
 30
0.0
 10
3.8003349538
 20
5.0065350054
 30
0.0
 10
3.8025625712
 20
5.0069202347
 30
0.0
 10
3.8040686746
 20
5.0070092537
 30
0.0
 10
3.8048204203
 20
5.0070092537
 30
0.0
  0
SPLINE
  5
2F5
100
AcDbEntity
  8
0
100
AcDbSpline
 62
7
  6
CONTINUOUS
 70
0
 71
3
 72
17
 73
13
 74
0
 42
0.0000001
 43
0.0000001
 44
0.0000000001
 40
0.0
 40
0.0
 40
0.0
 40
0.0
 40
0.0782372016
 40
0.1558714046
 40
0.2319488412
 40
0.3058574789
 40
0.4459776381
 40
0.5751450134
 40
0.6937977005
 40
0.8032105308
 40
0.9048317528
 40
1.0
 40
1.0
 40
1.0
 40
1.0
 10
3.8048204203
 20
4.9737495905
 30
0.0
 10
3.8040696096
 20
4.9737495905
 30
0.0
 10
3.8025734122
 20
4.9737954259
 30
0.0
 10
3.8003551905
 20
4.9739942602
 30
0.0
 10
3.7981935685
 20
4.9743183857
 30
0.0
 10
3.7954687511
 20
4.9748957189
 30
0.0
 10
3.7923094462
 20
4.9758547741
 30
0.0
 10
3.7888892976
 20
4.9773455489
 30
0.0
 10
3.7859162583
 20
4.9790675042
 30
0.0
 10
3.7833724049
 20
4.98096022
 30
0.0
 10
3.7812222288
 20
4.9829717819
 30
0.0
 10
3.7799947801
 20
4.984413146
 30
0.0
 10
3.7794432652
 20
4.9851411104
 30
0.0
  0
SPLINE
  5
2F6
100
AcDbEntity
  8
0
100
AcDbSpline
 62
7
  6
CONTINUOUS
 70
0
 71
3
 72
18
 73
14
 74
0
 42
0.0000001
 43
0.0000001
 44
0.0000000001
 40
0.0
 40
0.0
 40
0.0
 40
0.0
 40
0.1217841193
 40
0.2442068554
 40
0.3673790949
 40
0.4914562959
 40
0.6167254293
 40
0.6798720204
 40
0.7433844707
 40
0.8071949944
 40
0.8713309426
 40
0.935694754
 40
1.0
 40
1.0
 40
1.0
 40
1.0
 10
3.7794432652
 20
4.9383873403
 30
0.0
 10
3.7799800319
 20
4.9397057818
 30
0.0
 10
3.7811632738
 20
4.942307981
 30
0.0
 10
3.7832936494
 20
4.9460438896
 30
0.0
 10
3.7858149891
 20
4.949564378
 30
0.0
 10
3.788768445
 20
4.9527798652
 30
0.0
 10
3.7916045801
 20
4.9551070238
 30
0.0
 10
3.7940986145
 20
4.9566789134
 30
0.0
 10
3.7960838498
 20
4.9576938431
 30
0.0
 10
3.7981681082
 20
4.9585189076
 30
0.0
 10
3.8003367752
 20
4.9591265858
 30
0.0
 10
3.8025635441
 20
4.9594996345
 30
0.0
 10
3.8040687645
 20
4.9595857899
 30
0.0
 10
3.8048204203
 20
4.9595857899
 30
0.0
  0
SPLINE
  5
2F7
100
AcDbEntity
  8
0
100
AcDbSpline
 62
7
  6
CONTINUOUS
 70
0
 71
3
 72
18
 73
14
 74
0
 42
0.0000001
 43
0.0000001
 44
0.0000000001
 40
0.0
 40
0.0
 40
0.0
 40
0.0
 40
0.0755292638
 40
0.150570284
 40
0.2242885294
 40
0.2961670416
 40
0.3659828385
 40
0.4335093995
 40
0.5616716821
 40
0.6812003428
 40
0.7932761671
 40
0.8991640632
 40
1.0
 40
1.0
 40
1.0
 40
1.0
 10
3.8048204203
 20
4.9251359378
 30
0.0
 10
3.8040694883
 20
4.9251359378
 30
0.0
 10
3.8025719944
 20
4.9251893327
 30
0.0
 10
3.8003524667
 20
4.9254209154
 30
0.0
 10
3.7981897278
 20
4.9257983839
 30
0.0
 10
3.7961087739
 20
4.9263116142
 30
0.0
 10
3.7941253059
 20
4.9269436023
 30
0.0
 10
3.7916669615
 20
4.9279094395
 30
0.0
 10
3.7888648219
 20
4.9293332509
 30
0.0
 10
3.7858932533
 20
4.9313397311
 30
0.0
 10
3.7833524118
 20
4.9335432907
 30
0.0
 10
3.7812057832
 20
4.935883963
 30
0.0
 10
3.7799903916
 20
4.9375472601
 30
0.0
 10
3.7794432652
 20
4.9383873403
 30
0.0
  0
SPLINE
  5
2F8
100
AcDbEntity
  8
0
100
AcDbSpline
 62
7
  6
CONTINUOUS
 70
0
 71
3
 72
18
 73
14
 74
0
 42
0.0000001
 43
0.0000001
 44
0.0000000001
 40
0.0
 40
0.0
 40
0.0
 40
0.0
 40
0.1197849625
 40
0.2405839329
 40
0.3626160327
 40
0.4861674568
 40
0.6116397709
 40
0.6751974722
 40
0.7393254588
 40
0.8039447895
 40
0.8690636613
 40
0.9345317277
 40
1.0
 40
1.0
 40
1.0
 40
1.0
 10
3.7794432652
 20
4.8902189965
 30
0.0
 10
3.7799807324
 20
4.8914847389
 30
0.0
 10
3.7811663409
 20
4.8939838295
 30
0.0
 10
3.7832981958
 20
4.8975668728
 30
0.0
 10
3.7858216993
 20
4.9009432854
 30
0.0
 10
3.7887775438
 20
4.9040266045
 30
0.0
 10
3.7916109355
 20
4.9062535951
 30
0.0
 10
3.7941011968
 20
4.9077579096
 30
0.0
 10
3.7960863509
 20
4.9087307764
 30
0.0
 10
3.7981704115
 20
4.9095214966
 30
0.0
 10
3.8003385906
 20
4.9101035685
 30
0.0
 10
3.8025645744
 20
4.9104610334
 30
0.0
 10
3.8040688469
 20
4.9105435997
 30
0.0
 10
3.8048204203
 20
4.9105435997
 30
0.0
  0
SPLINE
  5
2F9
100
AcDbEntity
  8
0
100
AcDbSpline
 62
7
  6
CONTINUOUS
 70
0
 71
3
 72
17
 73
13
 74
0
 42
0.0000001
 43
0.0000001
 44
0.0000000001
 40
0.0
 40
0.0
 40
0.0
 40
0.0
 40
0.0730016609
 40
0.1456280632
 40
0.2171606496
 40
0.2871738611
 40
0.4218763772
 40
0.5492248362
 40
0.669677441
 40
0.7842778649
 40
0.8940789721
 40
1.0
 40
1.0
 40
1.0
 40
1.0
 10
3.8048204203
 20
4.8752353296
 30
0.0
 10
3.8040693589
 20
4.8752353296
 30
0.0
 10
3.8025704738
 20
4.875295801
 30
0.0
 10
3.8003496203
 20
4.8755579763
 30
0.0
 10
3.7981855963
 20
4.8759853599
 30
0.0
 10
3.7954459
 20
4.8767497436
 30
0.0
 10
3.7922629799
 20
4.8780265485
 30
0.0
 10
3.7888425167
 20
4.8799962382
 30
0.0
 10
3.7858730809
 20
4.8822676236
 30
0.0
 10
3.7833360784
 20
4.8847598007
 30
0.0
 10
3.781193128
 20
4.8874059658
 30
0.0
 10
3.7799871701
 20
4.8892746915
 30
0.0
 10
3.7794432652
 20
4.8902189965
 30
0.0
  0
SPLINE
  5
2FA
100
AcDbEntity
  8
0
100
AcDbSpline
 62
7
  6
CONTINUOUS
 70
0
 71
3
 72
17
 73
13
 74
0
 42
0.0000001
 43
0.0000001
 44
0.0000000001
 40
0.0
 40
0.0
 40
0.0
 40
0.0
 40
0.1172500273
 40
0.2360064727
 40
0.3566250269
 40
0.4795503985
 40
0.6053290031
 40
0.7342201374
 40
0.7998660697
 40
0.8662185258
 40
0.9330711044
 40
1.0
 40
1.0
 40
1.0
 40
1.0
 10
3.7794432652
 20
4.8410999666
 30
0.0
 10
3.7799817063
 20
4.842301272
 30
0.0
 10
3.7811705223
 20
4.8446742355
 30
0.0
 10
3.783304442
 20
4.8480701185
 30
0.0
 10
3.7858305318
 20
4.8512700073
 30
0.0
 10
3.7887900059
 20
4.8541915556
 30
0.0
 10
3.7922037846
 20
4.8567312094
 30
0.0
 10
3.7954133985
 20
4.8583961667
 30
0.0
 10
3.7981735643
 20
4.8593875805
 30
0.0
 10
3.8003409991
 20
4.8599385903
 30
0.0
 10
3.802565873
 20
4.8602768643
 30
0.0
 10
3.8040689589
 20
4.8603549864
 30
0.0
 10
3.8048204203
 20
4.8603549864
 30
0.0
  0
SPLINE
  5
2FB
100
AcDbEntity
  8
0
100
AcDbSpline
 62
7
  6
CONTINUOUS
 70
0
 71
3
 72
17
 73
13
 74
0
 42
0.0000001
 43
0.0000001
 44
0.0000000001
 40
0.0
 40
0.0
 40
0.0
 40
0.0
 40
0.0707021298
 40
0.14113652
 40
0.2106937002
 40
0.2790329227
 40
0.4114733926
 40
0.5381635427
 40
0.6595102237
 40
0.7763959539
 40
0.8896559321
 40
1.0
 40
1.0
 40
1.0
 40
1.0
 10
3.8048204203
 20
4.8245283362
 30
0.0
 10
3.8040692263
 20
4.8245283362
 30
0.0
 10
3.8025689235
 20
4.8245953227
 30
0.0
 10
3.8003467138
 20
4.8248856552
 30
0.0
 10
3.7981815229
 20
4.8253589126
 30
0.0
 10
3.7954345113
 20
4.82620706
 30
0.0
 10
3.7922412623
 20
4.8276269482
 30
0.0
 10
3.7888223919
 20
4.8298086976
 30
0.0
 10
3.7858560717
 20
4.8323223529
 30
0.0
 10
3.7833229815
 20
4.8350783052
 30
0.0
 10
3.7811834707
 20
4.8380037184
 30
0.0
 10
3.7799847936
 20
4.8400601477
 30
0.0
 10
3.7794432652
 20
4.8410999666
 30
0.0
  0
SPLINE
  5
2FC
100
AcDbEntity
  8
0
100
AcDbSpline
 62
7
  6
CONTINUOUS
 70
0
 71
3
 72
18
 73
14
 74
0
 42
0.0000001
 43
0.0000001
 44
0.0000000001
 40
0.0
 40
0.0
 40
0.0
 40
0.0
 40
0.1141025521
 40
0.230337788
 40
0.3492256643
 40
0.4098714897
 40
0.4714615827
 40
0.5976224527
 40
0.7281213416
 40
0.7949998146
 40
0.8628275187
 40
0.9313314095
 40
1.0
 40
1.0
 40
1.0
 40
1.0
 10
3.7794432652
 20
4.7915032936
 30
0.0
 10
3.7799830196
 20
4.7926290384
 30
0.0
 10
3.7811761366
 20
4.7948540232
 30
0.0
 10
3.7833123802
 20
4.7980298639
 30
0.0
 10
3.7854067663
 20
4.8005075701
 30
0.0
 10
3.7872901288
 20
4.8023574549
 30
0.0
 10
3.7893505081
 20
4.8041324066
 30
0.0
 10
3.7922212825
 20
4.8061260138
 30
0.0
 10
3.7954232036
 20
4.8076757302
 30
0.0
 10
3.798177204
 20
4.8085999717
 30
0.0
 10
3.8003436586
 20
4.8091145153
 30
0.0
 10
3.8025673159
 20
4.8094303715
 30
0.0
 10
3.8040690827
 20
4.8095032936
 30
0.0
 10
3.8048204203
 20
4.8095032936
 30
0.0
  0
SPLINE
  5
2FD
100
AcDbEntity
  8
0
100
AcDbSpline
 62
7
  6
CONTINUOUS
 70
0
 71
3
 72
18
 73
14
 74
0
 42
0.0000001
 43
0.0000001
 44
0.0000000001
 40
0.0
 40
0.0
 40
0.0
 40
0.0
 40
0.0686673862
 40
0.1371661457
 40
0.2049862322
 40
0.271863084
 40
0.4023590811
 40
0.5285281739
 40
0.5901191617
 40
0.65076636
 40
0.7696574991
 40
0.8858953644
 40
1.0
 40
1.0
 40
1.0
 40
1.0
 10
3.8048204203
 20
4.7735032936
 30
0.0
 10
3.8040690957
 20
4.7735032936
 30
0.0
 10
3.8025673987
 20
4.7735761672
 30
0.0
 10
3.8003438748
 20
4.7738919214
 30
0.0
 10
3.7981776049
 20
4.7744065627
 30
0.0
 10
3.7954237062
 20
4.7753306723
 30
0.0
 10
3.792221696
 20
4.7768803161
 30
0.0
 10
3.7893508565
 20
4.7788739467
 30
0.0
 10
3.7872903202
 20
4.7806488934
 30
0.0
 10
3.7854069207
 20
4.7824988305
 30
0.0
 10
3.7833124847
 20
4.7849765967
 30
0.0
 10
3.7811761605
 20
4.7881524907
 30
0.0
 10
3.7799830296
 20
4.790377528
 30
0.0
 10
3.7794432652
 20
4.7915032936
 30
0.0
  0
SPLINE
  5
2FE
100
AcDbEntity
  8
0
100
AcDbSpline
 62
7
  6
CONTINUOUS
 70
0
 71
3
 72
17
 73
13
 74
0
 42
0.0000001
 43
0.0000001
 44
0.0000000001
 40
0.0
 40
0.0
 40
0.0
 40
0.0
 40
0.1103420528
 40
0.2235994116
 40
0.3404819205
 40
0.4618262363
 40
0.5885079553
 40
0.7209511319
 40
0.7892919527
 40
0.8588570116
 40
0.9292966458
 40
1.0
 40
1.0
 40
1.0
 40
1.0
 10
3.7794432652
 20
4.7419066206
 30
0.0
 10
3.7799847836
 20
4.7429464203
 30
0.0
 10
3.7811834469
 20
4.7450027987
 30
0.0
 10
3.7833228734
 20
4.7479281704
 30
0.0
 10
3.7858559248
 20
4.7506840374
 30
0.0
 10
3.7888220721
 20
4.7531976614
 30
0.0
 10
3.7922408427
 20
4.7553794067
 30
0.0
 10
3.7954340104
 20
4.7567993574
 30
0.0
 10
3.7981811246
 20
4.7576476267
 30
0.0
 10
3.8003464956
 20
4.7581207929
 30
0.0
 10
3.8025688414
 20
4.7584112201
 30
0.0
 10
3.8040692134
 20
4.758478251
 30
0.0
 10
3.8048204203
 20
4.758478251
 30
0.0
  0
SPLINE
  5
2FF
100
AcDbEntity
  8
0
100
AcDbSpline
 62
7
  6
CONTINUOUS
 70
0
 71
3
 72
18
 73
14
 74
0
 42
0.0000001
 43
0.0000001
 44
0.0000000001
 40
0.0
 40
0.0
 40
0.0
 40
0.0
 40
0.066919894
 40
0.1337596315
 40
0.2000969483
 40
0.2657335737
 40
0.3306416136
 40
0.3947234531
 40
0.5204954203
 40
0.6434085346
 40
0.7640163041
 40
0.8827615228
 40
1.0
 40
1.0
 40
1.0
 40
1.0
 10
3.8048204203
 20
4.7226516008
 30
0.0
 10
3.804068972
 20
4.7226516008
 30
0.0
 10
3.8025659621
 20
4.7227296655
 30
0.0
 10
3.8003411939
 20
4.7230678545
 30
0.0
 10
3.7981740398
 20
4.7236188826
 30
0.0
 10
3.796090462
 20
4.7243673873
 30
0.0
 10
3.7941054242
 20
4.7252884692
 30
0.0
 10
3.7916197882
 20
4.7267104163
 30
0.0
 10
3.7887898531
 20
4.7288149355
 30
0.0
 10
3.7858307964
 20
4.7317363121
 30
0.0
 10
3.783304519
 20
4.7349363491
 30
0.0
 10
3.7811705532
 20
4.7383322698
 30
0.0
 10
3.7799817163
 20
4.7407052929
 30
0.0
 10
3.7794432652
 20
4.7419066206
 30
0.0
  0
SPLINE
  5
300
100
AcDbEntity
  8
0
100
AcDbSpline
 62
7
  6
CONTINUOUS
 70
0
 71
3
 72
17
 73
13
 74
0
 42
0.0000001
 43
0.0000001
 44
0.0000000001
 40
0.0
 40
0.0
 40
0.0
 40
0.0
 40
0.1059191009
 40
0.2157176046
 40
0.3303148614
 40
0.4507649355
 40
0.5781047297
 40
0.7128097561
 40
0.7828245462
 40
0.8543653086
 40
0.9269970875
 40
1.0
 40
1.0
 40
1.0
 40
1.0
 10
3.7794432652
 20
4.6927875907
 30
0.0
 10
3.7799871601
 20
4.6937318783
 30
0.0
 10
3.781193103
 20
4.6956005565
 30
0.0
 10
3.7833359713
 20
4.6982466865
 30
0.0
 10
3.7858729308
 20
4.7007387829
 30
0.0
 10
3.7888421963
 20
4.7030101429
 30
0.0
 10
3.7922625587
 20
4.7049798283
 30
0.0
 10
3.7954454003
 20
4.7062566911
 30
0.0
 10
3.7981852009
 20
4.7070211845
 30
0.0
 10
3.8003494002
 20
4.7074484847
 30
0.0
 10
3.8025703924
 20
4.7077107462
 30
0.0
 10
3.8040693461
 20
4.7077712576
 30
0.0
 10
3.8048204203
 20
4.7077712576
 30
0.0
  0
SPLINE
  5
301
100
AcDbEntity
  8
0
100
AcDbSpline
 62
7
  6
CONTINUOUS
 70
0
 71
3
 72
18
 73
14
 74
0
 42
0.0000001
 43
0.0000001
 44
0.0000000001
 40
0.0
 40
0.0
 40
0.0
 40
0.0
 40
0.0654671014
 40
0.1309302133
 40
0.1960418836
 40
0.2606595554
 40
0.3247864314
 40
0.388342146
 40
0.5138223705
 40
0.6373757947
 40
0.7594112264
 40
0.8802128486
 40
1.0
 40
1.0
 40
1.0
 40
1.0
 10
3.8048204203
 20
4.6724629875
 30
0.0
 10
3.8040688601
 20
4.6724629875
 30
0.0
 10
3.8025646583
 20
4.6725454983
 30
0.0
 10
3.8003388038
 20
4.6729028505
 30
0.0
 10
3.7981708155
 20
4.6734850263
 30
0.0
 10
3.796086847
 20
4.6742756456
 30
0.0
 10
3.7941016787
 20
4.6752483679
 30
0.0
 10
3.7916113716
 20
4.6767527188
 30
0.0
 10
3.7887778564
 20
4.678979694
 30
0.0
 10
3.785821841
 20
4.6820630698
 30
0.0
 10
3.7832983051
 20
4.6854395748
 30
0.0
 10
3.7811663623
 20
4.6890226758
 30
0.0
 10
3.7799807424
 20
4.6915218248
 30
0.0
 10
3.7794432652
 20
4.6927875907
 30
0.0
  0
SPLINE
  5
302
100
AcDbEntity
  8
0
100
AcDbSpline
 62
7
  6
CONTINUOUS
 70
0
 71
3
 72
18
 73
14
 74
0
 42
0.0000001
 43
0.0000001
 44
0.0000000001
 40
0.0
 40
0.0
 40
0.0
 40
0.0
 40
0.1008341175
 40
0.2067194305
 40
0.3187921532
 40
0.4383181008
 40
0.5664714618
 40
0.6339998832
 40
0.7038160757
 40
0.7756961514
 40
0.8494229016
 40
0.9244694502
 40
1.0
 40
1.0
 40
1.0
 40
1.0
 10
3.7794432652
 20
4.6446192469
 30
0.0
 10
3.7799903816
 20
4.6454593118
 30
0.0
 10
3.7812057565
 20
4.6471225652
 30
0.0
 10
3.7833523057
 20
4.6494632086
 30
0.0
 10
3.785893099
 20
4.6516666951
 30
0.0
 10
3.7888645033
 20
4.6536731486
 30
0.0
 10
3.7916665308
 20
4.6550969713
 30
0.0
 10
3.7941248137
 20
4.6560627799
 30
0.0
 10
3.7961082873
 20
4.6566948695
 30
0.0
 10
3.7981893363
 20
4.6572081631
 30
0.0
 10
3.8003522443
 20
4.6575855606
 30
0.0
 10
3.8025719138
 20
4.6578172191
 30
0.0
 10
3.8040694756
 20
4.6578706494
 30
0.0
 10
3.8048204203
 20
4.6578706494
 30
0.0
  0
SPLINE
  5
303
100
AcDbEntity
  8
0
100
AcDbSpline
 62
7
  6
CONTINUOUS
 70
0
 71
3
 72
18
 73
14
 74
0
 42
0.0000001
 43
0.0000001
 44
0.0000000001
 40
0.0
 40
0.0
 40
0.0
 40
0.0
 40
0.0643052359
 40
0.1286690137
 40
0.1928049207
 40
0.2566154464
 40
0.3201279095
 40
0.383274506
 40
0.5085436885
 40
0.6326209079
 40
0.7557931409
 40
0.8782158771
 40
1.0
 40
1.0
 40
1.0
 40
1.0
 10
3.8048204203
 20
4.6234207973
 30
0.0
 10
3.8040687646
 20
4.6234207973
 30
0.0
 10
3.8025635447
 20
4.6235069522
 30
0.0
 10
3.8003367766
 20
4.6238800002
 30
0.0
 10
3.7981681108
 20
4.6244876793
 30
0.0
 10
3.7960838526
 20
4.6253127434
 30
0.0
 10
3.7940986167
 20
4.6263276724
 30
0.0
 10
3.7916045814
 20
4.6278995623
 30
0.0
 10
3.7887684457
 20
4.6302267214
 30
0.0
 10
3.7858149891
 20
4.633442209
 30
0.0
 10
3.7832936495
 20
4.6369626976
 30
0.0
 10
3.7811632738
 20
4.6406986062
 30
0.0
 10
3.7799800319
 20
4.6433008053
 30
0.0
 10
3.7794432652
 20
4.6446192469
 30
0.0
  0
SPLINE
  5
304
100
AcDbEntity
  8
0
100
AcDbSpline
 62
7
  6
CONTINUOUS
 70
0
 71
3
 72
17
 73
13
 74
0
 42
0.0000001
 43
0.0000001
 44
0.0000000001
 40
0.0
 40
0.0
 40
0.0
 40
0.0
 40
0.0951665383
 40
0.196785182
 40
0.3061949673
 40
0.4248447257
 40
0.5540028831
 40
0.6941251311
 40
0.7680353119
 40
0.8441215951
 40
0.9217614832
 40
1.0
 40
1.0
 40
1.0
 40
1.0
 10
3.7794432652
 20
4.5978654768
 30
0.0
 10
3.7799947701
 20
4.5985934281
 30
0.0
 10
3.7812221999
 20
4.6000347526
 30
0.0
 10
3.7833722999
 20
4.602046293
 30
0.0
 10
3.7859161005
 20
4.6039389408
 30
0.0
 10
3.7888889764
 20
4.6056608825
 30
0.0
 10
3.792309022
 20
4.6071516526
 30
0.0
 10
3.7954682541
 20
4.6081107539
 30
0.0
 10
3.7981931787
 20
4.6086881697
 30
0.0
 10
3.8003549664
 20
4.6090122305
 30
0.0
 10
3.8025733322
 20
4.6092111311
 30
0.0
 10
3.804069597
 20
4.6092569967
 30
0.0
 10
3.8048204203
 20
4.6092569967
 30
0.0
  0
SPLINE
  5
305
100
AcDbEntity
  8
0
100
AcDbSpline
 62
7
  6
CONTINUOUS
 70
0
 71
3
 72
18
 73
14
 74
0
 42
0.0000001
 43
0.0000001
 44
0.0000000001
 40
0.0
 40
0.0
 40
0.0
 40
0.0
 40
0.0634308552
 40
0.1269685384
 40
0.1903731686
 40
0.2535809172
 40
0.3166370726
 40
0.3794826305
 40
0.5046052641
 40
0.6290828931
 40
0.7531074026
 40
0.876736495
 40
1.0
 40
1.0
 40
1.0
 40
1.0
 10
3.8048204203
 20
4.5759973335
 30
0.0
 10
3.8040686879
 20
4.5759973335
 30
0.0
 10
3.8025626559
 20
4.5760862925
 30
0.0
 10
3.8003351646
 20
4.5764714016
 30
0.0
 10
3.7981659722
 20
4.5770986521
 30
0.0
 10
3.796081508
 20
4.5779501406
 30
0.0
 10
3.7940962484
 20
4.5789974313
 30
0.0
 10
3.7915994221
 20
4.5806212003
 30
0.0
 10
3.7887614655
 20
4.583025197
 30
0.0
 10
3.7858100078
 20
4.586341784
 30
0.0
 10
3.7832903166
 20
4.5899725085
 30
0.0
 10
3.7811610895
 20
4.5938254631
 30
0.0
 10
3.779979533
 20
4.5965066476
 30
0.0
 10
3.7794432652
 20
4.5978654768
 30
0.0
  0
SPLINE
  5
306
100
AcDbEntity
  8
0
100
AcDbSpline
 62
7
  6
CONTINUOUS
 70
0
 71
3
 72
17
 73
13
 74
0
 42
0.0000001
 43
0.0000001
 44
0.0000000001
 40
0.0
 40
0.0
 40
0.0
 40
0.0
 40
0.0890529199
 40
0.186184967
 40
0.2928908592
 40
0.4107454927
 40
0.5410515981
 40
0.6841807746
 40
0.7601923518
 40
0.8387034733
 40
0.9189967245
 40
1.0
 40
1.0
 40
1.0
 40
1.0
 10
3.7794432652
 20
4.5529765448
 30
0.0
 10
3.7800007268
 20
4.5535851365
 30
0.0
 10
3.7812431465
 20
4.5547888747
 30
0.0
 10
3.7833958657
 20
4.5564507038
 30
0.0
 10
3.7859413443
 20
4.5580135604
 30
0.0
 10
3.7889138033
 20
4.5594343787
 30
0.0
 10
3.7923316621
 20
4.560663882
 30
0.0
 10
3.7954787136
 20
4.5614523824
 30
0.0
 10
3.798196746
 20
4.5619285262
 30
0.0
 10
3.800357405
 20
4.5621962546
 30
0.0
 10
3.8025746073
 20
4.56236059
 30
0.0
 10
3.8040697056
 20
4.5623984754
 30
0.0
 10
3.8048204203
 20
4.5623984754
 30
0.0
  0
SPLINE
  5
307
100
AcDbEntity
  8
0
100
AcDbSpline
 62
7
  6
CONTINUOUS
 70
0
 71
3
 72
18
 73
14
 74
0
 42
0.0000001
 43
0.0000001
 44
0.0000000001
 40
0.0
 40
0.0
 40
0.0
 40
0.0
 40
0.0628396295
 40
0.1258191964
 40
0.1887306585
 40
0.2515331563
 40
0.314283817
 40
0.3769291753
 40
0.5019589834
 40
0.6267103364
 40
0.7513093896
 40
0.8757474854
 40
1.0
 40
1.0
 40
1.0
 40
1.0
 10
3.8048204203
 20
4.5306493099
 30
0.0
 10
3.8040686343
 20
4.5306493099
 30
0.0
 10
3.8025620329
 20
4.5307401943
 30
0.0
 10
3.8003340401
 20
4.5311335832
 30
0.0
 10
3.7981644915
 20
4.5317742685
 30
0.0
 10
3.7960798972
 20
4.5326438809
 30
0.0
 10
3.7940946333
 20
4.533713358
 30
0.0
 10
3.7915959247
 20
4.5353727495
 30
0.0
 10
3.7887568052
 20
4.5378294452
 30
0.0
 10
3.7858067244
 20
4.541215269
 30
0.0
 10
3.7832881434
 20
4.5449215152
 30
0.0
 10
3.7811596768
 20
4.5488546808
 30
0.0
 10
3.779979212
 20
4.5515900194
 30
0.0
 10
3.7794432652
 20
4.5529765448
 30
0.0
  0
SPLINE
  5
308
100
AcDbEntity
  8
0
100
AcDbSpline
 62
7
  6
CONTINUOUS
 70
0
 71
3
 72
16
 73
12
 74
0
 42
0.0000001
 43
0.0000001
 44
0.0000000001
 40
0.0
 40
0.0
 40
0.0
 40
0.0
 40
0.1753321371
 40
0.2795027717
 40
0.3967388649
 40
0.5283121532
 40
0.6744688705
 40
0.7525523779
 40
0.8334353203
 40
0.9163114952
 40
1.0
 40
1.0
 40
1.0
 40
1.0
 10
3.7794432652
 20
4.5103847557
 30
0.0
 10
3.7806397224
 20
4.5114053211
 30
0.0
 10
3.7827550707
 20
4.5127942014
 30
0.0
 10
3.7859665905
 20
4.5143308228
 30
0.0
 10
3.7889376832
 20
4.5154381292
 30
0.0
 10
3.7923520671
 20
4.5163957727
 30
0.0
 10
3.7954878294
 20
4.5170084874
 30
0.0
 10
3.7981998105
 20
4.517379529
 30
0.0
 10
3.8003594764
 20
4.5175885076
 30
0.0
 10
3.8025756843
 20
4.5177167908
 30
0.0
 10
3.8040697972
 20
4.5177463588
 30
0.0
 10
3.8048204203
 20
4.5177463588
 30
0.0
  0
SPLINE
  5
309
100
AcDbEntity
  8
0
100
AcDbSpline
 62
7
  6
CONTINUOUS
 70
0
 71
3
 72
17
 73
13
 74
0
 42
0.0000001
 43
0.0000001
 44
0.0000000001
 40
0.0
 40
0.0
 40
0.0
 40
0.0
 40
0.0625432265
 40
0.1252440516
 40
0.1879112762
 40
0.2505161536
 40
0.3131219891
 40
0.3756780974
 40
0.5006912481
 40
0.6256180363
 40
0.7505495477
 40
1.0
 40
1.0
 40
1.0
 40
1.0
 10
3.8048204203
 20
4.4878134528
 30
0.0
 10
3.8040686053
 20
4.4878134528
 30
0.0
 10
3.8025616966
 20
4.4879053622
 30
0.0
 10
3.8003334346
 20
4.4883031576
 30
0.0
 10
3.7981636973
 20
4.4889509904
 30
0.0
 10
3.7960790371
 20
4.489830242
 30
0.0
 10
3.7940937762
 20
4.490911513
 30
0.0
 10
3.791594073
 20
4.4925898727
 30
0.0
 10
3.7887544041
 20
4.4950744993
 30
0.0
 10
3.7858048896
 20
4.4984974889
 30
0.0
 10
3.7824507998
 20
4.5034871961
 30
0.0
 10
3.7805141854
 20
4.507583937
 30
0.0
 10
3.7794432652
 20
4.5103847557
 30
0.0
  0
SPLINE
  5
30A
100
AcDbEntity
  8
0
100
AcDbSpline
 62
7
  6
CONTINUOUS
 70
0
 71
3
 72
16
 73
12
 74
0
 42
0.0000001
 43
0.0000001
 44
0.0000000001
 40
0.0
 40
0.0
 40
0.0
 40
0.0
 40
0.0770483532
 40
0.165786629
 40
0.2677396009
 40
0.3844906199
 40
0.5172286835
 40
0.6660571014
 40
0.828875499
 40
0.9139888587
 40
1.0
 40
1.0
 40
1.0
 40
1.0
 10
3.7794432652
 20
4.4705002918
 30
0.0
 10
3.7800182537
 20
4.4708487604
 30
0.0
 10
3.7812965586
 20
4.4715316883
 30
0.0
 10
3.7834480228
 20
4.4724485929
 30
0.0
 10
3.7859908688
 20
4.4733112047
 30
0.0
 10
3.7889579293
 20
4.4740952456
 30
0.0
 10
3.7923689869
 20
4.4747738303
 30
0.0
 10
3.7962120875
 20
4.4753067008
 30
0.0
 10
3.7996646436
 20
4.4755900523
 30
0.0
 10
3.8025765107
 20
4.4757096637
 30
0.0
 10
3.8040698683
 20
4.4757306711
 30
0.0
 10
3.8048204203
 20
4.4757306711
 30
0.0
  0
SPLINE
  5
30B
100
AcDbEntity
  8
0
100
AcDbSpline
 62
7
  6
CONTINUOUS
 70
0
 71
3
 72
17
 73
13
 74
0
 42
0.0000001
 43
0.0000001
 44
0.0000000001
 40
0.0
 40
0.0
 40
0.0
 40
0.0
 40
0.0625092431
 40
0.1251780136
 40
0.1878169583
 40
0.2503986524
 40
0.3129870699
 40
0.3755318246
 40
0.5005399056
 40
0.6254825249
 40
0.7504469241
 40
1.0
 40
1.0
 40
1.0
 40
1.0
 10
3.8048204203
 20
4.4479022948
 30
0.0
 10
3.8040686021
 20
4.4479022948
 30
0.0
 10
3.8025616596
 20
4.4479943165
 30
0.0
 10
3.800333368
 20
4.4483925939
 30
0.0
 10
3.7981636102
 20
4.4490412087
 30
0.0
 10
3.7960789429
 20
4.4499215147
 30
0.0
 10
3.7940936825
 20
4.4510040758
 30
0.0
 10
3.7915938714
 20
4.4526845095
 30
0.0
 10
3.7887541392
 20
4.4551722015
 30
0.0
 10
3.785804705
 20
4.4585992127
 30
0.0
 10
3.7824505325
 20
4.4635950207
 30
0.0
 10
3.780514108
 20
4.4676963634
 30
0.0
 10
3.7794432652
 20
4.4705002918
 30
0.0
  0
SPLINE
  5
30C
100
AcDbEntity
  8
0
100
AcDbSpline
 62
7
  6
CONTINUOUS
 70
0
 71
3
 72
15
 73
11
 74
0
 42
0.0000001
 43
0.0000001
 44
0.0000000001
 40
0.0
 40
0.0
 40
0.0
 40
0.0
 40
0.0725220018
 40
0.1582605778
 40
0.2586213562
 40
0.3751036339
 40
0.5088006635
 40
0.6596914262
 40
0.8254508025
 40
1.0
 40
1.0
 40
1.0
 40
1.0
 10
3.7794432652
 20
4.4337072623
 30
0.0
 10
3.7800280614
 20
4.4339138491
 30
0.0
 10
3.7813218014
 20
4.4343153308
 30
0.0
 10
3.7834694702
 20
4.4348476044
 30
0.0
 10
3.78600907
 20
4.4353488663
 30
0.0
 10
3.7889728333
 20
4.4358047174
 30
0.0
 10
3.7923807635
 20
4.4361994136
 30
0.0
 10
3.7962204096
 20
4.4365094625
 30
0.0
 10
3.8004170991
 20
4.4367097705
 30
0.0
 10
3.8033276631
 20
4.4367560464
 30
0.0
 10
3.8048204203
 20
4.4367560464
 30
0.0
  0
SPLINE
  5
30D
100
AcDbEntity
  8
0
100
AcDbSpline
 62
7
  6
CONTINUOUS
 70
0
 71
3
 72
18
 73
14
 74
0
 42
0.0000001
 43
0.0000001
 44
0.0000000001
 40
0.0
 40
0.0
 40
0.0
 40
0.0
 40
0.062737519
 40
0.1256207376
 40
0.1884471407
 40
0.2511798396
 40
0.3138779873
 40
0.3764890434
 40
0.5015033143
 40
0.6263021734
 40
0.751000309
 40
0.8755775839
 40
1.0
 40
1.0
 40
1.0
 40
1.0
 10
3.8048204203
 20
4.4113002023
 30
0.0
 10
3.8040686248
 20
4.4113002023
 30
0.0
 10
3.8025619233
 20
4.4113914218
 30
0.0
 10
3.8003338426
 20
4.4117862515
 30
0.0
 10
3.7981642323
 20
4.4124292742
 30
0.0
 10
3.7960796162
 20
4.4133020387
 30
0.0
 10
3.7940943527
 20
4.4143753739
 30
0.0
 10
3.7915953196
 20
4.4160409638
 30
0.0
 10
3.788756005
 20
4.4185068242
 30
0.0
 10
3.7858061642
 20
4.4219046809
 30
0.0
 10
3.7832877744
 20
4.4256240548
 30
0.0
 10
3.7811594378
 20
4.4295711651
 30
0.0
 10
3.7799791578
 20
4.4323159205
 30
0.0
 10
3.7794432652
 20
4.4337072623
 30
0.0
  0
SPLINE
  5
30E
100
AcDbEntity
  8
0
100
AcDbSpline
 62
7
  6
CONTINUOUS
 70
0
 71
3
 72
13
 73
9
 74
0
 42
0.0000001
 43
0.0000001
 44
0.0000000001
 40
0.0
 40
0.0
 40
0.0
 40
0.0
 40
0.0701395064
 40
0.1543403358
 40
0.2539087864
 40
0.370280499
 40
0.6564406935
 40
1.0
 40
1.0
 40
1.0
 40
1.0
 10
3.7794432652
 20
4.4003600042
 30
0.0
 10
3.7800342955
 20
4.4004173809
 30
0.0
 10
3.7813363516
 20
4.4005281844
 30
0.0
 10
3.7834810865
 20
4.400674069
 30
0.0
 10
3.7860184618
 20
4.4008115882
 30
0.0
 10
3.7902656014
 20
4.4009908234
 30
0.0
 10
3.7965804255
 20
4.4011533591
 30
0.0
 10
3.8019118094
 20
4.4011978316
 30
0.0
 10
3.8048204203
 20
4.4011978316
 30
0.0
  0
SPLINE
  5
30F
100
AcDbEntity
  8
0
100
AcDbSpline
 62
7
  6
CONTINUOUS
 70
0
 71
3
 72
18
 73
14
 74
0
 42
0.0000001
 43
0.0000001
 44
0.0000000001
 40
0.0
 40
0.0
 40
0.0
 40
0.0
 40
0.0632599317
 40
0.126636219
 40
0.1898981572
 40
0.2529885537
 40
0.3159561385
 40
0.3787435405
 40
0.503838835
 40
0.6283953603
 40
0.7525861176
 40
0.8764496453
 40
1.0
 40
1.0
 40
1.0
 40
1.0
 10
3.8048204203
 20
4.3783596734
 30
0.0
 10
3.8040686726
 20
4.3783596734
 30
0.0
 10
3.8025624778
 20
4.3784491864
 30
0.0
 10
3.8003348428
 20
4.3788366784
 30
0.0
 10
3.7981655477
 20
4.3794677959
 30
0.0
 10
3.7960810451
 20
4.380324502
 30
0.0
 10
3.7940957832
 20
4.3813781805
 30
0.0
 10
3.7915984121
 20
4.3830122018
 30
0.0
 10
3.7887601135
 20
4.3854313705
 30
0.0
 10
3.7858090516
 20
4.3887678988
 30
0.0
 10
3.7832896818
 20
4.3924203725
 30
0.0
 10
3.7811606759
 20
4.3962964246
 30
0.0
 10
3.7799794389
 20
4.3989932011
 30
0.0
 10
3.7794432652
 20
4.4003600042
 30
0.0
  0
SPLINE
  5
310
100
AcDbEntity
  8
0
100
AcDbSpline
 62
7
  6
CONTINUOUS
 70
0
 71
3
 72
18
 73
14
 74
0
 42
0.0000001
 43
0.0000001
 44
0.0000000001
 40
0.0
 40
0.0
 40
0.0
 40
0.0
 40
0.064064572
 40
0.1282009577
 40
0.1921354537
 40
0.2557796611
 40
0.3191659788
 40
0.3822291259
 40
0.5074567159
 40
0.6316435584
 40
0.7550506775
 40
0.8778066546
 40
1.0
 40
1.0
 40
1.0
 40
1.0
 10
3.8048204203
 20
4.3493979434
 30
0.0
 10
3.8040687435
 20
4.3493979434
 30
0.0
 10
3.8025633023
 20
4.3494848662
 30
0.0
 10
3.8003363352
 20
4.3498612149
 30
0.0
 10
3.7981675215
 20
4.3504742451
 30
0.0
 10
3.796083204
 20
4.3513065406
 30
0.0
 10
3.7940979606
 20
4.3523303277
 30
0.0
 10
3.7916031579
 20
4.3539164045
 30
0.0
 10
3.788766511
 20
4.3562645861
 30
0.0
 10
3.7858136024
 20
4.3595077528
 30
0.0
 10
3.7832927172
 20
4.3630584173
 30
0.0
 10
3.7811626607
 20
4.3668263629
 30
0.0
 10
3.7799798916
 20
4.3694501769
 30
0.0
 10
3.7794432652
 20
4.3707796698
 30
0.0
  0
SPLINE
  5
311
100
AcDbEntity
  8
0
100
AcDbSpline
 62
7
  6
CONTINUOUS
 70
0
 71
3
 72
18
 73
14
 74
0
 42
0.0000001
 43
0.0000001
 44
0.0000000001
 40
0.0
 40
0.0
 40
0.0
 40
0.0
 40
0.0651555852
 40
0.1303238206
 40
0.195173504
 40
0.2595740787
 40
0.3235353067
 40
0.3869803106
 40
0.5124019806
 40
0.6360948433
 40
0.7584355363
 40
0.8796738608
 40
1.0
 40
1.0
 40
1.0
 40
1.0
 10
3.8048204203
 20
4.3246939296
 30
0.0
 10
3.804068835
 20
4.3246939296
 30
0.0
 10
3.8025643657
 20
4.3247774097
 30
0.0
 10
3.8003382696
 20
4.3251389369
 30
0.0
 10
3.7981700996
 20
4.3257278957
 30
0.0
 10
3.7960860509
 20
4.3265276808
 30
0.0
 10
3.7941008614
 20
4.327511637
 30
0.0
 10
3.7916095542
 20
4.3290339469
 30
0.0
 10
3.7887753158
 20
4.3312875784
 30
0.0
 10
3.785819977
 20
4.3344061404
 30
0.0
 10
3.7832970302
 20
4.3378209866
 30
0.0
 10
3.7811655123
 20
4.3414447715
 30
0.0
 10
3.7799805463
 20
4.3439713494
 30
0.0
 10
3.7794432652
 20
4.3452511338
 30
0.0
  0
SPLINE
  5
312
100
AcDbEntity
  8
0
100
AcDbSpline
 62
7
  6
CONTINUOUS
 70
0
 71
3
 72
18
 73
14
 74
0
 42
0.0000001
 43
0.0000001
 44
0.0000000001
 40
0.0
 40
0.0
 40
0.0
 40
0.0
 40
0.0665368532
 40
0.1330134062
 40
0.1990269659
 40
0.2643939084
 40
0.329094615
 40
0.3930361717
 40
0.5187282149
 40
0.6418085141
 40
0.7627933087
 40
0.8820838814
 40
1.0
 40
1.0
 40
1.0
 40
1.0
 10
3.8048204203
 20
4.3044855452
 30
0.0
 10
3.8040689433
 20
4.3044855452
 30
0.0
 10
3.8025656278
 20
4.3045647708
 30
0.0
 10
3.8003405795
 20
4.3049079654
 30
0.0
 10
3.7981732077
 20
4.3054671315
 30
0.0
 10
3.7960895243
 20
4.3062266434
 30
0.0
 10
3.7941044473
 20
4.3071612258
 30
0.0
 10
3.791617579
 20
4.3086046915
 30
0.0
 10
3.788786667
 20
4.310741211
 30
0.0
 10
3.7858283929
 20
4.3137049806
 30
0.0
 10
3.7833028367
 20
4.3169511886
 30
0.0
 10
3.7811694107
 20
4.3203960721
 30
0.0
 10
3.7799814497
 20
4.3228020763
 30
0.0
 10
3.7794432652
 20
4.3240202502
 30
0.0
  0
SPLINE
  5
313
100
AcDbEntity
  8
0
100
AcDbSpline
 62
7
  6
CONTINUOUS
 70
0
 71
3
 72
18
 73
14
 74
0
 42
0.0000001
 43
0.0000001
 44
0.0000000001
 40
0.0
 40
0.0
 40
0.0
 40
0.0
 40
0.0682131631
 40
0.1362804337
 40
0.2037144067
 40
0.2702677111
 40
0.4003385405
 40
0.5264014719
 40
0.5880536428
 40
0.6488317895
 40
0.7681722656
 40
0.8850692327
 40
1.0
 40
1.0
 40
1.0
 40
1.0
 10
3.8048204203
 20
4.2889674079
 30
0.0
 10
3.8040690645
 20
4.2889674079
 30
0.0
 10
3.8025670354
 20
4.2890416211
 30
0.0
 10
3.8003432023
 20
4.2893631557
 30
0.0
 10
3.7981766829
 20
4.2898872045
 30
0.0
 10
3.7954211979
 20
4.2908286218
 30
0.0
 10
3.7922172141
 20
4.2924078981
 30
0.0
 10
3.7893485802
 20
4.2944366642
 30
0.0
 10
3.7872894613
 20
4.2962424633
 30
0.0
 10
3.7854051996
 20
4.2981267133
 30
0.0
 10
3.78331031
 20
4.30065025
 30
0.0
 10
3.7811746476
 20
4.3038829452
 30
0.0
 10
3.7799826711
 20
4.3061462108
 30
0.0
 10
3.7794432652
 20
4.3072914837
 30
0.0
  0
SPLINE
  5
314
100
AcDbEntity
  8
0
100
AcDbSpline
 62
7
  6
CONTINUOUS
 70
0
 71
3
 72
17
 73
13
 74
0
 42
0.0000001
 43
0.0000001
 44
0.0000000001
 40
0.0
 40
0.0
 40
0.0
 40
0.0
 40
0.0701788035
 40
0.1401150268
 40
0.2092245386
 40
0.2771861149
 40
0.4091220306
 40
0.5356739359
 40
0.6572318017
 40
0.7746370474
 40
0.8886727091
 40
1.0
 40
1.0
 40
1.0
 40
1.0
 10
3.8048204203
 20
4.2782889659
 30
0.0
 10
3.8040691939
 20
4.2782889659
 30
0.0
 10
3.8025685452
 20
4.2783574557
 30
0.0
 10
3.8003460078
 20
4.2786542815
 30
0.0
 10
3.7981805421
 20
4.2791381139
 30
0.0
 10
3.7954317982
 20
4.2800056304
 30
0.0
 10
3.7922362221
 20
4.2814586482
 30
0.0
 10
3.7888178673
 20
4.2836891743
 30
0.0
 10
3.7858523653
 20
4.2862584843
 30
0.0
 10
3.7833202104
 20
4.2890750135
 30
0.0
 10
3.781181479
 20
4.2920645802
 30
0.0
 10
3.7799843119
 20
4.2941641438
 30
0.0
 10
3.7794432652
 20
4.2952259417
 30
0.0
  0
SPLINE
  5
315
100
AcDbEntity
  8
0
100
AcDbSpline
 62
7
  6
CONTINUOUS
 70
0
 71
3
 72
17
 73
13
 74
0
 42
0.0000001
 43
0.0000001
 44
0.0000000001
 40
0.0
 40
0.0
 40
0.0
 40
0.0
 40
0.072414767
 40
0.1444812577
 40
0.2155084113
 40
0.2850921576
 40
0.419210424
 40
0.546382916
 40
0.6670582623
 40
0.7822421422
 40
0.8929338435
 40
1.0
 40
1.0
 40
1.0
 40
1.0
 10
3.8048204203
 20
4.2725530585
 30
0.0
 10
3.8040693265
 20
4.2725530585
 30
0.0
 10
3.8025700948
 20
4.2726151808
 30
0.0
 10
3.8003489077
 20
4.2728844939
 30
0.0
 10
3.7981845922
 20
4.2733235085
 30
0.0
 10
3.7954430748
 20
4.2741090905
 30
0.0
 10
3.7922575063
 20
4.2754220718
 30
0.0
 10
3.7888373461
 20
4.2774455926
 30
0.0
 10
3.785868627
 20
4.2797785294
 30
0.0
 10
3.7833325872
 20
4.2823377392
 30
0.0
 10
3.7811905135
 20
4.2850548568
 30
0.0
 10
3.7799865199
 20
4.2869712721
 30
0.0
 10
3.7794432652
 20
4.2879398219
 30
0.0
  0
ENDSEC
  0
SECTION
  2
OBJECTS
  0
DICTIONARY
  5
C
100
AcDbDictionary
280
0
281
1
  3
ACAD_GROUP
350
D
  3
ACAD_MLINESTYLE
350
17
  3
ACAD_LAYOUT
350
1A
  3
ACAD_PLOTSETTINGS
350
19
  3
ACAD_PLOTSTYLENAME
350
E
  0
DICTIONARY
  5
D
102
{ACAD_REACTORS
330
C
102
}
100
AcDbDictionary
280
0
281
1
  0
ACDBDICTIONARYWDFLT
  5
E
102
{ACAD_REACTORS
330
C
102
}
100
AcDbDictionary
281
1
  3
Normal
350
F
100
AcDbDictionaryWithDefault
340
F
  0
DICTIONARY
  5
17
102
{ACAD_REACTORS
330
C
102
}
100
AcDbDictionary
280
0
281
1
  3
Standard
350
18
  0
DICTIONARY
  5
19
102
{ACAD_REACTORS
330
C
102
}
100
AcDbDictionary
281
1
  0
DICTIONARY
  5
1A
102
{ACAD_REACTORS
330
C
102
}
100
AcDbDictionary
281
1
  3
Model
350
316
  3
Layout1
350
317
  0
ACDBPLACEHOLDER
  5
F
102
{ACAD_REACTORS
330
E
102
}
  0
MLINESTYLE
  5
18
102
{ACAD_REACTORS
330
17
102
}
100
AcDbMlineStyle
  2
STANDARD
 70
0
  3

 62
256
 51
90.0
 52
90.0
 71
2
 49
0.5
 62
256
  6
BYLAYER
 49
-0.5
 62
256
  6
BYLAYER
  0
LAYOUT
  5
316
102
{ACAD_REACTORS
330
1A
102
}
100
AcDbPlotSettings
  1

  2
none_device
  4
ANSI_A_(11.00_x_8.50_Inches)
  6

 40
0.0
 41
0.0
 42
0.0
 43
0.0
 44
279.4
 45
215.9
 46
0.0
 47
0.0
 48
0.0
 49
0.0
140
0.0
141
0.0
142
1.0
143
1.0
 70
1024
 72
0
 73
0
 74
0
  7

 75
0
147
1.0
148
0.0
149
0.0
100
AcDbLayout
  1
Model
 70
0
 71
0
 10
0.0
 20
0.0
 11
11.0
 21
8.5
 12
0.0
 22
0.0
 32
0.0
 14
0.0
 24
0.0
 34
0.0
 15
0.0
 25
0.0
 35
0.0
146
0.0
 13
0.0
 23
0.0
 33
0.0
 16
1.0
 26
0.0
 36
0.0
 17
0.0
 27
1.0
 37
0.0
 76
0
330
202
345
0
346
0
  0
LAYOUT
  5
317
102
{ACAD_REACTORS
330
1A
102
}
100
AcDbPlotSettings
  1

  2
none_device
  4
ANSI_A_(11.00_x_8.50_Inches)
  6

 40
0.0
 41
0.0
 42
0.0
 43
0.0
 44
279.4
 45
215.9
 46
0.0
 47
0.0
 48
0.0
 49
0.0
140
0.0
141
0.0
142
1.0
143
1.0
 70
0
 72
0
 73
0
 74
0
  7

 75
0
147
1.0
148
0.0
149
0.0
100
AcDbLayout
  1
Layout1
 70
0
 71
1
 10
0.0
 20
0.0
 11
11.0
 21
8.5
 12
0.0
 22
0.0
 32
0.0
 14
0.0
 24
0.0
 34
0.0
 15
0.0
 25
0.0
 35
0.0
146
0.0
 13
0.0
 23
0.0
 33
0.0
 16
1.0
 26
0.0
 36
0.0
 17
0.0
 27
1.0
 37
0.0
 76
0
330
203
345
0
346
0
  0
ENDSEC
  0
EOF
