999
DXF file: 3230-1660_top.dxf
999
Pro/ENGINEER 2019352 by Parametric Technology Corporation
  0
SECTION
  2
HEADER
  9
$ACADVER
  1
AC1032
  9
$DWGCODEPAGE
  3
ANSI_1252
  9
$EXTMAX
 10
11.0
 20
8.5
 30
0.0
  9
$EXTMIN
 10
0.0
 20
0.0
 30
0.0
  9
$LIMMIN
 10
0.0
 20
0.0
  9
$LIMMAX
 10
11.0
 20
8.5
  9
$VIEWCTR
 10
5.5
 20
4.25
  9
$VIEWSIZE
 40
8.5
  9
$CLAYER
  8
0
  9
$LTSCALE
 40
0.605
  9
$CELTYPE
  6
BYLAYER
  9
$DIMSCALE
 40
1.0
  9
$DIMASZ
 40
0.1
  9
$DIMEXO
 40
0.0625
  9
$DIMDLI
 40
0.418
  9
$DIMEXE
 40
0.125
  9
$DIMCEN
 40
0.099
  9
$DIMLFAC
 40
1.0
  9
$DIMBLK
  1
_FILLED
  9
$DIMALT
 70
1
  9
$DIMALTD
 70
2
  9
$DIMALTTD
 70
2
  9
$DIMALTF
 40
25.4
  9
$DIMTXT
 40
0.08
  9
$DIMTOL
 70
1
  9
$DIMLIM
 70
0
  9
$DIMTFAC
 40
1.0
  9
$DIMTP
 40
0.001
  9
$DIMTM
 40
0.001
  9
$DIMGAP
 40
0.09
  9
$DIMDSEP
 70
46
  9
$AUNITS
 70
0
  9
$PDMODE
 70
3
  9
$PDSIZE
 40
0.3125
  9
$HANDSEED
  5
30A
  9
$TILEMODE
 70
1
  9
$MEASUREMENT
 70
0
  9
$INSUNITS
 70
1
  0
ENDSEC
  0
SECTION
  2
CLASSES
  0
CLASS
  1
ACDBDICTIONARYWDFLT
  2
AcDbDictionaryWithDefault
  3
AutoCAD 2000
 90
0
 91
1
280
0
281
0
  0
CLASS
  1
ACDBPLACEHOLDER
  2
AcDbPlaceHolder
  3
AutoCAD 2000
 90
0
 91
1
280
0
281
0
  0
CLASS
  1
LAYOUT
  2
AcDbLayout
  3
AutoCAD 2000
 90
0
 91
0
280
0
281
0
  0
ENDSEC
  0
SECTION
  2
TABLES
  0
TABLE
  2
VPORT
  5
8
100
AcDbSymbolTable
 70
2
  0
VPORT
  5
1F4
100
AcDbSymbolTableRecord
100
AcDbViewportTableRecord
  2
*ACTIVE
 70
0
 10
0.0
 20
0.0
 11
1.0
 21
1.0
 12
5.5
 22
4.25
 13
0.0
 23
0.0
 14
1.0
 24
1.0
 15
0.0
 25
0.0
 16
0.0
 26
0.0
 36
1.0
 17
0.0
 27
0.0
 37
0.0
 40
8.5
 41
1.2941176471
 42
50.0
 43
0.0
 44
0.0
 50
0.0
 51
0.0
 71
0
 72
100
 73
1
 74
1
 75
0
 76
0
 77
0
 78
0
  0
ENDTAB
  0
TABLE
  2
LTYPE
  5
5
100
AcDbSymbolTable
 70
6
  0
LTYPE
  5
14
100
AcDbSymbolTableRecord
100
AcDbLinetypeTableRecord
  2
BYBLOCK
 70
0
  3

 72
65
 73
0
 40
0.0
  0
LTYPE
  5
15
100
AcDbSymbolTableRecord
100
AcDbLinetypeTableRecord
  2
BYLAYER
 70
0
  3

 72
65
 73
0
 40
0.0
  0
LTYPE
  5
16
100
AcDbSymbolTableRecord
100
AcDbLinetypeTableRecord
  2
CONTINUOUS
 70
64
  3
Solid line
 72
65
 73
0
 40
0.0
  0
LTYPE
  5
1F5
100
AcDbSymbolTableRecord
100
AcDbLinetypeTableRecord
  2
CENTER
 70
64
  3
____ _ ____ _ ____ _ ____ _ ____ _ ____ _ ____
 72
65
 73
4
 40
0.6
 49
0.375
 74
0
 49
-0.075
 74
0
 49
0.075
 74
0
 49
-0.075
 74
0
  0
LTYPE
  5
1F6
100
AcDbSymbolTableRecord
100
AcDbLinetypeTableRecord
  2
HIDDEN
 70
64
  3
- - - - - - - - - - - - - - - - - - - -
 72
65
 73
2
 40
0.2
 49
0.1
 74
0
 49
-0.1
 74
0
  0
LTYPE
  5
1F7
100
AcDbSymbolTableRecord
100
AcDbLinetypeTableRecord
  2
PHANTOM
 70
64
  3
_____ _ _ _____ _ _ _____ _ _ _____
 72
65
 73
6
 40
0.8
 49
0.45
 74
0
 49
-0.05
 74
0
 49
0.1
 74
0
 49
-0.05
 74
0
 49
0.1
 74
0
 49
-0.05
 74
0
  0
LTYPE
  5
1F8
100
AcDbSymbolTableRecord
100
AcDbLinetypeTableRecord
  2
DOT
 70
64
  3
. . . . . . . . . . . . . . . . . . . .
 72
65
 73
2
 40
0.2
 49
0.1
 74
0
 49
-0.1
 74
0
  0
LTYPE
  5
1F9
100
AcDbSymbolTableRecord
100
AcDbLinetypeTableRecord
  2
DASHED
 70
64
  3
- - - - - - - - - - - - - - - - - - - -
 72
65
 73
2
 40
0.2
 49
0.1
 74
0
 49
-0.1
 74
0
  0
ENDTAB
  0
TABLE
  2
LAYER
  5
2
100
AcDbSymbolTable
 70
36
  0
LAYER
  5
10
100
AcDbSymbolTableRecord
100
AcDbLayerTableRecord
  2
0
 70
0
 62
7
  6
CONTINUOUS
370
-3
390
F
  0
LAYER
  5
1FA
100
AcDbSymbolTableRecord
100
AcDbLayerTableRecord
  2
DEFAULT_1
 70
0
 62
7
  6
CENTER
370
-3
390
F
  0
LAYER
  5
1FB
100
AcDbSymbolTableRecord
100
AcDbLayerTableRecord
  2
DEFAULT_2
 70
0
 62
8
  6
HIDDEN
370
-3
390
F
  0
LAYER
  5
1FC
100
AcDbSymbolTableRecord
100
AcDbLayerTableRecord
  2
DEFAULT_3
 70
0
 62
7
  6
PHANTOM
370
-3
390
F
  0
LAYER
  5
1FD
100
AcDbSymbolTableRecord
100
AcDbLayerTableRecord
  2
DEFAULT_COORDINATE_SYSTEM
 70
0
 62
7
  6
CONTINUOUS
370
-3
390
F
  0
LAYER
  5
1FE
100
AcDbSymbolTableRecord
100
AcDbLayerTableRecord
  2
DEFAULT_DATUM_AXES
 70
0
 62
7
  6
CONTINUOUS
370
-3
390
F
  0
LAYER
  5
1FF
100
AcDbSymbolTableRecord
100
AcDbLayerTableRecord
  2
DEFAULT_DATUM_PLANES
 70
0
 62
7
  6
CONTINUOUS
370
-3
390
F
  0
ENDTAB
  0
TABLE
  2
STYLE
  5
3
100
AcDbSymbolTable
 70
1
  0
STYLE
  5
11
100
AcDbSymbolTableRecord
100
AcDbTextStyleTableRecord
  2
STANDARD
 70
0
 40
0.0
 41
0.8
 50
0.0
 71
0
 42
0.2
  3
txt
  4

  0
STYLE
  5
200
100
AcDbSymbolTableRecord
100
AcDbTextStyleTableRecord
  2
TEXTSTYLE_1
 70
0
 40
0.0
 41
0.8
 50
0.0
 71
0
 42
0.2
  3
gdt
  4

  0
ENDTAB
  0
TABLE
  2
VIEW
  5
6
100
AcDbSymbolTable
 70
0
  0
ENDTAB
  0
TABLE
  2
UCS
  5
7
100
AcDbSymbolTable
 70
0
  0
ENDTAB
  0
TABLE
  2
APPID
  5
9
100
AcDbSymbolTable
 70
1
  0
APPID
  5
201
100
AcDbSymbolTableRecord
100
AcDbRegAppTableRecord
  2
ACAD
 70
0
  0
ENDTAB
  0
TABLE
  2
BLOCK_RECORD
  5
1
100
AcDbSymbolTable
 70
0
  0
BLOCK_RECORD
  5
202
100
AcDbSymbolTableRecord
100
AcDbBlockTableRecord
  2
*Model_Space
  0
BLOCK_RECORD
  5
203
100
AcDbSymbolTableRecord
100
AcDbBlockTableRecord
  2
*Paper_Space
  0
BLOCK_RECORD
  5
204
100
AcDbSymbolTableRecord
100
AcDbBlockTableRecord
  2
_FILLED
  0
ENDTAB
  0
TABLE
  2
DIMSTYLE
  5
A
100
AcDbSymbolTable
 70
1
100
AcDbDimStyleTable
 71
0
  0
DIMSTYLE
105
205
100
AcDbSymbolTableRecord
100
AcDbDimStyleTableRecord
  2
STANDARD
 70
0
  3

  4

 40
1.0
 41
0.1
 42
0.0625
 43
0.38
 44
0.125
 45
0.0
 46
0.0
 47
0.001
 48
0.001
140
0.08
141
0.09
142
0.0
143
25.4
144
1.0
145
0.0
146
1.0
147
0.09
 71
1.0
 72
0.0
 73
1
 74
1
 75
0
 76
0
 77
0
 78
4
 79
1
170
1
171
2
172
0
173
0
174
0
175
0
176
0
177
0
178
0
270
2
179
3
271
3
272
3
273
2
274
2
275
0
280
0
281
0
282
0
283
1
284
4
285
0
286
0
287
3
288
0
340
11
278
46
341
204
342
204
343
204
344
204
  0
ENDTAB
  0
ENDSEC
  0
SECTION
  2
BLOCKS
  0
BLOCK
  5
20
100
AcDbEntity
  8
0
100
AcDbBlockBegin
  2
*Model_Space
 70
0
 10
0.0
 20
0.0
 30
0.0
  3
*Model_Space
  1

  0
ENDBLK
  5
21
100
AcDbEntity
  8
0
100
AcDbBlockEnd
  0
BLOCK
  5
1C
100
AcDbEntity
  8
0
100
AcDbBlockBegin
  2
*Paper_Space
 70
0
 10
0.0
 20
0.0
 30
0.0
  3
*Paper_Space
  1

  0
ENDBLK
  5
1D
100
AcDbEntity
  8
0
100
AcDbBlockEnd
  0
BLOCK
  5
206
100
AcDbEntity
  8
0
100
AcDbBlockBegin
  2
_FILLED
 70
64
 10
0.0
 20
0.0
  3
_FILLED
  1

  0
SOLID
  5
207
100
AcDbEntity
  8
0
  6
BYBLOCK
 62
0
100
AcDbTrace
 10
0.0
 20
0.0
 11
-1.0
 21
0.2
 12
-1.0
 22
-0.2
 13
-1.0
 23
-0.2
  0
ENDBLK
  5
208
100
AcDbEntity
  8
0
  6
BYBLOCK
 62
0
100
AcDbBlockEnd
  0
ENDSEC
  0
SECTION
  2
ENTITIES
  0
MTEXT
  5
209
100
AcDbEntity
  8
0
100
AcDbMText
 62
2
  6
CONTINUOUS
  7
STANDARD
 71
3
 72
1
 10
5.5407583124
 20
2.2900776349
 30
0.0
 11
1.0
 21
0.0
 31
0.0
 73
2
 44
0.9
  1
SCALE 1.000
 40
0.08
 41
0.704
  0
LINE
  5
20A
100
AcDbEntity
  8
0
100
AcDbLine
 62
7
  6
CONTINUOUS
 10
0.0
 20
0.0
 11
0.0
 21
8.5
  0
LINE
  5
20B
100
AcDbEntity
  8
0
100
AcDbLine
 62
7
  6
CONTINUOUS
 10
0.0
 20
0.0
 11
11.0
 21
0.0
  0
LINE
  5
20C
100
AcDbEntity
  8
0
100
AcDbLine
 62
7
  6
CONTINUOUS
 10
0.0
 20
8.5
 11
11.0
 21
8.5
  0
LINE
  5
20D
100
AcDbEntity
  8
0
100
AcDbLine
 62
7
  6
CONTINUOUS
 10
11.0
 20
0.0
 11
11.0
 21
8.5
  0
LINE
  5
20E
100
AcDbEntity
  8
0
100
AcDbLine
 62
7
  6
CONTINUOUS
 10
3.7868204203
 20
3.7665032936
 11
3.7868204203
 21
4.0165032936
  0
LINE
  5
20F
100
AcDbEntity
  8
0
100
AcDbLine
 62
7
  6
CONTINUOUS
 10
5.6348175522
 20
3.4215032936
 11
4.6548232884
 21
3.4215032936
  0
LINE
  5
210
100
AcDbEntity
  8
0
100
AcDbLine
 62
7
  6
CONTINUOUS
 10
5.6602420384
 20
3.4515032936
 11
5.658034748
 21
3.4515032936
  0
LINE
  5
211
100
AcDbEntity
  8
0
100
AcDbLine
 62
7
  6
CONTINUOUS
 10
5.6645087885
 20
3.4515032936
 11
5.6637706555
 21
3.4515032936
  0
LINE
  5
212
100
AcDbEntity
  8
0
100
AcDbLine
 62
7
  6
CONTINUOUS
 10
5.6510114964
 20
3.4515032936
 11
5.647356306
 21
3.4515032936
  0
LINE
  5
213
100
AcDbEntity
  8
0
100
AcDbLine
 62
7
  6
CONTINUOUS
 10
5.6369060576
 20
3.4515032936
 11
5.6318381687
 21
3.4515032936
  0
LINE
  5
214
100
AcDbEntity
  8
0
100
AcDbLine
 62
7
  6
CONTINUOUS
 10
5.6180615652
 20
3.4515032936
 11
5.6116297843
 21
3.4515032936
  0
LINE
  5
215
100
AcDbEntity
  8
0
100
AcDbLine
 62
7
  6
CONTINUOUS
 10
5.5946595018
 20
3.4515032936
 11
5.5869257705
 21
3.4515032936
  0
LINE
  5
216
100
AcDbEntity
  8
0
100
AcDbLine
 62
7
  6
CONTINUOUS
 10
5.5669252421
 20
3.4515032936
 11
5.5579640405
 21
3.4515032936
  0
LINE
  5
217
100
AcDbEntity
  8
0
100
AcDbLine
 62
7
  6
CONTINUOUS
 10
5.5351258823
 20
3.4515032936
 11
5.5250235116
 21
3.4515032936
  0
LINE
  5
218
100
AcDbEntity
  8
0
100
AcDbLine
 62
7
  6
CONTINUOUS
 10
5.4995676675
 20
3.4515032936
 11
5.4884214191
 21
3.4515032936
  0
LINE
  5
219
100
AcDbEntity
  8
0
100
AcDbLine
 62
7
  6
CONTINUOUS
 10
5.4605930428
 20
3.4515032936
 11
5.4485102611
 21
3.4515032936
  0
LINE
  5
21A
100
AcDbEntity
  8
0
100
AcDbLine
 62
7
  6
CONTINUOUS
 10
5.4185773551
 20
3.4515032936
 11
5.405674404
 21
3.4515032936
  0
LINE
  5
21B
100
AcDbEntity
  8
0
100
AcDbLine
 62
7
  6
CONTINUOUS
 10
5.3739252385
 20
3.4515032936
 11
5.3603263804
 21
3.4515032936
  0
LINE
  5
21C
100
AcDbEntity
  8
0
100
AcDbLine
 62
7
  6
CONTINUOUS
 10
5.3270667172
 20
3.4515032936
 11
5.3129029166
 21
3.4515032936
  0
LINE
  5
21D
100
AcDbEntity
  8
0
100
AcDbLine
 62
7
  6
CONTINUOUS
 10
5.2784530645
 20
3.4515032936
 11
5.2638607265
 21
3.4515032936
  0
LINE
  5
21E
100
AcDbEntity
  8
0
100
AcDbLine
 62
7
  6
CONTINUOUS
 10
5.2285524564
 20
3.4515032936
 11
5.2136721131
 21
3.4515032936
  0
LINE
  5
21F
100
AcDbEntity
  8
0
100
AcDbLine
 62
7
  6
CONTINUOUS
 10
5.177845463
 20
3.4515032936
 11
5.1628204203
 21
3.4515032936
  0
LINE
  5
220
100
AcDbEntity
  8
0
100
AcDbLine
 62
7
  6
CONTINUOUS
 10
5.1268204203
 20
3.4515032936
 11
5.1117953777
 21
3.4515032936
  0
LINE
  5
221
100
AcDbEntity
  8
0
100
AcDbLine
 62
7
  6
CONTINUOUS
 10
5.0759687275
 20
3.4515032936
 11
5.0610883843
 21
3.4515032936
  0
LINE
  5
222
100
AcDbEntity
  8
0
100
AcDbLine
 62
7
  6
CONTINUOUS
 10
5.0257801142
 20
3.4515032936
 11
5.0111877761
 21
3.4515032936
  0
LINE
  5
223
100
AcDbEntity
  8
0
100
AcDbLine
 62
7
  6
CONTINUOUS
 10
4.9767379241
 20
3.4515032936
 11
4.9625741234
 21
3.4515032936
  0
LINE
  5
224
100
AcDbEntity
  8
0
100
AcDbLine
 62
7
  6
CONTINUOUS
 10
4.9293144603
 20
3.4515032936
 11
4.9157156022
 21
3.4515032936
  0
LINE
  5
225
100
AcDbEntity
  8
0
100
AcDbLine
 62
7
  6
CONTINUOUS
 10
4.8839664367
 20
3.4515032936
 11
4.8710634856
 21
3.4515032936
  0
LINE
  5
226
100
AcDbEntity
  8
0
100
AcDbLine
 62
7
  6
CONTINUOUS
 10
4.8411305795
 20
3.4515032936
 11
4.8290477979
 21
3.4515032936
  0
LINE
  5
227
100
AcDbEntity
  8
0
100
AcDbLine
 62
7
  6
CONTINUOUS
 10
4.8012194215
 20
3.4515032936
 11
4.7900731732
 21
3.4515032936
  0
LINE
  5
228
100
AcDbEntity
  8
0
100
AcDbLine
 62
7
  6
CONTINUOUS
 10
4.764617329
 20
3.4515032936
 11
4.7545149584
 21
3.4515032936
  0
LINE
  5
229
100
AcDbEntity
  8
0
100
AcDbLine
 62
7
  6
CONTINUOUS
 10
4.7316768001
 20
3.4515032936
 11
4.7227155985
 21
3.4515032936
  0
LINE
  5
22A
100
AcDbEntity
  8
0
100
AcDbLine
 62
7
  6
CONTINUOUS
 10
4.7027150701
 20
3.4515032936
 11
4.6949813389
 21
3.4515032936
  0
LINE
  5
22B
100
AcDbEntity
  8
0
100
AcDbLine
 62
7
  6
CONTINUOUS
 10
4.6780110563
 20
3.4515032936
 11
4.6715792755
 21
3.4515032936
  0
LINE
  5
22C
100
AcDbEntity
  8
0
100
AcDbLine
 62
7
  6
CONTINUOUS
 10
4.6578026719
 20
3.4515032936
 11
4.652734783
 21
3.4515032936
  0
LINE
  5
22D
100
AcDbEntity
  8
0
100
AcDbLine
 62
7
  6
CONTINUOUS
 10
4.6422845346
 20
3.4515032936
 11
4.6386293442
 21
3.4515032936
  0
LINE
  5
22E
100
AcDbEntity
  8
0
100
AcDbLine
 62
7
  6
CONTINUOUS
 10
4.6316060926
 20
3.4515032936
 11
4.6293988022
 21
3.4515032936
  0
LINE
  5
22F
100
AcDbEntity
  8
0
100
AcDbLine
 62
7
  6
CONTINUOUS
 10
4.6258701852
 20
3.4515032936
 11
4.6251320522
 21
3.4515032936
  0
LINE
  5
230
100
AcDbEntity
  8
0
100
AcDbLine
 62
7
  6
CONTINUOUS
 10
4.0198204203
 20
6.1615032936
 11
4.0198204203
 21
5.9395554207
  0
LINE
  5
231
100
AcDbEntity
  8
0
100
AcDbLine
 62
7
  6
CONTINUOUS
 10
4.6251320522
 20
3.7665032936
 11
3.5033267713
 21
3.7665032936
  0
LINE
  5
232
100
AcDbEntity
  8
0
100
AcDbLine
 62
7
  6
CONTINUOUS
 10
5.6645087885
 20
3.7665032936
 11
6.7863140694
 21
3.7665032936
  0
LINE
  5
233
100
AcDbEntity
  8
0
100
AcDbLine
 62
7
  6
CONTINUOUS
 10
4.6251320522
 20
4.0165032936
 11
3.5033267713
 21
4.0165032936
  0
LINE
  5
234
100
AcDbEntity
  8
0
100
AcDbLine
 62
7
  6
CONTINUOUS
 10
5.6645087885
 20
4.0165032936
 11
6.7863140694
 21
4.0165032936
  0
LINE
  5
235
100
AcDbEntity
  8
0
100
AcDbLine
 62
7
  6
CONTINUOUS
 10
4.6251320522
 20
4.3615032936
 11
4.6251320522
 21
4.0152005046
  0
LINE
  5
236
100
AcDbEntity
  8
0
100
AcDbLine
 62
7
  6
CONTINUOUS
 10
4.6251320522
 20
3.7678060826
 11
4.6251320522
 21
3.4515032936
  0
LINE
  5
237
100
AcDbEntity
  8
0
100
AcDbLine
 62
7
  6
CONTINUOUS
 10
4.6258701852
 20
4.3615032936
 11
4.6258701852
 21
4.0120617714
  0
LINE
  5
238
100
AcDbEntity
  8
0
100
AcDbLine
 62
7
  6
CONTINUOUS
 10
4.6258701852
 20
3.7709448158
 11
4.6258701852
 21
3.4515032936
  0
LINE
  5
239
100
AcDbEntity
  8
0
100
AcDbLine
 62
7
  6
CONTINUOUS
 10
4.6293988022
 20
4.3615032936
 11
4.6293988022
 21
3.9958318343
  0
LINE
  5
23A
100
AcDbEntity
  8
0
100
AcDbLine
 62
7
  6
CONTINUOUS
 10
4.6293988022
 20
3.7871747529
 11
4.6293988022
 21
3.4515032936
  0
LINE
  5
23B
100
AcDbEntity
  8
0
100
AcDbLine
 62
7
  6
CONTINUOUS
 10
4.6316060926
 20
4.3615032936
 11
4.6316060926
 21
3.9843146406
  0
LINE
  5
23C
100
AcDbEntity
  8
0
100
AcDbLine
 62
7
  6
CONTINUOUS
 10
4.6316060926
 20
3.7986919466
 11
4.6316060926
 21
3.4515032936
  0
LINE
  5
23D
100
AcDbEntity
  8
0
100
AcDbLine
 62
7
  6
CONTINUOUS
 10
4.6386293442
 20
4.3615032936
 11
4.6386293442
 21
3.9296399625
  0
LINE
  5
23E
100
AcDbEntity
  8
0
100
AcDbLine
 62
7
  6
CONTINUOUS
 10
4.6386293442
 20
3.8533666247
 11
4.6386293442
 21
3.4515032936
  0
LINE
  5
23F
100
AcDbEntity
  8
0
100
AcDbLine
 62
7
  6
CONTINUOUS
 10
4.6422845346
 20
4.3615032936
 11
4.6422845346
 21
3.4515032936
  0
LINE
  5
240
100
AcDbEntity
  8
0
100
AcDbLine
 62
7
  6
CONTINUOUS
 10
4.6448204203
 20
5.6215032936
 11
4.6448204203
 21
4.4215032936
  0
LINE
  5
241
100
AcDbEntity
  8
0
100
AcDbLine
 62
7
  6
CONTINUOUS
 10
4.652734783
 20
4.3615032936
 11
4.652734783
 21
3.4515032936
  0
LINE
  5
242
100
AcDbEntity
  8
0
100
AcDbLine
 62
7
  6
CONTINUOUS
 10
4.6578026719
 20
4.3615032936
 11
4.6578026719
 21
3.4515032936
  0
LINE
  5
243
100
AcDbEntity
  8
0
100
AcDbLine
 62
7
  6
CONTINUOUS
 10
4.6598204203
 20
4.4215032936
 11
4.6598204203
 21
4.3615032936
  0
LINE
  5
244
100
AcDbEntity
  8
0
100
AcDbLine
 62
7
  6
CONTINUOUS
 10
4.6715792755
 20
4.3615032936
 11
4.6715792755
 21
3.4515032936
  0
LINE
  5
245
100
AcDbEntity
  8
0
100
AcDbLine
 62
7
  6
CONTINUOUS
 10
4.6780110563
 20
4.3615032936
 11
4.6780110563
 21
3.4515032936
  0
LINE
  5
246
100
AcDbEntity
  8
0
100
AcDbLine
 62
7
  6
CONTINUOUS
 10
4.6949813389
 20
4.3615032936
 11
4.6949813389
 21
3.4515032936
  0
LINE
  5
247
100
AcDbEntity
  8
0
100
AcDbLine
 62
7
  6
CONTINUOUS
 10
4.7027150701
 20
4.3615032936
 11
4.7027150701
 21
3.4515032936
  0
LINE
  5
248
100
AcDbEntity
  8
0
100
AcDbLine
 62
7
  6
CONTINUOUS
 10
4.7198204203
 20
5.6515032936
 11
4.7198204203
 21
5.6615032936
  0
LINE
  5
249
100
AcDbEntity
  8
0
100
AcDbLine
 62
7
  6
CONTINUOUS
 10
4.7227155985
 20
4.3615032936
 11
4.7227155985
 21
3.4515032936
  0
LINE
  5
24A
100
AcDbEntity
  8
0
100
AcDbLine
 62
7
  6
CONTINUOUS
 10
4.7316768001
 20
4.3615032936
 11
4.7316768001
 21
3.4515032936
  0
LINE
  5
24B
100
AcDbEntity
  8
0
100
AcDbLine
 62
7
  6
CONTINUOUS
 10
4.7536771309
 20
3.4261261385
 11
4.7536771309
 21
4.3615032936
  0
LINE
  5
24C
100
AcDbEntity
  8
0
100
AcDbLine
 62
7
  6
CONTINUOUS
 10
4.7545149584
 20
4.3615032936
 11
4.7545149584
 21
3.4515032936
  0
LINE
  5
24D
100
AcDbEntity
  8
0
100
AcDbLine
 62
7
  6
CONTINUOUS
 10
4.764617329
 20
4.3615032936
 11
4.764617329
 21
3.4515032936
  0
LINE
  5
24E
100
AcDbEntity
  8
0
100
AcDbLine
 62
7
  6
CONTINUOUS
 10
4.787024389
 20
3.4261261385
 11
4.787024389
 21
4.3615032936
  0
LINE
  5
24F
100
AcDbEntity
  8
0
100
AcDbLine
 62
7
  6
CONTINUOUS
 10
4.7900731732
 20
4.3615032936
 11
4.7900731732
 21
3.4515032936
  0
LINE
  5
250
100
AcDbEntity
  8
0
100
AcDbLine
 62
7
  6
CONTINUOUS
 10
4.8012194215
 20
4.3615032936
 11
4.8012194215
 21
3.4515032936
  0
LINE
  5
251
100
AcDbEntity
  8
0
100
AcDbLine
 62
7
  6
CONTINUOUS
 10
4.8238174185
 20
3.4261261385
 11
4.8238174185
 21
4.3615032936
  0
LINE
  5
252
100
AcDbEntity
  8
0
100
AcDbLine
 62
7
  6
CONTINUOUS
 10
4.8290477979
 20
4.3615032936
 11
4.8290477979
 21
3.4515032936
  0
LINE
  5
253
100
AcDbEntity
  8
0
100
AcDbLine
 62
7
  6
CONTINUOUS
 10
4.6251320522
 20
4.3615032936
 11
5.6645087885
 21
4.3615032936
  0
LINE
  5
254
100
AcDbEntity
  8
0
100
AcDbLine
 62
7
  6
CONTINUOUS
 10
5.6448204203
 20
4.4215032936
 11
4.6448204203
 21
4.4215032936
  0
LINE
  5
255
100
AcDbEntity
  8
0
100
AcDbLine
 62
7
  6
CONTINUOUS
 10
4.8411305795
 20
4.3615032936
 11
4.8411305795
 21
3.4515032936
  0
LINE
  5
256
100
AcDbEntity
  8
0
100
AcDbLine
 62
7
  6
CONTINUOUS
 10
4.8637018824
 20
3.4261261385
 11
4.8637018824
 21
4.3615032936
  0
LINE
  5
257
100
AcDbEntity
  8
0
100
AcDbLine
 62
7
  6
CONTINUOUS
 10
4.8710634856
 20
4.3615032936
 11
4.8710634856
 21
3.4515032936
  0
LINE
  5
258
100
AcDbEntity
  8
0
100
AcDbLine
 62
7
  6
CONTINUOUS
 10
4.8839664367
 20
4.3615032936
 11
4.8839664367
 21
3.4515032936
  0
LINE
  5
259
100
AcDbEntity
  8
0
100
AcDbLine
 62
7
  6
CONTINUOUS
 10
4.9062936715
 20
3.4261261385
 11
4.9062936715
 21
4.3615032936
  0
LINE
  5
25A
100
AcDbEntity
  8
0
100
AcDbLine
 62
7
  6
CONTINUOUS
 10
4.9157156022
 20
4.3615032936
 11
4.9157156022
 21
3.4515032936
  0
LINE
  5
25B
100
AcDbEntity
  8
0
100
AcDbLine
 62
7
  6
CONTINUOUS
 10
4.9293144603
 20
4.3615032936
 11
4.9293144603
 21
3.4515032936
  0
LINE
  5
25C
100
AcDbEntity
  8
0
100
AcDbLine
 62
7
  6
CONTINUOUS
 10
4.9511826035
 20
3.4261261385
 11
4.9511826035
 21
4.3615032936
  0
LINE
  5
25D
100
AcDbEntity
  8
0
100
AcDbLine
 62
7
  6
CONTINUOUS
 10
4.9625741234
 20
4.3615032936
 11
4.9625741234
 21
3.4515032936
  0
LINE
  5
25E
100
AcDbEntity
  8
0
100
AcDbLine
 62
7
  6
CONTINUOUS
 10
4.9767379241
 20
4.3615032936
 11
4.9767379241
 21
3.4515032936
  0
LINE
  5
25F
100
AcDbEntity
  8
0
100
AcDbLine
 62
7
  6
CONTINUOUS
 10
4.9979363736
 20
3.4261261385
 11
4.9979363736
 21
4.3615032936
  0
LINE
  5
260
100
AcDbEntity
  8
0
100
AcDbLine
 62
7
  6
CONTINUOUS
 10
5.0111877761
 20
4.3615032936
 11
5.0111877761
 21
3.4515032936
  0
LINE
  5
261
100
AcDbEntity
  8
0
100
AcDbLine
 62
7
  6
CONTINUOUS
 10
5.0257801142
 20
4.3615032936
 11
5.0257801142
 21
3.4515032936
  0
LINE
  5
262
100
AcDbEntity
  8
0
100
AcDbLine
 62
7
  6
CONTINUOUS
 10
5.0461047174
 20
3.4261261385
 11
5.0461047174
 21
4.3615032936
  0
LINE
  5
263
100
AcDbEntity
  8
0
100
AcDbLine
 62
7
  6
CONTINUOUS
 10
5.0610883843
 20
4.3615032936
 11
5.0610883843
 21
3.4515032936
  0
LINE
  5
264
100
AcDbEntity
  8
0
100
AcDbLine
 62
7
  6
CONTINUOUS
 10
5.0759687275
 20
4.3615032936
 11
5.0759687275
 21
3.4515032936
  0
LINE
  5
265
100
AcDbEntity
  8
0
100
AcDbLine
 62
7
  6
CONTINUOUS
 10
5.0952237473
 20
3.4261261385
 11
5.0952237473
 21
4.3615032936
  0
LINE
  5
266
100
AcDbEntity
  8
0
100
AcDbLine
 62
7
  6
CONTINUOUS
 10
5.1117953777
 20
4.3615032936
 11
5.1117953777
 21
3.4515032936
  0
LINE
  5
267
100
AcDbEntity
  8
0
100
AcDbLine
 62
7
  6
CONTINUOUS
 10
5.1268204203
 20
4.3615032936
 11
5.1268204203
 21
3.4515032936
  0
LINE
  5
268
100
AcDbEntity
  8
0
100
AcDbLine
 62
7
  6
CONTINUOUS
 10
5.1448204203
 20
3.4261261385
 11
5.1448204203
 21
4.3615032936
  0
LINE
  5
269
100
AcDbEntity
  8
0
100
AcDbLine
 62
7
  6
CONTINUOUS
 10
5.1628204203
 20
4.3615032936
 11
5.1628204203
 21
3.4515032936
  0
LINE
  5
26A
100
AcDbEntity
  8
0
100
AcDbLine
 62
7
  6
CONTINUOUS
 10
5.177845463
 20
4.3615032936
 11
5.177845463
 21
3.4515032936
  0
LINE
  5
26B
100
AcDbEntity
  8
0
100
AcDbLine
 62
7
  6
CONTINUOUS
 10
5.1944170933
 20
3.4261261385
 11
5.1944170933
 21
4.3615032936
  0
LINE
  5
26C
100
AcDbEntity
  8
0
100
AcDbLine
 62
7
  6
CONTINUOUS
 10
5.2136721131
 20
4.3615032936
 11
5.2136721131
 21
3.4515032936
  0
LINE
  5
26D
100
AcDbEntity
  8
0
100
AcDbLine
 62
7
  6
CONTINUOUS
 10
5.2285524564
 20
4.3615032936
 11
5.2285524564
 21
3.4515032936
  0
LINE
  5
26E
100
AcDbEntity
  8
0
100
AcDbLine
 62
7
  6
CONTINUOUS
 10
5.2435361233
 20
3.4261261385
 11
5.2435361233
 21
4.3615032936
  0
LINE
  5
26F
100
AcDbEntity
  8
0
100
AcDbLine
 62
7
  6
CONTINUOUS
 10
5.2638607265
 20
4.3615032936
 11
5.2638607265
 21
3.4515032936
  0
LINE
  5
270
100
AcDbEntity
  8
0
100
AcDbLine
 62
7
  6
CONTINUOUS
 10
5.2784530645
 20
4.3615032936
 11
5.2784530645
 21
3.4515032936
  0
LINE
  5
271
100
AcDbEntity
  8
0
100
AcDbLine
 62
7
  6
CONTINUOUS
 10
5.291704467
 20
3.4261261385
 11
5.291704467
 21
4.3615032936
  0
LINE
  5
272
100
AcDbEntity
  8
0
100
AcDbLine
 62
7
  6
CONTINUOUS
 10
5.3129029166
 20
4.3615032936
 11
5.3129029166
 21
3.4515032936
  0
LINE
  5
273
100
AcDbEntity
  8
0
100
AcDbLine
 62
7
  6
CONTINUOUS
 10
5.3270667172
 20
4.3615032936
 11
5.3270667172
 21
3.4515032936
  0
LINE
  5
274
100
AcDbEntity
  8
0
100
AcDbLine
 62
7
  6
CONTINUOUS
 10
5.3384582371
 20
3.4261261385
 11
5.3384582371
 21
4.3615032936
  0
LINE
  5
275
100
AcDbEntity
  8
0
100
AcDbLine
 62
7
  6
CONTINUOUS
 10
5.3603263804
 20
4.3615032936
 11
5.3603263804
 21
3.4515032936
  0
LINE
  5
276
100
AcDbEntity
  8
0
100
AcDbLine
 62
7
  6
CONTINUOUS
 10
5.3739252385
 20
4.3615032936
 11
5.3739252385
 21
3.4515032936
  0
LINE
  5
277
100
AcDbEntity
  8
0
100
AcDbLine
 62
7
  6
CONTINUOUS
 10
5.3833471692
 20
3.4261261385
 11
5.3833471692
 21
4.3615032936
  0
LINE
  5
278
100
AcDbEntity
  8
0
100
AcDbLine
 62
7
  6
CONTINUOUS
 10
5.405674404
 20
4.3615032936
 11
5.405674404
 21
3.4515032936
  0
LINE
  5
279
100
AcDbEntity
  8
0
100
AcDbLine
 62
7
  6
CONTINUOUS
 10
5.4185773551
 20
4.3615032936
 11
5.4185773551
 21
3.4515032936
  0
LINE
  5
27A
100
AcDbEntity
  8
0
100
AcDbLine
 62
7
  6
CONTINUOUS
 10
5.4259389582
 20
3.4261261385
 11
5.4259389582
 21
4.3615032936
  0
LINE
  5
27B
100
AcDbEntity
  8
0
100
AcDbLine
 62
7
  6
CONTINUOUS
 10
5.4485102611
 20
4.3615032936
 11
5.4485102611
 21
3.4515032936
  0
LINE
  5
27C
100
AcDbEntity
  8
0
100
AcDbLine
 62
7
  6
CONTINUOUS
 10
5.4605930428
 20
4.3615032936
 11
5.4605930428
 21
3.4515032936
  0
LINE
  5
27D
100
AcDbEntity
  8
0
100
AcDbLine
 62
7
  6
CONTINUOUS
 10
5.4658234221
 20
3.4261261385
 11
5.4658234221
 21
4.3615032936
  0
LINE
  5
27E
100
AcDbEntity
  8
0
100
AcDbLine
 62
7
  6
CONTINUOUS
 10
5.4884214191
 20
4.3615032936
 11
5.4884214191
 21
3.4515032936
  0
LINE
  5
27F
100
AcDbEntity
  8
0
100
AcDbLine
 62
7
  6
CONTINUOUS
 10
5.4995676675
 20
4.3615032936
 11
5.4995676675
 21
3.4515032936
  0
LINE
  5
280
100
AcDbEntity
  8
0
100
AcDbLine
 62
7
  6
CONTINUOUS
 10
5.5026164516
 20
3.4261261385
 11
5.5026164516
 21
4.3615032936
  0
LINE
  5
281
100
AcDbEntity
  8
0
100
AcDbLine
 62
7
  6
CONTINUOUS
 10
5.5250235116
 20
4.3615032936
 11
5.5250235116
 21
3.4515032936
  0
LINE
  5
282
100
AcDbEntity
  8
0
100
AcDbLine
 62
7
  6
CONTINUOUS
 10
5.5351258823
 20
4.3615032936
 11
5.5351258823
 21
3.4515032936
  0
LINE
  5
283
100
AcDbEntity
  8
0
100
AcDbLine
 62
7
  6
CONTINUOUS
 10
5.5359637097
 20
3.4261261385
 11
5.5359637097
 21
4.3615032936
  0
LINE
  5
284
100
AcDbEntity
  8
0
100
AcDbLine
 62
7
  6
CONTINUOUS
 10
5.5579640405
 20
4.3615032936
 11
5.5579640405
 21
3.4515032936
  0
LINE
  5
285
100
AcDbEntity
  8
0
100
AcDbLine
 62
7
  6
CONTINUOUS
 10
5.5669252421
 20
4.3615032936
 11
5.5669252421
 21
3.4515032936
  0
LINE
  5
286
100
AcDbEntity
  8
0
100
AcDbLine
 62
7
  6
CONTINUOUS
 10
5.5698204203
 20
5.6515032936
 11
5.5698204203
 21
5.6615032936
  0
LINE
  5
287
100
AcDbEntity
  8
0
100
AcDbLine
 62
7
  6
CONTINUOUS
 10
5.5869257705
 20
4.3615032936
 11
5.5869257705
 21
3.4515032936
  0
LINE
  5
288
100
AcDbEntity
  8
0
100
AcDbLine
 62
7
  6
CONTINUOUS
 10
5.5946595018
 20
4.3615032936
 11
5.5946595018
 21
3.4515032936
  0
LINE
  5
289
100
AcDbEntity
  8
0
100
AcDbLine
 62
7
  6
CONTINUOUS
 10
5.6116297843
 20
4.3615032936
 11
5.6116297843
 21
3.4515032936
  0
LINE
  5
28A
100
AcDbEntity
  8
0
100
AcDbLine
 62
7
  6
CONTINUOUS
 10
5.6180615652
 20
4.3615032936
 11
5.6180615652
 21
3.4515032936
  0
LINE
  5
28B
100
AcDbEntity
  8
0
100
AcDbLine
 62
7
  6
CONTINUOUS
 10
5.6298204203
 20
4.4215032936
 11
5.6298204203
 21
4.3615032936
  0
LINE
  5
28C
100
AcDbEntity
  8
0
100
AcDbLine
 62
7
  6
CONTINUOUS
 10
5.6318381687
 20
4.3615032936
 11
5.6318381687
 21
3.4515032936
  0
LINE
  5
28D
100
AcDbEntity
  8
0
100
AcDbLine
 62
7
  6
CONTINUOUS
 10
5.6369060576
 20
4.3615032936
 11
5.6369060576
 21
3.4515032936
  0
LINE
  5
28E
100
AcDbEntity
  8
0
100
AcDbLine
 62
7
  6
CONTINUOUS
 10
5.6448204203
 20
5.6215032936
 11
5.6448204203
 21
4.4215032936
  0
LINE
  5
28F
100
AcDbEntity
  8
0
100
AcDbLine
 62
7
  6
CONTINUOUS
 10
5.647356306
 20
4.3615032936
 11
5.647356306
 21
3.4515032936
  0
LINE
  5
290
100
AcDbEntity
  8
0
100
AcDbLine
 62
7
  6
CONTINUOUS
 10
5.6510114964
 20
4.3615032936
 11
5.6510114964
 21
3.9296399625
  0
LINE
  5
291
100
AcDbEntity
  8
0
100
AcDbLine
 62
7
  6
CONTINUOUS
 10
5.6510114964
 20
3.8533666247
 11
5.6510114964
 21
3.4515032936
  0
LINE
  5
292
100
AcDbEntity
  8
0
100
AcDbLine
 62
7
  6
CONTINUOUS
 10
5.658034748
 20
4.3615032936
 11
5.658034748
 21
3.9843146406
  0
LINE
  5
293
100
AcDbEntity
  8
0
100
AcDbLine
 62
7
  6
CONTINUOUS
 10
5.658034748
 20
3.7986919466
 11
5.658034748
 21
3.4515032936
  0
LINE
  5
294
100
AcDbEntity
  8
0
100
AcDbLine
 62
7
  6
CONTINUOUS
 10
5.6602420384
 20
4.3615032936
 11
5.6602420384
 21
3.9958318343
  0
LINE
  5
295
100
AcDbEntity
  8
0
100
AcDbLine
 62
7
  6
CONTINUOUS
 10
5.6602420384
 20
3.7871747529
 11
5.6602420384
 21
3.4515032936
  0
LINE
  5
296
100
AcDbEntity
  8
0
100
AcDbLine
 62
7
  6
CONTINUOUS
 10
5.6637706555
 20
4.3615032936
 11
5.6637706555
 21
4.0120617714
  0
LINE
  5
297
100
AcDbEntity
  8
0
100
AcDbLine
 62
7
  6
CONTINUOUS
 10
5.6637706555
 20
3.7709448158
 11
5.6637706555
 21
3.4515032936
  0
LINE
  5
298
100
AcDbEntity
  8
0
100
AcDbLine
 62
7
  6
CONTINUOUS
 10
5.6645087885
 20
4.3615032936
 11
5.6645087885
 21
4.0152005046
  0
LINE
  5
299
100
AcDbEntity
  8
0
100
AcDbLine
 62
7
  6
CONTINUOUS
 10
5.6645087885
 20
3.7678060826
 11
5.6645087885
 21
3.4515032936
  0
LINE
  5
29A
100
AcDbEntity
  8
0
100
AcDbLine
 62
7
  6
CONTINUOUS
 10
4.6448204203
 20
5.6215032936
 11
5.6448204203
 21
5.6215032936
  0
LINE
  5
29B
100
AcDbEntity
  8
0
100
AcDbLine
 62
7
  6
CONTINUOUS
 10
4.6748204203
 20
5.6515032936
 11
5.6148204203
 21
5.6515032936
  0
LINE
  5
29C
100
AcDbEntity
  8
0
100
AcDbLine
 62
7
  6
CONTINUOUS
 10
5.6170274224
 20
5.6615032936
 11
4.6726134182
 21
5.6615032936
  0
LINE
  5
29D
100
AcDbEntity
  8
0
100
AcDbLine
 62
7
  6
CONTINUOUS
 10
5.6467044465
 20
5.6871130497
 11
4.6429363941
 21
5.6871130497
  0
LINE
  5
29E
100
AcDbEntity
  8
0
100
AcDbLine
 62
7
  6
CONTINUOUS
 10
6.2698204203
 20
6.1615032936
 11
6.2698204203
 21
5.9395554207
  0
LINE
  5
29F
100
AcDbEntity
  8
0
100
AcDbLine
 62
7
  6
CONTINUOUS
 10
5.7743862641
 20
5.8305025168
 11
4.5152545766
 21
5.8305025168
  0
LINE
  5
2A0
100
AcDbEntity
  8
0
100
AcDbLine
 62
7
  6
CONTINUOUS
 10
6.2419977945
 20
5.909634541
 11
4.0476430462
 21
5.909634541
  0
LINE
  5
2A1
100
AcDbEntity
  8
0
100
AcDbLine
 62
7
  6
CONTINUOUS
 10
6.2698204203
 20
5.9395554207
 11
4.0198204203
 21
5.9395554207
  0
LINE
  5
2A2
100
AcDbEntity
  8
0
100
AcDbLine
 62
7
  6
CONTINUOUS
 10
6.5028204203
 20
4.0165032936
 11
6.5028204203
 21
3.7665032936
  0
LINE
  5
2A3
100
AcDbEntity
  8
0
100
AcDbLine
 62
7
  6
CONTINUOUS
 10
6.2698204203
 20
6.1615032936
 11
4.0198204203
 21
6.1615032936
  0
ARC
  5
2A4
100
AcDbEntity
  8
0
100
AcDbCircle
 62
7
  6
CONTINUOUS
 10
6.4234456392
 20
3.4162278996
 40
2.5
100
AcDbArc
 50
94.1621379224
 51
105.0477379833
  0
ARC
  5
2A5
100
AcDbEntity
  8
0
100
AcDbCircle
 62
7
  6
CONTINUOUS
 10
3.8661952014
 20
3.4162278996
 40
2.5
100
AcDbArc
 50
74.9522620167
 51
85.8378620776
  0
ARC
  5
2A6
100
AcDbEntity
  8
0
100
AcDbCircle
 62
7
  6
CONTINUOUS
 10
4.0461535935
 20
3.9056200759
 40
0.5951543937
100
AcDbArc
 50
346.6110629775
 51
346.9214737724
  0
ARC
  5
2A7
100
AcDbEntity
  8
0
100
AcDbCircle
 62
7
  6
CONTINUOUS
 10
6.2434834012
 20
3.8773874157
 40
0.5951504428
100
AcDbArc
 50
166.6110619472
 51
166.9214748027
  0
ARC
  5
2A8
100
AcDbEntity
  8
0
100
AcDbCircle
 62
7
  6
CONTINUOUS
 10
4.0464773429
 20
3.8774626471
 40
0.5948218136
100
AcDbArc
 50
13.0784394481
 51
13.389023802
  0
ARC
  5
2A9
100
AcDbEntity
  8
0
100
AcDbCircle
 62
7
  6
CONTINUOUS
 10
6.2431478469
 20
3.9055402595
 40
0.5948057359
100
AcDbArc
 50
193.0784352505
 51
193.3890279996
  0
ARC
  5
2AA
100
AcDbEntity
  8
0
100
AcDbCircle
 62
7
  6
CONTINUOUS
 10
4.0758122214
 20
3.8992407069
 40
0.5648157934
100
AcDbArc
 50
348.5559162336
 51
349.7455223427
  0
ARC
  5
2AB
100
AcDbEntity
  8
0
100
AcDbCircle
 62
7
  6
CONTINUOUS
 10
6.2138285643
 20
3.8837658908
 40
0.5648157375
100
AcDbArc
 50
168.5559161747
 51
169.7455224015
  0
ARC
  5
2AC
100
AcDbEntity
  8
0
100
AcDbCircle
 62
7
  6
CONTINUOUS
 10
4.0780453385
 20
3.8841938611
 40
0.5625421576
100
AcDbArc
 50
10.2520735452
 51
11.4464878785
  0
ARC
  5
2AD
100
AcDbEntity
  8
0
100
AcDbCircle
 62
7
  6
CONTINUOUS
 10
6.211595408
 20
3.898812708
 40
0.5625420617
100
AcDbArc
 50
190.2520734435
 51
191.4464879803
  0
ARC
  5
2AE
100
AcDbEntity
  8
0
100
AcDbCircle
 62
7
  6
CONTINUOUS
 10
6.1568629181
 20
3.8915447524
 40
0.5072900849
100
AcDbArc
 50
180.0046825524
 51
184.3161020629
  0
ARC
  5
2AF
100
AcDbEntity
  8
0
100
AcDbCircle
 62
7
  6
CONTINUOUS
 10
4.1327779385
 20
3.8915447518
 40
0.507290069
100
AcDbArc
 50
355.6838978694
 51
359.9953175153
  0
ARC
  5
2B0
100
AcDbEntity
  8
0
100
AcDbCircle
 62
7
  6
CONTINUOUS
 10
4.1327780635
 20
3.8914618402
 40
0.507289944
100
AcDbArc
 50
0.0046819532
 51
4.3161026621
  0
ARC
  5
2B1
100
AcDbEntity
  8
0
100
AcDbCircle
 62
7
  6
CONTINUOUS
 10
6.1568627471
 20
3.8914618413
 40
0.5072899139
100
AcDbArc
 50
175.6838972101
 51
179.9953181746
  0
CIRCLE
  5
2B2
100
AcDbEntity
  8
0
100
AcDbCircle
 62
7
  6
CONTINUOUS
 10
3.2868204203
 20
3.8915032936
 40
0.25
  0
CIRCLE
  5
2B3
100
AcDbEntity
  8
0
100
AcDbCircle
 62
7
  6
CONTINUOUS
 10
7.0028204203
 20
3.8915032936
 40
0.25
  0
ARC
  5
2B4
100
AcDbEntity
  8
0
100
AcDbCircle
 62
7
  6
CONTINUOUS
 10
4.4698204203
 20
5.6615032936
 40
0.175
100
AcDbArc
 50
8.4149680847
 51
74.9522620167
  0
ARC
  5
2B5
100
AcDbEntity
  8
0
100
AcDbCircle
 62
7
  6
CONTINUOUS
 10
5.8198204203
 20
5.6615032936
 40
0.175
100
AcDbArc
 50
105.0477379833
 51
171.5850319153
  0
ARC
  5
2B6
100
AcDbEntity
  8
0
100
AcDbCircle
 62
7
  6
CONTINUOUS
 10
4.0498204203
 20
5.9395554207
 40
0.03
100
AcDbArc
 50
180.0
 51
265.8378620776
  0
ARC
  5
2B7
100
AcDbEntity
  8
0
100
AcDbCircle
 62
7
  6
CONTINUOUS
 10
6.2398204203
 20
5.9395554207
 40
0.03
100
AcDbArc
 50
274.1621379224
 51
360.0
  0
ARC
  5
2B8
100
AcDbEntity
  8
0
100
AcDbCircle
 62
7
  6
CONTINUOUS
 10
4.6726134182
 20
5.6915032936
 40
0.03
100
AcDbArc
 50
188.4149680847
 51
270.0
  0
ARC
  5
2B9
100
AcDbEntity
  8
0
100
AcDbCircle
 62
7
  6
CONTINUOUS
 10
5.6170274224
 20
5.6915032936
 40
0.03
100
AcDbArc
 50
270.0
 51
351.5850319153
  0
ARC
  5
2BA
100
AcDbEntity
  8
0
100
AcDbCircle
 62
7
  6
CONTINUOUS
 10
4.6548204203
 20
3.4515032936
 40
0.03
100
AcDbArc
 50
237.7690473645
 51
270.0
  0
ARC
  5
2BB
100
AcDbEntity
  8
0
100
AcDbCircle
 62
7
  6
CONTINUOUS
 10
5.6348204203
 20
3.4515032936
 40
0.03
100
AcDbArc
 50
270.0
 51
302.2309526355
  0
ARC
  5
2BC
100
AcDbEntity
  8
0
100
AcDbCircle
 62
7
  6
CONTINUOUS
 10
5.6148204203
 20
5.6215032936
 40
0.03
100
AcDbArc
 50
0.0
 51
90.0
  0
ARC
  5
2BD
100
AcDbEntity
  8
0
100
AcDbCircle
 62
7
  6
CONTINUOUS
 10
4.6748204203
 20
5.6215032936
 40
0.03
100
AcDbArc
 50
90.0
 51
180.0
  0
ARC
  5
2BE
100
AcDbEntity
  8
0
100
AcDbCircle
 62
7
  6
CONTINUOUS
 10
4.6541389111
 20
3.4504310485
 40
0.0287295111
100
AcDbArc
 50
229.2675978164
 51
237.7782773805
  0
ARC
  5
2BF
100
AcDbEntity
  8
0
100
AcDbCircle
 62
7
  6
CONTINUOUS
 10
5.6355473739
 20
3.4503696696
 40
0.0286533549
100
AcDbArc
 50
302.2102879043
 51
310.7436238718
  0
SPLINE
  5
2C0
100
AcDbEntity
  8
0
100
AcDbSpline
 62
7
  6
CONTINUOUS
 70
0
 71
3
 72
15
 73
11
 74
0
 42
0.0000001
 43
0.0000001
 44
0.0000000001
 40
0.0
 40
0.0
 40
0.0
 40
0.0
 40
0.0704835089
 40
0.1549043081
 40
0.2545847426
 40
0.370970469
 40
0.5051038129
 40
0.6569052595
 40
0.8239511242
 40
1.0
 40
1.0
 40
1.0
 40
1.0
 10
5.5655440442
 20
3.4261261385
 30
0.0
 10
5.5656384795
 20
3.4267162137
 30
0.0
 10
5.5658210329
 20
3.4280170665
 30
0.0
 10
5.5660616344
 20
3.4301622676
 30
0.0
 10
5.5662883669
 20
3.4326999871
 30
0.0
 10
5.5664946382
 20
3.4356620909
 30
0.0
 10
5.5666732816
 20
3.4390685779
 30
0.0
 10
5.5668136244
 20
3.4429066966
 30
0.0
 10
5.5669042973
 20
3.4471017649
 30
0.0
 10
5.5669252421
 20
3.4500106889
 30
0.0
 10
5.5669252421
 20
3.4515032936
 30
0.0
  0
SPLINE
  5
2C1
100
AcDbEntity
  8
0
100
AcDbSpline
 62
7
  6
CONTINUOUS
 70
0
 71
3
 72
15
 73
11
 74
0
 42
0.0000001
 43
0.0000001
 44
0.0000000001
 40
0.0
 40
0.0
 40
0.0
 40
0.0
 40
0.0734657182
 40
0.1598215572
 40
0.2605051849
 40
0.3770374204
 40
0.5105335223
 40
0.6609990847
 40
0.8261551944
 40
1.0
 40
1.0
 40
1.0
 40
1.0
 10
5.5910725801
 20
3.4261261385
 30
0.0
 10
5.5913146977
 20
3.4267086886
 30
0.0
 10
5.5917862195
 20
3.427999157
 30
0.0
 10
5.5924130392
 20
3.4301478031
 30
0.0
 10
5.5930031842
 20
3.4326881846
 30
0.0
 10
5.5935397881
 20
3.4356526823
 30
0.0
 10
5.5940043544
 20
3.4390612734
 30
0.0
 10
5.5943692774
 20
3.4429016397
 30
0.0
 10
5.594605033
 20
3.4470991065
 30
0.0
 10
5.5946595018
 20
3.4500104627
 30
0.0
 10
5.5946595018
 20
3.4515032936
 30
0.0
  0
SPLINE
  5
2C2
100
AcDbEntity
  8
0
100
AcDbSpline
 62
7
  6
CONTINUOUS
 70
0
 71
3
 72
16
 73
12
 74
0
 42
0.0000001
 43
0.0000001
 44
0.0000000001
 40
0.0
 40
0.0
 40
0.0
 40
0.0
 40
0.0783833797
 40
0.1680250098
 40
0.27046917
 40
0.3873147531
 40
0.5197739962
 40
0.6679850183
 40
0.8299150691
 40
0.9145181638
 40
1.0
 40
1.0
 40
1.0
 40
1.0
 10
5.6123034638
 20
3.4261261385
 30
0.0
 10
5.6126854386
 20
3.4266986499
 30
0.0
 10
5.6134353702
 20
3.4279725636
 30
0.0
 10
5.6144457967
 20
3.4301247416
 30
0.0
 10
5.615396215
 20
3.432668303
 30
0.0
 10
5.6162599934
 20
3.4356362196
 30
0.0
 10
5.6170075177
 20
3.4390481634
 30
0.0
 10
5.6175945189
 20
3.4428923193
 30
0.0
 10
5.6179067139
 20
3.4463466226
 30
0.0
 10
5.6180384333
 20
3.4492592008
 30
0.0
 10
5.6180615652
 20
3.4507527263
 30
0.0
 10
5.6180615652
 20
3.4515032936
 30
0.0
  0
SPLINE
  5
2C3
100
AcDbEntity
  8
0
100
AcDbSpline
 62
7
  6
CONTINUOUS
 70
0
 71
3
 72
16
 73
12
 74
0
 42
0.0000001
 43
0.0000001
 44
0.0000000001
 40
0.0
 40
0.0
 40
0.0
 40
0.0
 40
0.1778951158
 40
0.2826730776
 40
0.4000564717
 40
0.5313365154
 40
0.6767747367
 40
0.7543678727
 40
0.834682421
 40
0.9169445912
 40
1.0
 40
1.0
 40
1.0
 40
1.0
 10
5.6290322302
 20
3.4261261385
 30
0.0
 10
5.6301158419
 20
3.4273138652
 30
0.0
 10
5.6316013609
 20
3.4294231405
 30
0.0
 10
5.6332501359
 20
3.4326434027
 30
0.0
 10
5.6344354262
 20
3.4356152806
 30
0.0
 10
5.6354604393
 20
3.4390306434
 30
0.0
 10
5.6361166002
 20
3.4421691276
 30
0.0
 10
5.6365136392
 20
3.4448823809
 30
0.0
 10
5.6367372555
 20
3.447042113
 30
0.0
 10
5.6368744454
 20
3.4492583951
 30
0.0
 10
5.6369060576
 20
3.4507526625
 30
0.0
 10
5.6369060576
 20
3.4515032936
 30
0.0
  0
SPLINE
  5
2C4
100
AcDbEntity
  8
0
100
AcDbSpline
 62
7
  6
CONTINUOUS
 70
0
 71
3
 72
17
 73
13
 74
0
 42
0.0000001
 43
0.0000001
 44
0.0000000001
 40
0.0
 40
0.0
 40
0.0
 40
0.0
 40
0.090577516
 40
0.188816191
 40
0.2961790707
 40
0.4142169021
 40
0.5442301319
 40
0.686615379
 40
0.7621107647
 40
0.8400278996
 40
0.9196722843
 40
1.0
 40
1.0
 40
1.0
 40
1.0
 10
5.6410977722
 20
3.4261261385
 30
0.0
 10
5.6417362613
 20
3.4266819728
 30
0.0
 10
5.6429996426
 20
3.4279204499
 30
0.0
 10
5.6447488877
 20
3.4300726652
 30
0.0
 10
5.6463941172
 20
3.4326178998
 30
0.0
 10
5.6478900603
 20
3.4355906227
 30
0.0
 10
5.6491846752
 20
3.439009133
 30
0.0
 10
5.6500155353
 20
3.4421591285
 30
0.0
 10
5.6505168876
 20
3.4448787854
 30
0.0
 10
5.6507986652
 20
3.447039711
 30
0.0
 10
5.6509716212
 20
3.4492571846
 30
0.0
 10
5.6510114964
 20
3.4507525537
 30
0.0
 10
5.6510114964
 20
3.4515032936
 30
0.0
  0
SPLINE
  5
2C5
100
AcDbEntity
  8
0
100
AcDbSpline
 62
7
  6
CONTINUOUS
 70
0
 71
3
 72
17
 73
13
 74
0
 42
0.0000001
 43
0.0000001
 44
0.0000000001
 40
0.0
 40
0.0
 40
0.0
 40
0.0
 40
0.0966061751
 40
0.1992996284
 40
0.3093726261
 40
0.4282333369
 40
0.5571321226
 40
0.6965376485
 40
0.7699408848
 40
0.8454394548
 40
0.9224344094
 40
1.0
 40
1.0
 40
1.0
 40
1.0
 10
5.648383892
 20
3.4261261385
 30
0.0
 10
5.6491400074
 20
3.4266764391
 30
0.0
 10
5.6506371889
 20
3.4279006481
 30
0.0
 10
5.6527314101
 20
3.4300499317
 30
0.0
 10
5.654702114
 20
3.4325930803
 30
0.0
 10
5.6564954606
 20
3.4355657995
 30
0.0
 10
5.6580483041
 20
3.4389861773
 30
0.0
 10
5.6590482004
 20
3.4421484188
 30
0.0
 10
5.6596497373
 20
3.4448751198
 30
0.0
 10
5.659987171
 20
3.4470371974
 30
0.0
 10
5.6601942775
 20
3.4492558683
 30
0.0
 10
5.6602420384
 20
3.4507524416
 30
0.0
 10
5.6602420384
 20
3.4515032936
 30
0.0
  0
SPLINE
  5
2C6
100
AcDbEntity
  8
0
100
AcDbSpline
 62
7
  6
CONTINUOUS
 70
0
 71
3
 72
17
 73
13
 74
0
 42
0.0000001
 43
0.0000001
 44
0.0000000001
 40
0.0
 40
0.0
 40
0.0
 40
0.0
 40
0.1021446575
 40
0.2090330867
 40
0.3217487189
 40
0.4415072171
 40
0.569452448
 40
0.7060744908
 40
0.7774851327
 40
0.8506627164
 40
0.9251033328
 40
1.0
 40
1.0
 40
1.0
 40
1.0
 10
5.6508204203
 20
3.4261261385
 30
0.0
 10
5.6516867852
 20
3.4266723715
 30
0.0
 10
5.6534019465
 20
3.4278852068
 30
0.0
 10
5.6558197456
 20
3.4300308605
 30
0.0
 10
5.6580961031
 20
3.4325707042
 30
0.0
 10
5.6601694856
 20
3.4355418817
 30
0.0
 10
5.6619662566
 20
3.4389627449
 30
0.0
 10
5.663127562
 20
3.4421370202
 30
0.0
 10
5.6638242192
 20
3.4448711582
 30
0.0
 10
5.6642142124
 20
3.4470344438
 30
0.0
 10
5.6644535735
 20
3.4492544169
 30
0.0
 10
5.6645087885
 20
3.4507523177
 30
0.0
 10
5.6645087885
 20
3.4515032936
 30
0.0
  0
SPLINE
  5
2C7
100
AcDbEntity
  8
0
100
AcDbSpline
 62
7
  6
CONTINUOUS
 70
0
 71
3
 72
17
 73
13
 74
0
 42
0.0000001
 43
0.0000001
 44
0.0000000001
 40
0.0
 40
0.0
 40
0.0
 40
0.0
 40
0.0748953929
 40
0.149330522
 40
0.2224996861
 40
0.2939087638
 40
0.4305284529
 40
0.5584825455
 40
0.678243715
 40
0.79096247
 40
0.8978534914
 40
1.0
 40
1.0
 40
1.0
 40
1.0
 10
4.6251320522
 20
3.4515032936
 30
0.0
 10
4.6251320522
 20
3.4507523304
 30
0.0
 10
4.6251872307
 20
3.4492544977
 30
0.0
 10
4.6254265127
 20
3.4470346655
 30
0.0
 10
4.6258165827
 20
3.4448715515
 30
0.0
 10
4.6265131399
 20
3.4421375189
 30
0.0
 10
4.6276743916
 20
3.4389631673
 30
0.0
 10
4.6294711671
 20
3.4355422024
 30
0.0
 10
4.6315445705
 20
3.4325708569
 30
0.0
 10
4.6338210043
 20
3.4300309669
 30
0.0
 10
4.6362388336
 20
3.4278852331
 30
0.0
 10
4.6379540396
 20
3.4266723814
 30
0.0
 10
4.6388204203
 20
3.4261261385
 30
0.0
  0
SPLINE
  5
2C8
100
AcDbEntity
  8
0
100
AcDbSpline
 62
7
  6
CONTINUOUS
 70
0
 71
3
 72
17
 73
13
 74
0
 42
0.0000001
 43
0.0000001
 44
0.0000000001
 40
0.0
 40
0.0
 40
0.0
 40
0.0
 40
0.0775642836
 40
0.1545535933
 40
0.2300434024
 40
0.3034450918
 40
0.4428484768
 40
0.5717564078
 40
0.6906199945
 40
0.8006960527
 40
0.9033920864
 40
1.0
 40
1.0
 40
1.0
 40
1.0
 10
4.6293988022
 20
3.4515032936
 30
0.0
 10
4.6293988022
 20
3.4507524541
 30
0.0
 10
4.6294465318
 20
3.4492559485
 30
0.0
 10
4.6296535692
 20
3.447037421
 30
0.0
 10
4.6299910702
 20
3.4448755103
 30
0.0
 10
4.6305925209
 20
3.4421489161
 30
0.0
 10
4.6315923695
 20
3.4389866011
 30
0.0
 10
4.6331452177
 20
3.4355661206
 30
0.0
 10
4.6349385793
 20
3.4325932371
 30
0.0
 10
4.636909353
 20
3.430050037
 30
0.0
 10
4.6390035974
 20
3.4279006764
 30
0.0
 10
4.6405008195
 20
3.4266764491
 30
0.0
 10
4.6412569486
 20
3.4261261385
 30
0.0
  0
SPLINE
  5
2C9
100
AcDbEntity
  8
0
100
AcDbSpline
 62
7
  6
CONTINUOUS
 70
0
 71
3
 72
17
 73
13
 74
0
 42
0.0000001
 43
0.0000001
 44
0.0000000001
 40
0.0
 40
0.0
 40
0.0
 40
0.0
 40
0.0803263745
 40
0.159964949
 40
0.237872972
 40
0.3133668253
 40
0.4557501415
 40
0.5857728173
 40
0.7038137439
 40
0.8111796208
 40
0.9094208699
 40
1.0
 40
1.0
 40
1.0
 40
1.0
 10
4.6386293442
 20
3.4515032936
 30
0.0
 10
4.6386293442
 20
3.4507525662
 30
0.0
 10
4.6386691933
 20
3.4492572641
 30
0.0
 10
4.6388420912
 20
3.4470399364
 30
0.0
 10
4.6391239257
 20
3.4448791733
 30
0.0
 10
4.6396252063
 20
3.4421596244
 30
0.0
 10
4.6404560256
 20
3.4390095582
 30
0.0
 10
4.6417506452
 20
3.435590944
 30
0.0
 10
4.6432465978
 20
3.4326180609
 30
0.0
 10
4.6448918892
 20
3.4300727692
 30
0.0
 10
4.6466411507
 20
3.4279204806
 30
0.0
 10
4.6479045679
 20
3.4266819828
 30
0.0
 10
4.6485430684
 20
3.4261261385
 30
0.0
  0
SPLINE
  5
2CA
100
AcDbEntity
  8
0
100
AcDbSpline
 62
7
  6
CONTINUOUS
 70
0
 71
3
 72
16
 73
12
 74
0
 42
0.0000001
 43
0.0000001
 44
0.0000000001
 40
0.0
 40
0.0
 40
0.0
 40
0.0
 40
0.0830553965
 40
0.1653175256
 40
0.2456320175
 40
0.3232251581
 40
0.468663414
 40
0.599943512
 40
0.7173269259
 40
0.8221048808
 40
1.0
 40
1.0
 40
1.0
 40
1.0
 10
4.652734783
 20
3.4515032936
 30
0.0
 10
4.652734783
 20
3.4507526626
 30
0.0
 10
4.6527663951
 20
3.4492583957
 30
0.0
 10
4.6529035847
 20
3.4470421145
 30
0.0
 10
4.6531272014
 20
3.4448823833
 30
0.0
 10
4.6535242401
 20
3.4421691301
 30
0.0
 10
4.6541804008
 20
3.439030645
 30
0.0
 10
4.6552054143
 20
3.4356152813
 30
0.0
 10
4.6563907046
 20
3.4326434028
 30
0.0
 10
4.6580394798
 20
3.4294231406
 30
0.0
 10
4.6595249987
 20
3.4273138653
 30
0.0
 10
4.6606086104
 20
3.4261261385
 30
0.0
  0
SPLINE
  5
2CB
100
AcDbEntity
  8
0
100
AcDbSpline
 62
7
  6
CONTINUOUS
 70
0
 71
3
 72
16
 73
12
 74
0
 42
0.0000001
 43
0.0000001
 44
0.0000000001
 40
0.0
 40
0.0
 40
0.0
 40
0.0
 40
0.0854804281
 40
0.1700773979
 40
0.3319961921
 40
0.4802056428
 40
0.6126749074
 40
0.7295240104
 40
0.8319710529
 40
0.9216152656
 40
1.0
 40
1.0
 40
1.0
 40
1.0
 10
4.6715792755
 20
3.4515032936
 30
0.0
 10
4.6715792755
 20
3.4507527386
 30
0.0
 10
4.6716023901
 20
3.4492592792
 30
0.0
 10
4.6717340787
 20
3.4463468639
 30
0.0
 10
4.6720463033
 20
3.4428927309
 30
0.0
 10
4.6726332373
 20
3.4390485904
 30
0.0
 10
4.6733807705
 20
3.4356365404
 30
0.0
 10
4.6742445495
 20
3.4326684729
 30
0.0
 10
4.6751950085
 20
3.4301248422
 30
0.0
 10
4.6762054402
 20
3.4279726004
 30
0.0
 10
4.6769553954
 20
3.4266986599
 30
0.0
 10
4.6773373769
 20
3.4261261385
 30
0.0
  0
SPLINE
  5
2CC
100
AcDbEntity
  8
0
100
AcDbSpline
 62
7
  6
CONTINUOUS
 70
0
 71
3
 72
15
 73
11
 74
0
 42
0.0000001
 43
0.0000001
 44
0.0000000001
 40
0.0
 40
0.0
 40
0.0
 40
0.0
 40
0.1738371327
 40
0.3389817404
 40
0.4894458583
 40
0.6229522036
 40
0.7394881246
 40
0.8401745965
 40
0.9265330329
 40
1.0
 40
1.0
 40
1.0
 40
1.0
 10
4.6949813389
 20
3.4515032936
 30
0.0
 10
4.6949813389
 20
3.4500105285
 30
0.0
 10
4.695035771
 20
3.447099336
 30
0.0
 10
4.6952715523
 20
3.4429020479
 30
0.0
 10
4.6956364329
 20
3.4390617013
 30
0.0
 10
4.6961010051
 20
3.4356530026
 30
0.0
 10
4.6966376083
 20
3.432688358
 30
0.0
 10
4.6972277799
 20
3.4301479021
 30
0.0
 10
4.6978546014
 20
3.4279991966
 30
0.0
 10
4.6983261388
 20
3.4267086985
 30
0.0
 10
4.6985682606
 20
3.4261261385
 30
0.0
  0
SPLINE
  5
2CD
100
AcDbEntity
  8
0
100
AcDbSpline
 62
7
  6
CONTINUOUS
 70
0
 71
3
 72
15
 73
11
 74
0
 42
0.0000001
 43
0.0000001
 44
0.0000000001
 40
0.0
 40
0.0
 40
0.0
 40
0.0
 40
0.1760411211
 40
0.3430753409
 40
0.4948754146
 40
0.6290191325
 40
0.7454086419
 40
0.8450918993
 40
0.9295153074
 40
1.0
 40
1.0
 40
1.0
 40
1.0
 10
4.7227155985
 20
3.4515032936
 30
0.0
 10
4.7227155985
 20
3.4500107546
 30
0.0
 10
4.7227365293
 20
3.447101995
 30
0.0
 10
4.7228272121
 20
3.442907103
 30
0.0
 10
4.7229675385
 20
3.4390690062
 30
0.0
 10
4.7231461842
 20
3.4356624107
 30
0.0
 10
4.723352455
 20
3.4327001626
 30
0.0
 10
4.7235791981
 20
3.4301623655
 30
0.0
 10
4.7238197999
 20
3.428017108
 30
0.0
 10
4.7240023596
 20
3.4267162237
 30
0.0
 10
4.7240967965
 20
3.4261261385
 30
0.0
  0
SPLINE
  5
2CE
100
AcDbEntity
  8
0
100
AcDbSpline
 62
7
  6
CONTINUOUS
 70
0
 71
3
 72
18
 73
14
 74
0
 42
0.0000001
 43
0.0000001
 44
0.0000000001
 40
0.0
 40
0.0
 40
0.0
 40
0.0
 40
0.0686673862
 40
0.1371661456
 40
0.2049862321
 40
0.2718630839
 40
0.402359081
 40
0.5285281738
 40
0.5901191617
 40
0.65076636
 40
0.7696574991
 40
0.8858953644
 40
1.0
 40
1.0
 40
1.0
 40
1.0
 10
5.1628204203
 20
3.4515032936
 30
0.0
 10
5.1628204203
 20
3.450751969
 30
0.0
 10
5.1627475467
 20
3.4492502719
 30
0.0
 10
5.1624317926
 20
3.4470267481
 30
0.0
 10
5.1619171512
 20
3.4448604782
 30
0.0
 10
5.1609930417
 20
3.4421065794
 30
0.0
 10
5.1594433979
 20
3.4389045693
 30
0.0
 10
5.1574497672
 20
3.4360337298
 30
0.0
 10
5.1556748205
 20
3.4339731935
 30
0.0
 10
5.1538248835
 20
3.432089794
 30
0.0
 10
5.1513471172
 20
3.429995358
 30
0.0
 10
5.1481712233
 20
3.4278590338
 30
0.0
 10
5.145946186
 20
3.4266659029
 30
0.0
 10
5.1448204203
 20
3.4261261385
 30
0.0
  0
SPLINE
  5
2CF
100
AcDbEntity
  8
0
100
AcDbSpline
 62
7
  6
CONTINUOUS
 70
0
 71
3
 72
17
 73
13
 74
0
 42
0.0000001
 43
0.0000001
 44
0.0000000001
 40
0.0
 40
0.0
 40
0.0
 40
0.0
 40
0.1103420528
 40
0.2235994116
 40
0.3404819205
 40
0.4618262363
 40
0.5885079553
 40
0.7209511319
 40
0.7892919527
 40
0.8588570116
 40
0.9292966458
 40
1.0
 40
1.0
 40
1.0
 40
1.0
 10
5.1944170933
 20
3.4261261385
 30
0.0
 10
5.1933772936
 20
3.4266676569
 30
0.0
 10
5.1913209152
 20
3.4278663202
 30
0.0
 10
5.1883955435
 20
3.4300057467
 30
0.0
 10
5.1856396766
 20
3.4325387981
 30
0.0
 10
5.1831260525
 20
3.4355049454
 30
0.0
 10
5.1809443072
 20
3.438923716
 30
0.0
 10
5.1795243565
 20
3.4421168837
 30
0.0
 10
5.1786760872
 20
3.4448639979
 30
0.0
 10
5.178202921
 20
3.4470293689
 30
0.0
 10
5.1779124939
 20
3.4492517147
 30
0.0
 10
5.177845463
 20
3.4507520867
 30
0.0
 10
5.177845463
 20
3.4515032936
 30
0.0
  0
SPLINE
  5
2D0
100
AcDbEntity
  8
0
100
AcDbSpline
 62
7
  6
CONTINUOUS
 70
0
 71
3
 72
18
 73
14
 74
0
 42
0.0000001
 43
0.0000001
 44
0.0000000001
 40
0.0
 40
0.0
 40
0.0
 40
0.0
 40
0.066919894
 40
0.1337596315
 40
0.2000969483
 40
0.2657335736
 40
0.3306416136
 40
0.394723453
 40
0.5204954202
 40
0.6434085346
 40
0.7640163041
 40
0.8827615228
 40
1.0
 40
1.0
 40
1.0
 40
1.0
 10
5.2136721131
 20
3.4515032936
 30
0.0
 10
5.2136721131
 20
3.4507518453
 30
0.0
 10
5.2135940484
 20
3.4492488353
 30
0.0
 10
5.2132558594
 20
3.4470240671
 30
0.0
 10
5.2127048313
 20
3.4448569131
 30
0.0
 10
5.2119563266
 20
3.4427733353
 30
0.0
 10
5.2110352448
 20
3.4407882975
 30
0.0
 10
5.2096132977
 20
3.4383026615
 30
0.0
 10
5.2075087784
 20
3.4354727264
 30
0.0
 10
5.2045874018
 20
3.4325136697
 30
0.0
 10
5.2013873649
 20
3.4299873923
 30
0.0
 10
5.1979914441
 20
3.4278534265
 30
0.0
 10
5.195618421
 20
3.4266645896
 30
0.0
 10
5.1944170933
 20
3.4261261385
 30
0.0
  0
SPLINE
  5
2D1
100
AcDbEntity
  8
0
100
AcDbSpline
 62
7
  6
CONTINUOUS
 70
0
 71
3
 72
17
 73
13
 74
0
 42
0.0000001
 43
0.0000001
 44
0.0000000001
 40
0.0
 40
0.0
 40
0.0
 40
0.0
 40
0.1059191009
 40
0.2157176046
 40
0.3303148614
 40
0.4507649355
 40
0.5781047297
 40
0.7128097561
 40
0.7828245462
 40
0.8543653086
 40
0.9269970875
 40
1.0
 40
1.0
 40
1.0
 40
1.0
 10
5.2435361233
 20
3.4261261385
 30
0.0
 10
5.2425918356
 20
3.4266700334
 30
0.0
 10
5.2407231574
 20
3.4278759762
 30
0.0
 10
5.2380770275
 20
3.4300188445
 30
0.0
 10
5.235584931
 20
3.4325558041
 30
0.0
 10
5.233313571
 20
3.4355250696
 30
0.0
 10
5.2313438856
 20
3.438945432
 30
0.0
 10
5.2300670229
 20
3.4421282735
 30
0.0
 10
5.2293025294
 20
3.4448680742
 30
0.0
 10
5.2288752293
 20
3.4470322735
 30
0.0
 10
5.2286129677
 20
3.4492532657
 30
0.0
 10
5.2285524564
 20
3.4507522194
 30
0.0
 10
5.2285524564
 20
3.4515032936
 30
0.0
  0
SPLINE
  5
2D2
100
AcDbEntity
  8
0
100
AcDbSpline
 62
7
  6
CONTINUOUS
 70
0
 71
3
 72
18
 73
14
 74
0
 42
0.0000001
 43
0.0000001
 44
0.0000000001
 40
0.0
 40
0.0
 40
0.0
 40
0.0
 40
0.0654671014
 40
0.1309302133
 40
0.1960418836
 40
0.2606595554
 40
0.3247864314
 40
0.388342146
 40
0.5138223705
 40
0.6373757947
 40
0.7594112264
 40
0.8802128486
 40
1.0
 40
1.0
 40
1.0
 40
1.0
 10
5.2638607265
 20
3.4515032936
 30
0.0
 10
5.2638607265
 20
3.4507517334
 30
0.0
 10
5.2637782156
 20
3.4492475316
 30
0.0
 10
5.2634208634
 20
3.4470216771
 30
0.0
 10
5.2628386876
 20
3.4448536888
 30
0.0
 10
5.2620480683
 20
3.4427697202
 30
0.0
 10
5.261075346
 20
3.440784552
 30
0.0
 10
5.2595709952
 20
3.4382942449
 30
0.0
 10
5.2573440199
 20
3.4354607297
 30
0.0
 10
5.2542606441
 20
3.4325047143
 30
0.0
 10
5.2508841391
 20
3.4299811784
 30
0.0
 10
5.2473010382
 20
3.4278492356
 30
0.0
 10
5.2448018891
 20
3.4266636157
 30
0.0
 10
5.2435361233
 20
3.4261261385
 30
0.0
  0
SPLINE
  5
2D3
100
AcDbEntity
  8
0
100
AcDbSpline
 62
7
  6
CONTINUOUS
 70
0
 71
3
 72
18
 73
14
 74
0
 42
0.0000001
 43
0.0000001
 44
0.0000000001
 40
0.0
 40
0.0
 40
0.0
 40
0.0
 40
0.1008341175
 40
0.2067194305
 40
0.3187921532
 40
0.4383181008
 40
0.5664714618
 40
0.6339998832
 40
0.7038160757
 40
0.7756961514
 40
0.8494229017
 40
0.9244694502
 40
1.0
 40
1.0
 40
1.0
 40
1.0
 10
5.291704467
 20
3.4261261385
 30
0.0
 10
5.2908644022
 20
3.4266732549
 30
0.0
 10
5.2892011487
 20
3.4278886297
 30
0.0
 10
5.2868605054
 20
3.430035179
 30
0.0
 10
5.2846570188
 20
3.4325759723
 30
0.0
 10
5.2826505653
 20
3.4355473766
 30
0.0
 10
5.2812267426
 20
3.438349404
 30
0.0
 10
5.280260934
 20
3.440807687
 30
0.0
 10
5.2796288444
 20
3.4427911605
 30
0.0
 10
5.2791155508
 20
3.4448722095
 30
0.0
 10
5.2787381533
 20
3.4470351176
 30
0.0
 10
5.2785064948
 20
3.4492547871
 30
0.0
 10
5.2784530645
 20
3.4507523489
 30
0.0
 10
5.2784530645
 20
3.4515032936
 30
0.0
  0
SPLINE
  5
2D4
100
AcDbEntity
  8
0
100
AcDbSpline
 62
7
  6
CONTINUOUS
 70
0
 71
3
 72
18
 73
14
 74
0
 42
0.0000001
 43
0.0000001
 44
0.0000000001
 40
0.0
 40
0.0
 40
0.0
 40
0.0
 40
0.0643052743
 40
0.1286691893
 40
0.1928052768
 40
0.2566158207
 40
0.3201282728
 40
0.3832748783
 40
0.5085438245
 40
0.6326209484
 40
0.7557931623
 40
0.8782158875
 40
1.0
 40
1.0
 40
1.0
 40
1.0
 10
5.3129029166
 20
3.4515032936
 30
0.0
 10
5.3129029166
 20
3.4507516374
 30
0.0
 10
5.31281676
 20
3.4492464155
 30
0.0
 10
5.3124437089
 20
3.4470196439
 30
0.0
 10
5.311836033
 20
3.4448509731
 30
0.0
 10
5.3110109665
 20
3.4427667133
 30
0.0
 10
5.3099960343
 20
3.440781479
 30
0.0
 10
5.3084241456
 20
3.4382874463
 30
0.0
 10
5.3060969881
 20
3.4354513142
 30
0.0
 10
5.3028815024
 20
3.4324978617
 30
0.0
 10
5.2993610157
 20
3.4299765221
 30
0.0
 10
5.2956251074
 20
3.4278461468
 30
0.0
 10
5.2930229085
 20
3.4266629051
 30
0.0
 10
5.291704467
 20
3.4261261385
 30
0.0
  0
SPLINE
  5
2D5
100
AcDbEntity
  8
0
100
AcDbSpline
 62
7
  6
CONTINUOUS
 70
0
 71
3
 72
17
 73
13
 74
0
 42
0.0000001
 43
0.0000001
 44
0.0000000001
 40
0.0
 40
0.0
 40
0.0
 40
0.0
 40
0.0951665383
 40
0.196785182
 40
0.3061949674
 40
0.4248447258
 40
0.5540028831
 40
0.6941251311
 40
0.7680353119
 40
0.8441215952
 40
0.9217614832
 40
1.0
 40
1.0
 40
1.0
 40
1.0
 10
5.3384582371
 20
3.4261261385
 30
0.0
 10
5.3377302859
 20
3.4266776434
 30
0.0
 10
5.3362889613
 20
3.4279050732
 30
0.0
 10
5.334277421
 20
3.4300551732
 30
0.0
 10
5.3323847732
 20
3.4325989738
 30
0.0
 10
5.3306628315
 20
3.4355718497
 30
0.0
 10
5.3291720613
 20
3.4389918953
 30
0.0
 10
5.3282129601
 20
3.4421511274
 30
0.0
 10
5.3276355442
 20
3.444876052
 30
0.0
 10
5.3273114835
 20
3.4470378397
 30
0.0
 10
5.3271125828
 20
3.4492562055
 30
0.0
 10
5.3270667172
 20
3.4507524703
 30
0.0
 10
5.3270667172
 20
3.4515032936
 30
0.0
  0
SPLINE
  5
2D6
100
AcDbEntity
  8
0
100
AcDbSpline
 62
7
  6
CONTINUOUS
 70
0
 71
3
 72
18
 73
14
 74
0
 42
0.0000001
 43
0.0000001
 44
0.0000000001
 40
0.0
 40
0.0
 40
0.0
 40
0.0
 40
0.0634308551
 40
0.1269685383
 40
0.1903731685
 40
0.2535809172
 40
0.3166370725
 40
0.3794826304
 40
0.504605264
 40
0.629082893
 40
0.7531074026
 40
0.876736495
 40
1.0
 40
1.0
 40
1.0
 40
1.0
 10
5.3603263804
 20
3.4515032936
 30
0.0
 10
5.3603263804
 20
3.4507515612
 30
0.0
 10
5.3602374215
 20
3.4492455292
 30
0.0
 10
5.3598523123
 20
3.4470180379
 30
0.0
 10
5.3592250618
 20
3.4448488455
 30
0.0
 10
5.3583735733
 20
3.4427643812
 30
0.0
 10
5.3573262826
 20
3.4407791217
 30
0.0
 10
5.3557025136
 20
3.4382822954
 30
0.0
 10
5.3532985169
 20
3.4354443387
 30
0.0
 10
5.3499819299
 20
3.432492881
 30
0.0
 10
5.3463512054
 20
3.4299731898
 30
0.0
 10
5.3424982508
 20
3.4278439628
 30
0.0
 10
5.3398170664
 20
3.4266624063
 30
0.0
 10
5.3384582371
 20
3.4261261385
 30
0.0
  0
SPLINE
  5
2D7
100
AcDbEntity
  8
0
100
AcDbSpline
 62
7
  6
CONTINUOUS
 70
0
 71
3
 72
17
 73
13
 74
0
 42
0.0000001
 43
0.0000001
 44
0.0000000001
 40
0.0
 40
0.0
 40
0.0
 40
0.0
 40
0.0890529199
 40
0.186184967
 40
0.2928908592
 40
0.4107454928
 40
0.5410515981
 40
0.6841807747
 40
0.7601923519
 40
0.8387034734
 40
0.9189967245
 40
1.0
 40
1.0
 40
1.0
 40
1.0
 10
5.3833471692
 20
3.4261261385
 30
0.0
 10
5.3827385774
 20
3.4266836
 30
0.0
 10
5.3815348393
 20
3.4279260198
 30
0.0
 10
5.3798730101
 20
3.430078739
 30
0.0
 10
5.3783101535
 20
3.4326242176
 30
0.0
 10
5.3768893353
 20
3.4355966765
 30
0.0
 10
5.375659832
 20
3.4390145354
 30
0.0
 10
5.3748713316
 20
3.4421615868
 30
0.0
 10
5.3743951877
 20
3.4448796193
 30
0.0
 10
5.3741274593
 20
3.4470402782
 30
0.0
 10
5.373963124
 20
3.4492574806
 30
0.0
 10
5.3739252385
 20
3.4507525789
 30
0.0
 10
5.3739252385
 20
3.4515032936
 30
0.0
  0
SPLINE
  5
2D8
100
AcDbEntity
  8
0
100
AcDbSpline
 62
7
  6
CONTINUOUS
 70
0
 71
3
 72
18
 73
14
 74
0
 42
0.0000001
 43
0.0000001
 44
0.0000000001
 40
0.0
 40
0.0
 40
0.0
 40
0.0
 40
0.0628396295
 40
0.1258191964
 40
0.1887306585
 40
0.2515331562
 40
0.3142838169
 40
0.3769291753
 40
0.5019589834
 40
0.6267103363
 40
0.7513093895
 40
0.8757474854
 40
1.0
 40
1.0
 40
1.0
 40
1.0
 10
5.405674404
 20
3.4515032936
 30
0.0
 10
5.405674404
 20
3.4507515076
 30
0.0
 10
5.4055835196
 20
3.4492449062
 30
0.0
 10
5.4051901308
 20
3.4470169134
 30
0.0
 10
5.4045494454
 20
3.4448473648
 30
0.0
 10
5.4036798331
 20
3.4427627705
 30
0.0
 10
5.4026103559
 20
3.4407775066
 30
0.0
 10
5.4009509644
 20
3.438278798
 30
0.0
 10
5.3984942688
 20
3.4354396785
 30
0.0
 10
5.395108445
 20
3.4324895977
 30
0.0
 10
5.3914021987
 20
3.4299710166
 30
0.0
 10
5.3874690331
 20
3.4278425501
 30
0.0
 10
5.3847336946
 20
3.4266620852
 30
0.0
 10
5.3833471692
 20
3.4261261385
 30
0.0
  0
SPLINE
  5
2D9
100
AcDbEntity
  8
0
100
AcDbSpline
 62
7
  6
CONTINUOUS
 70
0
 71
3
 72
16
 73
12
 74
0
 42
0.0000001
 43
0.0000001
 44
0.0000000001
 40
0.0
 40
0.0
 40
0.0
 40
0.0
 40
0.1753321371
 40
0.2795027718
 40
0.3967388649
 40
0.5283121533
 40
0.6744688705
 40
0.752552378
 40
0.8334353203
 40
0.9163114952
 40
1.0
 40
1.0
 40
1.0
 40
1.0
 10
5.4259389582
 20
3.4261261385
 30
0.0
 10
5.4249183928
 20
3.4273225957
 30
0.0
 10
5.4235295125
 20
3.429437944
 30
0.0
 10
5.4219928911
 20
3.4326494637
 30
0.0
 10
5.4208855847
 20
3.4356205565
 30
0.0
 10
5.4199279412
 20
3.4390349404
 30
0.0
 10
5.4193152265
 20
3.4421707027
 30
0.0
 10
5.418944185
 20
3.4448826838
 30
0.0
 10
5.4187352063
 20
3.4470423497
 30
0.0
 10
5.4186069231
 20
3.4492585576
 30
0.0
 10
5.4185773551
 20
3.4507526705
 30
0.0
 10
5.4185773551
 20
3.4515032936
 30
0.0
  0
SPLINE
  5
2DA
100
AcDbEntity
  8
0
100
AcDbSpline
 62
7
  6
CONTINUOUS
 70
0
 71
3
 72
17
 73
13
 74
0
 42
0.0000001
 43
0.0000001
 44
0.0000000001
 40
0.0
 40
0.0
 40
0.0
 40
0.0
 40
0.0625430628
 40
0.1252433467
 40
0.1879099379
 40
0.2505148863
 40
0.3131209461
 40
0.375677117
 40
0.5006907842
 40
0.6256177214
 40
0.7505493774
 40
1.0
 40
1.0
 40
1.0
 40
1.0
 10
5.4485102611
 20
3.4515032936
 30
0.0
 10
5.4485102611
 20
3.4507514805
 30
0.0
 10
5.4484183592
 20
3.4492445803
 30
0.0
 10
5.4480205774
 20
3.4470163312
 30
0.0
 10
5.4473727293
 20
3.4448466121
 30
0.0
 10
5.446493484
 20
3.4427619546
 30
0.0
 10
5.4454122236
 20
3.4407766828
 30
0.0
 10
5.4437338618
 20
3.4382769688
 30
0.0
 10
5.4412492303
 20
3.4354372924
 30
0.0
 10
5.4378262353
 20
3.432487769
 30
0.0
 10
5.4328365229
 20
3.4291336764
 30
0.0
 10
5.428739779
 20
3.4271970595
 30
0.0
 10
5.4259389582
 20
3.4261261385
 30
0.0
  0
SPLINE
  5
2DB
100
AcDbEntity
  8
0
100
AcDbSpline
 62
7
  6
CONTINUOUS
 70
0
 71
3
 72
16
 73
12
 74
0
 42
0.0000001
 43
0.0000001
 44
0.0000000001
 40
0.0
 40
0.0
 40
0.0
 40
0.0
 40
0.0770483532
 40
0.165786629
 40
0.2677396009
 40
0.3844906199
 40
0.5172286835
 40
0.6660571015
 40
0.828875499
 40
0.9139888587
 40
1.0
 40
1.0
 40
1.0
 40
1.0
 10
5.4658234221
 20
3.4261261385
 30
0.0
 10
5.4654749536
 20
3.426701127
 30
0.0
 10
5.4647920256
 20
3.4279794318
 30
0.0
 10
5.463875121
 20
3.4301308961
 30
0.0
 10
5.4630125092
 20
3.4326737421
 30
0.0
 10
5.4622284683
 20
3.4356408026
 30
0.0
 10
5.4615498836
 20
3.4390518602
 30
0.0
 10
5.4610170131
 20
3.4428949608
 30
0.0
 10
5.4607336616
 20
3.4463475169
 30
0.0
 10
5.4606140502
 20
3.4492593839
 30
0.0
 10
5.4605930428
 20
3.4507527416
 30
0.0
 10
5.4605930428
 20
3.4515032936
 30
0.0
  0
SPLINE
  5
2DC
100
AcDbEntity
  8
0
100
AcDbSpline
 62
7
  6
CONTINUOUS
 70
0
 71
3
 72
17
 73
13
 74
0
 42
0.0000001
 43
0.0000001
 44
0.0000000001
 40
0.0
 40
0.0
 40
0.0
 40
0.0
 40
0.0625092431
 40
0.1251780136
 40
0.1878169583
 40
0.2503986524
 40
0.3129870699
 40
0.3755318246
 40
0.5005399056
 40
0.6254825249
 40
0.7504469241
 40
1.0
 40
1.0
 40
1.0
 40
1.0
 10
5.4884214191
 20
3.4515032936
 30
0.0
 10
5.4884214191
 20
3.4507514754
 30
0.0
 10
5.4883293975
 20
3.4492445329
 30
0.0
 10
5.48793112
 20
3.4470162413
 30
0.0
 10
5.4872825052
 20
3.4448464834
 30
0.0
 10
5.4864021993
 20
3.4427618162
 30
0.0
 10
5.4853196381
 20
3.4407765557
 30
0.0
 10
5.4836392044
 20
3.4382767447
 30
0.0
 10
5.4811515124
 20
3.4354370125
 30
0.0
 10
5.4777245013
 20
3.4324875783
 30
0.0
 10
5.4727286932
 20
3.4291334058
 30
0.0
 10
5.4686273505
 20
3.4271969813
 30
0.0
 10
5.4658234221
 20
3.4261261385
 30
0.0
  0
SPLINE
  5
2DD
100
AcDbEntity
  8
0
100
AcDbSpline
 62
7
  6
CONTINUOUS
 70
0
 71
3
 72
15
 73
11
 74
0
 42
0.0000001
 43
0.0000001
 44
0.0000000001
 40
0.0
 40
0.0
 40
0.0
 40
0.0
 40
0.0725220018
 40
0.1582605778
 40
0.2586213562
 40
0.3751036339
 40
0.5088006635
 40
0.6596914262
 40
0.8254508025
 40
1.0
 40
1.0
 40
1.0
 40
1.0
 10
5.5026164516
 20
3.4261261385
 30
0.0
 10
5.5024098649
 20
3.4267109347
 30
0.0
 10
5.5020083832
 20
3.4280046747
 30
0.0
 10
5.5014761095
 20
3.4301523435
 30
0.0
 10
5.5009748476
 20
3.4326919432
 30
0.0
 10
5.5005189965
 20
3.4356557065
 30
0.0
 10
5.5001243003
 20
3.4390636368
 30
0.0
 10
5.4998142515
 20
3.4429032828
 30
0.0
 10
5.4996139434
 20
3.4470999724
 30
0.0
 10
5.4995676675
 20
3.4500105364
 30
0.0
 10
5.4995676675
 20
3.4515032936
 30
0.0
  0
SPLINE
  5
2DE
100
AcDbEntity
  8
0
100
AcDbSpline
 62
7
  6
CONTINUOUS
 70
0
 71
3
 72
18
 73
14
 74
0
 42
0.0000001
 43
0.0000001
 44
0.0000000001
 40
0.0
 40
0.0
 40
0.0
 40
0.0
 40
0.062737519
 40
0.1256207376
 40
0.1884471407
 40
0.2511798396
 40
0.3138779873
 40
0.3764890434
 40
0.5015033143
 40
0.6263021734
 40
0.751000309
 40
0.8755775839
 40
1.0
 40
1.0
 40
1.0
 40
1.0
 10
5.5250235116
 20
3.4515032936
 30
0.0
 10
5.5250235116
 20
3.4507514981
 30
0.0
 10
5.5249322921
 20
3.4492447966
 30
0.0
 10
5.5245374624
 20
3.4470167159
 30
0.0
 10
5.5238944397
 20
3.4448471055
 30
0.0
 10
5.5230216752
 20
3.4427624895
 30
0.0
 10
5.5219483401
 20
3.4407772259
 30
0.0
 10
5.5202827501
 20
3.4382781929
 30
0.0
 10
5.5178168897
 20
3.4354388783
 30
0.0
 10
5.514419033
 20
3.4324890374
 30
0.0
 10
5.5106996592
 20
3.4299706477
 30
0.0
 10
5.5067525488
 20
3.4278423111
 30
0.0
 10
5.5040077935
 20
3.426662031
 30
0.0
 10
5.5026164516
 20
3.4261261385
 30
0.0
  0
SPLINE
  5
2DF
100
AcDbEntity
  8
0
100
AcDbSpline
 62
7
  6
CONTINUOUS
 70
0
 71
3
 72
13
 73
9
 74
0
 42
0.0000001
 43
0.0000001
 44
0.0000000001
 40
0.0
 40
0.0
 40
0.0
 40
0.0
 40
0.0701395064
 40
0.1543403358
 40
0.2539087864
 40
0.370280499
 40
0.6564406936
 40
1.0
 40
1.0
 40
1.0
 40
1.0
 10
5.5359637097
 20
3.4261261385
 30
0.0
 10
5.535906333
 20
3.4267171688
 30
0.0
 10
5.5357955296
 20
3.4280192249
 30
0.0
 10
5.5356496449
 20
3.4301639598
 30
0.0
 10
5.5355121258
 20
3.4327013351
 30
0.0
 10
5.5353328905
 20
3.4369484747
 30
0.0
 10
5.5351703548
 20
3.4432632988
 30
0.0
 10
5.5351258823
 20
3.4485946826
 30
0.0
 10
5.5351258823
 20
3.4515032936
 30
0.0
  0
SPLINE
  5
2E0
100
AcDbEntity
  8
0
100
AcDbSpline
 62
7
  6
CONTINUOUS
 70
0
 71
3
 72
18
 73
14
 74
0
 42
0.0000001
 43
0.0000001
 44
0.0000000001
 40
0.0
 40
0.0
 40
0.0
 40
0.0
 40
0.0632599317
 40
0.1266362189
 40
0.189898157
 40
0.2529885536
 40
0.3159561384
 40
0.3787435404
 40
0.503838835
 40
0.6283953602
 40
0.7525861176
 40
0.8764496453
 40
1.0
 40
1.0
 40
1.0
 40
1.0
 10
5.5579640405
 20
3.4515032936
 30
0.0
 10
5.5579640405
 20
3.4507515459
 30
0.0
 10
5.5578745276
 20
3.4492453511
 30
0.0
 10
5.5574870356
 20
3.4470177161
 30
0.0
 10
5.5568559181
 20
3.4448484209
 30
0.0
 10
5.555999212
 20
3.4427639184
 30
0.0
 10
5.5549455334
 20
3.4407786565
 30
0.0
 10
5.5533115121
 20
3.4382812854
 30
0.0
 10
5.5508923434
 20
3.4354429867
 30
0.0
 10
5.5475558151
 20
3.4324919249
 30
0.0
 10
5.5439033415
 20
3.4299725551
 30
0.0
 10
5.5400272893
 20
3.4278435492
 30
0.0
 10
5.5373305128
 20
3.4266623122
 30
0.0
 10
5.5359637097
 20
3.4261261385
 30
0.0
  0
SPLINE
  5
2E1
100
AcDbEntity
  8
0
100
AcDbSpline
 62
7
  6
CONTINUOUS
 70
0
 71
3
 72
18
 73
14
 74
0
 42
0.0000001
 43
0.0000001
 44
0.0000000001
 40
0.0
 40
0.0
 40
0.0
 40
0.0
 40
0.064064572
 40
0.1282009577
 40
0.1921354536
 40
0.255779661
 40
0.3191659787
 40
0.3822291259
 40
0.5074567159
 40
0.6316435584
 40
0.7550506775
 40
0.8778066546
 40
1.0
 40
1.0
 40
1.0
 40
1.0
 10
5.5869257705
 20
3.4515032936
 30
0.0
 10
5.5869257705
 20
3.4507516168
 30
0.0
 10
5.5868388478
 20
3.4492461756
 30
0.0
 10
5.586462499
 20
3.4470192085
 30
0.0
 10
5.5858494688
 20
3.4448503948
 30
0.0
 10
5.5850171733
 20
3.4427660773
 30
0.0
 10
5.5839933862
 20
3.4407808339
 30
0.0
 10
5.5824073094
 20
3.4382860312
 30
0.0
 10
5.5800591278
 20
3.4354493843
 30
0.0
 10
5.5768159611
 20
3.4324964757
 30
0.0
 10
5.5732652966
 20
3.4299755904
 30
0.0
 10
5.569497351
 20
3.427845534
 30
0.0
 10
5.5668735371
 20
3.4266627649
 30
0.0
 10
5.5655440442
 20
3.4261261385
 30
0.0
  0
SPLINE
  5
2E2
100
AcDbEntity
  8
0
100
AcDbSpline
 62
7
  6
CONTINUOUS
 70
0
 71
3
 72
18
 73
14
 74
0
 42
0.0000001
 43
0.0000001
 44
0.0000000001
 40
0.0
 40
0.0
 40
0.0
 40
0.0
 40
0.0651555852
 40
0.1303238206
 40
0.195173504
 40
0.2595740786
 40
0.3235353066
 40
0.3869803106
 40
0.5124019806
 40
0.6360948433
 40
0.7584355363
 40
0.8796738608
 40
1.0
 40
1.0
 40
1.0
 40
1.0
 10
5.6116297843
 20
3.4515032936
 30
0.0
 10
5.6116297843
 20
3.4507517082
 30
0.0
 10
5.6115463042
 20
3.449247239
 30
0.0
 10
5.6111847771
 20
3.4470211429
 30
0.0
 10
5.6105958182
 20
3.4448529729
 30
0.0
 10
5.6097960331
 20
3.4427689242
 30
0.0
 10
5.608812077
 20
3.4407837347
 30
0.0
 10
5.607289767
 20
3.4382924275
 30
0.0
 10
5.6050361355
 20
3.4354581891
 30
0.0
 10
5.6019175735
 20
3.4325028503
 30
0.0
 10
5.5985027273
 20
3.4299799035
 30
0.0
 10
5.5948789424
 20
3.4278483855
 30
0.0
 10
5.5923523645
 20
3.4266634195
 30
0.0
 10
5.5910725801
 20
3.4261261385
 30
0.0
  0
SPLINE
  5
2E3
100
AcDbEntity
  8
0
100
AcDbSpline
 62
7
  6
CONTINUOUS
 70
0
 71
3
 72
18
 73
14
 74
0
 42
0.0000001
 43
0.0000001
 44
0.0000000001
 40
0.0
 40
0.0
 40
0.0
 40
0.0
 40
0.0665368532
 40
0.1330134062
 40
0.1990269658
 40
0.2643939083
 40
0.329094615
 40
0.3930361716
 40
0.5187282149
 40
0.6418085141
 40
0.7627933087
 40
0.8820838814
 40
1.0
 40
1.0
 40
1.0
 40
1.0
 10
5.6318381687
 20
3.4515032936
 30
0.0
 10
5.6318381687
 20
3.4507518166
 30
0.0
 10
5.6317589431
 20
3.4492485011
 30
0.0
 10
5.6314157485
 20
3.4470234528
 30
0.0
 10
5.6308565824
 20
3.444856081
 30
0.0
 10
5.6300970705
 20
3.4427723976
 30
0.0
 10
5.6291624881
 20
3.4407873205
 30
0.0
 10
5.6277190224
 20
3.4383004523
 30
0.0
 10
5.6255825029
 20
3.4354695403
 30
0.0
 10
5.6226187333
 20
3.4325112661
 30
0.0
 10
5.6193725253
 20
3.42998571
 30
0.0
 10
5.6159276419
 20
3.4278522839
 30
0.0
 10
5.6135216376
 20
3.4266643229
 30
0.0
 10
5.6123034638
 20
3.4261261385
 30
0.0
  0
SPLINE
  5
2E4
100
AcDbEntity
  8
0
100
AcDbSpline
 62
7
  6
CONTINUOUS
 70
0
 71
3
 72
18
 73
14
 74
0
 42
0.0000001
 43
0.0000001
 44
0.0000000001
 40
0.0
 40
0.0
 40
0.0
 40
0.0
 40
0.0682131631
 40
0.1362804337
 40
0.2037144067
 40
0.2702677111
 40
0.4003385405
 40
0.5264014719
 40
0.5880536428
 40
0.6488317895
 40
0.7681722656
 40
0.8850692327
 40
1.0
 40
1.0
 40
1.0
 40
1.0
 10
5.647356306
 20
3.4515032936
 30
0.0
 10
5.647356306
 20
3.4507519378
 30
0.0
 10
5.6472820928
 20
3.4492499087
 30
0.0
 10
5.6469605583
 20
3.4470260756
 30
0.0
 10
5.6464365094
 20
3.4448595562
 30
0.0
 10
5.6454950921
 20
3.4421040711
 30
0.0
 10
5.6439158158
 20
3.4389000874
 30
0.0
 10
5.6418870497
 20
3.4360314534
 30
0.0
 10
5.6400812506
 20
3.4339723346
 30
0.0
 10
5.6381970007
 20
3.4320880729
 30
0.0
 10
5.635673464
 20
3.4299931833
 30
0.0
 10
5.6324407687
 20
3.4278575209
 30
0.0
 10
5.6301775031
 20
3.4266655444
 30
0.0
 10
5.6290322302
 20
3.4261261385
 30
0.0
  0
SPLINE
  5
2E5
100
AcDbEntity
  8
0
100
AcDbSpline
 62
7
  6
CONTINUOUS
 70
0
 71
3
 72
17
 73
13
 74
0
 42
0.0000001
 43
0.0000001
 44
0.0000000001
 40
0.0
 40
0.0
 40
0.0
 40
0.0
 40
0.0701788035
 40
0.1401150268
 40
0.2092245386
 40
0.2771861149
 40
0.4091220306
 40
0.5356739359
 40
0.6572318017
 40
0.7746370474
 40
0.8886727091
 40
1.0
 40
1.0
 40
1.0
 40
1.0
 10
5.658034748
 20
3.4515032936
 30
0.0
 10
5.658034748
 20
3.4507520672
 30
0.0
 10
5.6579662582
 20
3.4492514185
 30
0.0
 10
5.6576694324
 20
3.4470288811
 30
0.0
 10
5.6571856001
 20
3.4448634154
 30
0.0
 10
5.6563180835
 20
3.4421146715
 30
0.0
 10
5.6548650657
 20
3.4389190954
 30
0.0
 10
5.6526345396
 20
3.4355007406
 30
0.0
 10
5.6500652296
 20
3.4325352386
 30
0.0
 10
5.6472487004
 20
3.4300030837
 30
0.0
 10
5.6442591338
 20
3.4278643522
 30
0.0
 10
5.6421595701
 20
3.4266671852
 30
0.0
 10
5.6410977722
 20
3.4261261385
 30
0.0
  0
SPLINE
  5
2E6
100
AcDbEntity
  8
0
100
AcDbSpline
 62
7
  6
CONTINUOUS
 70
0
 71
3
 72
17
 73
13
 74
0
 42
0.0000001
 43
0.0000001
 44
0.0000000001
 40
0.0
 40
0.0
 40
0.0
 40
0.0
 40
0.0724147669
 40
0.1444812576
 40
0.2155084111
 40
0.2850921574
 40
0.4192104238
 40
0.5463829159
 40
0.6670582623
 40
0.7822421422
 40
0.8929338435
 40
1.0
 40
1.0
 40
1.0
 40
1.0
 10
5.6637706555
 20
3.4515032936
 30
0.0
 10
5.6637706555
 20
3.4507521997
 30
0.0
 10
5.6637085331
 20
3.4492529681
 30
0.0
 10
5.6634392201
 20
3.447031781
 30
0.0
 10
5.6630002054
 20
3.4448674655
 30
0.0
 10
5.6622146234
 20
3.442125948
 30
0.0
 10
5.6609016421
 20
3.4389403796
 30
0.0
 10
5.6588781214
 20
3.4355202194
 30
0.0
 10
5.6565451845
 20
3.4325515002
 30
0.0
 10
5.6539859747
 20
3.4300154605
 30
0.0
 10
5.6512688571
 20
3.4278733868
 30
0.0
 10
5.6493524419
 20
3.4266693931
 30
0.0
 10
5.648383892
 20
3.4261261385
 30
0.0
  0
SPLINE
  5
2E7
100
AcDbEntity
  8
0
100
AcDbSpline
 62
7
  6
CONTINUOUS
 70
0
 71
3
 72
17
 73
13
 74
0
 42
0.0000001
 43
0.0000001
 44
0.0000000001
 40
0.0
 40
0.0
 40
0.0
 40
0.0
 40
0.1070642065
 40
0.2177533006
 40
0.3329339995
 40
0.453606858
 40
0.5807707455
 40
0.7148915718
 40
0.7844769015
 40
0.8555121552
 40
0.9275839885
 40
1.0
 40
1.0
 40
1.0
 40
1.0
 10
4.6412569486
 20
3.4261261385
 30
0.0
 10
4.6402884166
 20
3.4266693832
 30
0.0
 10
4.6383720498
 20
3.427873362
 30
0.0
 10
4.6356549689
 20
3.4300153531
 30
0.0
 10
4.633095841
 20
3.432551351
 30
0.0
 10
4.630762931
 20
3.4355198992
 30
0.0
 10
4.6287394145
 20
3.4389399588
 30
0.0
 10
4.6274263741
 20
3.442125448
 30
0.0
 10
4.6266406793
 20
3.4448670694
 30
0.0
 10
4.6262017501
 20
3.4470315613
 30
0.0
 10
4.6259323486
 20
3.4492528865
 30
0.0
 10
4.6258701852
 20
3.4507521869
 30
0.0
 10
4.6258701852
 20
3.4515032936
 30
0.0
  0
SPLINE
  5
2E8
100
AcDbEntity
  8
0
100
AcDbSpline
 62
7
  6
CONTINUOUS
 70
0
 71
3
 72
17
 73
13
 74
0
 42
0.0000001
 43
0.0000001
 44
0.0000000001
 40
0.0
 40
0.0
 40
0.0
 40
0.0
 40
0.1113252563
 40
0.2253582947
 40
0.3427603068
 40
0.4643158442
 40
0.5908593708
 40
0.7227980388
 40
0.7907612184
 40
0.8598785409
 40
0.9298199782
 40
1.0
 40
1.0
 40
1.0
 40
1.0
 10
4.6485430684
 20
3.4261261385
 30
0.0
 10
4.6474812901
 20
3.4266671752
 30
0.0
 10
4.6453817781
 20
3.4278643288
 30
0.0
 10
4.6423922545
 20
3.4300029755
 30
0.0
 10
4.6395758117
 20
3.4325350924
 30
0.0
 10
4.6370065343
 20
3.435500421
 30
0.0
 10
4.6347760122
 20
3.4389186763
 30
0.0
 10
4.6333229309
 20
3.4421141703
 30
0.0
 10
4.6324552897
 20
3.4448630165
 30
0.0
 10
4.6319715503
 20
3.4470286634
 30
0.0
 10
4.6316746279
 20
3.4492513362
 30
0.0
 10
4.6316060926
 20
3.4507520543
 30
0.0
 10
4.6316060926
 20
3.4515032936
 30
0.0
  0
SPLINE
  5
2E9
100
AcDbEntity
  8
0
100
AcDbSpline
 62
7
  6
CONTINUOUS
 70
0
 71
3
 72
18
 73
14
 74
0
 42
0.0000001
 43
0.0000001
 44
0.0000000001
 40
0.0
 40
0.0
 40
0.0
 40
0.0
 40
0.1149286677
 40
0.2318230018
 40
0.3511602045
 40
0.4119369793
 40
0.4735882851
 40
0.5996430381
 40
0.7297167998
 40
0.7962717301
 40
0.8637132616
 40
0.9317856378
 40
1.0
 40
1.0
 40
1.0
 40
1.0
 10
4.6606086104
 20
3.4261261385
 30
0.0
 10
4.6594633587
 20
3.4266655344
 30
0.0
 10
4.6572001463
 20
3.4278574972
 30
0.0
 10
4.6539675057
 20
3.4299930787
 30
0.0
 10
4.65144403
 20
3.4320879185
 30
0.0
 10
4.6495598329
 20
3.4339721436
 30
0.0
 10
4.6477540294
 20
3.4360311048
 30
0.0
 10
4.6457252866
 20
3.4388996744
 30
0.0
 10
4.6441459369
 20
3.4421035683
 30
0.0
 10
4.6432043851
 20
3.4448591547
 30
0.0
 10
4.6426804356
 20
3.4470258598
 30
0.0
 10
4.6423587973
 20
3.4492498257
 30
0.0
 10
4.6422845346
 20
3.4507519248
 30
0.0
 10
4.6422845346
 20
3.4515032936
 30
0.0
  0
SPLINE
  5
2EA
100
AcDbEntity
  8
0
100
AcDbSpline
 62
7
  6
CONTINUOUS
 70
0
 71
3
 72
18
 73
14
 74
0
 42
0.0000001
 43
0.0000001
 44
0.0000000001
 40
0.0
 40
0.0
 40
0.0
 40
0.0
 40
0.1179139653
 40
0.2372018952
 40
0.3581833821
 40
0.4812616109
 40
0.606945642
 40
0.6708891702
 40
0.7355909073
 40
0.8009594961
 40
0.8669803974
 40
0.9334619643
 40
1.0
 40
1.0
 40
1.0
 40
1.0
 10
4.6773373769
 20
3.4261261385
 30
0.0
 10
4.6761192257
 20
3.426664313
 30
0.0
 10
4.6737132782
 20
3.4278522621
 30
0.0
 10
4.6702684492
 20
3.429985601
 30
0.0
 10
4.6670223316
 20
3.4325111233
 30
0.0
 10
4.6640586153
 20
3.4354692269
 30
0.0
 10
4.6619220807
 20
3.4383000168
 30
0.0
 10
4.6604786507
 20
3.4407868374
 30
0.0
 10
4.6595439281
 20
3.4427719027
 30
0.0
 10
4.6587843196
 20
3.4448556786
 30
0.0
 10
4.658225254
 20
3.4470232384
 30
0.0
 10
4.6578819508
 20
3.4492484176
 30
0.0
 10
4.6578026719
 20
3.4507518035
 30
0.0
 10
4.6578026719
 20
3.4515032936
 30
0.0
  0
SPLINE
  5
2EB
100
AcDbEntity
  8
0
100
AcDbSpline
 62
7
  6
CONTINUOUS
 70
0
 71
3
 72
18
 73
14
 74
0
 42
0.0000001
 43
0.0000001
 44
0.0000000001
 40
0.0
 40
0.0
 40
0.0
 40
0.0
 40
0.1203239401
 40
0.2415596102
 40
0.3638969642
 40
0.487587847
 40
0.613001636
 40
0.6764486311
 40
0.7404109933
 40
0.8048132305
 40
0.8696700746
 40
0.9348432474
 40
1.0
 40
1.0
 40
1.0
 40
1.0
 10
4.6985682606
 20
3.4261261385
 30
0.0
 10
4.6972884999
 20
3.4266634095
 30
0.0
 10
4.6947619809
 20
3.4278483643
 30
0.0
 10
4.6911382547
 20
3.4299797941
 30
0.0
 10
4.6877235013
 20
3.4325027089
 30
0.0
 10
4.684604997
 20
3.4354578767
 30
0.0
 10
4.6823513502
 20
3.4382919913
 30
0.0
 10
4.6808290767
 20
3.4407832532
 30
0.0
 10
4.6798449747
 20
3.4427684279
 30
0.0
 10
4.6790450875
 20
3.4448525684
 30
0.0
 10
4.6784562336
 20
3.44702093
 30
0.0
 10
4.6780945926
 20
3.4492471549
 30
0.0
 10
4.6780110563
 20
3.450751695
 30
0.0
 10
4.6780110563
 20
3.4515032936
 30
0.0
  0
SPLINE
  5
2EC
100
AcDbEntity
  8
0
100
AcDbSpline
 62
7
  6
CONTINUOUS
 70
0
 71
3
 72
18
 73
14
 74
0
 42
0.0000001
 43
0.0000001
 44
0.0000000001
 40
0.0
 40
0.0
 40
0.0
 40
0.0
 40
0.1221911111
 40
0.2449444243
 40
0.3683481799
 40
0.4925331124
 40
0.6177529232
 40
0.6808180774
 40
0.7442056124
 40
0.8078514959
 40
0.8717930091
 40
0.9359342723
 40
1.0
 40
1.0
 40
1.0
 40
1.0
 10
4.7240967965
 20
3.4261261385
 30
0.0
 10
4.7227673284
 20
3.4266627549
 30
0.0
 10
4.7201435749
 20
3.4278455131
 30
0.0
 10
4.7163756914
 20
3.4299754808
 30
0.0
 10
4.7128251217
 20
3.4324963355
 30
0.0
 10
4.7095820163
 20
3.4354490728
 30
0.0
 10
4.7072338193
 20
3.4382855943
 30
0.0
 10
4.7056477794
 20
3.4407803537
 30
0.0
 10
4.7046238421
 20
3.4427655799
 30
0.0
 10
4.7037914399
 20
3.4448499885
 30
0.0
 10
4.7031785181
 20
3.4470189969
 30
0.0
 10
4.7028020515
 20
3.4492460911
 30
0.0
 10
4.7027150701
 20
3.4507516035
 30
0.0
 10
4.7027150701
 20
3.4515032936
 30
0.0
  0
SPLINE
  5
2ED
100
AcDbEntity
  8
0
100
AcDbSpline
 62
7
  6
CONTINUOUS
 70
0
 71
3
 72
18
 73
14
 74
0
 42
0.0000001
 43
0.0000001
 44
0.0000000001
 40
0.0
 40
0.0
 40
0.0
 40
0.0
 40
0.123548095
 40
0.2474089517
 40
0.3715963275
 40
0.4961509935
 40
0.6212385829
 40
0.684028004
 40
0.7469968679
 40
0.810088951
 40
0.8733578003
 40
0.9367389212
 40
1.0
 40
1.0
 40
1.0
 40
1.0
 10
4.7536771309
 20
3.4261261385
 30
0.0
 10
4.7523103533
 20
3.4266623022
 30
0.0
 10
4.7496136386
 20
3.4278435286
 30
0.0
 10
4.7457376511
 20
3.4299724453
 30
0.0
 10
4.7420852736
 20
3.4324917855
 30
0.0
 10
4.7387488093
 20
3.4354426759
 30
0.0
 10
4.7363296252
 20
3.4382808481
 30
0.0
 10
4.734695641
 20
3.4407781773
 30
0.0
 10
4.7336418091
 20
3.4427634201
 30
0.0
 10
4.7327849929
 20
3.4448480133
 30
0.0
 10
4.7321539863
 20
3.4470175054
 30
0.0
 10
4.7317663736
 20
3.4492452663
 30
0.0
 10
4.7316768001
 20
3.4507515325
 30
0.0
 10
4.7316768001
 20
3.4515032936
 30
0.0
  0
SPLINE
  5
2EE
100
AcDbEntity
  8
0
100
AcDbSpline
 62
7
  6
CONTINUOUS
 70
0
 71
3
 72
13
 73
9
 74
0
 42
0.0000001
 43
0.0000001
 44
0.0000000001
 40
0.0
 40
0.0
 40
0.0
 40
0.0
 40
0.3435398807
 40
0.6297090994
 40
0.7460846063
 40
0.8456558775
 40
0.9298593174
 40
1.0
 40
1.0
 40
1.0
 40
1.0
 10
4.7545149584
 20
3.4515032936
 30
0.0
 10
4.7545149584
 20
3.4485948471
 30
0.0
 10
4.7544704872
 20
3.4432635514
 30
0.0
 10
4.7543079588
 20
3.4369487831
 30
0.0
 10
4.7541287261
 20
3.4327015108
 30
0.0
 10
4.7539912007
 20
3.4301640576
 30
0.0
 10
4.7538453159
 20
3.4280192667
 30
0.0
 10
4.7537345086
 20
3.4267171787
 30
0.0
 10
4.7536771309
 20
3.4261261385
 30
0.0
  0
SPLINE
  5
2EF
100
AcDbEntity
  8
0
100
AcDbSpline
 62
7
  6
CONTINUOUS
 70
0
 71
3
 72
17
 73
13
 74
0
 42
0.0000001
 43
0.0000001
 44
0.0000000001
 40
0.0
 40
0.0
 40
0.0
 40
0.0
 40
0.2488115329
 40
0.3735366944
 40
0.4983641709
 40
0.6234012793
 40
0.6860296367
 40
0.7487443994
 40
0.8114940957
 40
0.874342669
 40
0.9372460344
 40
1.0
 40
1.0
 40
1.0
 40
1.0
 10
4.787024389
 20
3.4261261385
 30
0.0
 10
4.7842427573
 20
3.4271975184
 30
0.0
 10
4.7801744088
 20
3.4291352375
 30
0.0
 10
4.7752223603
 20
3.4324887657
 30
0.0
 10
4.7718241861
 20
3.4354386043
 30
0.0
 10
4.7693584031
 20
3.4382777507
 30
0.0
 10
4.7676928382
 20
3.4407767482
 30
0.0
 10
4.7666193502
 20
3.4427619905
 30
0.0
 10
4.7657464726
 20
3.4448466971
 30
0.0
 10
4.7651035627
 20
3.447016506
 30
0.0
 10
4.7647086102
 20
3.4492447115
 30
0.0
 10
4.764617329
 20
3.4507514847
 30
0.0
 10
4.764617329
 20
3.4515032936
 30
0.0
  0
SPLINE
  5
2F0
100
AcDbEntity
  8
0
100
AcDbSpline
 62
7
  6
CONTINUOUS
 70
0
 71
3
 72
15
 73
11
 74
0
 42
0.0000001
 43
0.0000001
 44
0.0000000001
 40
0.0
 40
0.0
 40
0.0
 40
0.0
 40
0.1745414984
 40
0.340289327
 40
0.4911786684
 40
0.624885983
 40
0.7413719774
 40
0.841735593
 40
0.9274767699
 40
1.0
 40
1.0
 40
1.0
 40
1.0
 10
4.7900731732
 20
3.4515032936
 30
0.0
 10
4.7900731732
 20
3.4500106022
 30
0.0
 10
4.7900269283
 20
3.4471002021
 30
0.0
 10
4.7898265984
 20
3.4429036905
 30
0.0
 10
4.7895165857
 20
3.4390640648
 30
0.0
 10
4.7891218844
 20
3.4356560267
 30
0.0
 10
4.7886660341
 20
3.4326921173
 30
0.0
 10
4.7881647494
 20
3.4301524422
 30
0.0
 10
4.7876324744
 20
3.4280047149
 30
0.0
 10
4.7872309793
 20
3.4267109446
 30
0.0
 10
4.787024389
 20
3.4261261385
 30
0.0
  0
SPLINE
  5
2F1
100
AcDbEntity
  8
0
100
AcDbSpline
 62
7
  6
CONTINUOUS
 70
0
 71
3
 72
17
 73
13
 74
0
 42
0.0000001
 43
0.0000001
 44
0.0000000001
 40
0.0
 40
0.0
 40
0.0
 40
0.0
 40
0.2495481409
 40
0.374509136
 40
0.4994499386
 40
0.6244503778
 40
0.6869971613
 40
0.7495869153
 40
0.8121703043
 40
0.8748160583
 40
0.9374896198
 40
1.0
 40
1.0
 40
1.0
 40
1.0
 10
4.8238174185
 20
3.4261261385
 30
0.0
 10
4.8210135465
 20
3.4271969598
 30
0.0
 10
4.8169122802
 20
3.4291333114
 30
0.0
 10
4.8119165922
 20
3.432487438
 30
0.0
 10
4.8084896489
 20
3.4354367027
 30
0.0
 10
4.8060019412
 20
3.4382763069
 30
0.0
 10
4.8043215449
 20
3.4407760775
 30
0.0
 10
4.8032388274
 20
3.4427613171
 30
0.0
 10
4.802358408
 20
3.4448460745
 30
0.0
 10
4.8017099065
 20
3.4470160317
 30
0.0
 10
4.8013115054
 20
3.4492444477
 30
0.0
 10
4.8012194215
 20
3.450751462
 30
0.0
 10
4.8012194215
 20
3.4515032936
 30
0.0
  0
SPLINE
  5
2F2
100
AcDbEntity
  8
0
100
AcDbSpline
 62
7
  6
CONTINUOUS
 70
0
 71
3
 72
16
 73
12
 74
0
 42
0.0000001
 43
0.0000001
 44
0.0000000001
 40
0.0
 40
0.0
 40
0.0
 40
0.0
 40
0.0860097268
 40
0.1711169294
 40
0.3339240026
 40
0.4827508848
 40
0.6154990308
 40
0.7322536152
 40
0.8342094588
 40
0.9229503207
 40
1.0
 40
1.0
 40
1.0
 40
1.0
 10
4.8290477979
 20
3.4515032936
 30
0.0
 10
4.8290477979
 20
3.4507527539
 30
0.0
 10
4.8290268061
 20
3.4492594622
 30
0.0
 10
4.8289072226
 20
3.4463477584
 30
0.0
 10
4.8286238442
 20
3.4428953715
 30
0.0
 10
4.8280910347
 20
3.4390522874
 30
0.0
 10
4.8274124419
 20
3.4356411232
 30
0.0
 10
4.8266284008
 20
3.432673913
 30
0.0
 10
4.8257657517
 20
3.4301309963
 30
0.0
 10
4.8248488429
 20
3.4279794693
 30
0.0
 10
4.8241658931
 20
3.4267011369
 30
0.0
 10
4.8238174185
 20
3.4261261385
 30
0.0
  0
SPLINE
  5
2F3
100
AcDbEntity
  8
0
100
AcDbSpline
 62
7
  6
CONTINUOUS
 70
0
 71
3
 72
17
 73
13
 74
0
 42
0.0000001
 43
0.0000001
 44
0.0000000001
 40
0.0
 40
0.0
 40
0.0
 40
0.0
 40
0.2494504931
 40
0.3743820356
 40
0.499308838
 40
0.6243220649
 40
0.6868781945
 40
0.7494840909
 40
0.8120889936
 40
0.8747560935
 40
0.9374568078
 40
1.0
 40
1.0
 40
1.0
 40
1.0
 10
4.8637018824
 20
3.4261261385
 30
0.0
 10
4.8609010632
 20
3.4271970589
 30
0.0
 10
4.8568043215
 20
3.4291336737
 30
0.0
 10
4.8518146136
 20
3.4324877644
 30
0.0
 10
4.8483916232
 20
3.4354372801
 30
0.0
 10
4.8459069956
 20
3.43827695
 30
0.0
 10
4.8442286357
 20
3.4407766555
 30
0.0
 10
4.8431473667
 20
3.4427619189
 30
0.0
 10
4.842268116
 20
3.4448465789
 30
0.0
 10
4.8416202799
 20
3.4470163126
 30
0.0
 10
4.8412224874
 20
3.449244572
 30
0.0
 10
4.8411305795
 20
3.450751479
 30
0.0
 10
4.8411305795
 20
3.4515032936
 30
0.0
  0
SPLINE
  5
2F4
100
AcDbEntity
  8
0
100
AcDbSpline
 62
7
  6
CONTINUOUS
 70
0
 71
3
 72
16
 73
12
 74
0
 42
0.0000001
 43
0.0000001
 44
0.0000000001
 40
0.0
 40
0.0
 40
0.0
 40
0.0
 40
0.083687124
 40
0.166557288
 40
0.2474306976
 40
0.3255126883
 40
0.4716677188
 40
0.6032508324
 40
0.7204903002
 40
0.8246638622
 40
1.0
 40
1.0
 40
1.0
 40
1.0
 10
4.8710634856
 20
3.4515032936
 30
0.0
 10
4.8710634856
 20
3.4507526829
 30
0.0
 10
4.8710339369
 20
3.4492586364
 30
0.0
 10
4.8709056971
 20
3.447042577
 30
0.0
 10
4.8706966758
 20
3.444883069
 30
0.0
 10
4.8703256872
 20
3.442171197
 30
0.0
 10
4.8697130034
 20
3.439035367
 30
0.0
 10
4.868755356
 20
3.4356208773
 30
0.0
 10
4.867648044
 20
3.4326496311
 30
0.0
 10
4.8661113699
 20
3.4294380336
 30
0.0
 10
4.8647224711
 20
3.427322623
 30
0.0
 10
4.8637018824
 20
3.4261261385
 30
0.0
  0
SPLINE
  5
2F5
100
AcDbEntity
  8
0
100
AcDbSpline
 62
7
  6
CONTINUOUS
 70
0
 71
3
 72
17
 73
13
 74
0
 42
0.0000001
 43
0.0000001
 44
0.0000000001
 40
0.0
 40
0.0
 40
0.0
 40
0.0
 40
0.2485018018
 40
0.373127955
 40
0.4979080036
 40
0.6229607402
 40
0.6856234549
 40
0.7483907839
 40
0.8112103431
 40
0.8741440582
 40
0.9371438494
 40
1.0
 40
1.0
 40
1.0
 40
1.0
 10
4.9062936715
 20
3.4261261385
 30
0.0
 10
4.9035213361
 20
3.4271977554
 30
0.0
 10
4.8994667515
 20
3.4291360525
 30
0.0
 10
4.8945329493
 20
3.432489326
 30
0.0
 10
4.8911468054
 20
3.4354394044
 30
0.0
 10
4.8886901877
 20
3.4382783559
 30
0.0
 10
4.8870308213
 20
3.4407770288
 30
0.0
 10
4.8859611916
 20
3.4427622716
 30
0.0
 10
4.8850914667
 20
3.4448469565
 30
0.0
 10
4.8844508937
 20
3.4470167033
 30
0.0
 10
4.8840573825
 20
3.4492448212
 30
0.0
 10
4.8839664367
 20
3.4507514942
 30
0.0
 10
4.8839664367
 20
3.4515032936
 30
0.0
  0
SPLINE
  5
2F6
100
AcDbEntity
  8
0
100
AcDbSpline
 62
7
  6
CONTINUOUS
 70
0
 71
3
 72
17
 73
13
 74
0
 42
0.0000001
 43
0.0000001
 44
0.0000000001
 40
0.0
 40
0.0
 40
0.0
 40
0.0
 40
0.0810019258
 40
0.1612893261
 40
0.2397912502
 40
0.3158012981
 40
0.4589285934
 40
0.5892442193
 40
0.7071020028
 40
0.813810877
 40
0.9109454978
 40
1.0
 40
1.0
 40
1.0
 40
1.0
 10
4.9157156022
 20
3.4515032936
 30
0.0
 10
4.9157156022
 20
3.4507525913
 30
0.0
 10
4.9156777415
 20
3.4492575599
 30
0.0
 10
4.9155134614
 20
3.447040504
 30
0.0
 10
4.9152456789
 20
3.4448800066
 30
0.0
 10
4.9147696031
 20
3.4421620825
 30
0.0
 10
4.9139811417
 20
3.4390149609
 30
0.0
 10
4.9127516337
 20
3.4355969978
 30
0.0
 10
4.9113308072
 20
3.4326243798
 30
0.0
 10
4.9097678909
 20
3.4300788425
 30
0.0
 10
4.9081060469
 20
3.4279260511
 30
0.0
 10
4.9069022741
 20
3.42668361
 30
0.0
 10
4.9062936715
 20
3.4261261385
 30
0.0
  0
SPLINE
  5
2F7
100
AcDbEntity
  8
0
100
AcDbSpline
 62
7
  6
CONTINUOUS
 70
0
 71
3
 72
18
 73
14
 74
0
 42
0.0000001
 43
0.0000001
 44
0.0000000001
 40
0.0
 40
0.0
 40
0.0
 40
0.0
 40
0.1232612506
 40
0.2468876736
 40
0.3709088054
 40
0.4953845645
 40
0.6204994773
 40
0.6833470516
 40
0.7464044729
 40
0.8096139059
 40
0.8730254698
 40
0.9365679959
 40
1.0
 40
1.0
 40
1.0
 40
1.0
 10
4.9511826035
 20
3.4261261385
 30
0.0
 10
4.9498237996
 20
3.4266623963
 30
0.0
 10
4.9471426766
 20
3.4278439421
 30
0.0
 10
4.9432897862
 20
3.4299730801
 30
0.0
 10
4.9396591575
 20
3.4324927415
 30
0.0
 10
4.936342634
 20
3.4354440277
 30
0.0
 10
4.9339386219
 20
3.4382818582
 30
0.0
 10
4.9323148899
 20
3.4407786423
 30
0.0
 10
4.9312674466
 20
3.4427638831
 30
0.0
 10
4.9304158487
 20
3.4448484382
 30
0.0
 10
4.9297887085
 20
3.4470178271
 30
0.0
 10
4.9294034793
 20
3.4492454444
 30
0.0
 10
4.9293144603
 20
3.4507515478
 30
0.0
 10
4.9293144603
 20
3.4515032936
 30
0.0
  0
SPLINE
  5
2F8
100
AcDbEntity
  8
0
100
AcDbSpline
 62
7
  6
CONTINUOUS
 70
0
 71
3
 72
17
 73
13
 74
0
 42
0.0000001
 43
0.0000001
 44
0.0000000001
 40
0.0
 40
0.0
 40
0.0
 40
0.0
 40
0.0782372016
 40
0.1558714046
 40
0.2319488412
 40
0.3058574789
 40
0.4459776381
 40
0.5751450134
 40
0.6937977005
 40
0.8032105308
 40
0.9048317528
 40
1.0
 40
1.0
 40
1.0
 40
1.0
 10
4.9625741234
 20
3.4515032936
 30
0.0
 10
4.9625741234
 20
3.4507524828
 30
0.0
 10
4.962528288
 20
3.4492562855
 30
0.0
 10
4.9623294537
 20
3.4470380638
 30
0.0
 10
4.9620053282
 20
3.4448764418
 30
0.0
 10
4.961427995
 20
3.4421516244
 30
0.0
 10
4.9604689398
 20
3.4389923195
 30
0.0
 10
4.958978165
 20
3.4355721709
 30
0.0
 10
4.9572562097
 20
3.4325991316
 30
0.0
 10
4.9553634939
 20
3.4300552782
 30
0.0
 10
4.953351932
 20
3.427905102
 30
0.0
 10
4.9519105679
 20
3.4266776533
 30
0.0
 10
4.9511826035
 20
3.4261261385
 30
0.0
  0
SPLINE
  5
2F9
100
AcDbEntity
  8
0
100
AcDbSpline
 62
7
  6
CONTINUOUS
 70
0
 71
3
 72
18
 73
14
 74
0
 42
0.0000001
 43
0.0000001
 44
0.0000000001
 40
0.0
 40
0.0
 40
0.0
 40
0.0
 40
0.1217818859
 40
0.2442019493
 40
0.367370805
 40
0.4914460037
 40
0.6167071484
 40
0.6798557574
 40
0.7433694083
 40
0.8071816254
 40
0.8713247618
 40
0.9356935674
 40
1.0
 40
1.0
 40
1.0
 40
1.0
 10
4.9979363736
 20
3.4261261385
 30
0.0
 10
4.9966179567
 20
3.4266628951
 30
0.0
 10
4.9940158179
 20
3.4278461259
 30
0.0
 10
4.9902799709
 20
3.4299764125
 30
0.0
 10
4.9867595786
 20
3.4324977212
 30
0.0
 10
4.9835441534
 20
3.4354510025
 30
0.0
 10
4.9812169805
 20
3.4382870096
 30
0.0
 10
4.9796451286
 20
3.4407809985
 30
0.0
 10
4.9786300472
 20
3.4427662161
 30
0.0
 10
4.9778048751
 20
3.4448505673
 30
0.0
 10
4.9771973067
 20
3.447019432
 30
0.0
 10
4.9768241387
 20
3.4492463311
 30
0.0
 10
4.9767379241
 20
3.4507516241
 30
0.0
 10
4.9767379241
 20
3.4515032936
 30
0.0
  0
SPLINE
  5
2FA
100
AcDbEntity
  8
0
100
AcDbSpline
 62
7
  6
CONTINUOUS
 70
0
 71
3
 72
18
 73
14
 74
0
 42
0.0000001
 43
0.0000001
 44
0.0000000001
 40
0.0
 40
0.0
 40
0.0
 40
0.0
 40
0.0755292638
 40
0.1505702839
 40
0.2242885294
 40
0.2961670416
 40
0.3659828385
 40
0.4335093994
 40
0.5616716821
 40
0.6812003428
 40
0.7932761671
 40
0.8991640632
 40
1.0
 40
1.0
 40
1.0
 40
1.0
 10
5.0111877761
 20
3.4515032936
 30
0.0
 10
5.0111877761
 20
3.4507523615
 30
0.0
 10
5.0111343812
 20
3.4492548677
 30
0.0
 10
5.0109027985
 20
3.44703534
 30
0.0
 10
5.01052533
 20
3.4448726011
 30
0.0
 10
5.0100120997
 20
3.4427916472
 30
0.0
 10
5.0093801117
 20
3.4408081792
 30
0.0
 10
5.0084142744
 20
3.4383498348
 30
0.0
 10
5.006990463
 20
3.4355476952
 30
0.0
 10
5.0049839829
 20
3.4325761266
 30
0.0
 10
5.0027804232
 20
3.430035285
 30
0.0
 10
5.0004397509
 20
3.4278886565
 30
0.0
 10
4.9987764538
 20
3.4266732648
 30
0.0
 10
4.9979363736
 20
3.4261261385
 30
0.0
  0
SPLINE
  5
2FB
100
AcDbEntity
  8
0
100
AcDbSpline
 62
7
  6
CONTINUOUS
 70
0
 71
3
 72
18
 73
14
 74
0
 42
0.0000001
 43
0.0000001
 44
0.0000000001
 40
0.0
 40
0.0
 40
0.0
 40
0.0
 40
0.1197849625
 40
0.2405839329
 40
0.3626160327
 40
0.4861674568
 40
0.6116397709
 40
0.6751974722
 40
0.7393254588
 40
0.8039447895
 40
0.8690636613
 40
0.9345317277
 40
1.0
 40
1.0
 40
1.0
 40
1.0
 10
5.0461047174
 20
3.4261261385
 30
0.0
 10
5.0448389751
 20
3.4266636057
 30
0.0
 10
5.0423398844
 20
3.4278492142
 30
0.0
 10
5.0387568411
 20
3.4299810691
 30
0.0
 10
5.0353804285
 20
3.4325045726
 30
0.0
 10
5.0322971094
 20
3.4354604171
 30
0.0
 10
5.0300701189
 20
3.4382938088
 30
0.0
 10
5.0285658043
 20
3.4407840701
 30
0.0
 10
5.0275929375
 20
3.4427692242
 30
0.0
 10
5.0268022173
 20
3.4448532848
 30
0.0
 10
5.0262201454
 20
3.4470214638
 30
0.0
 10
5.0258626805
 20
3.4492474477
 30
0.0
 10
5.0257801142
 20
3.4507517202
 30
0.0
 10
5.0257801142
 20
3.4515032936
 30
0.0
  0
SPLINE
  5
2FC
100
AcDbEntity
  8
0
100
AcDbSpline
 62
7
  6
CONTINUOUS
 70
0
 71
3
 72
17
 73
13
 74
0
 42
0.0000001
 43
0.0000001
 44
0.0000000001
 40
0.0
 40
0.0
 40
0.0
 40
0.0
 40
0.0730016609
 40
0.1456280632
 40
0.2171606496
 40
0.2871738611
 40
0.4218763771
 40
0.5492248362
 40
0.669677441
 40
0.7842778649
 40
0.8940789721
 40
1.0
 40
1.0
 40
1.0
 40
1.0
 10
5.0610883843
 20
3.4515032936
 30
0.0
 10
5.0610883843
 20
3.4507522321
 30
0.0
 10
5.0610279129
 20
3.449253347
 30
0.0
 10
5.0607657376
 20
3.4470324936
 30
0.0
 10
5.060338354
 20
3.4448684695
 30
0.0
 10
5.0595739704
 20
3.4421287733
 30
0.0
 10
5.0582971654
 20
3.4389458531
 30
0.0
 10
5.0563274757
 20
3.43552539
 30
0.0
 10
5.0540560903
 20
3.4325559542
 30
0.0
 10
5.0515639133
 20
3.4300189517
 30
0.0
 10
5.0489177481
 20
3.4278760013
 30
0.0
 10
5.0470490224
 20
3.4266700433
 30
0.0
 10
5.0461047174
 20
3.4261261385
 30
0.0
  0
SPLINE
  5
2FD
100
AcDbEntity
  8
0
100
AcDbSpline
 62
7
  6
CONTINUOUS
 70
0
 71
3
 72
17
 73
13
 74
0
 42
0.0000001
 43
0.0000001
 44
0.0000000001
 40
0.0
 40
0.0
 40
0.0
 40
0.0
 40
0.1172500273
 40
0.2360064727
 40
0.3566250269
 40
0.4795503985
 40
0.6053290031
 40
0.7342201374
 40
0.7998660697
 40
0.8662185258
 40
0.9330711044
 40
1.0
 40
1.0
 40
1.0
 40
1.0
 10
5.0952237473
 20
3.4261261385
 30
0.0
 10
5.0940224419
 20
3.4266645796
 30
0.0
 10
5.0916494784
 20
3.4278533955
 30
0.0
 10
5.0882535954
 20
3.4299873153
 30
0.0
 10
5.0850537066
 20
3.4325134051
 30
0.0
 10
5.0821321583
 20
3.4354728792
 30
0.0
 10
5.0795925045
 20
3.4388866579
 30
0.0
 10
5.0779275472
 20
3.4420962717
 30
0.0
 10
5.0769361334
 20
3.4448564376
 30
0.0
 10
5.0763851236
 20
3.4470238724
 30
0.0
 10
5.0760468496
 20
3.4492487462
 30
0.0
 10
5.0759687275
 20
3.4507518322
 30
0.0
 10
5.0759687275
 20
3.4515032936
 30
0.0
  0
SPLINE
  5
2FE
100
AcDbEntity
  8
0
100
AcDbSpline
 62
7
  6
CONTINUOUS
 70
0
 71
3
 72
17
 73
13
 74
0
 42
0.0000001
 43
0.0000001
 44
0.0000000001
 40
0.0
 40
0.0
 40
0.0
 40
0.0
 40
0.0707021298
 40
0.14113652
 40
0.2106937002
 40
0.2790329227
 40
0.4114733926
 40
0.5381635427
 40
0.6595102237
 40
0.7763959539
 40
0.8896559321
 40
1.0
 40
1.0
 40
1.0
 40
1.0
 10
5.1117953777
 20
3.4515032936
 30
0.0
 10
5.1117953777
 20
3.4507520996
 30
0.0
 10
5.1117283912
 20
3.4492517968
 30
0.0
 10
5.1114380587
 20
3.447029587
 30
0.0
 10
5.1109648014
 20
3.4448643962
 30
0.0
 10
5.1101166539
 20
3.4421173846
 30
0.0
 10
5.1086967657
 20
3.4389241355
 30
0.0
 10
5.1065150163
 20
3.4355052651
 30
0.0
 10
5.104001361
 20
3.4325389449
 30
0.0
 10
5.1012454087
 20
3.4300058547
 30
0.0
 10
5.0983199955
 20
3.427866344
 30
0.0
 10
5.0962635662
 20
3.4266676669
 30
0.0
 10
5.0952237473
 20
3.4261261385
 30
0.0
  0
SPLINE
  5
2FF
100
AcDbEntity
  8
0
100
AcDbSpline
 62
7
  6
CONTINUOUS
 70
0
 71
3
 72
18
 73
14
 74
0
 42
0.0000001
 43
0.0000001
 44
0.0000000001
 40
0.0
 40
0.0
 40
0.0
 40
0.0
 40
0.1141025527
 40
0.2303377898
 40
0.3492256683
 40
0.4098714945
 40
0.4714615878
 40
0.597622461
 40
0.7281213483
 40
0.7949998206
 40
0.8628275214
 40
0.93133141
 40
1.0
 40
1.0
 40
1.0
 40
1.0
 10
5.1448204203
 20
3.4261261385
 30
0.0
 10
5.1436946755
 20
3.4266658929
 30
0.0
 10
5.1414696907
 20
3.4278590099
 30
0.0
 10
5.13829385
 20
3.4299952535
 30
0.0
 10
5.1358161438
 20
3.4320896397
 30
0.0
 10
5.1339662589
 20
3.4339730022
 30
0.0
 10
5.1321913072
 20
3.4360333816
 30
0.0
 10
5.1301977
 20
3.438904156
 30
0.0
 10
5.1286479837
 20
3.4421060771
 30
0.0
 10
5.1277237422
 20
3.4448600774
 30
0.0
 10
5.1272091986
 20
3.447026532
 30
0.0
 10
5.1268933424
 20
3.4492501892
 30
0.0
 10
5.1268204203
 20
3.450751956
 30
0.0
 10
5.1268204203
 20
3.4515032936
 30
0.0
  0
ELLIPSE
  5
300
100
AcDbEntity
  8
0
100
AcDbEllipse
 62
7
  6
CONTINUOUS
 10
4.5369585355
 20
3.8915032936
 30
0.0
 11
0.1412953177
 21
0.0
 31
0.0
 40
0.8846719197
 41
0.7675449736
 42
0.8367811097
  0
ELLIPSE
  5
301
100
AcDbEntity
  8
0
100
AcDbEllipse
 62
7
  6
CONTINUOUS
 10
4.5952064238
 20
3.8915032936
 30
0.0
 11
0.0
 21
0.125
 31
0.0
 40
0.9285002803
 41
-0.2990524444
 42
-0.2673747087
  0
ELLIPSE
  5
302
100
AcDbEntity
  8
0
100
AcDbEllipse
 62
7
  6
CONTINUOUS
 10
5.6944344168
 20
3.8915032936
 30
0.0
 11
0.0
 21
0.125
 31
0.0
 40
0.9285002803
 41
0.2673747087
 42
0.2990524447
  0
ELLIPSE
  5
303
100
AcDbEntity
  8
0
100
AcDbEllipse
 62
7
  6
CONTINUOUS
 10
5.7526823051
 20
3.8915032936
 30
0.0
 11
0.1412953177
 21
-0.0
 31
0.0
 40
0.8846719197
 41
2.3048115439
 42
2.3740467881
  0
ELLIPSE
  5
304
100
AcDbEntity
  8
0
100
AcDbEllipse
 62
7
  6
CONTINUOUS
 10
4.5952064238
 20
3.8915032936
 30
0.0
 11
0.0
 21
0.125
 31
0.0
 40
0.9285002803
 41
-2.8742179449
 42
-2.8425402088
  0
ELLIPSE
  5
305
100
AcDbEntity
  8
0
100
AcDbEllipse
 62
7
  6
CONTINUOUS
 10
4.5369585355
 20
3.8915032936
 30
0.0
 11
0.1412953177
 21
0.0
 31
0.0
 40
0.8846719197
 41
-0.8367811097
 42
-0.7675449713
  0
ELLIPSE
  5
306
100
AcDbEntity
  8
0
100
AcDbEllipse
 62
7
  6
CONTINUOUS
 10
5.6944344168
 20
3.8915032936
 30
0.0
 11
0.0
 21
0.125
 31
0.0
 40
0.9285002803
 41
-3.440645098
 42
-3.4089673623
  0
ELLIPSE
  5
307
100
AcDbEntity
  8
0
100
AcDbEllipse
 62
7
  6
CONTINUOUS
 10
5.7526823051
 20
3.8915032936
 30
0.0
 11
0.1412953177
 21
-0.0
 31
0.0
 40
0.8846719197
 41
-2.3740467866
 42
-2.3048115439
  0
ENDSEC
  0
SECTION
  2
OBJECTS
  0
DICTIONARY
  5
C
100
AcDbDictionary
280
0
281
1
  3
ACAD_GROUP
350
D
  3
ACAD_MLINESTYLE
350
17
  3
ACAD_LAYOUT
350
1A
  3
ACAD_PLOTSETTINGS
350
19
  3
ACAD_PLOTSTYLENAME
350
E
  0
DICTIONARY
  5
D
102
{ACAD_REACTORS
330
C
102
}
100
AcDbDictionary
280
0
281
1
  0
ACDBDICTIONARYWDFLT
  5
E
102
{ACAD_REACTORS
330
C
102
}
100
AcDbDictionary
281
1
  3
Normal
350
F
100
AcDbDictionaryWithDefault
340
F
  0
DICTIONARY
  5
17
102
{ACAD_REACTORS
330
C
102
}
100
AcDbDictionary
280
0
281
1
  3
Standard
350
18
  0
DICTIONARY
  5
19
102
{ACAD_REACTORS
330
C
102
}
100
AcDbDictionary
281
1
  0
DICTIONARY
  5
1A
102
{ACAD_REACTORS
330
C
102
}
100
AcDbDictionary
281
1
  3
Model
350
308
  3
Layout1
350
309
  0
ACDBPLACEHOLDER
  5
F
102
{ACAD_REACTORS
330
E
102
}
  0
MLINESTYLE
  5
18
102
{ACAD_REACTORS
330
17
102
}
100
AcDbMlineStyle
  2
STANDARD
 70
0
  3

 62
256
 51
90.0
 52
90.0
 71
2
 49
0.5
 62
256
  6
BYLAYER
 49
-0.5
 62
256
  6
BYLAYER
  0
LAYOUT
  5
308
102
{ACAD_REACTORS
330
1A
102
}
100
AcDbPlotSettings
  1

  2
none_device
  4
ANSI_A_(11.00_x_8.50_Inches)
  6

 40
0.0
 41
0.0
 42
0.0
 43
0.0
 44
279.4
 45
215.9
 46
0.0
 47
0.0
 48
0.0
 49
0.0
140
0.0
141
0.0
142
1.0
143
1.0
 70
1024
 72
0
 73
0
 74
0
  7

 75
0
147
1.0
148
0.0
149
0.0
100
AcDbLayout
  1
Model
 70
0
 71
0
 10
0.0
 20
0.0
 11
11.0
 21
8.5
 12
0.0
 22
0.0
 32
0.0
 14
0.0
 24
0.0
 34
0.0
 15
0.0
 25
0.0
 35
0.0
146
0.0
 13
0.0
 23
0.0
 33
0.0
 16
1.0
 26
0.0
 36
0.0
 17
0.0
 27
1.0
 37
0.0
 76
0
330
202
345
0
346
0
  0
LAYOUT
  5
309
102
{ACAD_REACTORS
330
1A
102
}
100
AcDbPlotSettings
  1

  2
none_device
  4
ANSI_A_(11.00_x_8.50_Inches)
  6

 40
0.0
 41
0.0
 42
0.0
 43
0.0
 44
279.4
 45
215.9
 46
0.0
 47
0.0
 48
0.0
 49
0.0
140
0.0
141
0.0
142
1.0
143
1.0
 70
0
 72
0
 73
0
 74
0
  7

 75
0
147
1.0
148
0.0
149
0.0
100
AcDbLayout
  1
Layout1
 70
0
 71
1
 10
0.0
 20
0.0
 11
11.0
 21
8.5
 12
0.0
 22
0.0
 32
0.0
 14
0.0
 24
0.0
 34
0.0
 15
0.0
 25
0.0
 35
0.0
146
0.0
 13
0.0
 23
0.0
 33
0.0
 16
1.0
 26
0.0
 36
0.0
 17
0.0
 27
1.0
 37
0.0
 76
0
330
203
345
0
346
0
  0
ENDSEC
  0
EOF
