999
DXF file: 3230-5233_Top.dxf
999
Pro/ENGINEER 2023134 by Parametric Technology Corporation
  0
SECTION
  2
HEADER
  9
$ACADVER
  1
AC1032
  9
$DWGCODEPAGE
  3
ANSI_1252
  9
$EXTMAX
 10
11.0
 20
8.5
 30
0.0
  9
$EXTMIN
 10
0.0
 20
0.0
 30
0.0
  9
$LIMMIN
 10
0.0
 20
0.0
  9
$LIMMAX
 10
11.0
 20
8.5
  9
$VIEWCTR
 10
5.5
 20
4.25
  9
$VIEWSIZE
 40
8.5
  9
$CLAYER
  8
0
  9
$LTSCALE
 40
0.605
  9
$CELTYPE
  6
BYLAYER
  9
$DIMSCALE
 40
1.0
  9
$DIMASZ
 40
0.1
  9
$DIMEXO
 40
0.0625
  9
$DIMDLI
 40
0.418
  9
$DIMEXE
 40
0.125
  9
$DIMCEN
 40
0.099
  9
$DIMLFAC
 40
1.0
  9
$DIMBLK
  1
_FILLED
  9
$DIMALT
 70
1
  9
$DIMALTD
 70
2
  9
$DIMALTTD
 70
2
  9
$DIMALTF
 40
25.4
  9
$DIMTXT
 40
0.08
  9
$DIMTOL
 70
1
  9
$DIMLIM
 70
0
  9
$DIMTFAC
 40
1.0
  9
$DIMTP
 40
0.001
  9
$DIMTM
 40
0.001
  9
$DIMGAP
 40
0.09
  9
$DIMDSEP
 70
46
  9
$AUNITS
 70
0
  9
$PDMODE
 70
3
  9
$PDSIZE
 40
0.3125
  9
$HANDSEED
  5
538
  9
$TILEMODE
 70
1
  9
$MEASUREMENT
 70
0
  9
$INSUNITS
 70
1
  0
ENDSEC
  0
SECTION
  2
CLASSES
  0
CLASS
  1
ACDBDICTIONARYWDFLT
  2
AcDbDictionaryWithDefault
  3
AutoCAD 2000
 90
0
 91
1
280
0
281
0
  0
CLASS
  1
ACDBPLACEHOLDER
  2
AcDbPlaceHolder
  3
AutoCAD 2000
 90
0
 91
1
280
0
281
0
  0
CLASS
  1
LAYOUT
  2
AcDbLayout
  3
AutoCAD 2000
 90
0
 91
0
280
0
281
0
  0
ENDSEC
  0
SECTION
  2
TABLES
  0
TABLE
  2
VPORT
  5
8
100
AcDbSymbolTable
 70
2
  0
VPORT
  5
1F4
100
AcDbSymbolTableRecord
100
AcDbViewportTableRecord
  2
*ACTIVE
 70
0
 10
0.0
 20
0.0
 11
1.0
 21
1.0
 12
5.5
 22
4.25
 13
0.0
 23
0.0
 14
1.0
 24
1.0
 15
0.0
 25
0.0
 16
0.0
 26
0.0
 36
1.0
 17
0.0
 27
0.0
 37
0.0
 40
8.5
 41
1.2941176471
 42
50.0
 43
0.0
 44
0.0
 50
0.0
 51
0.0
 71
0
 72
100
 73
1
 74
1
 75
0
 76
0
 77
0
 78
0
  0
ENDTAB
  0
TABLE
  2
LTYPE
  5
5
100
AcDbSymbolTable
 70
6
  0
LTYPE
  5
14
100
AcDbSymbolTableRecord
100
AcDbLinetypeTableRecord
  2
BYBLOCK
 70
0
  3

 72
65
 73
0
 40
0.0
  0
LTYPE
  5
15
100
AcDbSymbolTableRecord
100
AcDbLinetypeTableRecord
  2
BYLAYER
 70
0
  3

 72
65
 73
0
 40
0.0
  0
LTYPE
  5
16
100
AcDbSymbolTableRecord
100
AcDbLinetypeTableRecord
  2
CONTINUOUS
 70
64
  3
Solid line
 72
65
 73
0
 40
0.0
  0
LTYPE
  5
1F5
100
AcDbSymbolTableRecord
100
AcDbLinetypeTableRecord
  2
CENTER
 70
64
  3
____ _ ____ _ ____ _ ____ _ ____ _ ____ _ ____
 72
65
 73
4
 40
0.6
 49
0.375
 74
0
 49
-0.075
 74
0
 49
0.075
 74
0
 49
-0.075
 74
0
  0
LTYPE
  5
1F6
100
AcDbSymbolTableRecord
100
AcDbLinetypeTableRecord
  2
HIDDEN
 70
64
  3
- - - - - - - - - - - - - - - - - - - -
 72
65
 73
2
 40
0.2
 49
0.1
 74
0
 49
-0.1
 74
0
  0
LTYPE
  5
1F7
100
AcDbSymbolTableRecord
100
AcDbLinetypeTableRecord
  2
PHANTOM
 70
64
  3
_____ _ _ _____ _ _ _____ _ _ _____
 72
65
 73
6
 40
0.8
 49
0.45
 74
0
 49
-0.05
 74
0
 49
0.1
 74
0
 49
-0.05
 74
0
 49
0.1
 74
0
 49
-0.05
 74
0
  0
LTYPE
  5
1F8
100
AcDbSymbolTableRecord
100
AcDbLinetypeTableRecord
  2
DOT
 70
64
  3
. . . . . . . . . . . . . . . . . . . .
 72
65
 73
2
 40
0.2
 49
0.1
 74
0
 49
-0.1
 74
0
  0
LTYPE
  5
1F9
100
AcDbSymbolTableRecord
100
AcDbLinetypeTableRecord
  2
DASHED
 70
64
  3
- - - - - - - - - - - - - - - - - - - -
 72
65
 73
2
 40
0.2
 49
0.1
 74
0
 49
-0.1
 74
0
  0
ENDTAB
  0
TABLE
  2
LAYER
  5
2
100
AcDbSymbolTable
 70
36
  0
LAYER
  5
10
100
AcDbSymbolTableRecord
100
AcDbLayerTableRecord
  2
0
 70
0
 62
7
  6
CONTINUOUS
370
-3
390
F
  0
LAYER
  5
1FA
100
AcDbSymbolTableRecord
100
AcDbLayerTableRecord
  2
DEFAULT_1
 70
0
 62
7
  6
CENTER
370
-3
390
F
  0
LAYER
  5
1FB
100
AcDbSymbolTableRecord
100
AcDbLayerTableRecord
  2
DEFAULT_2
 70
0
 62
8
  6
HIDDEN
370
-3
390
F
  0
LAYER
  5
1FC
100
AcDbSymbolTableRecord
100
AcDbLayerTableRecord
  2
DEFAULT_3
 70
0
 62
7
  6
PHANTOM
370
-3
390
F
  0
LAYER
  5
1FD
100
AcDbSymbolTableRecord
100
AcDbLayerTableRecord
  2
DEFAULT_COORDINATE_SYSTEM
 70
0
 62
7
  6
CONTINUOUS
370
-3
390
F
  0
LAYER
  5
1FE
100
AcDbSymbolTableRecord
100
AcDbLayerTableRecord
  2
DEFAULT_DATUM_AXES
 70
0
 62
7
  6
CONTINUOUS
370
-3
390
F
  0
LAYER
  5
1FF
100
AcDbSymbolTableRecord
100
AcDbLayerTableRecord
  2
DEFAULT_DATUM_CURVES
 70
0
 62
7
  6
CONTINUOUS
370
-3
390
F
  0
LAYER
  5
200
100
AcDbSymbolTableRecord
100
AcDbLayerTableRecord
  2
DEFAULT_DATUM_PLANES
 70
0
 62
7
  6
CONTINUOUS
370
-3
390
F
  0
ENDTAB
  0
TABLE
  2
STYLE
  5
3
100
AcDbSymbolTable
 70
1
  0
STYLE
  5
11
100
AcDbSymbolTableRecord
100
AcDbTextStyleTableRecord
  2
STANDARD
 70
0
 40
0.0
 41
0.8
 50
0.0
 71
0
 42
0.2
  3
txt
  4

  0
STYLE
  5
201
100
AcDbSymbolTableRecord
100
AcDbTextStyleTableRecord
  2
TEXTSTYLE_1
 70
0
 40
0.0
 41
0.8
 50
0.0
 71
0
 42
0.2
  3
gdt
  4

  0
ENDTAB
  0
TABLE
  2
VIEW
  5
6
100
AcDbSymbolTable
 70
0
  0
ENDTAB
  0
TABLE
  2
UCS
  5
7
100
AcDbSymbolTable
 70
0
  0
ENDTAB
  0
TABLE
  2
APPID
  5
9
100
AcDbSymbolTable
 70
1
  0
APPID
  5
202
100
AcDbSymbolTableRecord
100
AcDbRegAppTableRecord
  2
ACAD
 70
0
  0
ENDTAB
  0
TABLE
  2
BLOCK_RECORD
  5
1
100
AcDbSymbolTable
 70
0
  0
BLOCK_RECORD
  5
203
100
AcDbSymbolTableRecord
100
AcDbBlockTableRecord
  2
*Model_Space
  0
BLOCK_RECORD
  5
204
100
AcDbSymbolTableRecord
100
AcDbBlockTableRecord
  2
*Paper_Space
  0
BLOCK_RECORD
  5
205
100
AcDbSymbolTableRecord
100
AcDbBlockTableRecord
  2
_FILLED
  0
ENDTAB
  0
TABLE
  2
DIMSTYLE
  5
A
100
AcDbSymbolTable
 70
1
100
AcDbDimStyleTable
 71
0
  0
DIMSTYLE
105
206
100
AcDbSymbolTableRecord
100
AcDbDimStyleTableRecord
  2
STANDARD
 70
0
  3

  4

 40
1.0
 41
0.1
 42
0.0625
 43
0.38
 44
0.125
 45
0.0
 46
0.0
 47
0.001
 48
0.001
140
0.08
141
0.09
142
0.0
143
25.4
144
1.0
145
0.0
146
1.0
147
0.09
 71
1
 72
0
 73
1
 74
1
 75
0
 76
0
 77
0
 78
4
 79
1
170
1
171
2
172
0
173
0
174
0
175
0
176
0
177
0
178
0
270
2
179
3
271
3
272
3
273
2
274
2
275
0
280
0
281
0
282
0
283
1
284
4
285
0
286
0
287
3
288
0
340
11
278
46
341
205
342
205
343
205
344
205
  0
ENDTAB
  0
ENDSEC
  0
SECTION
  2
BLOCKS
  0
BLOCK
  5
20
100
AcDbEntity
  8
0
100
AcDbBlockBegin
  2
*Model_Space
 70
0
 10
0.0
 20
0.0
 30
0.0
  3
*Model_Space
  1

  0
ENDBLK
  5
21
100
AcDbEntity
  8
0
100
AcDbBlockEnd
  0
BLOCK
  5
1C
100
AcDbEntity
  8
0
100
AcDbBlockBegin
  2
*Paper_Space
 70
0
 10
0.0
 20
0.0
 30
0.0
  3
*Paper_Space
  1

  0
ENDBLK
  5
1D
100
AcDbEntity
  8
0
100
AcDbBlockEnd
  0
BLOCK
  5
207
100
AcDbEntity
  8
0
100
AcDbBlockBegin
  2
_FILLED
 70
64
 10
0.0
 20
0.0
  3
_FILLED
  1

  0
SOLID
  5
208
100
AcDbEntity
  8
0
  6
BYBLOCK
 62
0
100
AcDbTrace
 10
0.0
 20
0.0
 11
-1.0
 21
0.2
 12
-1.0
 22
-0.2
 13
-1.0
 23
-0.2
  0
ENDBLK
  5
209
100
AcDbEntity
  8
0
  6
BYBLOCK
 62
0
100
AcDbBlockEnd
  0
ENDSEC
  0
SECTION
  2
ENTITIES
  0
MTEXT
  5
20A
100
AcDbEntity
  8
0
100
AcDbMText
 62
2
  6
CONTINUOUS
  7
STANDARD
 71
2
 72
1
 10
5.3989148352
 20
1.935534323
 30
0.0
 11
1.0
 21
0.0
 31
0.0
 73
2
 44
0.9
  1
SCALE 0.500
 40
0.08
 41
0.704
  0
LINE
  5
20B
100
AcDbEntity
  8
0
100
AcDbLine
 62
7
  6
CONTINUOUS
 10
0.0
 20
0.0
 11
0.0
 21
8.5
  0
LINE
  5
20C
100
AcDbEntity
  8
0
100
AcDbLine
 62
7
  6
CONTINUOUS
 10
0.0
 20
0.0
 11
11.0
 21
0.0
  0
LINE
  5
20D
100
AcDbEntity
  8
0
100
AcDbLine
 62
7
  6
CONTINUOUS
 10
0.0
 20
8.5
 11
11.0
 21
8.5
  0
LINE
  5
20E
100
AcDbEntity
  8
0
100
AcDbLine
 62
7
  6
CONTINUOUS
 10
11.0
 20
0.0
 11
11.0
 21
8.5
  0
LINE
  5
20F
100
AcDbEntity
  8
0
100
AcDbLine
 62
7
  6
CONTINUOUS
 10
4.8876373237
 20
2.3677496313
 11
4.8989180583
 21
2.3684328717
  0
LINE
  5
210
100
AcDbEntity
  8
0
100
AcDbLine
 62
7
  6
CONTINUOUS
 10
5.188082303
 20
2.3826386001
 11
5.199375687
 21
2.3830643551
  0
LINE
  5
211
100
AcDbEntity
  8
0
100
AcDbLine
 62
7
  6
CONTINUOUS
 10
4.8684704668
 20
2.3830643551
 11
4.8797638509
 21
2.3826386001
  0
LINE
  5
212
100
AcDbEntity
  8
0
100
AcDbLine
 62
7
  6
CONTINUOUS
 10
5.1689280956
 20
2.3684328717
 11
5.1802088301
 21
2.3677496313
  0
LINE
  5
213
100
AcDbEntity
  8
0
100
AcDbLine
 62
7
  6
CONTINUOUS
 10
4.850897009
 20
2.4001840147
 11
4.862094281
 21
2.3986533647
  0
LINE
  5
214
100
AcDbEntity
  8
0
100
AcDbLine
 62
7
  6
CONTINUOUS
 10
5.148473716
 20
2.3561729884
 11
5.1596331615
 21
2.3543873327
  0
LINE
  5
215
100
AcDbEntity
  8
0
100
AcDbLine
 62
7
  6
CONTINUOUS
 10
4.8350861923
 20
2.4189437386
 11
4.8460795165
 21
2.4163229345
  0
LINE
  5
216
100
AcDbEntity
  8
0
100
AcDbLine
 62
7
  6
CONTINUOUS
 10
5.1269161511
 20
2.3459770196
 11
5.137846836
 21
2.3431061453
  0
LINE
  5
217
100
AcDbEntity
  8
0
100
AcDbLine
 62
7
  6
CONTINUOUS
 10
4.8211902835
 20
2.4391628604
 11
4.8318737881
 21
2.4354771419
  0
LINE
  5
218
100
AcDbEntity
  8
0
100
AcDbLine
 62
7
  6
CONTINUOUS
 10
5.1044630122
 20
2.337943158
 11
5.1150596679
 21
2.3340147133
  0
LINE
  5
219
100
AcDbEntity
  8
0
100
AcDbLine
 62
7
  6
CONTINUOUS
 10
4.8093431078
 20
2.4606466588
 11
4.8196139048
 21
2.4559315215
  0
LINE
  5
21A
100
AcDbEntity
  8
0
100
AcDbLine
 62
7
  6
CONTINUOUS
 10
5.081330535
 20
2.3321487741
 11
5.0914911101
 21
2.3272005921
  0
LINE
  5
21B
100
AcDbEntity
  8
0
100
AcDbLine
 62
7
  6
CONTINUOUS
 10
4.7996587599
 20
2.4831882331
 11
4.8094179359
 21
2.4774890863
  0
LINE
  5
21C
100
AcDbEntity
  8
0
100
AcDbLine
 62
7
  6
CONTINUOUS
 10
5.1404630303
 20
6.4560327258
 11
5.130049572
 21
6.4515447498
  0
LINE
  5
21D
100
AcDbEntity
  8
0
100
AcDbLine
 62
7
  6
CONTINUOUS
 10
4.6935991028
 20
6.2670237404
 11
4.6831849364
 21
6.2627911743
  0
LINE
  5
21E
100
AcDbEntity
  8
0
100
AcDbLine
 62
7
  6
CONTINUOUS
 10
5.1639930827
 20
6.4487437018
 11
5.153323119
 21
6.4449052233
  0
LINE
  5
21F
100
AcDbEntity
  8
0
100
AcDbLine
 62
7
  6
CONTINUOUS
 10
4.7063423029
 20
6.2875992637
 11
4.6956873539
 21
6.2840157543
  0
LINE
  5
220
100
AcDbEntity
  8
0
100
AcDbLine
 62
7
  6
CONTINUOUS
 10
5.1870298502
 20
6.4400201369
 11
5.1761438465
 21
6.4368457132
  0
LINE
  5
221
100
AcDbEntity
  8
0
100
AcDbLine
 62
7
  6
CONTINUOUS
 10
4.9299993179
 20
2.3431061453
 11
4.9409300027
 21
2.3459770196
  0
LINE
  5
222
100
AcDbEntity
  8
0
100
AcDbLine
 62
7
  6
CONTINUOUS
 10
5.2217666374
 20
2.4163229345
 11
5.2327599615
 21
2.4189437386
  0
LINE
  5
223
100
AcDbEntity
  8
0
100
AcDbLine
 62
7
  6
CONTINUOUS
 10
4.9082129924
 20
2.3543873327
 11
4.9193724379
 21
2.3561729884
  0
LINE
  5
224
100
AcDbEntity
  8
0
100
AcDbLine
 62
7
  6
CONTINUOUS
 10
5.2057518728
 20
2.3986533647
 11
5.2169491448
 21
2.4001840147
  0
LINE
  5
225
100
AcDbEntity
  8
0
100
AcDbLine
 62
7
  6
CONTINUOUS
 10
5.0577414982
 20
2.328649671
 11
5.0673681406
 21
2.3227294053
  0
LINE
  5
226
100
AcDbEntity
  8
0
100
AcDbLine
 62
7
  6
CONTINUOUS
 10
4.7922305055
 20
2.5065704956
 11
4.8013840743
 21
2.4999422253
  0
LINE
  5
227
100
AcDbEntity
  8
0
100
AcDbLine
 62
7
  6
CONTINUOUS
 10
5.0339230769
 20
2.327479547
 11
5.0429230769
 21
2.3206442131
  0
LINE
  5
228
100
AcDbEntity
  8
0
100
AcDbLine
 62
7
  6
CONTINUOUS
 10
5.0182901556
 20
6.4701765585
 11
5.0097324598
 21
6.4627369426
  0
LINE
  5
229
100
AcDbEntity
  8
0
100
AcDbLine
 62
7
  6
CONTINUOUS
 10
4.6500349857
 20
6.1546185584
 11
4.6413937446
 21
6.1474283965
  0
LINE
  5
22A
100
AcDbEntity
  8
0
100
AcDbLine
 62
7
  6
CONTINUOUS
 10
5.0429224815
 20
6.4703809111
 11
5.0339230769
 21
6.4634821606
  0
LINE
  5
22B
100
AcDbEntity
  8
0
100
AcDbLine
 62
7
  6
CONTINUOUS
 10
4.6559418348
 20
6.1780887617
 11
4.6468743981
 21
6.1714441346
  0
LINE
  5
22C
100
AcDbEntity
  8
0
100
AcDbLine
 62
7
  6
CONTINUOUS
 10
5.0678128476
 20
6.4690439292
 11
5.0584012253
 21
6.4627191046
  0
LINE
  5
22D
100
AcDbEntity
  8
0
100
AcDbLine
 62
7
  6
CONTINUOUS
 10
4.6632821618
 20
6.2011508714
 11
4.6538229174
 21
6.1950769787
  0
LINE
  5
22E
100
AcDbEntity
  8
0
100
AcDbLine
 62
7
  6
CONTINUOUS
 10
5.0922815496
 20
6.466202123
 11
5.0824984573
 21
6.4604686121
  0
LINE
  5
22F
100
AcDbEntity
  8
0
100
AcDbLine
 62
7
  6
CONTINUOUS
 10
4.6720281287
 20
6.2237174256
 11
4.6622129505
 21
6.2182373022
  0
LINE
  5
230
100
AcDbEntity
  8
0
100
AcDbLine
 62
7
  6
CONTINUOUS
 10
5.1165289296
 20
6.4618595655
 11
5.1064114692
 21
6.4567391126
  0
LINE
  5
231
100
AcDbEntity
  8
0
100
AcDbLine
 62
7
  6
CONTINUOUS
 10
4.682146567
 20
6.2457028415
 11
4.6720126785
 21
6.2408372705
  0
LINE
  5
232
100
AcDbEntity
  8
0
100
AcDbLine
 62
7
  6
CONTINUOUS
 10
4.7871298827
 20
2.5305682625
 11
4.7955896905
 21
2.5230747024
  0
LINE
  5
233
100
AcDbEntity
  8
0
100
AcDbLine
 62
7
  6
CONTINUOUS
 10
5.0101046557
 20
2.328649671
 11
5.0183913383
 21
2.3209650968
  0
LINE
  5
234
100
AcDbEntity
  8
0
100
AcDbLine
 62
7
  6
CONTINUOUS
 10
4.7844060132
 20
2.5549504219
 11
4.7920905874
 21
2.5466637393
  0
LINE
  5
235
100
AcDbEntity
  8
0
100
AcDbLine
 62
7
  6
CONTINUOUS
 10
4.9865156188
 20
2.3321487741
 11
4.9940091788
 21
2.3236889663
  0
LINE
  5
236
100
AcDbEntity
  8
0
100
AcDbLine
 62
7
  6
CONTINUOUS
 10
4.9451210916
 20
6.4605003748
 11
4.9380759412
 21
6.4516151119
  0
LINE
  5
237
100
AcDbEntity
  8
0
100
AcDbLine
 62
7
  6
CONTINUOUS
 10
4.6411116498
 20
6.0826551937
 11
4.6339385444
 21
6.0739997888
  0
LINE
  5
238
100
AcDbEntity
  8
0
100
AcDbLine
 62
7
  6
CONTINUOUS
 10
4.9692965576
 20
6.4652269047
 11
4.9617178452
 21
6.4567921456
  0
LINE
  5
239
100
AcDbEntity
  8
0
100
AcDbLine
 62
7
  6
CONTINUOUS
 10
4.6426058058
 20
6.1068111206
 11
4.6349135297
 21
6.0986136597
  0
LINE
  5
23A
100
AcDbEntity
  8
0
100
AcDbLine
 62
7
  6
CONTINUOUS
 10
4.9937171169
 20
6.4684563818
 11
4.9856335846
 21
6.460504115
  0
LINE
  5
23B
100
AcDbEntity
  8
0
100
AcDbLine
 62
7
  6
CONTINUOUS
 10
4.645584016
 20
6.1308292715
 11
4.6374017419
 21
6.1231208431
  0
LINE
  5
23C
100
AcDbEntity
  8
0
100
AcDbLine
 62
7
  6
CONTINUOUS
 10
5.2585030461
 20
2.6803176623
 11
5.2526730769
 21
2.6829940958
  0
LINE
  5
23D
100
AcDbEntity
  8
0
100
AcDbLine
 62
7
  6
CONTINUOUS
 10
5.2681873939
 20
2.657776088
 11
5.2584282179
 21
2.6634752348
  0
LINE
  5
23E
100
AcDbEntity
  8
0
100
AcDbLine
 62
7
  6
CONTINUOUS
 10
5.2756156484
 20
2.6343938255
 11
5.2664620795
 21
2.6410220958
  0
LINE
  5
23F
100
AcDbEntity
  8
0
100
AcDbLine
 62
7
  6
CONTINUOUS
 10
4.7840851294
 20
2.5794821606
 11
4.7909204634
 21
2.5704821606
  0
LINE
  5
240
100
AcDbEntity
  8
0
100
AcDbLine
 62
7
  6
CONTINUOUS
 10
4.9633831417
 20
2.337943158
 11
4.970011412
 21
2.3287895891
  0
LINE
  5
241
100
AcDbEntity
  8
0
100
AcDbLine
 62
7
  6
CONTINUOUS
 10
4.8978709003
 20
6.4466334669
 11
4.891970904
 21
6.436949868
  0
LINE
  5
242
100
AcDbEntity
  8
0
100
AcDbLine
 62
7
  6
CONTINUOUS
 10
4.6425925168
 20
6.0342966282
 11
4.6365372917
 21
6.0248254232
  0
LINE
  5
243
100
AcDbEntity
  8
0
100
AcDbLine
 62
7
  6
CONTINUOUS
 10
4.9212824035
 20
6.4542947173
 11
4.9147975333
 21
6.4449926475
  0
LINE
  5
244
100
AcDbEntity
  8
0
100
AcDbLine
 62
7
  6
CONTINUOUS
 10
4.6411072146
 20
6.0584531011
 11
4.6344804834
 21
6.0493725774
  0
LINE
  5
245
100
AcDbEntity
  8
0
100
AcDbLine
 62
7
  6
CONTINUOUS
 10
5.2807162712
 20
2.6103960587
 11
5.2722564634
 21
2.6178896187
  0
LINE
  5
246
100
AcDbEntity
  8
0
100
AcDbLine
 62
7
  6
CONTINUOUS
 10
4.7861703217
 20
2.6039272242
 11
4.7920905874
 21
2.5943005818
  0
LINE
  5
247
100
AcDbEntity
  8
0
100
AcDbLine
 62
7
  6
CONTINUOUS
 10
4.9409300027
 20
2.3459770196
 11
4.9466291494
 21
2.3362178435
  0
LINE
  5
248
100
AcDbEntity
  8
0
100
AcDbLine
 62
7
  6
CONTINUOUS
 10
4.6559024203
 20
5.963014104
 11
4.6516904015
 21
5.9525916103
  0
LINE
  5
249
100
AcDbEntity
  8
0
100
AcDbLine
 62
7
  6
CONTINUOUS
 10
4.8526826406
 20
6.4270658173
 11
4.8480172157
 21
6.4167306418
  0
LINE
  5
24A
100
AcDbEntity
  8
0
100
AcDbLine
 62
7
  6
CONTINUOUS
 10
4.6500041739
 20
5.9864864707
 11
4.6451585987
 21
5.9763430059
  0
LINE
  5
24B
100
AcDbEntity
  8
0
100
AcDbLine
 62
7
  6
CONTINUOUS
 10
4.8749753692
 20
6.4375456785
 11
4.8696826224
 21
6.4275172752
  0
LINE
  5
24C
100
AcDbEntity
  8
0
100
AcDbLine
 62
7
  6
CONTINUOUS
 10
4.6455619238
 20
6.0102773874
 11
4.6401011687
 21
6.0004514202
  0
LINE
  5
24D
100
AcDbEntity
  8
0
100
AcDbLine
 62
7
  6
CONTINUOUS
 10
5.3856353415
 20
5.8951325585
 11
5.3957710126
 21
5.8999944149
  0
LINE
  5
24E
100
AcDbEntity
  8
0
100
AcDbLine
 62
7
  6
CONTINUOUS
 10
5.374174992
 20
5.8738158586
 11
5.3845907089
 21
5.8780446074
  0
LINE
  5
24F
100
AcDbEntity
  8
0
100
AcDbLine
 62
7
  6
CONTINUOUS
 10
5.3614242514
 20
5.8532450074
 11
5.3720805131
 21
5.8568246112
  0
LINE
  5
250
100
AcDbEntity
  8
0
100
AcDbLine
 62
7
  6
CONTINUOUS
 10
5.2834401407
 20
2.5860138992
 11
5.2757555665
 21
2.5943005818
  0
LINE
  5
251
100
AcDbEntity
  8
0
100
AcDbLine
 62
7
  6
CONTINUOUS
 10
5.2837610244
 20
2.5614821606
 11
5.2769256905
 21
2.5704821606
  0
LINE
  5
252
100
AcDbEntity
  8
0
100
AcDbLine
 62
7
  6
CONTINUOUS
 10
4.7906415084
 20
2.6280501937
 11
4.7955896905
 21
2.6178896187
  0
LINE
  5
253
100
AcDbEntity
  8
0
100
AcDbLine
 62
7
  6
CONTINUOUS
 10
4.9193724379
 20
2.3561729884
 11
4.9240875751
 21
2.3459021914
  0
LINE
  5
254
100
AcDbEntity
  8
0
100
AcDbLine
 62
7
  6
CONTINUOUS
 10
4.810241161
 20
6.4020939826
 11
4.8068810141
 21
6.3912638647
  0
LINE
  5
255
100
AcDbEntity
  8
0
100
AcDbLine
 62
7
  6
CONTINUOUS
 10
4.6632342941
 20
5.9399493054
 11
4.6596718056
 21
5.9292873097
  0
LINE
  5
256
100
AcDbEntity
  8
0
100
AcDbLine
 62
7
  6
CONTINUOUS
 10
4.8310772587
 20
6.4152336276
 11
4.8270568492
 21
6.4046308757
  0
LINE
  5
257
100
AcDbEntity
  8
0
100
AcDbLine
 62
7
  6
CONTINUOUS
 10
5.4222399933
 20
6.00999272
 11
5.4304250922
 21
6.0176981489
  0
LINE
  5
258
100
AcDbEntity
  8
0
100
AcDbLine
 62
7
  6
CONTINUOUS
 10
5.4177803047
 20
5.986205066
 11
5.4264241807
 21
5.9933920602
  0
LINE
  5
259
100
AcDbEntity
  8
0
100
AcDbLine
 62
7
  6
CONTINUOUS
 10
5.4118648538
 20
5.9627370293
 11
5.4209347253
 21
5.9693783325
  0
LINE
  5
25A
100
AcDbEntity
  8
0
100
AcDbLine
 62
7
  6
CONTINUOUS
 10
5.4045160746
 20
5.9396776115
 11
5.4139775446
 21
5.9457480368
  0
LINE
  5
25B
100
AcDbEntity
  8
0
100
AcDbLine
 62
7
  6
CONTINUOUS
 10
5.3957618372
 20
5.9171142644
 11
5.4055790233
 21
5.92259079
  0
LINE
  5
25C
100
AcDbEntity
  8
0
100
AcDbLine
 62
7
  6
CONTINUOUS
 10
5.2816758321
 20
2.5370370969
 11
5.2757555665
 21
2.5466637393
  0
LINE
  5
25D
100
AcDbEntity
  8
0
100
AcDbLine
 62
7
  6
CONTINUOUS
 10
4.7974556297
 20
2.6516187515
 11
4.8013840743
 21
2.6410220958
  0
LINE
  5
25E
100
AcDbEntity
  8
0
100
AcDbLine
 62
7
  6
CONTINUOUS
 10
4.8989180583
 20
2.3684328717
 11
4.9026037767
 21
2.3577493671
  0
LINE
  5
25F
100
AcDbEntity
  8
0
100
AcDbLine
 62
7
  6
CONTINUOUS
 10
4.7711896812
 20
6.3720964221
 11
4.7691857366
 21
6.360935497
  0
LINE
  5
260
100
AcDbEntity
  8
0
100
AcDbLine
 62
7
  6
CONTINUOUS
 10
4.6820823689
 20
5.8953904242
 11
4.6798569583
 21
5.8843714848
  0
LINE
  5
261
100
AcDbEntity
  8
0
100
AcDbLine
 62
7
  6
CONTINUOUS
 10
4.7902533676
 20
6.3876967137
 11
4.7875662264
 21
6.3766803026
  0
LINE
  5
262
100
AcDbEntity
  8
0
100
AcDbLine
 62
7
  6
CONTINUOUS
 10
4.6719719894
 20
5.9173795472
 11
4.6690725418
 21
5.9065184846
  0
LINE
  5
263
100
AcDbEntity
  8
0
100
AcDbLine
 62
7
  6
CONTINUOUS
 10
5.426730016
 20
6.0581651553
 11
5.4339062933
 21
6.0668179306
  0
LINE
  5
264
100
AcDbEntity
  8
0
100
AcDbLine
 62
7
  6
CONTINUOUS
 10
5.4252270065
 20
6.0340097777
 11
5.4329222866
 21
6.0422044187
  0
LINE
  5
265
100
AcDbEntity
  8
0
100
AcDbLine
 62
7
  6
CONTINUOUS
 10
5.2772046454
 20
2.5129141274
 11
5.2722564634
 21
2.5230747024
  0
LINE
  5
266
100
AcDbEntity
  8
0
100
AcDbLine
 62
7
  6
CONTINUOUS
 10
4.8065470617
 20
2.6744059196
 11
4.8094179359
 21
2.6634752348
  0
LINE
  5
267
100
AcDbEntity
  8
0
100
AcDbLine
 62
7
  6
CONTINUOUS
 10
4.8797638509
 20
2.3826386001
 11
4.882384655
 21
2.3716452759
  0
LINE
  5
268
100
AcDbEntity
  8
0
100
AcDbLine
 62
7
  6
CONTINUOUS
 10
4.7361200436
 20
6.3375277622
 11
4.7355026723
 21
6.3262051788
  0
LINE
  5
269
100
AcDbEntity
  8
0
100
AcDbLine
 62
7
  6
CONTINUOUS
 10
4.7062627473
 20
5.8534851366
 11
4.7054081417
 21
5.8422762506
  0
LINE
  5
26A
100
AcDbEntity
  8
0
100
AcDbLine
 62
7
  6
CONTINUOUS
 10
4.7531224001
 20
6.3553522711
 11
4.7518092521
 21
6.3440891594
  0
LINE
  5
26B
100
AcDbEntity
  8
0
100
AcDbLine
 62
7
  6
CONTINUOUS
 10
4.6935270894
 20
5.8740653291
 11
4.6919841555
 21
5.8629303019
  0
LINE
  5
26C
100
AcDbEntity
  8
0
100
AcDbLine
 62
7
  6
CONTINUOUS
 10
5.4223062702
 20
6.1305445879
 11
5.4277706263
 21
6.1403685529
  0
LINE
  5
26D
100
AcDbEntity
  8
0
100
AcDbLine
 62
7
  6
CONTINUOUS
 10
5.4252668734
 20
6.1065242603
 11
5.4313255696
 21
6.1159932454
  0
LINE
  5
26E
100
AcDbEntity
  8
0
100
AcDbLine
 62
7
  6
CONTINUOUS
 10
5.4267433218
 20
6.0823672447
 11
5.4333733807
 21
6.091445339
  0
LINE
  5
26F
100
AcDbEntity
  8
0
100
AcDbLine
 62
7
  6
CONTINUOUS
 10
5.2703905242
 20
2.4893455696
 11
5.2664620795
 21
2.4999422253
  0
LINE
  5
270
100
AcDbEntity
  8
0
100
AcDbLine
 62
7
  6
CONTINUOUS
 10
4.862094281
 20
2.3986533647
 11
4.8636249311
 21
2.3874560927
  0
LINE
  5
271
100
AcDbEntity
  8
0
100
AcDbLine
 62
7
  6
CONTINUOUS
 10
4.7354089649
 20
5.8148685362
 11
4.7359381163
 21
5.8036395792
  0
LINE
  5
272
100
AcDbEntity
  8
0
100
AcDbLine
 62
7
  6
CONTINUOUS
 10
4.8460795165
 20
2.4163229345
 11
4.8465052714
 21
2.4050295505
  0
LINE
  5
273
100
AcDbEntity
  8
0
100
AcDbLine
 62
7
  6
CONTINUOUS
 10
4.7202470927
 20
6.3186904942
 11
4.7203278392
 21
6.3073513795
  0
LINE
  5
274
100
AcDbEntity
  8
0
100
AcDbLine
 62
7
  6
CONTINUOUS
 10
4.7202410432
 20
5.8337278962
 11
4.7200780069
 21
5.8224876606
  0
LINE
  5
275
100
AcDbEntity
  8
0
100
AcDbLine
 62
7
  6
CONTINUOUS
 10
5.4119830972
 20
6.1778116581
 11
5.4161989358
 21
6.1882326073
  0
LINE
  5
276
100
AcDbEntity
  8
0
100
AcDbLine
 62
7
  6
CONTINUOUS
 10
5.4178727402
 20
6.1543371312
 11
5.4227220329
 21
6.1644788193
  0
LINE
  5
277
100
AcDbEntity
  8
0
100
AcDbLine
 62
7
  6
CONTINUOUS
 10
5.2612990922
 20
2.4665584015
 11
5.2584282179
 21
2.4774890863
  0
LINE
  5
278
100
AcDbEntity
  8
0
100
AcDbLine
 62
7
  6
CONTINUOUS
 10
4.7517089888
 20
5.7969785802
 11
4.752928321
 21
5.7858034871
  0
LINE
  5
279
100
AcDbEntity
  8
0
100
AcDbLine
 62
7
  6
CONTINUOUS
 10
4.7055637446
 20
6.2989119066
 11
4.7063423029
 21
6.2875992637
  0
LINE
  5
27A
100
AcDbEntity
  8
0
100
AcDbLine
 62
7
  6
CONTINUOUS
 10
4.8151730769
 20
2.5704821606
 11
4.8151730769
 21
6.0704821606
  0
LINE
  5
27B
100
AcDbEntity
  8
0
100
AcDbLine
 62
7
  6
CONTINUOUS
 10
4.8318737881
 20
2.4354771419
 11
4.8311905477
 21
2.4241964073
  0
LINE
  5
27C
100
AcDbEntity
  8
0
100
AcDbLine
 62
7
  6
CONTINUOUS
 10
5.3959302552
 20
6.2234521016
 11
5.3988336833
 21
6.2343121008
  0
LINE
  5
27D
100
AcDbEntity
  8
0
100
AcDbLine
 62
7
  6
CONTINUOUS
 10
5.2574834357
 20
5.7387883771
 11
5.2608475519
 21
5.7496172627
  0
LINE
  5
27E
100
AcDbEntity
  8
0
100
AcDbLine
 62
7
  6
CONTINUOUS
 10
5.4046596777
 20
6.2008791424
 11
5.4082260737
 21
6.2115398317
  0
LINE
  5
27F
100
AcDbEntity
  8
0
100
AcDbLine
 62
7
  6
CONTINUOUS
 10
5.2500179048
 20
2.444772076
 11
5.2482322491
 21
2.4559315215
  0
LINE
  5
280
100
AcDbEntity
  8
0
100
AcDbLine
 62
7
  6
CONTINUOUS
 10
4.6921256854
 20
6.2782670088
 11
4.6935991028
 21
6.2670237404
  0
LINE
  5
281
100
AcDbEntity
  8
0
100
AcDbLine
 62
7
  6
CONTINUOUS
 10
5.2366556062
 20
2.4241964073
 11
5.2359723658
 21
2.4354771419
  0
LINE
  5
282
100
AcDbEntity
  8
0
100
AcDbLine
 62
7
  6
CONTINUOUS
 10
5.2965459076
 20
5.7687716225
 11
5.2985539427
 21
5.7799318123
  0
LINE
  5
283
100
AcDbEntity
  8
0
100
AcDbLine
 62
7
  6
CONTINUOUS
 10
5.3858279358
 20
6.2454449288
 11
5.3880573849
 21
6.2564630518
  0
LINE
  5
284
100
AcDbEntity
  8
0
100
AcDbLine
 62
7
  6
CONTINUOUS
 10
5.2774765047
 20
5.7531783191
 11
5.2801676835
 21
5.7641937446
  0
LINE
  5
285
100
AcDbEntity
  8
0
100
AcDbLine
 62
7
  6
CONTINUOUS
 10
4.7874540154
 20
5.7643743336
 11
4.7900372365
 21
5.7534337465
  0
LINE
  5
286
100
AcDbEntity
  8
0
100
AcDbLine
 62
7
  6
CONTINUOUS
 10
4.6799838784
 20
6.2568340958
 11
4.682146567
 21
6.2457028415
  0
LINE
  5
287
100
AcDbEntity
  8
0
100
AcDbLine
 62
7
  6
CONTINUOUS
 10
4.7690792977
 20
5.7801258749
 11
4.7709841864
 21
5.7690470268
  0
LINE
  5
288
100
AcDbEntity
  8
0
100
AcDbLine
 62
7
  6
CONTINUOUS
 10
5.2526730769
 20
2.5704821606
 11
5.2526730769
 21
6.0704821606
  0
LINE
  5
289
100
AcDbEntity
  8
0
100
AcDbLine
 62
7
  6
CONTINUOUS
 10
5.3316282129
 20
5.8033274263
 11
5.3322497342
 21
5.8146497827
  0
LINE
  5
28A
100
AcDbEntity
  8
0
100
AcDbLine
 62
7
  6
CONTINUOUS
 10
5.3616629181
 20
6.2873590761
 11
5.3625216319
 21
6.2985676482
  0
LINE
  5
28B
100
AcDbEntity
  8
0
100
AcDbLine
 62
7
  6
CONTINUOUS
 10
5.3146193246
 20
5.7855091503
 11
5.3159366006
 21
5.79677178
  0
LINE
  5
28C
100
AcDbEntity
  8
0
100
AcDbLine
 62
7
  6
CONTINUOUS
 10
5.3743910321
 20
6.2667742172
 11
5.3759380471
 21
6.2779086782
  0
LINE
  5
28D
100
AcDbEntity
  8
0
100
AcDbLine
 62
7
  6
CONTINUOUS
 10
4.8196139048
 20
2.4559315215
 11
4.817828249
 21
2.444772076
  0
LINE
  5
28E
100
AcDbEntity
  8
0
100
AcDbLine
 62
7
  6
CONTINUOUS
 10
4.6597681194
 20
6.2119320378
 11
4.6632821618
 21
6.2011508714
  0
LINE
  5
28F
100
AcDbEntity
  8
0
100
AcDbLine
 62
7
  6
CONTINUOUS
 10
4.8067634567
 20
5.7497836933
 11
4.8100152134
 21
5.7390228589
  0
LINE
  5
290
100
AcDbEntity
  8
0
100
AcDbLine
 62
7
  6
CONTINUOUS
 10
4.6691843708
 20
6.2346944509
 11
4.6720281287
 21
6.2237174256
  0
LINE
  5
291
100
AcDbEntity
  8
0
100
AcDbLine
 62
7
  6
CONTINUOUS
 10
5.3325308562
 20
6.3259863566
 11
5.3320058205
 21
6.3372155068
  0
LINE
  5
292
100
AcDbEntity
  8
0
100
AcDbLine
 62
7
  6
CONTINUOUS
 10
5.347508067
 20
5.8221588753
 11
5.3474314765
 21
5.8334980188
  0
LINE
  5
293
100
AcDbEntity
  8
0
100
AcDbLine
 62
7
  6
CONTINUOUS
 10
5.3476918646
 20
6.3071214386
 11
5.3478590206
 21
6.3183616137
  0
LINE
  5
294
100
AcDbEntity
  8
0
100
AcDbLine
 62
7
  6
CONTINUOUS
 10
5.2213408824
 20
2.4050295505
 11
5.2217666374
 21
2.4163229345
  0
LINE
  5
295
100
AcDbEntity
  8
0
100
AcDbLine
 62
7
  6
CONTINUOUS
 10
4.8094179359
 20
2.4774890863
 11
4.8065470617
 21
2.4665584015
  0
LINE
  5
296
100
AcDbEntity
  8
0
100
AcDbLine
 62
7
  6
CONTINUOUS
 10
4.6452228465
 20
6.1648862436
 11
4.6500349857
 21
6.1546185584
  0
LINE
  5
297
100
AcDbEntity
  8
0
100
AcDbLine
 62
7
  6
CONTINUOUS
 10
4.6517708349
 20
6.1886331821
 11
4.6559418348
 21
6.1780887617
  0
LINE
  5
298
100
AcDbEntity
  8
0
100
AcDbLine
 62
7
  6
CONTINUOUS
 10
5.3162373904
 20
6.3438822857
 11
5.3150221542
 21
6.3550578249
  0
LINE
  5
299
100
AcDbEntity
  8
0
100
AcDbLine
 62
7
  6
CONTINUOUS
 10
5.3621986633
 20
5.8419320799
 11
5.3614242514
 21
5.8532450074
  0
LINE
  5
29A
100
AcDbEntity
  8
0
100
AcDbLine
 62
7
  6
CONTINUOUS
 10
5.2042212228
 20
2.3874560927
 11
5.2057518728
 21
2.3986533647
  0
LINE
  5
29B
100
AcDbEntity
  8
0
100
AcDbLine
 62
7
  6
CONTINUOUS
 10
4.8013840743
 20
2.4999422253
 11
4.7974556297
 21
2.4893455696
  0
LINE
  5
29C
100
AcDbEntity
  8
0
100
AcDbLine
 62
7
  6
CONTINUOUS
 10
4.6401489874
 20
6.1407812816
 11
4.645584016
 21
6.1308292715
  0
LINE
  5
29D
100
AcDbEntity
  8
0
100
AcDbLine
 62
7
  6
CONTINUOUS
 10
5.3756442883
 20
5.862572051
 11
5.374174992
 21
5.8738158586
  0
LINE
  5
29E
100
AcDbEntity
  8
0
100
AcDbLine
 62
7
  6
CONTINUOUS
 10
5.758053975
 20
5.6775515552
 11
5.758053975
 21
6.4634127659
  0
LINE
  5
29F
100
AcDbEntity
  8
0
100
AcDbLine
 62
7
  6
CONTINUOUS
 10
5.1854614989
 20
2.3716452759
 11
5.188082303
 21
2.3826386001
  0
LINE
  5
2A0
100
AcDbEntity
  8
0
100
AcDbLine
 62
7
  6
CONTINUOUS
 10
5.2584282179
 20
2.6634752348
 11
5.2612990922
 21
2.6744059196
  0
LINE
  5
2A1
100
AcDbEntity
  8
0
100
AcDbLine
 62
7
  6
CONTINUOUS
 10
4.7955896905
 20
2.5230747024
 11
4.7906415084
 21
2.5129141274
  0
LINE
  5
2A2
100
AcDbEntity
  8
0
100
AcDbLine
 62
7
  6
CONTINUOUS
 10
4.6344949628
 20
6.0918639664
 11
4.6411116498
 21
6.0826551937
  0
LINE
  5
2A3
100
AcDbEntity
  8
0
100
AcDbLine
 62
7
  6
CONTINUOUS
 10
4.6365684999
 20
6.1164097132
 11
4.6426058058
 21
6.1068111206
  0
LINE
  5
2A4
100
AcDbEntity
  8
0
100
AcDbLine
 62
7
  6
CONTINUOUS
 10
5.3986015716
 20
5.9061361975
 11
5.3957618372
 21
5.9171142644
  0
LINE
  5
2A5
100
AcDbEntity
  8
0
100
AcDbLine
 62
7
  6
CONTINUOUS
 10
5.2805043162
 20
6.3764996313
 11
5.2779251053
 21
6.3874411645
  0
LINE
  5
2A6
100
AcDbEntity
  8
0
100
AcDbLine
 62
7
  6
CONTINUOUS
 10
5.3877939501
 20
5.8840005124
 11
5.3856353415
 21
5.8951325585
  0
LINE
  5
2A7
100
AcDbEntity
  8
0
100
AcDbLine
 62
7
  6
CONTINUOUS
 10
5.2988732595
 20
6.3607413564
 11
5.2969724315
 21
6.3718209019
  0
LINE
  5
2A8
100
AcDbEntity
  8
0
100
AcDbLine
 62
7
  6
CONTINUOUS
 10
5.7729230769
 20
5.692550984
 11
5.7729230769
 21
6.4484133371
  0
LINE
  5
2A9
100
AcDbEntity
  8
0
100
AcDbLine
 62
7
  6
CONTINUOUS
 10
5.7879230769
 20
6.4504821606
 11
5.7879230769
 21
5.6904821606
  0
LINE
  5
2AA
100
AcDbEntity
  8
0
100
AcDbLine
 62
7
  6
CONTINUOUS
 10
5.8029230769
 20
6.4650472925
 11
5.8029230769
 21
6.4642967893
  0
LINE
  5
2AB
100
AcDbEntity
  8
0
100
AcDbLine
 62
7
  6
CONTINUOUS
 10
5.8029230769
 20
6.4631320484
 11
5.8029230769
 21
6.4616339454
  0
LINE
  5
2AC
100
AcDbEntity
  8
0
100
AcDbLine
 62
7
  6
CONTINUOUS
 10
5.8029230769
 20
6.4596977182
 11
5.8029230769
 21
6.4574578113
  0
LINE
  5
2AD
100
AcDbEntity
  8
0
100
AcDbLine
 62
7
  6
CONTINUOUS
 10
5.8029230769
 20
6.4547575885
 11
5.8029230769
 21
6.4517845436
  0
LINE
  5
2AE
100
AcDbEntity
  8
0
100
AcDbLine
 62
7
  6
CONTINUOUS
 10
5.8029230769
 20
6.4483307719
 11
5.8029230769
 21
6.444636091
  0
LINE
  5
2AF
100
AcDbEntity
  8
0
100
AcDbLine
 62
7
  6
CONTINUOUS
 10
5.8029230769
 20
6.4404421324
 11
5.8029230769
 21
6.4360401095
  0
LINE
  5
2B0
100
AcDbEntity
  8
0
100
AcDbLine
 62
7
  6
CONTINUOUS
 10
5.8029230769
 20
6.4311221897
 11
5.8029230769
 21
6.4260298554
  0
LINE
  5
2B1
100
AcDbEntity
  8
0
100
AcDbLine
 62
7
  6
CONTINUOUS
 10
5.8029230769
 20
6.4204070007
 11
5.8029230769
 21
6.4146440563
  0
LINE
  5
2B2
100
AcDbEntity
  8
0
100
AcDbLine
 62
7
  6
CONTINUOUS
 10
5.8029230769
 20
6.4083380205
 11
5.8029230769
 21
6.4019267617
  0
LINE
  5
2B3
100
AcDbEntity
  8
0
100
AcDbLine
 62
7
  6
CONTINUOUS
 10
5.8029230769
 20
6.3949619416
 11
5.8029230769
 21
6.3879271723
  0
LINE
  5
2B4
100
AcDbEntity
  8
0
100
AcDbLine
 62
7
  6
CONTINUOUS
 10
5.8029230769
 20
6.3803305135
 11
5.8029230769
 21
6.3726994498
  0
LINE
  5
2B5
100
AcDbEntity
  8
0
100
AcDbLine
 62
7
  6
CONTINUOUS
 10
5.8029230769
 20
6.3645003423
 11
5.8029230769
 21
6.3563025074
  0
LINE
  5
2B6
100
AcDbEntity
  8
0
100
AcDbLine
 62
7
  6
CONTINUOUS
 10
5.8029230769
 20
6.3475326719
 11
5.8029230769
 21
6.3387997815
  0
LINE
  5
2B7
100
AcDbEntity
  8
0
100
AcDbLine
 62
7
  6
CONTINUOUS
 10
5.8029230769
 20
6.3294931468
 11
5.8029230769
 21
6.3202589869
  0
LINE
  5
2B8
100
AcDbEntity
  8
0
100
AcDbLine
 62
7
  6
CONTINUOUS
 10
5.8029230769
 20
6.3104515586
 11
5.8029230769
 21
6.3007518543
  0
LINE
  5
2B9
100
AcDbEntity
  8
0
100
AcDbLine
 62
7
  6
CONTINUOUS
 10
5.8029230769
 20
6.2904815754
 11
5.8029230769
 21
6.280353853
  0
LINE
  5
2BA
100
AcDbEntity
  8
0
100
AcDbLine
 62
7
  6
CONTINUOUS
 10
5.8029230769
 20
6.2696604572
 11
5.8029230769
 21
6.2591438988
  0
LINE
  5
2BB
100
AcDbEntity
  8
0
100
AcDbLine
 62
7
  6
CONTINUOUS
 10
5.8029230769
 20
6.2480687569
 11
5.8029230769
 21
6.2372040491
  0
LINE
  5
2BC
100
AcDbEntity
  8
0
100
AcDbLine
 62
7
  6
CONTINUOUS
 10
5.8029230769
 20
6.2257900085
 11
5.8029230769
 21
6.2146191848
  0
LINE
  5
2BD
100
AcDbEntity
  8
0
100
AcDbLine
 62
7
  6
CONTINUOUS
 10
5.8029230769
 20
6.2029104042
 11
5.8029230769
 21
6.1914766823
  0
LINE
  5
2BE
100
AcDbEntity
  8
0
100
AcDbLine
 62
7
  6
CONTINUOUS
 10
5.8029230769
 20
6.1795184608
 11
5.8029230769
 21
6.1678660755
  0
LINE
  5
2BF
100
AcDbEntity
  8
0
100
AcDbLine
 62
7
  6
CONTINUOUS
 10
5.8029230769
 20
6.1557046771
 11
5.8029230769
 21
6.1438787092
  0
LINE
  5
2C0
100
AcDbEntity
  8
0
100
AcDbLine
 62
7
  6
CONTINUOUS
 10
5.8029230769
 20
6.131561184
 11
5.8029230769
 21
6.119607386
  0
LINE
  5
2C1
100
AcDbEntity
  8
0
100
AcDbLine
 62
7
  6
CONTINUOUS
 10
5.8029230769
 20
6.1071813881
 11
5.8029230769
 21
6.0951460068
  0
LINE
  5
2C2
100
AcDbEntity
  8
0
100
AcDbLine
 62
7
  6
CONTINUOUS
 10
5.8029230769
 20
6.08265961
 11
5.8029230769
 21
6.070589208
  0
LINE
  5
2C3
100
AcDbEntity
  8
0
100
AcDbLine
 62
7
  6
CONTINUOUS
 10
5.8029230769
 20
6.0580907197
 11
5.8029230769
 21
6.0460319951
  0
LINE
  5
2C4
100
AcDbEntity
  8
0
100
AcDbLine
 62
7
  6
CONTINUOUS
 10
5.8029230769
 20
6.0335697695
 11
5.8029230769
 21
6.021569375
  0
LINE
  5
2C5
100
AcDbEntity
  8
0
100
AcDbLine
 62
7
  6
CONTINUOUS
 10
5.8029230769
 20
6.0091916262
 11
5.8029230769
 21
5.9972959891
  0
LINE
  5
2C6
100
AcDbEntity
  8
0
100
AcDbLine
 62
7
  6
CONTINUOUS
 10
5.8029230769
 20
5.985050604
 11
5.8029230769
 21
5.9733057462
  0
LINE
  5
2C7
100
AcDbEntity
  8
0
100
AcDbLine
 62
7
  6
CONTINUOUS
 10
5.8029230769
 20
5.9612400999
 11
5.8029230769
 21
5.94969146
  0
LINE
  5
2C8
100
AcDbEntity
  8
0
100
AcDbLine
 62
7
  6
CONTINUOUS
 10
5.8029230769
 20
5.9378522322
 11
5.8029230769
 21
5.9265444896
  0
LINE
  5
2C9
100
AcDbEntity
  8
0
100
AcDbLine
 62
7
  6
CONTINUOUS
 10
5.8029230769
 20
5.9149774838
 11
5.8029230769
 21
5.903954386
  0
LINE
  5
2CA
100
AcDbEntity
  8
0
100
AcDbLine
 62
7
  6
CONTINUOUS
 10
5.8029230769
 20
5.8927043529
 11
5.8029230769
 21
5.8820085461
  0
LINE
  5
2CB
100
AcDbEntity
  8
0
100
AcDbLine
 62
7
  6
CONTINUOUS
 10
5.8029230769
 20
5.8711190097
 11
5.8029230769
 21
5.8607918739
  0
LINE
  5
2CC
100
AcDbEntity
  8
0
100
AcDbLine
 62
7
  6
CONTINUOUS
 10
5.8029230769
 20
5.8503049639
 11
5.8029230769
 21
5.8403864527
  0
LINE
  5
2CD
100
AcDbEntity
  8
0
100
AcDbLine
 62
7
  6
CONTINUOUS
 10
5.8029230769
 20
5.8303427408
 11
5.8029230769
 21
5.8208712272
  0
LINE
  5
2CE
100
AcDbEntity
  8
0
100
AcDbLine
 62
7
  6
CONTINUOUS
 10
5.8029230769
 20
5.8113095705
 11
5.8029230769
 21
5.8023216978
  0
LINE
  5
2CF
100
AcDbEntity
  8
0
100
AcDbLine
 62
7
  6
CONTINUOUS
 10
5.8029230769
 20
5.7932790886
 11
5.8029230769
 21
5.7848096292
  0
LINE
  5
2D0
100
AcDbEntity
  8
0
100
AcDbLine
 62
7
  6
CONTINUOUS
 10
5.8029230769
 20
5.7763210516
 11
5.8029230769
 21
5.7684027721
  0
LINE
  5
2D1
100
AcDbEntity
  8
0
100
AcDbLine
 62
7
  6
CONTINUOUS
 10
5.8029230769
 20
5.7605010667
 11
5.8029230769
 21
5.7531646014
  0
LINE
  5
2D2
100
AcDbEntity
  8
0
100
AcDbLine
 62
7
  6
CONTINUOUS
 10
5.8029230769
 20
5.7458803385
 11
5.8029230769
 21
5.7391540708
  0
LINE
  5
2D3
100
AcDbEntity
  8
0
100
AcDbLine
 62
7
  6
CONTINUOUS
 10
5.8029230769
 20
5.7325154316
 11
5.8029230769
 21
5.7264253842
  0
LINE
  5
2D4
100
AcDbEntity
  8
0
100
AcDbLine
 62
7
  6
CONTINUOUS
 10
5.8029230769
 20
5.7204580524
 11
5.8029230769
 21
5.7150277864
  0
LINE
  5
2D5
100
AcDbEntity
  8
0
100
AcDbLine
 62
7
  6
CONTINUOUS
 10
5.8029230769
 20
5.7097548485
 11
5.8029230769
 21
5.7050053725
  0
LINE
  5
2D6
100
AcDbEntity
  8
0
100
AcDbLine
 62
7
  6
CONTINUOUS
 10
5.8029230769
 20
5.7004472284
 11
5.8029230769
 21
5.6963969173
  0
LINE
  5
2D7
100
AcDbEntity
  8
0
100
AcDbLine
 62
7
  6
CONTINUOUS
 10
5.8029230769
 20
5.6925712016
 11
5.8029230769
 21
5.6892357252
  0
LINE
  5
2D8
100
AcDbEntity
  8
0
100
AcDbLine
 62
7
  6
CONTINUOUS
 10
5.8029230769
 20
5.6861572389
 11
5.8029230769
 21
5.6835495016
  0
LINE
  5
2D9
100
AcDbEntity
  8
0
100
AcDbLine
 62
7
  6
CONTINUOUS
 10
5.8029230769
 20
5.6759070431
 11
5.8029230769
 21
5.6755316098
  0
LINE
  5
2DA
100
AcDbEntity
  8
0
100
AcDbLine
 62
7
  6
CONTINUOUS
 10
5.8029230769
 20
5.6812301547
 11
5.8029230769
 21
5.6793602452
  0
LINE
  5
2DB
100
AcDbEntity
  8
0
100
AcDbLine
 62
7
  6
CONTINUOUS
 10
5.8029230769
 20
5.6778090108
 11
5.8029230769
 21
5.6766841636
  0
LINE
  5
2DC
100
AcDbEntity
  8
0
100
AcDbLine
 62
7
  6
CONTINUOUS
 10
5.1652423771
 20
2.3577493671
 11
5.1689280956
 21
2.3684328717
  0
LINE
  5
2DD
100
AcDbEntity
  8
0
100
AcDbLine
 62
7
  6
CONTINUOUS
 10
4.7920905874
 20
2.5466637393
 11
4.7861703217
 21
2.5370370969
  0
LINE
  5
2DE
100
AcDbEntity
  8
0
100
AcDbLine
 62
7
  6
CONTINUOUS
 10
4.6348944502
 20
6.0426226004
 11
4.6425925168
 21
6.0342966282
  0
LINE
  5
2DF
100
AcDbEntity
  8
0
100
AcDbLine
 62
7
  6
CONTINUOUS
 10
4.6339362399
 20
6.0672371301
 11
4.6411072146
 21
6.0584531011
  0
LINE
  5
2E0
100
AcDbEntity
  8
0
100
AcDbLine
 62
7
  6
CONTINUOUS
 10
5.2410341929
 20
6.404479145
 11
5.2371300962
 21
6.4150208482
  0
LINE
  5
2E1
100
AcDbEntity
  8
0
100
AcDbLine
 62
7
  6
CONTINUOUS
 10
5.4080261652
 20
5.9288951578
 11
5.4045160746
 21
5.9396776115
  0
LINE
  5
2E2
100
AcDbEntity
  8
0
100
AcDbLine
 62
7
  6
CONTINUOUS
 10
5.261200224
 20
6.391097348
 11
5.2579524116
 21
6.4018593734
  0
LINE
  5
2E3
100
AcDbEntity
  8
0
100
AcDbLine
 62
7
  6
CONTINUOUS
 10
6.0374230769
 20
6.1302518974
 11
6.0374230769
 21
6.119607386
  0
LINE
  5
2E4
100
AcDbEntity
  8
0
100
AcDbLine
 62
7
  6
CONTINUOUS
 10
6.0374230769
 20
6.1071813881
 11
6.0374230769
 21
6.0951460068
  0
LINE
  5
2E5
100
AcDbEntity
  8
0
100
AcDbLine
 62
7
  6
CONTINUOUS
 10
6.0374230769
 20
6.08265961
 11
6.0374230769
 21
6.070589208
  0
LINE
  5
2E6
100
AcDbEntity
  8
0
100
AcDbLine
 62
7
  6
CONTINUOUS
 10
6.0374230769
 20
6.0580907197
 11
6.0374230769
 21
6.0460319951
  0
LINE
  5
2E7
100
AcDbEntity
  8
0
100
AcDbLine
 62
7
  6
CONTINUOUS
 10
6.0374230769
 20
6.0335697695
 11
6.0374230769
 21
6.021569375
  0
LINE
  5
2E8
100
AcDbEntity
  8
0
100
AcDbLine
 62
7
  6
CONTINUOUS
 10
6.0524230769
 20
6.1279821606
 11
6.0524230769
 21
6.0129821606
  0
LINE
  5
2E9
100
AcDbEntity
  8
0
100
AcDbLine
 62
7
  6
CONTINUOUS
 10
6.0622291789
 20
5.9931319083
 11
6.0622291789
 21
6.1478324151
  0
LINE
  5
2EA
100
AcDbEntity
  8
0
100
AcDbLine
 62
7
  6
CONTINUOUS
 10
6.0722291789
 20
5.9885352585
 11
6.0722291789
 21
6.152429063
  0
LINE
  5
2EB
100
AcDbEntity
  8
0
100
AcDbLine
 62
7
  6
CONTINUOUS
 10
6.0774230769
 20
6.1718308448
 11
6.0774230769
 21
6.1671223103
  0
LINE
  5
2EC
100
AcDbEntity
  8
0
100
AcDbLine
 62
7
  6
CONTINUOUS
 10
6.0774230769
 20
6.1589394552
 11
6.0774230769
 21
6.1529821606
  0
LINE
  5
2ED
100
AcDbEntity
  8
0
100
AcDbLine
 62
7
  6
CONTINUOUS
 10
6.0774230777
 20
5.9730365565
 11
6.0774230769
 21
5.9879821606
  0
LINE
  5
2EE
100
AcDbEntity
  8
0
100
AcDbLine
 62
7
  6
CONTINUOUS
 10
5.2664620795
 20
2.6410220958
 11
5.2703905242
 21
2.6516187515
  0
LINE
  5
2EF
100
AcDbEntity
  8
0
100
AcDbLine
 62
7
  6
CONTINUOUS
 10
5.1437585787
 20
2.3459021914
 11
5.148473716
 21
2.3561729884
  0
LINE
  5
2F0
100
AcDbEntity
  8
0
100
AcDbLine
 62
7
  6
CONTINUOUS
 10
4.6413413954
 20
5.9938034585
 11
4.6500041739
 21
5.9864864707
  0
LINE
  5
2F1
100
AcDbEntity
  8
0
100
AcDbLine
 62
7
  6
CONTINUOUS
 10
4.6373659598
 20
6.0181137269
 11
4.6455619238
 21
6.0102773874
  0
LINE
  5
2F2
100
AcDbEntity
  8
0
100
AcDbLine
 62
7
  6
CONTINUOUS
 10
5.4225886803
 20
5.9759356178
 11
5.4177803047
 21
5.986205066
  0
LINE
  5
2F3
100
AcDbEntity
  8
0
100
AcDbLine
 62
7
  6
CONTINUOUS
 10
5.2200827016
 20
6.4165942727
 11
5.2155371268
 21
6.4268756747
  0
LINE
  5
2F4
100
AcDbEntity
  8
0
100
AcDbLine
 62
7
  6
CONTINUOUS
 10
5.4160319887
 20
5.9521910809
 11
5.4118648538
 21
5.9627370293
  0
LINE
  5
2F5
100
AcDbEntity
  8
0
100
AcDbLine
 62
7
  6
CONTINUOUS
 10
5.2722564634
 20
2.6178896187
 11
5.2772046454
 21
2.6280501937
  0
LINE
  5
2F6
100
AcDbEntity
  8
0
100
AcDbLine
 62
7
  6
CONTINUOUS
 10
4.7909204634
 20
2.5704821606
 11
4.7840851294
 21
2.5614821606
  0
LINE
  5
2F7
100
AcDbEntity
  8
0
100
AcDbLine
 62
7
  6
CONTINUOUS
 10
4.653738092
 20
5.9461464167
 11
4.6632342941
 21
5.9399493054
  0
LINE
  5
2F8
100
AcDbEntity
  8
0
100
AcDbLine
 62
7
  6
CONTINUOUS
 10
4.6468056805
 20
5.9697839908
 11
4.6559024203
 21
5.963014104
  0
LINE
  5
2F9
100
AcDbEntity
  8
0
100
AcDbLine
 62
7
  6
CONTINUOUS
 10
5.1761438465
 20
6.4368457132
 11
5.1703693996
 21
6.4464906725
  0
LINE
  5
2FA
100
AcDbEntity
  8
0
100
AcDbLine
 62
7
  6
CONTINUOUS
 10
5.427671374
 20
6.0000387185
 11
5.4222399933
 21
6.00999272
  0
LINE
  5
2FB
100
AcDbEntity
  8
0
100
AcDbLine
 62
7
  6
CONTINUOUS
 10
5.1984252077
 20
6.4273967847
 11
5.1932553937
 21
6.4373788937
  0
LINE
  5
2FC
100
AcDbEntity
  8
0
100
AcDbLine
 62
7
  6
CONTINUOUS
 10
6.2822291789
 20
6.1529821606
 11
6.2822291789
 21
6.1451809795
  0
LINE
  5
2FD
100
AcDbEntity
  8
0
100
AcDbLine
 62
7
  6
CONTINUOUS
 10
6.2822291789
 20
5.9879821606
 11
6.2822291789
 21
5.9951809795
  0
LINE
  5
2FE
100
AcDbEntity
  8
0
100
AcDbLine
 62
7
  6
CONTINUOUS
 10
6.3999230769
 20
6.1589394552
 11
6.3999230769
 21
6.1529821606
  0
LINE
  5
2FF
100
AcDbEntity
  8
0
100
AcDbLine
 62
7
  6
CONTINUOUS
 10
6.3999230769
 20
5.6755316098
 11
6.3999230769
 21
5.6759070431
  0
LINE
  5
300
100
AcDbEntity
  8
0
100
AcDbLine
 62
7
  6
CONTINUOUS
 10
6.3999230769
 20
5.6793602452
 11
6.3999230769
 21
5.6812301547
  0
LINE
  5
301
100
AcDbEntity
  8
0
100
AcDbLine
 62
7
  6
CONTINUOUS
 10
6.3999230769
 20
5.6766841636
 11
6.3999230769
 21
5.6778090108
  0
LINE
  5
302
100
AcDbEntity
  8
0
100
AcDbLine
 62
7
  6
CONTINUOUS
 10
6.3999230769
 20
5.6835495016
 11
6.3999230769
 21
5.6861572389
  0
LINE
  5
303
100
AcDbEntity
  8
0
100
AcDbLine
 62
7
  6
CONTINUOUS
 10
6.3999230769
 20
5.6963969173
 11
6.3999230769
 21
5.7004472284
  0
LINE
  5
304
100
AcDbEntity
  8
0
100
AcDbLine
 62
7
  6
CONTINUOUS
 10
6.3999230769
 20
5.6892357252
 11
6.3999230769
 21
5.6925712016
  0
LINE
  5
305
100
AcDbEntity
  8
0
100
AcDbLine
 62
7
  6
CONTINUOUS
 10
6.3999230769
 20
5.7050053725
 11
6.3999230769
 21
5.7097548485
  0
LINE
  5
306
100
AcDbEntity
  8
0
100
AcDbLine
 62
7
  6
CONTINUOUS
 10
6.3999230769
 20
5.7150277864
 11
6.3999230769
 21
5.7204580524
  0
LINE
  5
307
100
AcDbEntity
  8
0
100
AcDbLine
 62
7
  6
CONTINUOUS
 10
6.3999230769
 20
5.7264253842
 11
6.3999230769
 21
5.7325154316
  0
LINE
  5
308
100
AcDbEntity
  8
0
100
AcDbLine
 62
7
  6
CONTINUOUS
 10
6.3999230769
 20
5.7391540708
 11
6.3999230769
 21
5.7458803385
  0
LINE
  5
309
100
AcDbEntity
  8
0
100
AcDbLine
 62
7
  6
CONTINUOUS
 10
6.3999230769
 20
5.7531646014
 11
6.3999230769
 21
5.7605010667
  0
LINE
  5
30A
100
AcDbEntity
  8
0
100
AcDbLine
 62
7
  6
CONTINUOUS
 10
6.3999230769
 20
5.7684027721
 11
6.3999230769
 21
5.7763210516
  0
LINE
  5
30B
100
AcDbEntity
  8
0
100
AcDbLine
 62
7
  6
CONTINUOUS
 10
6.3999230769
 20
5.7848096292
 11
6.3999230769
 21
5.7932790886
  0
LINE
  5
30C
100
AcDbEntity
  8
0
100
AcDbLine
 62
7
  6
CONTINUOUS
 10
6.3999230769
 20
5.8023216978
 11
6.3999230769
 21
5.8113095705
  0
LINE
  5
30D
100
AcDbEntity
  8
0
100
AcDbLine
 62
7
  6
CONTINUOUS
 10
6.3999230769
 20
5.8208712272
 11
6.3999230769
 21
5.8303427408
  0
LINE
  5
30E
100
AcDbEntity
  8
0
100
AcDbLine
 62
7
  6
CONTINUOUS
 10
6.3999230769
 20
5.8403864527
 11
6.3999230769
 21
5.8503049639
  0
LINE
  5
30F
100
AcDbEntity
  8
0
100
AcDbLine
 62
7
  6
CONTINUOUS
 10
6.3999230769
 20
5.8607918739
 11
6.3999230769
 21
5.8711190097
  0
LINE
  5
310
100
AcDbEntity
  8
0
100
AcDbLine
 62
7
  6
CONTINUOUS
 10
6.3999230769
 20
5.8820085461
 11
6.3999230769
 21
5.8927043529
  0
LINE
  5
311
100
AcDbEntity
  8
0
100
AcDbLine
 62
7
  6
CONTINUOUS
 10
6.3999230769
 20
5.903954386
 11
6.3999230769
 21
5.9149774838
  0
LINE
  5
312
100
AcDbEntity
  8
0
100
AcDbLine
 62
7
  6
CONTINUOUS
 10
6.3999230769
 20
5.9265444896
 11
6.3999230769
 21
5.9378522322
  0
LINE
  5
313
100
AcDbEntity
  8
0
100
AcDbLine
 62
7
  6
CONTINUOUS
 10
6.3999230769
 20
5.94969146
 11
6.3999230769
 21
5.9612400999
  0
LINE
  5
314
100
AcDbEntity
  8
0
100
AcDbLine
 62
7
  6
CONTINUOUS
 10
6.3999230769
 20
5.9730365565
 11
6.3999230769
 21
5.9879821606
  0
LINE
  5
315
100
AcDbEntity
  8
0
100
AcDbLine
 62
7
  6
CONTINUOUS
 10
6.3999230769
 20
6.1671223103
 11
6.3999230769
 21
6.1795184608
  0
LINE
  5
316
100
AcDbEntity
  8
0
100
AcDbLine
 62
7
  6
CONTINUOUS
 10
6.3999230769
 20
6.1914766823
 11
6.3999230769
 21
6.2029104042
  0
LINE
  5
317
100
AcDbEntity
  8
0
100
AcDbLine
 62
7
  6
CONTINUOUS
 10
6.3999230769
 20
6.2146191848
 11
6.3999230769
 21
6.2257900085
  0
LINE
  5
318
100
AcDbEntity
  8
0
100
AcDbLine
 62
7
  6
CONTINUOUS
 10
6.3999230769
 20
6.2372040491
 11
6.3999230769
 21
6.2480687569
  0
LINE
  5
319
100
AcDbEntity
  8
0
100
AcDbLine
 62
7
  6
CONTINUOUS
 10
6.3999230769
 20
6.2591438988
 11
6.3999230769
 21
6.2696604572
  0
LINE
  5
31A
100
AcDbEntity
  8
0
100
AcDbLine
 62
7
  6
CONTINUOUS
 10
6.3999230769
 20
6.280353853
 11
6.3999230769
 21
6.2904815754
  0
LINE
  5
31B
100
AcDbEntity
  8
0
100
AcDbLine
 62
7
  6
CONTINUOUS
 10
6.3999230769
 20
6.3007518543
 11
6.3999230769
 21
6.3104515586
  0
LINE
  5
31C
100
AcDbEntity
  8
0
100
AcDbLine
 62
7
  6
CONTINUOUS
 10
6.3999230769
 20
6.3202589869
 11
6.3999230769
 21
6.3294931468
  0
LINE
  5
31D
100
AcDbEntity
  8
0
100
AcDbLine
 62
7
  6
CONTINUOUS
 10
6.3999230769
 20
6.3387997815
 11
6.3999230769
 21
6.3475326719
  0
LINE
  5
31E
100
AcDbEntity
  8
0
100
AcDbLine
 62
7
  6
CONTINUOUS
 10
6.3999230769
 20
6.3563025074
 11
6.3999230769
 21
6.3645003423
  0
LINE
  5
31F
100
AcDbEntity
  8
0
100
AcDbLine
 62
7
  6
CONTINUOUS
 10
6.3999230769
 20
6.3726994498
 11
6.3999230769
 21
6.3803305135
  0
LINE
  5
320
100
AcDbEntity
  8
0
100
AcDbLine
 62
7
  6
CONTINUOUS
 10
6.3999230769
 20
6.3879271723
 11
6.3999230769
 21
6.3949619416
  0
LINE
  5
321
100
AcDbEntity
  8
0
100
AcDbLine
 62
7
  6
CONTINUOUS
 10
6.3999230769
 20
6.4019267617
 11
6.3999230769
 21
6.4083380205
  0
LINE
  5
322
100
AcDbEntity
  8
0
100
AcDbLine
 62
7
  6
CONTINUOUS
 10
6.3999230769
 20
6.4146440563
 11
6.3999230769
 21
6.4204070007
  0
LINE
  5
323
100
AcDbEntity
  8
0
100
AcDbLine
 62
7
  6
CONTINUOUS
 10
6.3999230769
 20
6.4260298554
 11
6.3999230769
 21
6.4311221897
  0
LINE
  5
324
100
AcDbEntity
  8
0
100
AcDbLine
 62
7
  6
CONTINUOUS
 10
6.3999230769
 20
6.444636091
 11
6.3999230769
 21
6.4483307719
  0
LINE
  5
325
100
AcDbEntity
  8
0
100
AcDbLine
 62
7
  6
CONTINUOUS
 10
6.3999230769
 20
6.4360401095
 11
6.3999230769
 21
6.4404421324
  0
LINE
  5
326
100
AcDbEntity
  8
0
100
AcDbLine
 62
7
  6
CONTINUOUS
 10
6.3999230769
 20
6.4574578113
 11
6.3999230769
 21
6.4596977182
  0
LINE
  5
327
100
AcDbEntity
  8
0
100
AcDbLine
 62
7
  6
CONTINUOUS
 10
6.3999230769
 20
6.4517845436
 11
6.3999230769
 21
6.4547575885
  0
LINE
  5
328
100
AcDbEntity
  8
0
100
AcDbLine
 62
7
  6
CONTINUOUS
 10
6.3999230769
 20
6.4642967893
 11
6.3999230769
 21
6.4650472925
  0
LINE
  5
329
100
AcDbEntity
  8
0
100
AcDbLine
 62
7
  6
CONTINUOUS
 10
6.3999230769
 20
6.4616339454
 11
6.3999230769
 21
6.4631320484
  0
LINE
  5
32A
100
AcDbEntity
  8
0
100
AcDbLine
 62
7
  6
CONTINUOUS
 10
5.1212170044
 20
2.3362178435
 11
5.1269161511
 21
2.3459770196
  0
LINE
  5
32B
100
AcDbEntity
  8
0
100
AcDbLine
 62
7
  6
CONTINUOUS
 10
5.2757555665
 20
2.5943005818
 11
5.2816758321
 21
2.6039272242
  0
LINE
  5
32C
100
AcDbEntity
  8
0
100
AcDbLine
 62
7
  6
CONTINUOUS
 10
4.7920905874
 20
2.5943005818
 11
4.7844060132
 21
2.5860138992
  0
LINE
  5
32D
100
AcDbEntity
  8
0
100
AcDbLine
 62
7
  6
CONTINUOUS
 10
4.6718966623
 20
5.9003737388
 11
4.6820823689
 21
5.8953904242
  0
LINE
  5
32E
100
AcDbEntity
  8
0
100
AcDbLine
 62
7
  6
CONTINUOUS
 10
4.6621123389
 20
5.9229803806
 11
4.6719719894
 21
5.9173795472
  0
LINE
  5
32F
100
AcDbEntity
  8
0
100
AcDbLine
 62
7
  6
CONTINUOUS
 10
5.130049572
 20
6.4515447498
 11
5.1231337672
 21
6.4604070927
  0
LINE
  5
330
100
AcDbEntity
  8
0
100
AcDbLine
 62
7
  6
CONTINUOUS
 10
5.4333433274
 20
6.0489539581
 11
5.426730016
 21
6.0581651553
  0
LINE
  5
331
100
AcDbEntity
  8
0
100
AcDbLine
 62
7
  6
CONTINUOUS
 10
5.153323119
 20
6.4449052233
 11
5.1469659385
 21
6.4541764548
  0
LINE
  5
332
100
AcDbEntity
  8
0
100
AcDbLine
 62
7
  6
CONTINUOUS
 10
5.431260794
 20
6.024408973
 11
5.4252270065
 21
6.0340097777
  0
LINE
  5
333
100
AcDbEntity
  8
0
100
AcDbLine
 62
7
  6
CONTINUOUS
 10
6.4022291789
 20
5.9951809795
 11
6.4022291789
 21
6.1451809795
  0
LINE
  5
334
100
AcDbEntity
  8
0
100
AcDbLine
 62
7
  6
CONTINUOUS
 10
6.4122291789
 20
6.0051809795
 11
6.4122291789
 21
6.1351809795
  0
LINE
  5
335
100
AcDbEntity
  8
0
100
AcDbLine
 62
7
  6
CONTINUOUS
 10
6.4149230769
 20
5.6904821606
 11
6.4149230769
 21
5.9729821606
  0
LINE
  5
336
100
AcDbEntity
  8
0
100
AcDbLine
 62
7
  6
CONTINUOUS
 10
6.4149230769
 20
6.1679821606
 11
6.4149230769
 21
6.4504821606
  0
LINE
  5
337
100
AcDbEntity
  8
0
100
AcDbLine
 62
7
  6
CONTINUOUS
 10
5.0978347419
 20
2.3287895891
 11
5.1044630122
 21
2.337943158
  0
LINE
  5
338
100
AcDbEntity
  8
0
100
AcDbLine
 62
7
  6
CONTINUOUS
 10
5.2769256905
 20
2.5704821606
 11
5.2837610244
 21
2.5794821606
  0
LINE
  5
339
100
AcDbEntity
  8
0
100
AcDbLine
 62
7
  6
CONTINUOUS
 10
4.7955896905
 20
2.6178896187
 11
4.7871298827
 21
2.6103960587
  0
LINE
  5
33A
100
AcDbEntity
  8
0
100
AcDbLine
 62
7
  6
CONTINUOUS
 10
4.7093131513
 20
5.8367549773
 11
4.7202410432
 21
5.8337278962
  0
LINE
  5
33B
100
AcDbEntity
  8
0
100
AcDbLine
 62
7
  6
CONTINUOUS
 10
4.6955419053
 20
5.8571791303
 11
4.7062627473
 21
5.8534851366
  0
LINE
  5
33C
100
AcDbEntity
  8
0
100
AcDbLine
 62
7
  6
CONTINUOUS
 10
4.6830539557
 20
5.878412226
 11
4.6935270894
 21
5.8740653291
  0
LINE
  5
33D
100
AcDbEntity
  8
0
100
AcDbLine
 62
7
  6
CONTINUOUS
 10
5.4329618879
 20
6.0981954672
 11
5.4252668734
 21
6.1065242603
  0
LINE
  5
33E
100
AcDbEntity
  8
0
100
AcDbLine
 62
7
  6
CONTINUOUS
 10
5.1064114692
 20
6.4567391126
 11
5.0989632681
 21
6.4651589568
  0
LINE
  5
33F
100
AcDbEntity
  8
0
100
AcDbLine
 62
7
  6
CONTINUOUS
 10
5.4339110764
 20
6.073580588
 11
5.4267433218
 21
6.0823672447
  0
LINE
  5
340
100
AcDbEntity
  8
0
100
AcDbLine
 62
7
  6
CONTINUOUS
 10
5.073836975
 20
2.3236889663
 11
5.081330535
 21
2.3321487741
  0
LINE
  5
341
100
AcDbEntity
  8
0
100
AcDbLine
 62
7
  6
CONTINUOUS
 10
5.2757555665
 20
2.5466637393
 11
5.2834401407
 21
2.5549504219
  0
LINE
  5
342
100
AcDbEntity
  8
0
100
AcDbLine
 62
7
  6
CONTINUOUS
 10
4.8013840743
 20
2.6410220958
 11
4.7922305055
 21
2.6343938255
  0
LINE
  5
343
100
AcDbEntity
  8
0
100
AcDbLine
 62
7
  6
CONTINUOUS
 10
4.8094179359
 20
2.6634752348
 11
4.7996587599
 21
2.657776088
  0
LINE
  5
344
100
AcDbEntity
  8
0
100
AcDbLine
 62
7
  6
CONTINUOUS
 10
5.2985539427
 20
5.7799318123
 11
5.3097614421
 21
5.7808044149
  0
LINE
  5
345
100
AcDbEntity
  8
0
100
AcDbLine
 62
7
  6
CONTINUOUS
 10
4.7954321264
 20
5.7493559136
 11
4.8067634567
 21
5.7497836933
  0
LINE
  5
346
100
AcDbEntity
  8
0
100
AcDbLine
 62
7
  6
CONTINUOUS
 10
5.2801676835
 20
5.7641937446
 11
5.2914076428
 21
5.7643748291
  0
LINE
  5
347
100
AcDbEntity
  8
0
100
AcDbLine
 62
7
  6
CONTINUOUS
 10
5.758053975
 20
5.6775515552
 11
5.2526730769
 21
5.6731411629
  0
LINE
  5
348
100
AcDbEntity
  8
0
100
AcDbLine
 62
7
  6
CONTINUOUS
 10
6.3999230777
 20
5.6755316098
 11
5.8029230496
 21
5.6755316098
  0
LINE
  5
349
100
AcDbEntity
  8
0
100
AcDbLine
 62
7
  6
CONTINUOUS
 10
6.3999231057
 20
5.6759070431
 11
5.8029230774
 21
5.6759070431
  0
LINE
  5
34A
100
AcDbEntity
  8
0
100
AcDbLine
 62
7
  6
CONTINUOUS
 10
6.3999230779
 20
5.6766841636
 11
5.8029230497
 21
5.6766841636
  0
LINE
  5
34B
100
AcDbEntity
  8
0
100
AcDbLine
 62
7
  6
CONTINUOUS
 10
6.3999231057
 20
5.6778090108
 11
5.8029230769
 21
5.6778090108
  0
LINE
  5
34C
100
AcDbEntity
  8
0
100
AcDbLine
 62
7
  6
CONTINUOUS
 10
6.399923079
 20
5.6793602452
 11
5.8029230497
 21
5.6793602452
  0
LINE
  5
34D
100
AcDbEntity
  8
0
100
AcDbLine
 62
7
  6
CONTINUOUS
 10
6.3999231057
 20
5.6812301547
 11
5.8029230815
 21
5.6812301547
  0
LINE
  5
34E
100
AcDbEntity
  8
0
100
AcDbLine
 62
7
  6
CONTINUOUS
 10
6.3999230777
 20
5.6835495016
 11
5.8029230259
 21
5.6835495016
  0
LINE
  5
34F
100
AcDbEntity
  8
0
100
AcDbLine
 62
7
  6
CONTINUOUS
 10
6.3999231057
 20
5.6861572389
 11
5.8029230861
 21
5.6861572389
  0
LINE
  5
350
100
AcDbEntity
  8
0
100
AcDbLine
 62
7
  6
CONTINUOUS
 10
6.3999230786
 20
5.6892357252
 11
5.8029230497
 21
5.6892357252
  0
LINE
  5
351
100
AcDbEntity
  8
0
100
AcDbLine
 62
7
  6
CONTINUOUS
 10
6.3999231057
 20
5.6925712016
 11
5.8029230779
 21
5.6925712016
  0
LINE
  5
352
100
AcDbEntity
  8
0
100
AcDbLine
 62
7
  6
CONTINUOUS
 10
6.3999230781
 20
5.6963969173
 11
5.8029230497
 21
5.6963969173
  0
LINE
  5
353
100
AcDbEntity
  8
0
100
AcDbLine
 62
7
  6
CONTINUOUS
 10
6.3999231057
 20
5.7004472284
 11
5.8029230764
 21
5.7004472284
  0
LINE
  5
354
100
AcDbEntity
  8
0
100
AcDbLine
 62
7
  6
CONTINUOUS
 10
6.3999230778
 20
5.7050053725
 11
5.8029230497
 21
5.7050053725
  0
LINE
  5
355
100
AcDbEntity
  8
0
100
AcDbLine
 62
7
  6
CONTINUOUS
 10
6.3999231057
 20
5.7097548485
 11
5.8029230785
 21
5.7097548485
  0
LINE
  5
356
100
AcDbEntity
  8
0
100
AcDbLine
 62
7
  6
CONTINUOUS
 10
6.3999230782
 20
5.7150277864
 11
5.8029230497
 21
5.7150277864
  0
LINE
  5
357
100
AcDbEntity
  8
0
100
AcDbLine
 62
7
  6
CONTINUOUS
 10
6.3999231057
 20
5.7204580524
 11
5.8029230788
 21
5.7204580524
  0
LINE
  5
358
100
AcDbEntity
  8
0
100
AcDbLine
 62
7
  6
CONTINUOUS
 10
6.3999230779
 20
5.7264253842
 11
5.8029230497
 21
5.7264253842
  0
LINE
  5
359
100
AcDbEntity
  8
0
100
AcDbLine
 62
7
  6
CONTINUOUS
 10
5.7879230769
 20
5.7319821606
 11
5.7729230769
 21
5.7319821606
  0
LINE
  5
35A
100
AcDbEntity
  8
0
100
AcDbLine
 62
7
  6
CONTINUOUS
 10
6.3999231057
 20
5.7325154316
 11
5.8029230779
 21
5.7325154316
  0
LINE
  5
35B
100
AcDbEntity
  8
0
100
AcDbLine
 62
7
  6
CONTINUOUS
 10
6.3999230779
 20
5.7391540708
 11
5.8029230497
 21
5.7391540708
  0
LINE
  5
35C
100
AcDbEntity
  8
0
100
AcDbLine
 62
7
  6
CONTINUOUS
 10
6.3999231057
 20
5.7458803385
 11
5.8029230782
 21
5.7458803385
  0
LINE
  5
35D
100
AcDbEntity
  8
0
100
AcDbLine
 62
7
  6
CONTINUOUS
 10
6.3999230778
 20
5.7531646014
 11
5.8029230497
 21
5.7531646014
  0
LINE
  5
35E
100
AcDbEntity
  8
0
100
AcDbLine
 62
7
  6
CONTINUOUS
 10
6.3999231057
 20
5.7605010667
 11
5.8029230779
 21
5.7605010667
  0
LINE
  5
35F
100
AcDbEntity
  8
0
100
AcDbLine
 62
7
  6
CONTINUOUS
 10
6.3999230779
 20
5.7684027721
 11
5.8029230497
 21
5.7684027721
  0
LINE
  5
360
100
AcDbEntity
  8
0
100
AcDbLine
 62
7
  6
CONTINUOUS
 10
6.3999231057
 20
5.7763210516
 11
5.8029230785
 21
5.7763210516
  0
LINE
  5
361
100
AcDbEntity
  8
0
100
AcDbLine
 62
7
  6
CONTINUOUS
 10
6.3999230777
 20
5.7848096292
 11
5.8029230497
 21
5.7848096292
  0
LINE
  5
362
100
AcDbEntity
  8
0
100
AcDbLine
 62
7
  6
CONTINUOUS
 10
6.3999231057
 20
5.7932790886
 11
5.8029230772
 21
5.7932790886
  0
LINE
  5
363
100
AcDbEntity
  8
0
100
AcDbLine
 62
7
  6
CONTINUOUS
 10
4.7761178405
 20
5.7646448508
 11
4.7874540154
 21
5.7643743336
  0
LINE
  5
364
100
AcDbEntity
  8
0
100
AcDbLine
 62
7
  6
CONTINUOUS
 10
5.2608475519
 20
5.7496172627
 11
5.2720773441
 21
5.7491061424
  0
LINE
  5
365
100
AcDbEntity
  8
0
100
AcDbLine
 62
7
  6
CONTINUOUS
 10
4.7577812701
 20
5.781093663
 11
4.7690792977
 21
5.7801258749
  0
LINE
  5
366
100
AcDbEntity
  8
0
100
AcDbLine
 62
7
  6
CONTINUOUS
 10
4.7404919558
 20
5.7986399689
 11
4.7517089888
 21
5.7969785802
  0
LINE
  5
367
100
AcDbEntity
  8
0
100
AcDbLine
 62
7
  6
CONTINUOUS
 10
4.7243154666
 20
5.8172172249
 11
4.7354089649
 21
5.8148685362
  0
LINE
  5
368
100
AcDbEntity
  8
0
100
AcDbLine
 62
7
  6
CONTINUOUS
 10
5.4265328363
 20
6.1470169688
 11
5.4178727402
 21
6.1543371312
  0
LINE
  5
369
100
AcDbEntity
  8
0
100
AcDbLine
 62
7
  6
CONTINUOUS
 10
5.0584012253
 20
6.4627191046
 11
5.0499748844
 21
6.4701599551
  0
LINE
  5
36A
100
AcDbEntity
  8
0
100
AcDbLine
 62
7
  6
CONTINUOUS
 10
5.4304993615
 20
6.1227052449
 11
5.4223062702
 21
6.1305445879
  0
LINE
  5
36B
100
AcDbEntity
  8
0
100
AcDbLine
 62
7
  6
CONTINUOUS
 10
5.0824984573
 20
6.4604686121
 11
5.0745461068
 21
6.4684140259
  0
LINE
  5
36C
100
AcDbEntity
  8
0
100
AcDbLine
 62
7
  6
CONTINUOUS
 10
5.0494548155
 20
2.3209650968
 11
5.0577414982
 21
2.328649671
  0
LINE
  5
36D
100
AcDbEntity
  8
0
100
AcDbLine
 62
7
  6
CONTINUOUS
 10
5.2722564634
 20
2.5230747024
 11
5.2807162712
 21
2.5305682625
  0
LINE
  5
36E
100
AcDbEntity
  8
0
100
AcDbLine
 62
7
  6
CONTINUOUS
 10
4.8151730769
 20
2.6829940958
 11
4.8093431078
 21
2.6803176623
  0
LINE
  5
36F
100
AcDbEntity
  8
0
100
AcDbLine
 62
7
  6
CONTINUOUS
 10
5.3474314765
 20
5.8334980188
 11
5.3582878694
 21
5.8364149023
  0
LINE
  5
370
100
AcDbEntity
  8
0
100
AcDbLine
 62
7
  6
CONTINUOUS
 10
5.3322497342
 20
5.8146497827
 11
5.343265086
 21
5.8168928835
  0
LINE
  5
371
100
AcDbEntity
  8
0
100
AcDbLine
 62
7
  6
CONTINUOUS
 10
5.3159366006
 20
5.79677178
 11
5.3270691361
 21
5.7983325914
  0
LINE
  5
372
100
AcDbEntity
  8
0
100
AcDbLine
 62
7
  6
CONTINUOUS
 10
6.3999230778
 20
5.8023216978
 11
5.8029230497
 21
5.8023216978
  0
LINE
  5
373
100
AcDbEntity
  8
0
100
AcDbLine
 62
7
  6
CONTINUOUS
 10
6.3999231057
 20
5.8113095705
 11
5.8029230782
 21
5.8113095705
  0
LINE
  5
374
100
AcDbEntity
  8
0
100
AcDbLine
 62
7
  6
CONTINUOUS
 10
6.3999230777
 20
5.8208712272
 11
5.8029230497
 21
5.8208712272
  0
LINE
  5
375
100
AcDbEntity
  8
0
100
AcDbLine
 62
7
  6
CONTINUOUS
 10
6.3999231057
 20
5.8303427408
 11
5.802923078
 21
5.8303427408
  0
LINE
  5
376
100
AcDbEntity
  8
0
100
AcDbLine
 62
7
  6
CONTINUOUS
 10
6.4129122507
 20
5.839798731
 11
5.7899339032
 21
5.839798731
  0
LINE
  5
377
100
AcDbEntity
  8
0
100
AcDbLine
 62
7
  6
CONTINUOUS
 10
6.3999230785
 20
5.8403864527
 11
5.8029230497
 21
5.8403864527
  0
LINE
  5
378
100
AcDbEntity
  8
0
100
AcDbLine
 62
7
  6
CONTINUOUS
 10
6.3999231057
 20
5.8503049639
 11
5.8029230781
 21
5.8503049639
  0
LINE
  5
379
100
AcDbEntity
  8
0
100
AcDbLine
 62
7
  6
CONTINUOUS
 10
6.4129122507
 20
5.8596019019
 11
5.7899339032
 21
5.8596019019
  0
LINE
  5
37A
100
AcDbEntity
  8
0
100
AcDbLine
 62
7
  6
CONTINUOUS
 10
6.3999230779
 20
5.8607918739
 11
5.8029230497
 21
5.8607918739
  0
LINE
  5
37B
100
AcDbEntity
  8
0
100
AcDbLine
 62
7
  6
CONTINUOUS
 10
6.3999231057
 20
5.8711190097
 11
5.8029230783
 21
5.8711190097
  0
LINE
  5
37C
100
AcDbEntity
  8
0
100
AcDbLine
 62
7
  6
CONTINUOUS
 10
6.4129122507
 20
5.8802209276
 11
5.7899339032
 21
5.8802209276
  0
LINE
  5
37D
100
AcDbEntity
  8
0
100
AcDbLine
 62
7
  6
CONTINUOUS
 10
6.3999230783
 20
5.8820085461
 11
5.8029230497
 21
5.8820085461
  0
LINE
  5
37E
100
AcDbEntity
  8
0
100
AcDbLine
 62
7
  6
CONTINUOUS
 10
6.3999231057
 20
5.8927043529
 11
5.802923074
 21
5.8927043529
  0
LINE
  5
37F
100
AcDbEntity
  8
0
100
AcDbLine
 62
7
  6
CONTINUOUS
 10
6.4129122507
 20
5.9015760371
 11
5.7899339032
 21
5.9015760371
  0
LINE
  5
380
100
AcDbEntity
  8
0
100
AcDbLine
 62
7
  6
CONTINUOUS
 10
6.3999230782
 20
5.903954386
 11
5.8029230497
 21
5.903954386
  0
LINE
  5
381
100
AcDbEntity
  8
0
100
AcDbLine
 62
7
  6
CONTINUOUS
 10
6.3999231057
 20
5.9149774838
 11
5.802923078
 21
5.9149774838
  0
LINE
  5
382
100
AcDbEntity
  8
0
100
AcDbLine
 62
7
  6
CONTINUOUS
 10
6.4129122507
 20
5.9235846115
 11
5.7899339032
 21
5.9235846115
  0
LINE
  5
383
100
AcDbEntity
  8
0
100
AcDbLine
 62
7
  6
CONTINUOUS
 10
6.3999230786
 20
5.9265444896
 11
5.8029230497
 21
5.9265444896
  0
LINE
  5
384
100
AcDbEntity
  8
0
100
AcDbLine
 62
7
  6
CONTINUOUS
 10
6.3999231057
 20
5.9378522322
 11
5.8029230772
 21
5.9378522322
  0
LINE
  5
385
100
AcDbEntity
  8
0
100
AcDbLine
 62
7
  6
CONTINUOUS
 10
6.4129122507
 20
5.946161504
 11
5.7899339032
 21
5.946161504
  0
LINE
  5
386
100
AcDbEntity
  8
0
100
AcDbLine
 62
7
  6
CONTINUOUS
 10
6.3999230778
 20
5.94969146
 11
5.8029230497
 21
5.94969146
  0
LINE
  5
387
100
AcDbEntity
  8
0
100
AcDbLine
 62
7
  6
CONTINUOUS
 10
5.4141536078
 20
6.194678551
 11
5.4046596777
 21
6.2008791424
  0
LINE
  5
388
100
AcDbEntity
  8
0
100
AcDbLine
 62
7
  6
CONTINUOUS
 10
5.0097324598
 20
6.4627369426
 11
5.0004510326
 21
6.4690792281
  0
LINE
  5
389
100
AcDbEntity
  8
0
100
AcDbLine
 62
7
  6
CONTINUOUS
 10
5.4210773551
 20
6.1710384376
 11
5.4119830972
 21
6.1778116581
  0
LINE
  5
38A
100
AcDbEntity
  8
0
100
AcDbLine
 62
7
  6
CONTINUOUS
 10
5.0339230769
 20
6.4634821606
 11
5.0250496407
 21
6.4703837261
  0
LINE
  5
38B
100
AcDbEntity
  8
0
100
AcDbLine
 62
7
  6
CONTINUOUS
 10
5.0249230769
 20
2.3206442131
 11
5.0339230769
 21
2.327479547
  0
LINE
  5
38C
100
AcDbEntity
  8
0
100
AcDbLine
 62
7
  6
CONTINUOUS
 10
5.2664620795
 20
2.4999422253
 11
5.2756156484
 21
2.5065704956
  0
LINE
  5
38D
100
AcDbEntity
  8
0
100
AcDbLine
 62
7
  6
CONTINUOUS
 10
6.3999231057
 20
5.9612400999
 11
5.8029230784
 21
5.9612400999
  0
LINE
  5
38E
100
AcDbEntity
  8
0
100
AcDbLine
 62
7
  6
CONTINUOUS
 10
6.4129122507
 20
5.9692193689
 11
5.7899339032
 21
5.9692193689
  0
LINE
  5
38F
100
AcDbEntity
  8
0
100
AcDbLine
 62
7
  6
CONTINUOUS
 10
6.3999230769
 20
5.9730365565
 11
6.0774230777
 21
5.9730365565
  0
LINE
  5
390
100
AcDbEntity
  8
0
100
AcDbLine
 62
7
  6
CONTINUOUS
 10
6.0599868767
 20
5.9733057404
 11
5.8029230497
 21
5.9733057462
  0
LINE
  5
391
100
AcDbEntity
  8
0
100
AcDbLine
 62
7
  6
CONTINUOUS
 10
6.0460376908
 20
5.985050604
 11
5.8029230784
 21
5.985050604
  0
LINE
  5
392
100
AcDbEntity
  8
0
100
AcDbLine
 62
7
  6
CONTINUOUS
 10
6.3999230769
 20
5.9879821606
 11
6.0774230769
 21
5.9879821606
  0
LINE
  5
393
100
AcDbEntity
  8
0
100
AcDbLine
 62
7
  6
CONTINUOUS
 10
6.057764369
 20
5.992669
 11
5.7899339032
 21
5.992669
  0
LINE
  5
394
100
AcDbEntity
  8
0
100
AcDbLine
 62
7
  6
CONTINUOUS
 10
6.0722291789
 20
5.9951809795
 11
6.4022291789
 21
5.9951809795
  0
LINE
  5
395
100
AcDbEntity
  8
0
100
AcDbLine
 62
7
  6
CONTINUOUS
 10
6.0395000786
 20
5.9972960032
 11
5.8029230497
 21
5.9972959891
  0
LINE
  5
396
100
AcDbEntity
  8
0
100
AcDbLine
 62
7
  6
CONTINUOUS
 10
6.0622291789
 20
6.0051809795
 11
6.4122291789
 21
6.0051809795
  0
LINE
  5
397
100
AcDbEntity
  8
0
100
AcDbLine
 62
7
  6
CONTINUOUS
 10
6.0374586876
 20
6.0091916262
 11
5.802923077
 21
6.0091916262
  0
LINE
  5
398
100
AcDbEntity
  8
0
100
AcDbLine
 62
7
  6
CONTINUOUS
 10
6.0504122507
 20
6.016419675
 11
5.7899339032
 21
6.016419675
  0
LINE
  5
399
100
AcDbEntity
  8
0
100
AcDbLine
 62
7
  6
CONTINUOUS
 10
6.0374230784
 20
6.021569375
 11
5.8029230497
 21
6.021569375
  0
LINE
  5
39A
100
AcDbEntity
  8
0
100
AcDbLine
 62
7
  6
CONTINUOUS
 10
6.0374231057
 20
6.0335697695
 11
5.8029230773
 21
6.0335697695
  0
LINE
  5
39B
100
AcDbEntity
  8
0
100
AcDbLine
 62
7
  6
CONTINUOUS
 10
6.0504122507
 20
6.0403795073
 11
5.7899339032
 21
6.0403795073
  0
LINE
  5
39C
100
AcDbEntity
  8
0
100
AcDbLine
 62
7
  6
CONTINUOUS
 10
6.0374230787
 20
6.0460319951
 11
5.8029230497
 21
6.0460319951
  0
LINE
  5
39D
100
AcDbEntity
  8
0
100
AcDbLine
 62
7
  6
CONTINUOUS
 10
6.0374231057
 20
6.0580907197
 11
5.8029230781
 21
6.0580907197
  0
LINE
  5
39E
100
AcDbEntity
  8
0
100
AcDbLine
 62
7
  6
CONTINUOUS
 10
6.0504122507
 20
6.0644558009
 11
5.7899339032
 21
6.0644558009
  0
LINE
  5
39F
100
AcDbEntity
  8
0
100
AcDbLine
 62
7
  6
CONTINUOUS
 10
6.0374230791
 20
6.070589208
 11
5.802923052
 21
6.070589208
  0
LINE
  5
3A0
100
AcDbEntity
  8
0
100
AcDbLine
 62
7
  6
CONTINUOUS
 10
6.0374231057
 20
6.08265961
 11
5.8029230781
 21
6.08265961
  0
LINE
  5
3A1
100
AcDbEntity
  8
0
100
AcDbLine
 62
7
  6
CONTINUOUS
 10
6.0504122507
 20
6.0885554093
 11
5.7899339032
 21
6.0885554093
  0
LINE
  5
3A2
100
AcDbEntity
  8
0
100
AcDbLine
 62
7
  6
CONTINUOUS
 10
6.0374230787
 20
6.0951460068
 11
5.8029230497
 21
6.0951460068
  0
LINE
  5
3A3
100
AcDbEntity
  8
0
100
AcDbLine
 62
7
  6
CONTINUOUS
 10
6.0374231057
 20
6.1071813881
 11
5.8029230771
 21
6.1071813881
  0
LINE
  5
3A4
100
AcDbEntity
  8
0
100
AcDbLine
 62
7
  6
CONTINUOUS
 10
6.0504122507
 20
6.1125850959
 11
5.7899339032
 21
6.1125850959
  0
LINE
  5
3A5
100
AcDbEntity
  8
0
100
AcDbLine
 62
7
  6
CONTINUOUS
 10
5.3848625719
 20
6.262423482
 11
5.3743910321
 21
6.2667742172
  0
LINE
  5
3A6
100
AcDbEntity
  8
0
100
AcDbLine
 62
7
  6
CONTINUOUS
 10
4.9380759412
 20
6.4516151119
 11
4.9277872536
 21
6.4561441719
  0
LINE
  5
3A7
100
AcDbEntity
  8
0
100
AcDbLine
 62
7
  6
CONTINUOUS
 10
5.3960118152
 20
6.2404578813
 11
5.3858279358
 21
6.2454449288
  0
LINE
  5
3A8
100
AcDbEntity
  8
0
100
AcDbLine
 62
7
  6
CONTINUOUS
 10
4.9617178452
 20
6.4567921456
 11
4.9517274479
 21
6.4619459246
  0
LINE
  5
3A9
100
AcDbEntity
  8
0
100
AcDbLine
 62
7
  6
CONTINUOUS
 10
5.4057878522
 20
6.2178476548
 11
5.3959302552
 21
6.2234521016
  0
LINE
  5
3AA
100
AcDbEntity
  8
0
100
AcDbLine
 62
7
  6
CONTINUOUS
 10
4.9856335846
 20
6.460504115
 11
4.9759793657
 21
6.4662630675
  0
LINE
  5
3AB
100
AcDbEntity
  8
0
100
AcDbLine
 62
7
  6
CONTINUOUS
 10
5.0004780132
 20
2.3227294053
 11
5.0101046557
 21
2.328649671
  0
LINE
  5
3AC
100
AcDbEntity
  8
0
100
AcDbLine
 62
7
  6
CONTINUOUS
 10
5.2584282179
 20
2.4774890863
 11
5.2681873939
 21
2.4831882331
  0
LINE
  5
3AD
100
AcDbEntity
  8
0
100
AcDbLine
 62
7
  6
CONTINUOUS
 10
4.9763550438
 20
2.3272005921
 11
4.9865156188
 21
2.3321487741
  0
LINE
  5
3AE
100
AcDbEntity
  8
0
100
AcDbLine
 62
7
  6
CONTINUOUS
 10
6.0374230786
 20
6.119607386
 11
5.8029230497
 21
6.119607386
  0
LINE
  5
3AF
100
AcDbEntity
  8
0
100
AcDbLine
 62
7
  6
CONTINUOUS
 10
6.0375359779
 20
6.131561184
 11
5.8029230727
 21
6.131561184
  0
LINE
  5
3B0
100
AcDbEntity
  8
0
100
AcDbLine
 62
7
  6
CONTINUOUS
 10
6.0622291789
 20
6.1351809795
 11
6.4122291789
 21
6.1351809795
  0
LINE
  5
3B1
100
AcDbEntity
  8
0
100
AcDbLine
 62
7
  6
CONTINUOUS
 10
6.0513644532
 20
6.1364518943
 11
5.7899339032
 21
6.1364518943
  0
LINE
  5
3B2
100
AcDbEntity
  8
0
100
AcDbLine
 62
7
  6
CONTINUOUS
 10
6.0396837788
 20
6.1438787251
 11
5.8029230497
 21
6.1438787092
  0
LINE
  5
3B3
100
AcDbEntity
  8
0
100
AcDbLine
 62
7
  6
CONTINUOUS
 10
6.4022291789
 20
6.1451809795
 11
6.0722291789
 21
6.1451809795
  0
LINE
  5
3B4
100
AcDbEntity
  8
0
100
AcDbLine
 62
7
  6
CONTINUOUS
 10
6.0774230769
 20
6.1529821606
 11
6.3999230769
 21
6.1529821606
  0
LINE
  5
3B5
100
AcDbEntity
  8
0
100
AcDbLine
 62
7
  6
CONTINUOUS
 10
6.0458104538
 20
6.1557046771
 11
5.8029230769
 21
6.1557046771
  0
LINE
  5
3B6
100
AcDbEntity
  8
0
100
AcDbLine
 62
7
  6
CONTINUOUS
 10
6.0774230769
 20
6.1589394552
 11
6.3999230769
 21
6.1589394552
  0
LINE
  5
3B7
100
AcDbEntity
  8
0
100
AcDbLine
 62
7
  6
CONTINUOUS
 10
6.4081503948
 20
6.1600634687
 11
5.7899339032
 21
6.1600634687
  0
LINE
  5
3B8
100
AcDbEntity
  8
0
100
AcDbLine
 62
7
  6
CONTINUOUS
 10
6.0774230769
 20
6.1671223103
 11
6.3999230769
 21
6.1671223103
  0
LINE
  5
3B9
100
AcDbEntity
  8
0
100
AcDbLine
 62
7
  6
CONTINUOUS
 10
6.0603748291
 20
6.1678660706
 11
5.8029230497
 21
6.1678660755
  0
LINE
  5
3BA
100
AcDbEntity
  8
0
100
AcDbLine
 62
7
  6
CONTINUOUS
 10
6.0774230769
 20
6.1718308448
 11
6.3999230769
 21
6.1718308448
  0
LINE
  5
3BB
100
AcDbEntity
  8
0
100
AcDbLine
 62
7
  6
CONTINUOUS
 10
6.3999231057
 20
6.1795184608
 11
5.8029230779
 21
6.1795184608
  0
LINE
  5
3BC
100
AcDbEntity
  8
0
100
AcDbLine
 62
7
  6
CONTINUOUS
 10
6.4129122507
 20
6.1833284704
 11
5.7899339032
 21
6.1833284704
  0
LINE
  5
3BD
100
AcDbEntity
  8
0
100
AcDbLine
 62
7
  6
CONTINUOUS
 10
6.3999230784
 20
6.1914766823
 11
5.8029230497
 21
6.1914766823
  0
LINE
  5
3BE
100
AcDbEntity
  8
0
100
AcDbLine
 62
7
  6
CONTINUOUS
 10
6.3999231057
 20
6.2029104042
 11
5.8029230781
 21
6.2029104042
  0
LINE
  5
3BF
100
AcDbEntity
  8
0
100
AcDbLine
 62
7
  6
CONTINUOUS
 10
6.4129122507
 20
6.2061568916
 11
5.7899339032
 21
6.2061568916
  0
LINE
  5
3C0
100
AcDbEntity
  8
0
100
AcDbLine
 62
7
  6
CONTINUOUS
 10
6.3999230783
 20
6.2146191848
 11
5.8029230497
 21
6.2146191848
  0
LINE
  5
3C1
100
AcDbEntity
  8
0
100
AcDbLine
 62
7
  6
CONTINUOUS
 10
6.3999231057
 20
6.2257900085
 11
5.8029230781
 21
6.2257900085
  0
LINE
  5
3C2
100
AcDbEntity
  8
0
100
AcDbLine
 62
7
  6
CONTINUOUS
 10
6.4129122507
 20
6.2284604137
 11
5.7899339032
 21
6.2284604137
  0
LINE
  5
3C3
100
AcDbEntity
  8
0
100
AcDbLine
 62
7
  6
CONTINUOUS
 10
6.3999230779
 20
6.2372040491
 11
5.8029230497
 21
6.2372040491
  0
LINE
  5
3C4
100
AcDbEntity
  8
0
100
AcDbLine
 62
7
  6
CONTINUOUS
 10
6.3999231057
 20
6.2480687569
 11
5.8029230786
 21
6.2480687569
  0
LINE
  5
3C5
100
AcDbEntity
  8
0
100
AcDbLine
 62
7
  6
CONTINUOUS
 10
6.4129122507
 20
6.2501527486
 11
5.7899339032
 21
6.2501527486
  0
LINE
  5
3C6
100
AcDbEntity
  8
0
100
AcDbLine
 62
7
  6
CONTINUOUS
 10
6.3999230767
 20
6.2591438988
 11
5.8029230497
 21
6.2591438988
  0
LINE
  5
3C7
100
AcDbEntity
  8
0
100
AcDbLine
 62
7
  6
CONTINUOUS
 10
6.3999231057
 20
6.2696604572
 11
5.8029230785
 21
6.2696604572
  0
LINE
  5
3C8
100
AcDbEntity
  8
0
100
AcDbLine
 62
7
  6
CONTINUOUS
 10
6.4129122507
 20
6.2711499729
 11
5.7899339032
 21
6.2711499729
  0
LINE
  5
3C9
100
AcDbEntity
  8
0
100
AcDbLine
 62
7
  6
CONTINUOUS
 10
5.3436234929
 20
6.3236336021
 11
5.3325308562
 21
6.3259863566
  0
LINE
  5
3CA
100
AcDbEntity
  8
0
100
AcDbLine
 62
7
  6
CONTINUOUS
 10
4.8696826224
 20
6.4275172752
 11
4.8587369619
 21
6.430078914
  0
LINE
  5
3CB
100
AcDbEntity
  8
0
100
AcDbLine
 62
7
  6
CONTINUOUS
 10
5.3586186463
 20
6.3040903523
 11
5.3476918646
 21
6.3071214386
  0
LINE
  5
3CC
100
AcDbEntity
  8
0
100
AcDbLine
 62
7
  6
CONTINUOUS
 10
4.891970904
 20
6.436949868
 11
4.8812036774
 21
6.4401803956
  0
LINE
  5
3CD
100
AcDbEntity
  8
0
100
AcDbLine
 62
7
  6
CONTINUOUS
 10
5.3723824054
 20
6.2836611533
 11
5.3616629181
 21
6.2873590761
  0
LINE
  5
3CE
100
AcDbEntity
  8
0
100
AcDbLine
 62
7
  6
CONTINUOUS
 10
4.9147975333
 20
6.4449926475
 11
4.9042495749
 21
6.4488798123
  0
LINE
  5
3CF
100
AcDbEntity
  8
0
100
AcDbLine
 62
7
  6
CONTINUOUS
 10
5.2482322491
 20
2.4559315215
 11
5.2585030461
 21
2.4606466588
  0
LINE
  5
3D0
100
AcDbEntity
  8
0
100
AcDbLine
 62
7
  6
CONTINUOUS
 10
4.952786486
 20
2.3340147133
 11
4.9633831417
 21
2.337943158
  0
LINE
  5
3D1
100
AcDbEntity
  8
0
100
AcDbLine
 62
7
  6
CONTINUOUS
 10
5.2359723658
 20
2.4354771419
 11
5.2466558703
 21
2.4391628604
  0
LINE
  5
3D2
100
AcDbEntity
  8
0
100
AcDbLine
 62
7
  6
CONTINUOUS
 10
4.7203278392
 20
6.3073513795
 11
4.7094725161
 21
6.3044305172
  0
LINE
  5
3D3
100
AcDbEntity
  8
0
100
AcDbLine
 62
7
  6
CONTINUOUS
 10
5.2094859667
 20
6.4298951149
 11
5.1984252077
 21
6.4273967847
  0
LINE
  5
3D4
100
AcDbEntity
  8
0
100
AcDbLine
 62
7
  6
CONTINUOUS
 10
4.7355026723
 20
6.3262051788
 11
4.7244881433
 21
6.3239580408
  0
LINE
  5
3D5
100
AcDbEntity
  8
0
100
AcDbLine
 62
7
  6
CONTINUOUS
 10
5.2312762683
 20
6.4184070344
 11
5.2200827016
 21
6.4165942727
  0
LINE
  5
3D6
100
AcDbEntity
  8
0
100
AcDbLine
 62
7
  6
CONTINUOUS
 10
4.7518092521
 20
6.3440891594
 11
4.7406772895
 21
6.3425242678
  0
LINE
  5
3D7
100
AcDbEntity
  8
0
100
AcDbLine
 62
7
  6
CONTINUOUS
 10
5.2523181163
 20
6.4055994635
 11
5.2410341929
 21
6.404479145
  0
LINE
  5
3D8
100
AcDbEntity
  8
0
100
AcDbLine
 62
7
  6
CONTINUOUS
 10
4.7691857366
 20
6.360935497
 11
4.7579785579
 21
6.3600587867
  0
LINE
  5
3D9
100
AcDbEntity
  8
0
100
AcDbLine
 62
7
  6
CONTINUOUS
 10
5.2725317104
 20
6.3915209745
 11
5.261200224
 21
6.391097348
  0
LINE
  5
3DA
100
AcDbEntity
  8
0
100
AcDbLine
 62
7
  6
CONTINUOUS
 10
4.7875662264
 20
6.3766803026
 11
4.7763263342
 21
6.3764950984
  0
LINE
  5
3DB
100
AcDbEntity
  8
0
100
AcDbLine
 62
7
  6
CONTINUOUS
 10
6.3999230779
 20
6.280353853
 11
5.8029230497
 21
6.280353853
  0
LINE
  5
3DC
100
AcDbEntity
  8
0
100
AcDbLine
 62
7
  6
CONTINUOUS
 10
6.3999231057
 20
6.2904815754
 11
5.8029230769
 21
6.2904815754
  0
LINE
  5
3DD
100
AcDbEntity
  8
0
100
AcDbLine
 62
7
  6
CONTINUOUS
 10
6.4129122507
 20
6.2913708524
 11
5.7899339032
 21
6.2913708524
  0
LINE
  5
3DE
100
AcDbEntity
  8
0
100
AcDbLine
 62
7
  6
CONTINUOUS
 10
6.3999230773
 20
6.3007518543
 11
5.8029230497
 21
6.3007518543
  0
LINE
  5
3DF
100
AcDbEntity
  8
0
100
AcDbLine
 62
7
  6
CONTINUOUS
 10
6.3999231057
 20
6.3104515586
 11
5.8029230783
 21
6.3104515586
  0
LINE
  5
3E0
100
AcDbEntity
  8
0
100
AcDbLine
 62
7
  6
CONTINUOUS
 10
6.4129122507
 20
6.3107371565
 11
5.7899339032
 21
6.3107371565
  0
LINE
  5
3E1
100
AcDbEntity
  8
0
100
AcDbLine
 62
7
  6
CONTINUOUS
 10
6.3999230782
 20
6.3202589869
 11
5.8029230497
 21
6.3202589869
  0
LINE
  5
3E2
100
AcDbEntity
  8
0
100
AcDbLine
 62
7
  6
CONTINUOUS
 10
6.3999231057
 20
6.3294931468
 11
5.8029230762
 21
6.3294931468
  0
LINE
  5
3E3
100
AcDbEntity
  8
0
100
AcDbLine
 62
7
  6
CONTINUOUS
 10
6.3999230781
 20
6.3387997815
 11
5.8029230497
 21
6.3387997815
  0
LINE
  5
3E4
100
AcDbEntity
  8
0
100
AcDbLine
 62
7
  6
CONTINUOUS
 10
6.3999231042
 20
6.3475326719
 11
5.8029230757
 21
6.3475326719
  0
LINE
  5
3E5
100
AcDbEntity
  8
0
100
AcDbLine
 62
7
  6
CONTINUOUS
 10
6.3999230782
 20
6.3563025074
 11
5.8029230497
 21
6.3563025074
  0
LINE
  5
3E6
100
AcDbEntity
  8
0
100
AcDbLine
 62
7
  6
CONTINUOUS
 10
6.3999231057
 20
6.3645003423
 11
5.8029230771
 21
6.3645003423
  0
LINE
  5
3E7
100
AcDbEntity
  8
0
100
AcDbLine
 62
7
  6
CONTINUOUS
 10
6.3999230787
 20
6.3726994498
 11
5.8029230497
 21
6.3726994498
  0
LINE
  5
3E8
100
AcDbEntity
  8
0
100
AcDbLine
 62
7
  6
CONTINUOUS
 10
6.3999231057
 20
6.3803305135
 11
5.8029230781
 21
6.3803305135
  0
LINE
  5
3E9
100
AcDbEntity
  8
0
100
AcDbLine
 62
7
  6
CONTINUOUS
 10
6.3999230776
 20
6.3879271723
 11
5.8029230497
 21
6.3879271723
  0
LINE
  5
3EA
100
AcDbEntity
  8
0
100
AcDbLine
 62
7
  6
CONTINUOUS
 10
6.3999231057
 20
6.3949619416
 11
5.8029230765
 21
6.3949619416
  0
LINE
  5
3EB
100
AcDbEntity
  8
0
100
AcDbLine
 62
7
  6
CONTINUOUS
 10
6.3999230776
 20
6.4019267617
 11
5.8029230497
 21
6.4019267617
  0
LINE
  5
3EC
100
AcDbEntity
  8
0
100
AcDbLine
 62
7
  6
CONTINUOUS
 10
6.3999231057
 20
6.4083380205
 11
5.8029230764
 21
6.4083380205
  0
LINE
  5
3ED
100
AcDbEntity
  8
0
100
AcDbLine
 62
7
  6
CONTINUOUS
 10
5.7879230769
 20
6.4089821606
 11
5.7729230769
 21
6.4089821606
  0
LINE
  5
3EE
100
AcDbEntity
  8
0
100
AcDbLine
 62
7
  6
CONTINUOUS
 10
6.3999230777
 20
6.4146440563
 11
5.8029230494
 21
6.4146440563
  0
LINE
  5
3EF
100
AcDbEntity
  8
0
100
AcDbLine
 62
7
  6
CONTINUOUS
 10
6.3999231057
 20
6.4204070007
 11
5.8029230765
 21
6.4204070007
  0
LINE
  5
3F0
100
AcDbEntity
  8
0
100
AcDbLine
 62
7
  6
CONTINUOUS
 10
6.3999230779
 20
6.4260298554
 11
5.8029230497
 21
6.4260298554
  0
LINE
  5
3F1
100
AcDbEntity
  8
0
100
AcDbLine
 62
7
  6
CONTINUOUS
 10
6.3999231057
 20
6.4311221897
 11
5.8029230776
 21
6.4311221897
  0
LINE
  5
3F2
100
AcDbEntity
  8
0
100
AcDbLine
 62
7
  6
CONTINUOUS
 10
6.3999230787
 20
6.4360401095
 11
5.8029230497
 21
6.4360401095
  0
LINE
  5
3F3
100
AcDbEntity
  8
0
100
AcDbLine
 62
7
  6
CONTINUOUS
 10
5.2918403913
 20
6.3762249592
 11
5.2805043162
 21
6.3764996313
  0
LINE
  5
3F4
100
AcDbEntity
  8
0
100
AcDbLine
 62
7
  6
CONTINUOUS
 10
4.8068810141
 20
6.3912638647
 11
4.7956510353
 21
6.391770869
  0
LINE
  5
3F5
100
AcDbEntity
  8
0
100
AcDbLine
 62
7
  6
CONTINUOUS
 10
5.3101709317
 20
6.3597694274
 11
5.2988732595
 21
6.3607413564
  0
LINE
  5
3F6
100
AcDbEntity
  8
0
100
AcDbLine
 62
7
  6
CONTINUOUS
 10
4.8270568492
 20
6.4046308757
 11
4.815879373
 21
6.4058281657
  0
LINE
  5
3F7
100
AcDbEntity
  8
0
100
AcDbLine
 62
7
  6
CONTINUOUS
 10
5.3274538137
 20
6.3422167858
 11
5.3162373904
 21
6.3438822857
  0
LINE
  5
3F8
100
AcDbEntity
  8
0
100
AcDbLine
 62
7
  6
CONTINUOUS
 10
4.8480172157
 20
6.4167306418
 11
4.8369346323
 21
6.4186136769
  0
LINE
  5
3F9
100
AcDbEntity
  8
0
100
AcDbLine
 62
7
  6
CONTINUOUS
 10
6.3999231057
 20
6.4404421324
 11
5.8029230768
 21
6.4404421324
  0
LINE
  5
3FA
100
AcDbEntity
  8
0
100
AcDbLine
 62
7
  6
CONTINUOUS
 10
6.3999230775
 20
6.444636091
 11
5.8029230498
 21
6.444636091
  0
LINE
  5
3FB
100
AcDbEntity
  8
0
100
AcDbLine
 62
7
  6
CONTINUOUS
 10
6.3999231057
 20
6.4483307719
 11
5.802923077
 21
6.4483307719
  0
LINE
  5
3FC
100
AcDbEntity
  8
0
100
AcDbLine
 62
7
  6
CONTINUOUS
 10
6.3999230761
 20
6.4517845436
 11
5.8029230497
 21
6.4517845436
  0
LINE
  5
3FD
100
AcDbEntity
  8
0
100
AcDbLine
 62
7
  6
CONTINUOUS
 10
6.3999231057
 20
6.4547575885
 11
5.8029230769
 21
6.4547575885
  0
LINE
  5
3FE
100
AcDbEntity
  8
0
100
AcDbLine
 62
7
  6
CONTINUOUS
 10
6.3999230775
 20
6.4574578113
 11
5.8029230497
 21
6.4574578113
  0
LINE
  5
3FF
100
AcDbEntity
  8
0
100
AcDbLine
 62
7
  6
CONTINUOUS
 10
6.3999231057
 20
6.4596977182
 11
5.8029230781
 21
6.4596977182
  0
LINE
  5
400
100
AcDbEntity
  8
0
100
AcDbLine
 62
7
  6
CONTINUOUS
 10
6.3999230779
 20
6.4616339454
 11
5.8029230497
 21
6.4616339454
  0
LINE
  5
401
100
AcDbEntity
  8
0
100
AcDbLine
 62
7
  6
CONTINUOUS
 10
6.3999231057
 20
6.4631320484
 11
5.8029230765
 21
6.4631320484
  0
LINE
  5
402
100
AcDbEntity
  8
0
100
AcDbLine
 62
7
  6
CONTINUOUS
 10
6.3999230776
 20
6.4642967893
 11
5.8029230498
 21
6.4642967893
  0
LINE
  5
403
100
AcDbEntity
  8
0
100
AcDbLine
 62
7
  6
CONTINUOUS
 10
6.3999231057
 20
6.4650472925
 11
5.8029230781
 21
6.4650472925
  0
LINE
  5
404
100
AcDbEntity
  8
0
100
AcDbLine
 62
7
  6
CONTINUOUS
 10
6.3999230779
 20
6.4654360408
 11
5.8029230497
 21
6.4654360408
  0
LINE
  5
405
100
AcDbEntity
  8
0
100
AcDbLine
 62
7
  6
CONTINUOUS
 10
6.3999230769
 20
6.4654821606
 11
5.8029230769
 21
6.4654821606
  0
LWPOLYLINE
  5
406
100
AcDbEntity
  8
0
100
AcDbPolyline
 62
7
  6
CONTINUOUS
 90
5
 70
0
 10
5.0607755428
 20
6.4695799328
 10
5.0616622475
 20
6.4695291762
 10
5.062504758
 20
6.4694955652
 10
5.0634689747
 20
6.4694745581
 10
5.758053975
 20
6.4634127659
  0
ARC
  5
407
100
AcDbEntity
  8
0
100
AcDbCircle
 62
7
  6
CONTINUOUS
 10
5.0339230769
 20
6.0704821606
 40
0.6075
100
AcDbArc
 50
291.1193838344
 51
319.4120642935
  0
ARC
  5
408
100
AcDbEntity
  8
0
100
AcDbCircle
 62
7
  6
CONTINUOUS
 10
5.0339230769
 20
6.0704821606
 40
0.6075
100
AcDbArc
 50
40.5879357066
 51
248.8806161656
  0
ARC
  5
409
100
AcDbEntity
  8
0
100
AcDbCircle
 62
7
  6
CONTINUOUS
 10
5.0339230769
 20
6.0704821606
 40
0.5910413131
100
AcDbArc
 50
291.7319062214
 51
317.9721352781
  0
ARC
  5
40A
100
AcDbEntity
  8
0
100
AcDbCircle
 62
7
  6
CONTINUOUS
 10
5.0339230769
 20
6.0704821606
 40
0.5910413131
100
AcDbArc
 50
42.0278647215
 51
248.2680937785
  0
ARC
  5
40B
100
AcDbEntity
  8
0
100
AcDbCircle
 62
7
  6
CONTINUOUS
 10
5.0331477721
 20
5.9660925307
 40
0.5043022616
100
AcDbArc
 50
83.2580380519
 51
85.2342918245
  0
ARC
  5
40C
100
AcDbEntity
  8
0
100
AcDbCircle
 62
7
  6
CONTINUOUS
 10
5.0332104609
 20
5.9665751228
 40
0.5038156528
100
AcDbArc
 50
82.488516985
 51
83.2586749019
  0
ARC
  5
40D
100
AcDbEntity
  8
0
100
AcDbCircle
 62
7
  6
CONTINUOUS
 10
5.0331875724
 20
5.9667276532
 40
0.503666082
100
AcDbArc
 50
85.2889300393
 51
85.9693406854
  0
ARC
  5
40E
100
AcDbEntity
  8
0
100
AcDbCircle
 62
7
  6
CONTINUOUS
 10
5.0339230769
 20
6.0704821606
 40
0.4611877747
100
AcDbArc
 50
298.3398950294
 51
300.4761711242
  0
ARC
  5
40F
100
AcDbEntity
  8
0
100
AcDbCircle
 62
7
  6
CONTINUOUS
 10
5.0339230769
 20
6.0704821606
 40
0.4611877747
100
AcDbArc
 50
59.5238288758
 51
241.6601049706
  0
ARC
  5
410
100
AcDbEntity
  8
0
100
AcDbCircle
 62
7
  6
CONTINUOUS
 10
5.0339230769
 20
6.0704821606
 40
0.4
100
AcDbArc
 50
303.1342930825
 51
127.5298214745
  0
ARC
  5
411
100
AcDbEntity
  8
0
100
AcDbCircle
 62
7
  6
CONTINUOUS
 10
5.0339230769
 20
6.0704821606
 40
0.4
100
AcDbArc
 50
158.3221303807
 51
236.8469994715
  0
ARC
  5
412
100
AcDbEntity
  8
0
100
AcDbCircle
 62
7
  6
CONTINUOUS
 10
5.0339230769
 20
6.0704821606
 40
0.4
100
AcDbArc
 50
127.5401073328
 51
158.3107499976
  0
ARC
  5
413
100
AcDbEntity
  8
0
100
AcDbCircle
 62
7
  6
CONTINUOUS
 10
5.0339230769
 20
6.0704821606
 40
0.375
100
AcDbArc
 50
305.7014346874
 51
234.2985658426
  0
ARC
  5
414
100
AcDbEntity
  8
0
100
AcDbCircle
 62
7
  6
CONTINUOUS
 10
5.0339230769
 20
6.0704821606
 40
0.335
100
AcDbArc
 50
310.7713084226
 51
229.2286915797
  0
ARC
  5
415
100
AcDbEntity
  8
0
100
AcDbCircle
 62
7
  6
CONTINUOUS
 10
5.0339230769
 20
6.0704821606
 40
0.325
100
AcDbArc
 50
312.3237281909
 51
227.6762718091
  0
ARC
  5
416
100
AcDbEntity
  8
0
100
AcDbCircle
 62
7
  6
CONTINUOUS
 10
5.0339230769
 20
6.0704821606
 40
0.27325
100
AcDbArc
 50
323.2508619352
 51
216.7491380648
  0
ARC
  5
417
100
AcDbEntity
  8
0
100
AcDbCircle
 62
7
  6
CONTINUOUS
 10
5.0339230769
 20
6.0704821606
 40
0.2535
100
AcDbArc
 50
329.7075012733
 51
210.2924987267
  0
ARC
  5
418
100
AcDbEntity
  8
0
100
AcDbCircle
 62
7
  6
CONTINUOUS
 10
5.0339230769
 20
2.5704821606
 40
0.25
100
AcDbArc
 50
153.9380938545
 51
155.4369061455
  0
ARC
  5
419
100
AcDbEntity
  8
0
100
AcDbCircle
 62
7
  6
CONTINUOUS
 10
5.0339230769
 20
2.5704821606
 40
0.25
100
AcDbArc
 50
159.5630938545
 51
161.0619061455
  0
ARC
  5
41A
100
AcDbEntity
  8
0
100
AcDbCircle
 62
7
  6
CONTINUOUS
 10
5.0339230769
 20
2.5704821606
 40
0.25
100
AcDbArc
 50
165.1880938545
 51
166.6869061455
  0
ARC
  5
41B
100
AcDbEntity
  8
0
100
AcDbCircle
 62
7
  6
CONTINUOUS
 10
5.0339230769
 20
2.5704821606
 40
0.25
100
AcDbArc
 50
170.8130938545
 51
172.3119061455
  0
ARC
  5
41C
100
AcDbEntity
  8
0
100
AcDbCircle
 62
7
  6
CONTINUOUS
 10
5.0339230769
 20
2.5704821606
 40
0.25
100
AcDbArc
 50
176.4380938545
 51
177.9369061455
  0
ARC
  5
41D
100
AcDbEntity
  8
0
100
AcDbCircle
 62
7
  6
CONTINUOUS
 10
5.0339230769
 20
2.5704821606
 40
0.25
100
AcDbArc
 50
182.0630938545
 51
183.5619061455
  0
ARC
  5
41E
100
AcDbEntity
  8
0
100
AcDbCircle
 62
7
  6
CONTINUOUS
 10
5.0339230769
 20
2.5704821606
 40
0.25
100
AcDbArc
 50
187.6880938545
 51
189.1869061455
  0
ARC
  5
41F
100
AcDbEntity
  8
0
100
AcDbCircle
 62
7
  6
CONTINUOUS
 10
5.0339230769
 20
2.5704821606
 40
0.25
100
AcDbArc
 50
193.3130938545
 51
194.8119061455
  0
ARC
  5
420
100
AcDbEntity
  8
0
100
AcDbCircle
 62
7
  6
CONTINUOUS
 10
5.0339230769
 20
2.5704821606
 40
0.25
100
AcDbArc
 50
198.9380938545
 51
200.4369061455
  0
ARC
  5
421
100
AcDbEntity
  8
0
100
AcDbCircle
 62
7
  6
CONTINUOUS
 10
5.0339230769
 20
2.5704821606
 40
0.25
100
AcDbArc
 50
204.5630938545
 51
206.0619061455
  0
ARC
  5
422
100
AcDbEntity
  8
0
100
AcDbCircle
 62
7
  6
CONTINUOUS
 10
5.0339230769
 20
2.5704821606
 40
0.25
100
AcDbArc
 50
210.1880938545
 51
211.6869061455
  0
ARC
  5
423
100
AcDbEntity
  8
0
100
AcDbCircle
 62
7
  6
CONTINUOUS
 10
5.0339230769
 20
2.5704821606
 40
0.25
100
AcDbArc
 50
215.8130938545
 51
217.3119061455
  0
ARC
  5
424
100
AcDbEntity
  8
0
100
AcDbCircle
 62
7
  6
CONTINUOUS
 10
5.0339230769
 20
2.5704821606
 40
0.25
100
AcDbArc
 50
221.4380938545
 51
222.9369061455
  0
ARC
  5
425
100
AcDbEntity
  8
0
100
AcDbCircle
 62
7
  6
CONTINUOUS
 10
5.0339230769
 20
2.5704821606
 40
0.25
100
AcDbArc
 50
227.0630938545
 51
228.5619061455
  0
ARC
  5
426
100
AcDbEntity
  8
0
100
AcDbCircle
 62
7
  6
CONTINUOUS
 10
5.0339230769
 20
2.5704821606
 40
0.25
100
AcDbArc
 50
232.6880938545
 51
234.1869061455
  0
ARC
  5
427
100
AcDbEntity
  8
0
100
AcDbCircle
 62
7
  6
CONTINUOUS
 10
5.0339230769
 20
2.5704821606
 40
0.25
100
AcDbArc
 50
238.3130938545
 51
239.8119061455
  0
ARC
  5
428
100
AcDbEntity
  8
0
100
AcDbCircle
 62
7
  6
CONTINUOUS
 10
5.0339230769
 20
2.5704821606
 40
0.25
100
AcDbArc
 50
243.9380938545
 51
245.4369061455
  0
ARC
  5
429
100
AcDbEntity
  8
0
100
AcDbCircle
 62
7
  6
CONTINUOUS
 10
5.0339230769
 20
2.5704821606
 40
0.25
100
AcDbArc
 50
249.5630938545
 51
251.0619061455
  0
ARC
  5
42A
100
AcDbEntity
  8
0
100
AcDbCircle
 62
7
  6
CONTINUOUS
 10
5.0339230769
 20
2.5704821606
 40
0.25
100
AcDbArc
 50
255.1880938545
 51
256.6869061455
  0
ARC
  5
42B
100
AcDbEntity
  8
0
100
AcDbCircle
 62
7
  6
CONTINUOUS
 10
5.0339230769
 20
2.5704821606
 40
0.25
100
AcDbArc
 50
260.8130938545
 51
262.3119061455
  0
ARC
  5
42C
100
AcDbEntity
  8
0
100
AcDbCircle
 62
7
  6
CONTINUOUS
 10
5.0339230769
 20
2.5704821606
 40
0.25
100
AcDbArc
 50
266.4380938545
 51
267.9369061455
  0
ARC
  5
42D
100
AcDbEntity
  8
0
100
AcDbCircle
 62
7
  6
CONTINUOUS
 10
5.0339230769
 20
2.5704821606
 40
0.25
100
AcDbArc
 50
272.0630938545
 51
273.5619061455
  0
ARC
  5
42E
100
AcDbEntity
  8
0
100
AcDbCircle
 62
7
  6
CONTINUOUS
 10
5.0339230769
 20
2.5704821606
 40
0.25
100
AcDbArc
 50
277.6880938545
 51
279.1869061455
  0
ARC
  5
42F
100
AcDbEntity
  8
0
100
AcDbCircle
 62
7
  6
CONTINUOUS
 10
5.0339230769
 20
2.5704821606
 40
0.25
100
AcDbArc
 50
283.3130938545
 51
284.8119061455
  0
ARC
  5
430
100
AcDbEntity
  8
0
100
AcDbCircle
 62
7
  6
CONTINUOUS
 10
5.0339230769
 20
2.5704821606
 40
0.25
100
AcDbArc
 50
288.9380938545
 51
290.4369061455
  0
ARC
  5
431
100
AcDbEntity
  8
0
100
AcDbCircle
 62
7
  6
CONTINUOUS
 10
5.0339230769
 20
2.5704821606
 40
0.25
100
AcDbArc
 50
294.5630938545
 51
296.0619061455
  0
ARC
  5
432
100
AcDbEntity
  8
0
100
AcDbCircle
 62
7
  6
CONTINUOUS
 10
5.0339230769
 20
2.5704821606
 40
0.25
100
AcDbArc
 50
300.1880938545
 51
301.6869061455
  0
ARC
  5
433
100
AcDbEntity
  8
0
100
AcDbCircle
 62
7
  6
CONTINUOUS
 10
5.0339230769
 20
2.5704821606
 40
0.25
100
AcDbArc
 50
305.8130938545
 51
307.3119061455
  0
ARC
  5
434
100
AcDbEntity
  8
0
100
AcDbCircle
 62
7
  6
CONTINUOUS
 10
5.0339230769
 20
2.5704821606
 40
0.25
100
AcDbArc
 50
311.4380938545
 51
312.9369061455
  0
ARC
  5
435
100
AcDbEntity
  8
0
100
AcDbCircle
 62
7
  6
CONTINUOUS
 10
5.0339230769
 20
2.5704821606
 40
0.25
100
AcDbArc
 50
317.0630938545
 51
318.5619061455
  0
ARC
  5
436
100
AcDbEntity
  8
0
100
AcDbCircle
 62
7
  6
CONTINUOUS
 10
5.0339230769
 20
2.5704821606
 40
0.25
100
AcDbArc
 50
322.6880938545
 51
324.1869061455
  0
ARC
  5
437
100
AcDbEntity
  8
0
100
AcDbCircle
 62
7
  6
CONTINUOUS
 10
5.0339230769
 20
2.5704821606
 40
0.25
100
AcDbArc
 50
328.3130938545
 51
329.8119061455
  0
ARC
  5
438
100
AcDbEntity
  8
0
100
AcDbCircle
 62
7
  6
CONTINUOUS
 10
5.0339230769
 20
2.5704821606
 40
0.25
100
AcDbArc
 50
333.9380938545
 51
335.4369061455
  0
ARC
  5
439
100
AcDbEntity
  8
0
100
AcDbCircle
 62
7
  6
CONTINUOUS
 10
5.0339230769
 20
2.5704821606
 40
0.25
100
AcDbArc
 50
339.5630938545
 51
341.0619061455
  0
ARC
  5
43A
100
AcDbEntity
  8
0
100
AcDbCircle
 62
7
  6
CONTINUOUS
 10
5.0339230769
 20
2.5704821606
 40
0.25
100
AcDbArc
 50
345.1880938545
 51
346.6869061455
  0
ARC
  5
43B
100
AcDbEntity
  8
0
100
AcDbCircle
 62
7
  6
CONTINUOUS
 10
5.0339230769
 20
2.5704821606
 40
0.25
100
AcDbArc
 50
350.8130938545
 51
352.3119061455
  0
ARC
  5
43C
100
AcDbEntity
  8
0
100
AcDbCircle
 62
7
  6
CONTINUOUS
 10
5.0339230769
 20
2.5704821606
 40
0.25
100
AcDbArc
 50
356.4380938545
 51
357.9369061455
  0
ARC
  5
43D
100
AcDbEntity
  8
0
100
AcDbCircle
 62
7
  6
CONTINUOUS
 10
5.0339230769
 20
2.5704821606
 40
0.25
100
AcDbArc
 50
2.0630938545
 51
3.5619061455
  0
ARC
  5
43E
100
AcDbEntity
  8
0
100
AcDbCircle
 62
7
  6
CONTINUOUS
 10
5.0339230769
 20
2.5704821606
 40
0.25
100
AcDbArc
 50
7.6880938545
 51
9.1869061455
  0
ARC
  5
43F
100
AcDbEntity
  8
0
100
AcDbCircle
 62
7
  6
CONTINUOUS
 10
5.0339230769
 20
2.5704821606
 40
0.25
100
AcDbArc
 50
13.3130938545
 51
14.8119061455
  0
ARC
  5
440
100
AcDbEntity
  8
0
100
AcDbCircle
 62
7
  6
CONTINUOUS
 10
5.0339230769
 20
2.5704821606
 40
0.25
100
AcDbArc
 50
18.9380938545
 51
20.4369061455
  0
ARC
  5
441
100
AcDbEntity
  8
0
100
AcDbCircle
 62
7
  6
CONTINUOUS
 10
5.0339230769
 20
2.5704821606
 40
0.25
100
AcDbArc
 50
24.5630938545
 51
26.0619061455
  0
ARC
  5
442
100
AcDbEntity
  8
0
100
AcDbCircle
 62
7
  6
CONTINUOUS
 10
5.0339230769
 20
2.5704821606
 40
0.235
100
AcDbArc
 50
158.6526094975
 51
21.3473905024
  0
ARC
  5
443
100
AcDbEntity
  8
0
100
AcDbCircle
 62
7
  6
CONTINUOUS
 10
5.0339230769
 20
6.0704821606
 40
0.21875
100
AcDbArc
 50
0.0
 51
180.0
  0
ARC
  5
444
100
AcDbEntity
  8
0
100
AcDbCircle
 62
7
  6
CONTINUOUS
 10
5.0339230769
 20
2.5704821606
 40
0.21875
100
AcDbArc
 50
180.0
 51
360.0
  0
ARC
  5
445
100
AcDbEntity
  8
0
100
AcDbCircle
 62
7
  6
CONTINUOUS
 10
6.0805202156
 20
6.0107038012
 40
0.0430966843
100
AcDbArc
 50
182.010806833
 51
198.1261891951
  0
ARC
  5
446
100
AcDbEntity
  8
0
100
AcDbCircle
 62
7
  6
CONTINUOUS
 10
6.0774230769
 20
6.0129821606
 40
0.025
100
AcDbArc
 50
180.0
 51
270.0
  0
ARC
  5
447
100
AcDbEntity
  8
0
100
AcDbCircle
 62
7
  6
CONTINUOUS
 10
5.8029210157
 20
6.0522012161
 40
0.018387992
100
AcDbArc
 50
89.9936550022
 51
96.1854287876
  0
ARC
  5
448
100
AcDbEntity
  8
0
100
AcDbCircle
 62
7
  6
CONTINUOUS
 10
6.0374723584
 20
6.0245563246
 40
0.0153643801
100
AcDbArc
 50
269.9490210881
 51
298.0525270053
  0
ARC
  5
449
100
AcDbEntity
  8
0
100
AcDbCircle
 62
7
  6
CONTINUOUS
 10
6.3999230769
 20
5.6904821606
 40
0.015
100
AcDbArc
 50
329.9907780509
 51
360.0
  0
ARC
  5
44A
100
AcDbEntity
  8
0
100
AcDbCircle
 62
7
  6
CONTINUOUS
 10
5.8029230769
 20
5.6904821606
 40
0.015
100
AcDbArc
 50
180.0
 51
210.0092219491
  0
ARC
  5
44B
100
AcDbEntity
  8
0
100
AcDbCircle
 62
7
  6
CONTINUOUS
 10
5.7579230769
 20
5.692550984
 40
0.015
100
AcDbArc
 50
270.5
 51
360.0
  0
ARC
  5
44C
100
AcDbEntity
  8
0
100
AcDbCircle
 62
7
  6
CONTINUOUS
 10
6.3999230769
 20
5.9729821606
 40
0.015
100
AcDbArc
 50
0.0
 51
90.0
  0
ARC
  5
44D
100
AcDbEntity
  8
0
100
AcDbCircle
 62
7
  6
CONTINUOUS
 10
6.4000721701
 20
5.690395822
 40
0.0148277122
100
AcDbArc
 50
322.3454753604
 51
329.9915393694
  0
ARC
  5
44E
100
AcDbEntity
  8
0
100
AcDbCircle
 62
7
  6
CONTINUOUS
 10
5.8027694496
 20
5.6903927831
 40
0.0148222661
100
AcDbArc
 50
210.0070539463
 51
217.6562780827
  0
ARC
  5
44F
100
AcDbEntity
  8
0
100
AcDbCircle
 62
7
  6
CONTINUOUS
 10
5.8029267963
 20
5.7443494208
 40
0.0118339898
100
AcDbArc
 50
258.5683069873
 51
269.9819967486
  0
ARC
  5
450
100
AcDbEntity
  8
0
100
AcDbCircle
 62
7
  6
CONTINUOUS
 10
6.4022291789
 20
6.0051809795
 40
0.01
100
AcDbArc
 50
270.0
 51
360.0
  0
ARC
  5
451
100
AcDbEntity
  8
0
100
AcDbCircle
 62
7
  6
CONTINUOUS
 10
6.0722291789
 20
6.0051809795
 40
0.01
100
AcDbArc
 50
180.0
 51
270.0
  0
ARC
  5
452
100
AcDbEntity
  8
0
100
AcDbCircle
 62
7
  6
CONTINUOUS
 10
6.3222291789
 20
5.9851809795
 40
0.01
100
AcDbArc
 50
90.0
 51
163.7311085778
  0
ARC
  5
453
100
AcDbEntity
  8
0
100
AcDbCircle
 62
7
  6
CONTINUOUS
 10
5.8013498264
 20
9.6840593511
 40
3.8631884518
100
AcDbArc
 50
269.8306877275
 51
270.0233328145
  0
ARC
  5
454
100
AcDbEntity
  8
0
100
AcDbCircle
 62
7
  6
CONTINUOUS
 10
6.4023156591
 20
8.9929014735
 40
3.1720308623
100
AcDbArc
 50
269.9567832649
 51
270.1914045211
  0
ARC
  5
455
100
AcDbEntity
  8
0
100
AcDbCircle
 62
7
  6
CONTINUOUS
 10
6.0805209938
 20
6.1302482227
 40
0.043097917
100
AcDbArc
 50
178.25423615
 51
179.9951147221
  0
ARC
  5
456
100
AcDbEntity
  8
0
100
AcDbCircle
 62
7
  6
CONTINUOUS
 10
6.0796059131
 20
6.1305710245
 40
0.0421303512
100
AcDbArc
 50
143.3755026805
 51
161.5868148558
  0
ARC
  5
457
100
AcDbEntity
  8
0
100
AcDbCircle
 62
7
  6
CONTINUOUS
 10
6.0774515166
 20
6.1330879673
 40
0.0387431238
100
AcDbArc
 50
90.0420585975
 51
116.1498005599
  0
ARC
  5
458
100
AcDbEntity
  8
0
100
AcDbCircle
 62
7
  6
CONTINUOUS
 10
6.0774230769
 20
6.1279821606
 40
0.025
100
AcDbArc
 50
90.0
 51
180.0
  0
ARC
  5
459
100
AcDbEntity
  8
0
100
AcDbCircle
 62
7
  6
CONTINUOUS
 10
6.3999230769
 20
6.4504821606
 40
0.015
100
AcDbArc
 50
0.0
 51
90.0
  0
ARC
  5
45A
100
AcDbEntity
  8
0
100
AcDbCircle
 62
7
  6
CONTINUOUS
 10
5.8029230769
 20
6.4504821606
 40
0.015
100
AcDbArc
 50
90.0
 51
180.0
  0
ARC
  5
45B
100
AcDbEntity
  8
0
100
AcDbCircle
 62
7
  6
CONTINUOUS
 10
5.7579230769
 20
6.4484133371
 40
0.015
100
AcDbArc
 50
0.0
 51
89.5
  0
ARC
  5
45C
100
AcDbEntity
  8
0
100
AcDbCircle
 62
7
  6
CONTINUOUS
 10
6.3999230769
 20
6.1679821606
 40
0.015
100
AcDbArc
 50
270.0
 51
360.0
  0
ARC
  5
45D
100
AcDbEntity
  8
0
100
AcDbCircle
 62
7
  6
CONTINUOUS
 10
6.4022291789
 20
6.1351809795
 40
0.01
100
AcDbArc
 50
0.0
 51
90.0
  0
ARC
  5
45E
100
AcDbEntity
  8
0
100
AcDbCircle
 62
7
  6
CONTINUOUS
 10
6.0722291789
 20
6.1351809795
 40
0.01
100
AcDbArc
 50
90.0
 51
180.0
  0
ARC
  5
45F
100
AcDbEntity
  8
0
100
AcDbCircle
 62
7
  6
CONTINUOUS
 10
6.3222291789
 20
6.1551809795
 40
0.01
100
AcDbArc
 50
192.7338904271
 51
270.0
  0
SPLINE
  5
460
100
AcDbEntity
  8
0
100
AcDbSpline
 62
7
  6
CONTINUOUS
 70
0
 71
3
 72
15
 73
11
 74
0
 42
0.0000001
 43
0.0000001
 44
0.0000000001
 40
0.0
 40
0.0
 40
0.0
 40
0.0
 40
0.1376095546
 40
0.2732493213
 40
0.4053924796
 40
0.5331274116
 40
0.656164404
 40
0.7746665427
 40
0.8890851542
 40
1.0
 40
1.0
 40
1.0
 40
1.0
 10
5.8029230781
 20
6.4650472925
 30
0.0
 10
5.8022098391
 20
6.4650472925
 30
0.0
 10
5.8007916326
 20
6.4649499823
 30
0.0
 10
5.7987284571
 20
6.4645207437
 30
0.0
 10
5.7967899687
 20
6.4638349557
 30
0.0
 10
5.7950178982
 20
6.4629286559
 30
0.0
 10
5.7934368217
 20
6.4618406955
 30
0.0
 10
5.7920580579
 20
6.4606074134
 30
0.0
 10
5.7908842828
 20
6.4592607701
 30
0.0
 10
5.7902272495
 20
6.4582912118
 30
0.0
 10
5.7899339032
 20
6.4577968097
 30
0.0
  0
SPLINE
  5
461
100
AcDbEntity
  8
0
100
AcDbSpline
 62
7
  6
CONTINUOUS
 70
0
 71
3
 72
15
 73
11
 74
0
 42
0.0000001
 43
0.0000001
 44
0.0000000001
 40
0.0
 40
0.0
 40
0.0
 40
0.0
 40
0.1397954784
 40
0.2773059228
 40
0.4107454242
 40
0.5390302513
 40
0.6617887418
 40
0.779176723
 40
0.8916925419
 40
1.0
 40
1.0
 40
1.0
 40
1.0
 10
5.8029230765
 20
6.4631320484
 30
0.0
 10
5.8022100248
 20
6.4631320484
 30
0.0
 10
5.800793851
 20
6.4630405548
 30
0.0
 10
5.7987324297
 20
6.4626367653
 30
0.0
 10
5.7967950881
 20
6.4619914406
 30
0.0
 10
5.7950234369
 20
6.4611382923
 30
0.0
 10
5.7934421622
 20
6.4601137332
 30
0.0
 10
5.7920627436
 20
6.4589518771
 30
0.0
 10
5.7908880538
 20
6.4576828082
 30
0.0
 10
5.790228216
 20
6.4567658809
 30
0.0
 10
5.7899339032
 20
6.4562983645
 30
0.0
  0
SPLINE
  5
462
100
AcDbEntity
  8
0
100
AcDbSpline
 62
7
  6
CONTINUOUS
 70
0
 71
3
 72
15
 73
11
 74
0
 42
0.0000001
 43
0.0000001
 44
0.0000000001
 40
0.0
 40
0.0
 40
0.0
 40
0.0
 40
0.1421163965
 40
0.2816206896
 40
0.4164549517
 40
0.5453490271
 40
0.6678345773
 40
0.7840467738
 40
0.8945209262
 40
1.0
 40
1.0
 40
1.0
 40
1.0
 10
5.8029230781
 20
6.4596977182
 30
0.0
 10
5.8022102133
 20
6.4596977182
 30
0.0
 10
5.8007960738
 20
6.4596123669
 30
0.0
 10
5.7987364577
 20
6.4592355015
 30
0.0
 10
5.7968003809
 20
6.4586330545
 30
0.0
 10
5.7950293109
 20
6.4578363331
 30
0.0
 10
5.7934479951
 20
6.4568791941
 30
0.0
 10
5.7920680255
 20
6.4557933828
 30
0.0
 10
5.7908924414
 20
6.4546069539
 30
0.0
 10
5.7902293678
 20
6.4537461753
 30
0.0
 10
5.7899339032
 20
6.4533072715
 30
0.0
  0
SPLINE
  5
463
100
AcDbEntity
  8
0
100
AcDbSpline
 62
7
  6
CONTINUOUS
 70
0
 71
3
 72
14
 73
10
 74
0
 42
0.0000001
 43
0.0000001
 44
0.0000000001
 40
0.0
 40
0.0
 40
0.0
 40
0.0
 40
0.2858306268
 40
0.4222090096
 40
0.5518288338
 40
0.6741098248
 40
0.7891507508
 40
0.8975099388
 40
1.0
 40
1.0
 40
1.0
 40
1.0
 10
5.8029230769
 20
6.4547575885
 30
0.0
 10
5.8015144707
 20
6.4547575885
 30
0.0
 10
5.7994230658
 20
6.454526984
 30
0.0
 10
5.7968060397
 20
6.4537727686
 30
0.0
 10
5.79503538
 20
6.4530354491
 30
0.0
 10
5.7934543004
 20
6.4521494675
 30
0.0
 10
5.7920739183
 20
6.451144015
 30
0.0
 10
5.7908975213
 20
6.4500449957
 30
0.0
 10
5.7902307397
 20
6.4492437548
 30
0.0
 10
5.7899339032
 20
6.4488351024
 30
0.0
  0
SPLINE
  5
464
100
AcDbEntity
  8
0
100
AcDbSpline
 62
7
  6
CONTINUOUS
 70
0
 71
3
 72
14
 73
10
 74
0
 42
0.0000001
 43
0.0000001
 44
0.0000000001
 40
0.0
 40
0.0
 40
0.0
 40
0.0
 40
0.290574493
 40
0.428499446
 40
0.5588322671
 40
0.6808665587
 40
0.794646976
 40
0.9007361403
 40
1.0
 40
1.0
 40
1.0
 40
1.0
 10
5.802923077
 20
6.4483307719
 30
0.0
 10
5.8015158618
 20
6.4483307719
 30
0.0
 10
5.7994314896
 20
6.4481209334
 30
0.0
 10
5.7968113798
 20
6.4474292741
 30
0.0
 10
5.7950417026
 20
6.4467541382
 30
0.0
 10
5.7934609803
 20
6.4459427113
 30
0.0
 10
5.7920804277
 20
6.4450215994
 30
0.0
 10
5.7909033606
 20
6.4440144292
 30
0.0
 10
5.7902323717
 20
6.443276002
 30
0.0
 10
5.7899339032
 20
6.4428991593
 30
0.0
  0
SPLINE
  5
465
100
AcDbEntity
  8
0
100
AcDbSpline
 62
7
  6
CONTINUOUS
 70
0
 71
3
 72
14
 73
10
 74
0
 42
0.0000001
 43
0.0000001
 44
0.0000000001
 40
0.0
 40
0.0
 40
0.0
 40
0.0
 40
0.1496875867
 40
0.2957544516
 40
0.4352847964
 40
0.5663844934
 40
0.6882081843
 40
0.8007278921
 40
1.0
 40
1.0
 40
1.0
 40
1.0
 10
5.8029230768
 20
6.4404421324
 30
0.0
 10
5.802210743
 20
6.4404421324
 30
0.0
 10
5.8008024014
 20
6.4403768746
 30
0.0
 10
5.7987482243
 20
6.4400884033
 30
0.0
 10
5.7968164214
 20
6.4396270303
 30
0.0
 10
5.7950482312
 20
6.4390167072
 30
0.0
 10
5.7934675995
 20
6.438282499
 30
0.0
 10
5.7916991236
 20
6.4372156051
 30
0.0
 10
5.7905581316
 20
6.4362362739
 30
0.0
 10
5.7899339032
 20
6.4355224072
 30
0.0
  0
SPLINE
  5
466
100
AcDbEntity
  8
0
100
AcDbSpline
 62
7
  6
CONTINUOUS
 70
0
 71
3
 72
15
 73
11
 74
0
 42
0.0000001
 43
0.0000001
 44
0.0000000001
 40
0.0
 40
0.0
 40
0.0
 40
0.0
 40
0.1521915173
 40
0.3004375786
 40
0.4415404323
 40
0.5733894852
 40
0.6949909337
 40
0.8062262469
 40
0.9075968086
 40
1.0
 40
1.0
 40
1.0
 40
1.0
 10
5.8029230776
 20
6.4311221897
 30
0.0
 10
5.8022109016
 20
6.4311221897
 30
0.0
 10
5.8008042935
 20
6.4310640961
 30
0.0
 10
5.7987518061
 20
6.4308071967
 30
0.0
 10
5.7968215511
 20
6.4303963574
 30
0.0
 10
5.7950544222
 20
6.4298527326
 30
0.0
 10
5.7934750875
 20
6.4291992154
 30
0.0
 10
5.7920950661
 20
6.4284571866
 30
0.0
 10
5.790917469
 20
6.427645502
 30
0.0
 10
5.7902365848
 20
6.4270421765
 30
0.0
 10
5.7899339032
 20
6.4267333853
 30
0.0
  0
SPLINE
  5
467
100
AcDbEntity
  8
0
100
AcDbSpline
 62
7
  6
CONTINUOUS
 70
0
 71
3
 72
15
 73
11
 74
0
 42
0.0000001
 43
0.0000001
 44
0.0000000001
 40
0.0
 40
0.0
 40
0.0
 40
0.0
 40
0.1546946341
 40
0.3051333069
 40
0.4478464145
 40
0.5805098819
 40
0.7019756449
 40
0.8120191178
 40
0.9110728463
 40
1.0
 40
1.0
 40
1.0
 40
1.0
 10
5.8029230765
 20
6.4204070007
 30
0.0
 10
5.8022110446
 20
6.4204070007
 30
0.0
 10
5.800806019
 20
6.4203562549
 30
0.0
 10
5.7987551205
 20
6.4201317905
 30
0.0
 10
5.7968263408
 20
6.4197728337
 30
0.0
 10
5.7950604877
 20
6.419297889
 30
0.0
 10
5.7934822048
 20
6.41872699
 30
0.0
 10
5.7921029343
 20
6.4180788342
 30
0.0
 10
5.7909256679
 20
6.4173698763
 30
0.0
 10
5.7902392322
 20
6.4168387019
 30
0.0
 10
5.7899339032
 20
6.4165660966
 30
0.0
  0
SPLINE
  5
468
100
AcDbEntity
  8
0
100
AcDbSpline
 62
7
  6
CONTINUOUS
 70
0
 71
3
 72
15
 73
11
 74
0
 42
0.0000001
 43
0.0000001
 44
0.0000000001
 40
0.0
 40
0.0
 40
0.0
 40
0.0
 40
0.1570713143
 40
0.309599186
 40
0.453860405
 40
0.5873276121
 40
0.7086988157
 40
0.817632621
 40
0.9144693369
 40
1.0
 40
1.0
 40
1.0
 40
1.0
 10
5.8029230764
 20
6.4083380205
 30
0.0
 10
5.8022111725
 20
6.4083380205
 30
0.0
 10
5.8008075552
 20
6.4082947822
 30
0.0
 10
5.7987580981
 20
6.4081034845
 30
0.0
 10
5.7968307121
 20
6.4077975874
 30
0.0
 10
5.7950661551
 20
6.4073928969
 30
0.0
 10
5.7934890742
 20
6.4069065399
 30
0.0
 10
5.7921108661
 20
6.4063545162
 30
0.0
 10
5.7909344084
 20
6.4057508888
 30
0.0
 10
5.7902422413
 20
6.4052948332
 30
0.0
 10
5.7899339032
 20
6.4050598764
 30
0.0
  0
SPLINE
  5
469
100
AcDbEntity
  8
0
100
AcDbSpline
 62
7
  6
CONTINUOUS
 70
0
 71
3
 72
15
 73
11
 74
0
 42
0.0000001
 43
0.0000001
 44
0.0000000001
 40
0.0
 40
0.0
 40
0.0
 40
0.0
 40
0.1592443129
 40
0.313688509
 40
0.4593814841
 40
0.5936099595
 40
0.7149254274
 40
0.8228660564
 40
0.9176629108
 40
1.0
 40
1.0
 40
1.0
 40
1.0
 10
5.8029230765
 20
6.3949619416
 30
0.0
 10
5.8022112826
 20
6.3949619416
 30
0.0
 10
5.8008088768
 20
6.3949263445
 30
0.0
 10
5.7987606804
 20
6.3947688263
 30
0.0
 10
5.7968345566
 20
6.3945169668
 30
0.0
 10
5.7950712468
 20
6.3941838204
 30
0.0
 10
5.7934954334
 20
6.3937835506
 30
0.0
 10
5.792118523
 20
6.3933294314
 30
0.0
 10
5.7909433276
 20
6.3928331292
 30
0.0
 10
5.7902455382
 20
6.3924550239
 30
0.0
 10
5.7899339032
 20
6.39225924
 30
0.0
  0
SPLINE
  5
46A
100
AcDbEntity
  8
0
100
AcDbSpline
 62
7
  6
CONTINUOUS
 70
0
 71
3
 72
15
 73
11
 74
0
 42
0.0000001
 43
0.0000001
 44
0.0000000001
 40
0.0
 40
0.0
 40
0.0
 40
0.0
 40
0.1611300594
 40
0.3172419819
 40
0.4641900722
 40
0.5990999805
 40
0.7203920216
 40
0.8274894094
 40
0.9205077076
 40
1.0
 40
1.0
 40
1.0
 40
1.0
 10
5.8029230781
 20
6.3803305135
 30
0.0
 10
5.8022113744
 20
6.3803305135
 30
0.0
 10
5.8008099638
 20
6.3803026661
 30
0.0
 10
5.7987628172
 20
6.3801794243
 30
0.0
 10
5.7968377752
 20
6.3799823882
 30
0.0
 10
5.7950755884
 20
6.3797218062
 30
0.0
 10
5.7935009993
 20
6.3794088123
 30
0.0
 10
5.7921254888
 20
6.3790539013
 30
0.0
 10
5.7909518731
 20
6.3786662998
 30
0.0
 10
5.7902489437
 20
6.3783687277
 30
0.0
 10
5.7899339032
 20
6.3782137106
 30
0.0
  0
SPLINE
  5
46B
100
AcDbEntity
  8
0
100
AcDbSpline
 62
7
  6
CONTINUOUS
 70
0
 71
3
 72
15
 73
11
 74
0
 42
0.0000001
 43
0.0000001
 44
0.0000000001
 40
0.0
 40
0.0
 40
0.0
 40
0.0
 40
0.1626441994
 40
0.3200983563
 40
0.468062728
 40
0.6035340013
 40
0.7248247258
 40
0.8312589239
 40
0.9228446688
 40
1.0
 40
1.0
 40
1.0
 40
1.0
 10
5.8029230771
 20
6.3645003423
 30
0.0
 10
5.8022114424
 20
6.3645003423
 30
0.0
 10
5.8008107948
 20
6.3644803284
 30
0.0
 10
5.7987644623
 20
6.3643917465
 30
0.0
 10
5.7968402779
 20
6.3642501354
 30
0.0
 10
5.7950790168
 20
6.3640628855
 30
0.0
 10
5.79350549
 20
6.3638380339
 30
0.0
 10
5.7921313017
 20
6.3635832137
 30
0.0
 10
5.7909593278
 20
6.3633051315
 30
0.0
 10
5.7902521419
 20
6.3630902706
 30
0.0
 10
5.7899339032
 20
6.3629776276
 30
0.0
  0
SPLINE
  5
46C
100
AcDbEntity
  8
0
100
AcDbSpline
 62
7
  6
CONTINUOUS
 70
0
 71
3
 72
15
 73
11
 74
0
 42
0.0000001
 43
0.0000001
 44
0.0000000001
 40
0.0
 40
0.0
 40
0.0
 40
0.0
 40
0.1637097079
 40
0.3221100797
 40
0.4707941669
 40
0.6066681781
 40
0.7279676474
 40
0.8339431906
 40
0.9245190146
 40
1.0
 40
1.0
 40
1.0
 40
1.0
 10
5.8029230757
 20
6.3475326719
 30
0.0
 10
5.8022114881
 20
6.3475326719
 30
0.0
 10
5.8008113586
 20
6.3475205512
 30
0.0
 10
5.7987655834
 20
6.3474669019
 30
0.0
 10
5.7968419955
 20
6.347381141
 30
0.0
 10
5.795081397
 20
6.3472677559
 30
0.0
 10
5.793508657
 20
6.34713163
 30
0.0
 10
5.7921355122
 20
6.3469774356
 30
0.0
 10
5.7909649116
 20
6.3468092695
 30
0.0
 10
5.7902546958
 20
6.3466787437
 30
0.0
 10
5.7899339032
 20
6.3466099365
 30
0.0
  0
LINE
  5
46D
100
AcDbEntity
  8
0
100
AcDbLine
 62
7
  6
CONTINUOUS
 10
5.8029230762
 20
6.3294931468
 11
5.7899339032
 21
6.3291739606
  0
SPLINE
  5
46E
100
AcDbEntity
  8
0
100
AcDbSpline
 62
7
  6
CONTINUOUS
 70
0
 71
3
 72
14
 73
10
 74
0
 42
0.0000001
 43
0.0000001
 44
0.0000000001
 40
0.0
 40
0.0
 40
0.0
 40
0.0
 40
0.0749341474
 40
0.1651836473
 40
0.2710134744
 40
0.3923182099
 40
0.5283249653
 40
0.6772432703
 40
1.0
 40
1.0
 40
1.0
 40
1.0
 10
5.7899339032
 20
5.8029429591
 30
0.0
 10
5.7902555841
 20
5.8028965041
 30
0.0
 10
5.7909667813
 20
5.8028085561
 30
0.0
 10
5.7921368993
 20
5.8026954119
 30
0.0
 10
5.7935096868
 20
5.8025916453
 30
0.0
 10
5.7950821655
 20
5.8025000252
 30
0.0
 10
5.7968425466
 20
5.8024236919
 30
0.0
 10
5.7994771621
 20
5.8023446836
 30
0.0
 10
5.8015231307
 20
5.8023216978
 30
0.0
 10
5.8029230497
 20
5.8023216978
 30
0.0
  0
SPLINE
  5
46F
100
AcDbEntity
  8
0
100
AcDbSpline
 62
7
  6
CONTINUOUS
 70
0
 71
3
 72
15
 73
11
 74
0
 42
0.0000001
 43
0.0000001
 44
0.0000000001
 40
0.0
 40
0.0
 40
0.0
 40
0.0
 40
0.0762266124
 40
0.1672506473
 40
0.2734293195
 40
0.3947238914
 40
0.5304187768
 40
0.6787829007
 40
0.8367633199
 40
1.0
 40
1.0
 40
1.0
 40
1.0
 10
5.7899339032
 20
5.7860329459
 30
0.0
 10
5.7902535293
 20
5.7859420564
 30
0.0
 10
5.790962401
 20
5.7857691991
 30
0.0
 10
5.7921336356
 20
5.7855460444
 30
0.0
 10
5.7935072561
 20
5.7853414888
 30
0.0
 10
5.7950803491
 20
5.7851609433
 30
0.0
 10
5.7968412381
 20
5.7850105735
 30
0.0
 10
5.7987650839
 20
5.7848968457
 30
0.0
 10
5.8008110949
 20
5.7848257029
 30
0.0
 10
5.8022114455
 20
5.7848096292
 30
0.0
 10
5.8029230497
 20
5.7848096292
 30
0.0
  0
SPLINE
  5
470
100
AcDbEntity
  8
0
100
AcDbSpline
 62
7
  6
CONTINUOUS
 70
0
 71
3
 72
15
 73
11
 74
0
 42
0.0000001
 43
0.0000001
 44
0.0000000001
 40
0.0
 40
0.0
 40
0.0
 40
0.0
 40
0.0782504517
 40
0.1705044228
 40
0.2772466477
 40
0.3985359844
 40
0.5337443193
 40
0.6812338049
 40
0.8380619323
 40
1.0
 40
1.0
 40
1.0
 40
1.0
 10
5.7899339032
 20
5.7702234115
 30
0.0
 10
5.7902505938
 20
5.7700893847
 30
0.0
 10
5.7909557861
 20
5.7698329275
 30
0.0
 10
5.7921285708
 20
5.7695000127
 30
0.0
 10
5.7935033991
 20
5.7691950608
 30
0.0
 10
5.7950774294
 20
5.7689260484
 30
0.0
 10
5.7968391197
 20
5.7687020521
 30
0.0
 10
5.7987636964
 20
5.7685326652
 30
0.0
 10
5.800810395
 20
5.7684267124
 30
0.0
 10
5.8022113874
 20
5.7684027721
 30
0.0
 10
5.8029230497
 20
5.7684027721
 30
0.0
  0
SPLINE
  5
471
100
AcDbEntity
  8
0
100
AcDbSpline
 62
7
  6
CONTINUOUS
 70
0
 71
3
 72
15
 73
11
 74
0
 42
0.0000001
 43
0.0000001
 44
0.0000000001
 40
0.0
 40
0.0
 40
0.0
 40
0.0
 40
0.0808614547
 40
0.1747312909
 40
0.2822301903
 40
0.403530447
 40
0.5381123279
 40
0.6844584465
 40
0.8397721769
 40
1.0
 40
1.0
 40
1.0
 40
1.0
 10
5.7899339032
 20
5.7555755199
 30
0.0
 10
5.7902472437
 20
5.7553999169
 30
0.0
 10
5.7909476892
 20
5.7550617767
 30
0.0
 10
5.7921221229
 20
5.7546196891
 30
0.0
 10
5.793498337
 20
5.7542150392
 30
0.0
 10
5.7950735257
 20
5.7538582798
 30
0.0
 10
5.7968362493
 20
5.7535613049
 30
0.0
 10
5.7987618008
 20
5.7533367715
 30
0.0
 10
5.8008094343
 20
5.7531963367
 30
0.0
 10
5.8022113076
 20
5.7531646014
 30
0.0
 10
5.8029230497
 20
5.7531646014
 30
0.0
  0
SPLINE
  5
472
100
AcDbEntity
  8
0
100
AcDbSpline
 62
7
  6
CONTINUOUS
 70
0
 71
3
 72
15
 73
11
 74
0
 42
0.0000001
 43
0.0000001
 44
0.0000000001
 40
0.0
 40
0.0
 40
0.0
 40
0.0
 40
0.0839000098
 40
0.1796897896
 40
0.2881109269
 40
0.4094496875
 40
0.5433052796
 40
0.6883001849
 40
0.8418122036
 40
1.0
 40
1.0
 40
1.0
 40
1.0
 10
5.7899339032
 20
5.7421459409
 30
0.0
 10
5.790243862
 20
5.7419303753
 30
0.0
 10
5.7909388761
 20
5.741512953
 30
0.0
 10
5.7921147557
 20
5.7409627768
 30
0.0
 10
5.7934923387
 20
5.7404595144
 30
0.0
 10
5.795068788
 20
5.7400160307
 30
0.0
 10
5.7968327063
 20
5.7396469691
 30
0.0
 10
5.7987594359
 20
5.7393679819
 30
0.0
 10
5.8008082283
 20
5.7391935048
 30
0.0
 10
5.8022112073
 20
5.7391540708
 30
0.0
 10
5.8029230497
 20
5.7391540708
 30
0.0
  0
SPLINE
  5
473
100
AcDbEntity
  8
0
100
AcDbSpline
 62
7
  6
CONTINUOUS
 70
0
 71
3
 72
15
 73
11
 74
0
 42
0.0000001
 43
0.0000001
 44
0.0000000001
 40
0.0
 40
0.0
 40
0.0
 40
0.0
 40
0.0872120016
 40
0.1851404318
 40
0.2946172797
 40
0.4160306313
 40
0.5490993492
 40
0.6925970927
 40
0.8440971872
 40
1.0
 40
1.0
 40
1.0
 40
1.0
 10
5.7899339032
 20
5.7299866309
 30
0.0
 10
5.7902406941
 20
5.7297326638
 30
0.0
 10
5.7909299892
 20
5.7292386842
 30
0.0
 10
5.7921069136
 20
5.7285821018
 30
0.0
 10
5.7934856899
 20
5.7279817606
 30
0.0
 10
5.7950633863
 20
5.7274529161
 30
0.0
 10
5.7968285853
 20
5.7270129209
 30
0.0
 10
5.7987566491
 20
5.7266803608
 30
0.0
 10
5.8008067965
 20
5.7264723959
 30
0.0
 10
5.8022110881
 20
5.7264253842
 30
0.0
 10
5.8029230497
 20
5.7264253842
 30
0.0
  0
SPLINE
  5
474
100
AcDbEntity
  8
0
100
AcDbSpline
 62
7
  6
CONTINUOUS
 70
0
 71
3
 72
15
 73
11
 74
0
 42
0.0000001
 43
0.0000001
 44
0.0000000001
 40
0.0
 40
0.0
 40
0.0
 40
0.0
 40
0.0906621178
 40
0.1908665464
 40
0.3014983987
 40
0.4230268388
 40
0.5552829037
 40
0.6971951668
 40
0.8465461949
 40
1.0
 40
1.0
 40
1.0
 40
1.0
 10
5.7899339032
 20
5.719144632
 30
0.0
 10
5.7902378617
 20
5.7188537535
 30
0.0
 10
5.7909214855
 20
5.7182861268
 30
0.0
 10
5.7920989767
 20
5.7175254421
 30
0.0
 10
5.7934786657
 20
5.7168300376
 30
0.0
 10
5.7950574978
 20
5.7162175648
 30
0.0
 10
5.7968239907
 20
5.7157080663
 30
0.0
 10
5.7987534952
 20
5.71532301
 30
0.0
 10
5.8008051619
 20
5.7150822292
 30
0.0
 10
5.8022109518
 20
5.7150277864
 30
0.0
 10
5.8029230497
 20
5.7150277864
 30
0.0
  0
SPLINE
  5
475
100
AcDbEntity
  8
0
100
AcDbSpline
 62
7
  6
CONTINUOUS
 70
0
 71
3
 72
14
 73
10
 74
0
 42
0.0000001
 43
0.0000001
 44
0.0000000001
 40
0.0
 40
0.0
 40
0.0
 40
0.0
 40
0.1963844913
 40
0.3082785684
 40
0.4300083862
 40
0.5615037135
 40
0.7018449399
 40
0.8490299766
 40
1.0
 40
1.0
 40
1.0
 40
1.0
 10
5.7899339032
 20
5.7096618897
 30
0.0
 10
5.7905626216
 20
5.7089813552
 30
0.0
 10
5.791707811
 20
5.7080539968
 30
0.0
 10
5.7934711405
 20
5.7070476911
 30
0.0
 10
5.7950514088
 20
5.7063533508
 30
0.0
 10
5.7968189993
 20
5.7057761761
 30
0.0
 10
5.7987500442
 20
5.7053398711
 30
0.0
 10
5.8008033478
 20
5.7050670759
 30
0.0
 10
5.8022108006
 20
5.7050053725
 30
0.0
 10
5.8029230497
 20
5.7050053725
 30
0.0
  0
SPLINE
  5
476
100
AcDbEntity
  8
0
100
AcDbSpline
 62
7
  6
CONTINUOUS
 70
0
 71
3
 72
15
 73
11
 74
0
 42
0.0000001
 43
0.0000001
 44
0.0000000001
 40
0.0
 40
0.0
 40
0.0
 40
0.0
 40
0.0975585638
 40
0.2024488004
 40
0.3155550755
 40
0.4374328489
 40
0.5680936831
 40
0.7067626105
 40
0.8516551899
 40
1.0
 40
1.0
 40
1.0
 40
1.0
 10
5.7899339032
 20
5.701575091
 30
0.0
 10
5.7902332986
 20
5.7012147161
 30
0.0
 10
5.7909065817
 20
5.7005088941
 30
0.0
 10
5.7920839056
 20
5.6995491971
 30
0.0
 10
5.7934644314
 20
5.6986716357
 30
0.0
 10
5.7950449464
 20
5.6978986438
 30
0.0
 10
5.7968138215
 20
5.6972555944
 30
0.0
 10
5.7987463314
 20
5.696769591
 30
0.0
 10
5.8008013919
 20
5.6964656775
 30
0.0
 10
5.8022106367
 20
5.6963969173
 30
0.0
 10
5.8029230497
 20
5.6963969173
 30
0.0
  0
SPLINE
  5
477
100
AcDbEntity
  8
0
100
AcDbSpline
 62
7
  6
CONTINUOUS
 70
0
 71
3
 72
14
 73
10
 74
0
 42
0.0000001
 43
0.0000001
 44
0.0000000001
 40
0.0
 40
0.0
 40
0.0
 40
0.0
 40
0.1008980224
 40
0.2081329541
 40
0.3225466083
 40
0.444701072
 40
0.5746712565
 40
0.7118147206
 40
1.0
 40
1.0
 40
1.0
 40
1.0
 10
5.7899339032
 20
5.694915522
 30
0.0
 10
5.7902315205
 20
5.6945225843
 30
0.0
 10
5.7909003426
 20
5.6937523469
 30
0.0
 10
5.7920771001
 20
5.692698717
 30
0.0
 10
5.7934575999
 20
5.6917349603
 30
0.0
 10
5.7950385303
 20
5.6908858514
 30
0.0
 10
5.7968087139
 20
5.6901792994
 30
0.0
 10
5.7994272988
 20
5.6894560127
 30
0.0
 10
5.8015151527
 20
5.6892357252
 30
0.0
 10
5.8029230497
 20
5.6892357252
 30
0.0
  0
SPLINE
  5
478
100
AcDbEntity
  8
0
100
AcDbSpline
 62
7
  6
CONTINUOUS
 70
0
 71
3
 72
13
 73
9
 74
0
 42
0.0000001
 43
0.0000001
 44
0.0000000001
 40
0.0
 40
0.0
 40
0.0
 40
0.0
 40
0.104084456
 40
0.2135942894
 40
0.3293095513
 40
0.4517785456
 40
0.7163539652
 40
1.0
 40
1.0
 40
1.0
 40
1.0
 10
5.7899339032
 20
5.6897089474
 30
0.0
 10
5.7902300233
 20
5.6892849704
 30
0.0
 10
5.790894894
 20
5.6884535429
 30
0.0
 10
5.7920708747
 20
5.6873102539
 30
0.0
 10
5.7934511641
 20
5.686264055
 30
0.0
 10
5.7956136954
 20
5.6850030671
 30
0.0
 10
5.7987794365
 20
5.6838628609
 30
0.0
 10
5.8015137144
 20
5.6835495016
 30
0.0
 10
5.8029230259
 20
5.6835495016
 30
0.0
  0
SPLINE
  5
479
100
AcDbEntity
  8
0
100
AcDbSpline
 62
7
  6
CONTINUOUS
 70
0
 71
3
 72
15
 73
11
 74
0
 42
0.0000001
 43
0.0000001
 44
0.0000000001
 40
0.0
 40
0.0
 40
0.0
 40
0.0
 40
0.1069203807
 40
0.2184321702
 40
0.3352397635
 40
0.4578605531
 40
0.5864427908
 40
0.7205675262
 40
0.8590602509
 40
1.0
 40
1.0
 40
1.0
 40
1.0
 10
5.7899339032
 20
5.6859755104
 30
0.0
 10
5.7902287666
 20
5.6855220902
 30
0.0
 10
5.7908901663
 20
5.6846328055
 30
0.0
 10
5.7920653102
 20
5.683404439
 30
0.0
 10
5.7934450225
 20
5.6822800465
 30
0.0
 10
5.7950263399
 20
5.6812887127
 30
0.0
 10
5.7967977169
 20
5.680463386
 30
0.0
 10
5.7987344344
 20
5.6798392132
 30
0.0
 10
5.8007949476
 20
5.6794487092
 30
0.0
 10
5.8022100958
 20
5.6793602452
 30
0.0
 10
5.8029230497
 20
5.6793602452
 30
0.0
  0
SPLINE
  5
47A
100
AcDbEntity
  8
0
100
AcDbSpline
 62
7
  6
CONTINUOUS
 70
0
 71
3
 72
15
 73
11
 74
0
 42
0.0000001
 43
0.0000001
 44
0.0000000001
 40
0.0
 40
0.0
 40
0.0
 40
0.0
 40
0.1096395304
 40
0.2231252407
 40
0.3410793562
 40
0.4639767813
 40
0.591979409
 40
0.7247575283
 40
0.861316071
 40
1.0
 40
1.0
 40
1.0
 40
1.0
 10
5.7899339032
 20
5.683729655
 30
0.0
 10
5.7902277115
 20
5.6832484743
 30
0.0
 10
5.7908860964
 20
5.6823047829
 30
0.0
 10
5.7920603298
 20
5.6809962737
 30
0.0
 10
5.7934394329
 20
5.6797981099
 30
0.0
 10
5.795020626
 20
5.6787413307
 30
0.0
 10
5.7967925016
 20
5.6778611838
 30
0.0
 10
5.7987304266
 20
5.6771953165
 30
0.0
 10
5.8007927227
 20
5.6767786108
 30
0.0
 10
5.8022099083
 20
5.6766841636
 30
0.0
 10
5.8029230497
 20
5.6766841636
 30
0.0
  0
SPLINE
  5
47B
100
AcDbEntity
  8
0
100
AcDbSpline
 62
7
  6
CONTINUOUS
 70
0
 71
3
 72
16
 73
12
 74
0
 42
0.0000001
 43
0.0000001
 44
0.0000000001
 40
0.0
 40
0.0
 40
0.0
 40
0.0
 40
0.1121242383
 40
0.2274294468
 40
0.3464528799
 40
0.4696187954
 40
0.5970906195
 40
0.7286135408
 40
0.7956991328
 40
0.8634391488
 40
1.0
 40
1.0
 40
1.0
 40
1.0
 10
5.7899339032
 20
5.6829800698
 30
0.0
 10
5.7902268262
 20
5.6824729009
 30
0.0
 10
5.7908826053
 20
5.6814783892
 30
0.0
 10
5.7920559315
 20
5.6800949412
 30
0.0
 10
5.7934343384
 20
5.6788277665
 30
0.0
 10
5.7950152976
 20
5.67770969
 30
0.0
 10
5.7967874015
 20
5.6767781463
 30
0.0
 10
5.7983935933
 20
5.6761941618
 30
0.0
 10
5.799744054
 20
5.6758554699
 30
0.0
 10
5.8011405527
 20
5.6756070763
 30
0.0
 10
5.8022097218
 20
5.6755316098
 30
0.0
 10
5.8029230496
 20
5.6755316098
 30
0.0
  0
LINE
  5
47C
100
AcDbEntity
  8
0
100
AcDbLine
 62
7
  6
CONTINUOUS
 10
6.4129122507
 20
6.3291739606
 11
6.3999231057
 21
6.3294931468
  0
SPLINE
  5
47D
100
AcDbEntity
  8
0
100
AcDbSpline
 62
7
  6
CONTINUOUS
 70
0
 71
3
 72
15
 73
11
 74
0
 42
0.0000001
 43
0.0000001
 44
0.0000000001
 40
0.0
 40
0.0
 40
0.0
 40
0.0
 40
0.0754810007
 40
0.1660568037
 40
0.2720323498
 40
0.3933317368
 40
0.5292057062
 40
0.6778897231
 40
0.8362901365
 40
1.0
 40
1.0
 40
1.0
 40
1.0
 10
6.4129122507
 20
6.3466099365
 30
0.0
 10
6.4125914586
 20
6.3466787436
 30
0.0
 10
6.4118812443
 20
6.3468092691
 30
0.0
 10
6.410710646
 20
6.346977435
 30
0.0
 10
6.4093375044
 20
6.3471316292
 30
0.0
 10
6.4077647681
 20
6.3472677551
 30
0.0
 10
6.406004174
 20
6.3473811401
 30
0.0
 10
6.4040805903
 20
6.3474669012
 30
0.0
 10
6.4020348186
 20
6.3475205507
 30
0.0
 10
6.4006346911
 20
6.3475326719
 30
0.0
 10
6.3999231042
 20
6.3475326719
 30
0.0
  0
SPLINE
  5
47E
100
AcDbEntity
  8
0
100
AcDbSpline
 62
7
  6
CONTINUOUS
 70
0
 71
3
 72
15
 73
11
 74
0
 42
0.0000001
 43
0.0000001
 44
0.0000000001
 40
0.0
 40
0.0
 40
0.0
 40
0.0
 40
0.0771553524
 40
0.1687410905
 40
0.2751752851
 40
0.396465954
 40
0.5319371702
 40
0.6799014511
 40
0.8373556361
 40
1.0
 40
1.0
 40
1.0
 40
1.0
 10
6.4129122507
 20
6.3629776276
 30
0.0
 10
6.4125940126
 20
6.3630902704
 30
0.0
 10
6.4118868281
 20
6.3633051308
 30
0.0
 10
6.4107148568
 20
6.3635832127
 30
0.0
 10
6.4093406719
 20
6.3638380326
 30
0.0
 10
6.4077671492
 20
6.3640628839
 30
0.0
 10
6.4060058929
 20
6.3642501339
 30
0.0
 10
6.4040817133
 20
6.3643917452
 30
0.0
 10
6.4020353848
 20
6.3644803274
 30
0.0
 10
6.4006347395
 20
6.3645003423
 30
0.0
 10
6.3999231057
 20
6.3645003423
 30
0.0
  0
SPLINE
  5
47F
100
AcDbEntity
  8
0
100
AcDbSpline
 62
7
  6
CONTINUOUS
 70
0
 71
3
 72
15
 73
11
 74
0
 42
0.0000001
 43
0.0000001
 44
0.0000000001
 40
0.0
 40
0.0
 40
0.0
 40
0.0
 40
0.0794923149
 40
0.1725106075
 40
0.2796079928
 40
0.4008999789
 40
0.53580983
 40
0.6827578294
 40
0.8388697784
 40
1.0
 40
1.0
 40
1.0
 40
1.0
 10
6.4129122507
 20
6.3782137106
 30
0.0
 10
6.4125972108
 20
6.3783687274
 30
0.0
 10
6.4118942829
 20
6.378666299
 30
0.0
 10
6.4107206699
 20
6.3790538998
 30
0.0
 10
6.4093451629
 20
6.3794088104
 30
0.0
 10
6.407770578
 20
6.379721804
 30
0.0
 10
6.4060083961
 20
6.379982386
 30
0.0
 10
6.4040833591
 20
6.3801794225
 30
0.0
 10
6.4020362168
 20
6.3803026647
 30
0.0
 10
6.4006348086
 20
6.3803305135
 30
0.0
 10
6.3999231057
 20
6.3803305135
 30
0.0
  0
SPLINE
  5
480
100
AcDbEntity
  8
0
100
AcDbSpline
 62
7
  6
CONTINUOUS
 70
0
 71
3
 72
15
 73
11
 74
0
 42
0.0000001
 43
0.0000001
 44
0.0000000001
 40
0.0
 40
0.0
 40
0.0
 40
0.0
 40
0.0823371102
 40
0.1771339591
 40
0.2850745875
 40
0.4063900031
 40
0.5406184245
 40
0.6863113113
 40
0.8407555324
 40
1.0
 40
1.0
 40
1.0
 40
1.0
 10
6.4129122507
 20
6.39225924
 30
0.0
 10
6.4126006162
 20
6.3924550236
 30
0.0
 10
6.4119028283
 20
6.3928331281
 30
0.0
 10
6.4107276354
 20
6.3933294296
 30
0.0
 10
6.4093507284
 20
6.3937835482
 30
0.0
 10
6.4077749189
 20
6.3941838177
 30
0.0
 10
6.4060116138
 20
6.3945169641
 30
0.0
 10
6.4040854948
 20
6.3947688242
 30
0.0
 10
6.4020373024
 20
6.3949263428
 30
0.0
 10
6.4006348988
 20
6.3949619416
 30
0.0
 10
6.3999231057
 20
6.3949619416
 30
0.0
  0
SPLINE
  5
481
100
AcDbEntity
  8
0
100
AcDbSpline
 62
7
  6
CONTINUOUS
 70
0
 71
3
 72
15
 73
11
 74
0
 42
0.0000001
 43
0.0000001
 44
0.0000000001
 40
0.0
 40
0.0
 40
0.0
 40
0.0
 40
0.0855306835
 40
0.1823673932
 40
0.2913012004
 40
0.4126723508
 40
0.5461395066
 40
0.6904006405
 40
0.842928537
 40
1.0
 40
1.0
 40
1.0
 40
1.0
 10
6.4129122507
 20
6.4050598764
 30
0.0
 10
6.4126039131
 20
6.4052948327
 30
0.0
 10
6.4119117475
 20
6.4057508876
 30
0.0
 10
6.4107352923
 20
6.406354514
 30
0.0
 10
6.4093570875
 20
6.406906537
 30
0.0
 10
6.4077800106
 20
6.4073928936
 30
0.0
 10
6.4060154584
 20
6.4077975841
 30
0.0
 10
6.4040880771
 20
6.4081034819
 30
0.0
 10
6.4020386239
 20
6.4082947802
 30
0.0
 10
6.4006350088
 20
6.4083380205
 30
0.0
 10
6.3999231057
 20
6.4083380205
 30
0.0
  0
SPLINE
  5
482
100
AcDbEntity
  8
0
100
AcDbSpline
 62
7
  6
CONTINUOUS
 70
0
 71
3
 72
15
 73
11
 74
0
 42
0.0000001
 43
0.0000001
 44
0.0000000001
 40
0.0
 40
0.0
 40
0.0
 40
0.0
 40
0.0889271739
 40
0.1879808981
 40
0.2980243736
 40
0.4194900881
 40
0.5521535053
 40
0.6948665277
 40
0.8453052224
 40
1.0
 40
1.0
 40
1.0
 40
1.0
 10
6.4129122507
 20
6.4165660966
 30
0.0
 10
6.4126069222
 20
6.4168387014
 30
0.0
 10
6.4119204879
 20
6.4173698748
 30
0.0
 10
6.4107432241
 20
6.4180788317
 30
0.0
 10
6.409363957
 20
6.4187269867
 30
0.0
 10
6.407785678
 20
6.4192978852
 30
0.0
 10
6.4060198297
 20
6.4197728298
 30
0.0
 10
6.4040910547
 20
6.4201317874
 30
0.0
 10
6.4020401603
 20
6.4203562526
 30
0.0
 10
6.4006351368
 20
6.4204070007
 30
0.0
 10
6.3999231057
 20
6.4204070007
 30
0.0
  0
SPLINE
  5
483
100
AcDbEntity
  8
0
100
AcDbSpline
 62
7
  6
CONTINUOUS
 70
0
 71
3
 72
15
 73
11
 74
0
 42
0.0000001
 43
0.0000001
 44
0.0000000001
 40
0.0
 40
0.0
 40
0.0
 40
0.0
 40
0.0924032116
 40
0.1937737697
 40
0.3050090869
 40
0.4266104885
 40
0.5584594925
 40
0.6995622623
 40
0.847808344
 40
1.0
 40
1.0
 40
1.0
 40
1.0
 10
6.4129122507
 20
6.4267333853
 30
0.0
 10
6.4126095696
 20
6.427042176
 30
0.0
 10
6.4119286868
 20
6.4276455003
 30
0.0
 10
6.4107510924
 20
6.4284571837
 30
0.0
 10
6.4093710745
 20
6.4291992114
 30
0.0
 10
6.4077917439
 20
6.4298527281
 30
0.0
 10
6.4060246199
 20
6.4303963528
 30
0.0
 10
6.4040943699
 20
6.4308071931
 30
0.0
 10
6.4020418866
 20
6.4310640933
 30
0.0
 10
6.4006352808
 20
6.4311221897
 30
0.0
 10
6.3999231057
 20
6.4311221897
 30
0.0
  0
SPLINE
  5
484
100
AcDbEntity
  8
0
100
AcDbSpline
 62
7
  6
CONTINUOUS
 70
0
 71
3
 72
14
 73
10
 74
0
 42
0.0000001
 43
0.0000001
 44
0.0000000001
 40
0.0
 40
0.0
 40
0.0
 40
0.0
 40
0.1992721227
 40
0.311791836
 40
0.4336154822
 40
0.5647151333
 40
0.7042453971
 40
0.8503122813
 40
1.0
 40
1.0
 40
1.0
 40
1.0
 10
6.4129122507
 20
6.4355224072
 30
0.0
 10
6.4122880234
 20
6.4362362725
 30
0.0
 10
6.411147034
 20
6.4372156021
 30
0.0
 10
6.4093785623
 20
6.4382824947
 30
0.0
 10
6.4077979346
 20
6.4390167023
 30
0.0
 10
6.4060297491
 20
6.4396270252
 30
0.0
 10
6.4040979511
 20
6.4400883993
 30
0.0
 10
6.4020437781
 20
6.4403768716
 30
0.0
 10
6.4006354386
 20
6.4404421324
 30
0.0
 10
6.3999231057
 20
6.4404421324
 30
0.0
  0
SPLINE
  5
485
100
AcDbEntity
  8
0
100
AcDbSpline
 62
7
  6
CONTINUOUS
 70
0
 71
3
 72
14
 73
10
 74
0
 42
0.0000001
 43
0.0000001
 44
0.0000000001
 40
0.0
 40
0.0
 40
0.0
 40
0.0
 40
0.099263876
 40
0.2053530356
 40
0.3191334596
 40
0.4411677084
 40
0.5715004861
 40
0.7094253605
 40
1.0
 40
1.0
 40
1.0
 40
1.0
 10
6.4129122507
 20
6.4428991593
 30
0.0
 10
6.4126137827
 20
6.4432760013
 30
0.0
 10
6.4119427952
 20
6.4440144272
 30
0.0
 10
6.4107657307
 20
6.4450215958
 30
0.0
 10
6.4093851815
 20
6.4459427065
 30
0.0
 10
6.4078044632
 20
6.4467541327
 30
0.0
 10
6.4060347909
 20
6.4474292686
 30
0.0
 10
6.4034146869
 20
6.4481209289
 30
0.0
 10
6.4013303188
 20
6.4483307719
 30
0.0
 10
6.3999231057
 20
6.4483307719
 30
0.0
  0
SPLINE
  5
486
100
AcDbEntity
  8
0
100
AcDbSpline
 62
7
  6
CONTINUOUS
 70
0
 71
3
 72
14
 73
10
 74
0
 42
0.0000001
 43
0.0000001
 44
0.0000000001
 40
0.0
 40
0.0
 40
0.0
 40
0.0
 40
0.1024900755
 40
0.2108492579
 40
0.3258901914
 40
0.4481711417
 40
0.5777909251
 40
0.7141692323
 40
1.0
 40
1.0
 40
1.0
 40
1.0
 10
6.4129122507
 20
6.4488351024
 30
0.0
 10
6.4126154147
 20
6.449243754
 30
0.0
 10
6.4119486344
 20
6.4500449935
 30
0.0
 10
6.41077224
 20
6.4511440111
 30
0.0
 10
6.4093918613
 20
6.4521494622
 30
0.0
 10
6.4078107858
 20
6.4530354431
 30
0.0
 10
6.4060401309
 20
6.4537727626
 30
0.0
 10
6.4034231107
 20
6.4545269791
 30
0.0
 10
6.4013317099
 20
6.4547575885
 30
0.0
 10
6.3999231057
 20
6.4547575885
 30
0.0
  0
SPLINE
  5
487
100
AcDbEntity
  8
0
100
AcDbSpline
 62
7
  6
CONTINUOUS
 70
0
 71
3
 72
15
 73
11
 74
0
 42
0.0000001
 43
0.0000001
 44
0.0000000001
 40
0.0
 40
0.0
 40
0.0
 40
0.0
 40
0.1054790868
 40
0.2159532333
 40
0.3321654385
 40
0.4546509497
 40
0.5835449865
 40
0.7183791755
 40
0.8578834863
 40
1.0
 40
1.0
 40
1.0
 40
1.0
 10
6.4129122507
 20
6.4533072715
 30
0.0
 10
6.4126167866
 20
6.4537461745
 30
0.0
 10
6.4119537144
 20
6.4546069515
 30
0.0
 10
6.410778133
 20
6.4557933785
 30
0.0
 10
6.4093981669
 20
6.4568791882
 30
0.0
 10
6.4078168553
 20
6.4578363265
 30
0.0
 10
6.4060457903
 20
6.4586330477
 30
0.0
 10
6.4041097187
 20
6.459235496
 30
0.0
 10
6.4020501068
 20
6.4596123628
 30
0.0
 10
6.4006359696
 20
6.4596977182
 30
0.0
 10
6.3999231057
 20
6.4596977182
 30
0.0
  0
SPLINE
  5
488
100
AcDbEntity
  8
0
100
AcDbSpline
 62
7
  6
CONTINUOUS
 70
0
 71
3
 72
15
 73
11
 74
0
 42
0.0000001
 43
0.0000001
 44
0.0000000001
 40
0.0
 40
0.0
 40
0.0
 40
0.0
 40
0.1083074676
 40
0.2208232789
 40
0.338211269
 40
0.4609697227
 40
0.5892545148
 40
0.722693947
 40
0.8602044096
 40
1.0
 40
1.0
 40
1.0
 40
1.0
 10
6.4129122507
 20
6.4562983645
 30
0.0
 10
6.4126179383
 20
6.4567658801
 30
0.0
 10
6.4119581019
 20
6.4576828058
 30
0.0
 10
6.4107834147
 20
6.4589518727
 30
0.0
 10
6.4094039994
 20
6.4601137273
 30
0.0
 10
6.4078227287
 20
6.4611382856
 30
0.0
 10
6.4060510823
 20
6.4619914337
 30
0.0
 10
6.4041137456
 20
6.4626367597
 30
0.0
 10
6.4020523283
 20
6.4630405506
 30
0.0
 10
6.4006361567
 20
6.4631320484
 30
0.0
 10
6.3999231057
 20
6.4631320484
 30
0.0
  0
SPLINE
  5
489
100
AcDbEntity
  8
0
100
AcDbSpline
 62
7
  6
CONTINUOUS
 70
0
 71
3
 72
15
 73
11
 74
0
 42
0.0000001
 43
0.0000001
 44
0.0000000001
 40
0.0
 40
0.0
 40
0.0
 40
0.0
 40
0.1109148539
 40
0.2253334569
 40
0.3438356051
 40
0.4668725618
 40
0.5946074605
 40
0.726750552
 40
0.8623903367
 40
1.0
 40
1.0
 40
1.0
 40
1.0
 10
6.4129122507
 20
6.4577968097
 30
0.0
 10
6.4126189049
 20
6.4582912109
 30
0.0
 10
6.411961873
 20
6.4592607674
 30
0.0
 10
6.4107881006
 20
6.4606074085
 30
0.0
 10
6.4094093403
 20
6.4618406889
 30
0.0
 10
6.407828268
 20
6.4629286483
 30
0.0
 10
6.4060562026
 20
6.4638349479
 30
0.0
 10
6.4041177193
 20
6.4645207375
 30
0.0
 10
6.4020545482
 20
6.4649499775
 30
0.0
 10
6.4006363439
 20
6.4650472925
 30
0.0
 10
6.3999231057
 20
6.4650472925
 30
0.0
  0
SPLINE
  5
48A
100
AcDbEntity
  8
0
100
AcDbSpline
 62
7
  6
CONTINUOUS
 70
0
 71
3
 72
16
 73
12
 74
0
 42
0.0000001
 43
0.0000001
 44
0.0000000001
 40
0.0
 40
0.0
 40
0.0
 40
0.0
 40
0.1365608096
 40
0.2043008183
 40
0.2713864258
 40
0.4029093668
 40
0.530381215
 40
0.6535471396
 40
0.7725705727
 40
0.8878757753
 40
1.0
 40
1.0
 40
1.0
 40
1.0
 10
6.3999230777
 20
5.6755316098
 30
0.0
 10
6.4006364064
 20
5.6755316098
 30
0.0
 10
6.4017055772
 20
5.6756070729
 30
0.0
 10
6.4031020785
 20
5.6758554653
 30
0.0
 10
6.404452542
 20
5.6761941559
 30
0.0
 10
6.4060587376
 20
5.6767781396
 30
0.0
 10
6.4078308457
 20
5.6777096833
 30
0.0
 10
6.4094118085
 20
5.6788277607
 30
0.0
 10
6.4107902184
 20
5.680094937
 30
0.0
 10
6.4119635469
 20
5.6814783869
 30
0.0
 10
6.4126193272
 20
5.6824729001
 30
0.0
 10
6.4129122507
 20
5.6829800698
 30
0.0
  0
SPLINE
  5
48B
100
AcDbEntity
  8
0
100
AcDbSpline
 62
7
  6
CONTINUOUS
 70
0
 71
3
 72
15
 73
11
 74
0
 42
0.0000001
 43
0.0000001
 44
0.0000000001
 40
0.0
 40
0.0
 40
0.0
 40
0.0
 40
0.1386838907
 40
0.2752424381
 40
0.4080205729
 40
0.5360232279
 40
0.6589206636
 40
0.7768747804
 40
0.8903604832
 40
1.0
 40
1.0
 40
1.0
 40
1.0
 10
6.3999230779
 20
5.6766841636
 30
0.0
 10
6.4006362204
 20
5.6766841636
 30
0.0
 10
6.4020534084
 20
5.6767786068
 30
0.0
 10
6.4041157084
 20
5.6771953115
 30
0.0
 10
6.4060536377
 20
5.6778611775
 30
0.0
 10
6.4078255174
 20
5.6787413244
 30
0.0
 10
6.4094067141
 20
5.6797981045
 30
0.0
 10
6.4107858201
 20
5.6809962696
 30
0.0
 10
6.4119600558
 20
5.6823047807
 30
0.0
 10
6.4126184418
 20
5.6832484735
 30
0.0
 10
6.4129122507
 20
5.683729655
 30
0.0
  0
SPLINE
  5
48C
100
AcDbEntity
  8
0
100
AcDbSpline
 62
7
  6
CONTINUOUS
 70
0
 71
3
 72
15
 73
11
 74
0
 42
0.0000001
 43
0.0000001
 44
0.0000000001
 40
0.0
 40
0.0
 40
0.0
 40
0.0
 40
0.1409397085
 40
0.2794324378
 40
0.4135571902
 40
0.5421394568
 40
0.664760258
 40
0.7815678529
 40
0.8930796342
 40
1.0
 40
1.0
 40
1.0
 40
1.0
 10
6.399923079
 20
5.6793602452
 30
0.0
 10
6.4006360339
 20
5.6793602452
 30
0.0
 10
6.4020511844
 20
5.6794487057
 30
0.0
 10
6.4041117013
 20
5.6798392087
 30
0.0
 10
6.406048423
 20
5.6804633803
 30
0.0
 10
6.4078198038
 20
5.6812887071
 30
0.0
 10
6.4094011247
 20
5.6822800416
 30
0.0
 10
6.4107808399
 20
5.6834044353
 30
0.0
 10
6.411955986
 20
5.6846328035
 30
0.0
 10
6.4126173868
 20
5.6855220895
 30
0.0
 10
6.4129122507
 20
5.6859755104
 30
0.0
  0
SPLINE
  5
48D
100
AcDbEntity
  8
0
100
AcDbSpline
 62
7
  6
CONTINUOUS
 70
0
 71
3
 72
13
 73
9
 74
0
 42
0.0000001
 43
0.0000001
 44
0.0000000001
 40
0.0
 40
0.0
 40
0.0
 40
0.0
 40
0.2836459851
 40
0.5482214857
 40
0.6706905023
 40
0.7864057654
 40
0.8959155793
 40
1.0
 40
1.0
 40
1.0
 40
1.0
 10
6.3999230777
 20
5.6835495016
 30
0.0
 10
6.4013323936
 20
5.6835495016
 30
0.0
 10
6.4040666818
 20
5.68386285
 30
0.0
 10
6.4072324359
 20
5.6850030565
 30
0.0
 10
6.4093949765
 20
5.6862640459
 30
0.0
 10
6.4107752716
 20
5.6873102471
 30
0.0
 10
6.4119512567
 20
5.6884535391
 30
0.0
 10
6.4126161296
 20
5.6892849691
 30
0.0
 10
6.4129122507
 20
5.6897089474
 30
0.0
  0
SPLINE
  5
48E
100
AcDbEntity
  8
0
100
AcDbSpline
 62
7
  6
CONTINUOUS
 70
0
 71
3
 72
14
 73
10
 74
0
 42
0.0000001
 43
0.0000001
 44
0.0000000001
 40
0.0
 40
0.0
 40
0.0
 40
0.0
 40
0.2881852346
 40
0.4253287201
 40
0.5552989383
 40
0.6774534172
 40
0.791867074
 40
0.8991019962
 40
1.0
 40
1.0
 40
1.0
 40
1.0
 10
6.3999230786
 20
5.6892357252
 30
0.0
 10
6.4013309778
 20
5.6892357252
 30
0.0
 10
6.4034188355
 20
5.6894560086
 30
0.0
 10
6.4060374257
 20
5.6901792946
 30
0.0
 10
6.4078076133
 20
5.6908858464
 30
0.0
 10
6.4093885471
 20
5.691734956
 30
0.0
 10
6.4107690499
 20
5.6926987138
 30
0.0
 10
6.4119458096
 20
5.6937523451
 30
0.0
 10
6.4126146329
 20
5.6945225837
 30
0.0
 10
6.4129122507
 20
5.694915522
 30
0.0
  0
SPLINE
  5
48F
100
AcDbEntity
  8
0
100
AcDbSpline
 62
7
  6
CONTINUOUS
 70
0
 71
3
 72
15
 73
11
 74
0
 42
0.0000001
 43
0.0000001
 44
0.0000000001
 40
0.0
 40
0.0
 40
0.0
 40
0.0
 40
0.1483447586
 40
0.2932373421
 40
0.4319062927
 40
0.5625671625
 40
0.6844449525
 40
0.7975512308
 40
0.902441457
 40
1.0
 40
1.0
 40
1.0
 40
1.0
 10
6.3999230781
 20
5.6963969173
 30
0.0
 10
6.4006354921
 20
5.6963969173
 30
0.0
 10
6.4020447394
 20
5.6964656747
 30
0.0
 10
6.4040998038
 20
5.6967695873
 30
0.0
 10
6.4060323179
 20
5.6972555898
 30
0.0
 10
6.407801197
 20
5.6978986393
 30
0.0
 10
6.4093817155
 20
5.6986716318
 30
0.0
 10
6.4107622443
 20
5.6995491942
 30
0.0
 10
6.4119395705
 20
5.7005088924
 30
0.0
 10
6.4126128547
 20
5.7012147155
 30
0.0
 10
6.4129122507
 20
5.701575091
 30
0.0
  0
SPLINE
  5
490
100
AcDbEntity
  8
0
100
AcDbSpline
 62
7
  6
CONTINUOUS
 70
0
 71
3
 72
14
 73
10
 74
0
 42
0.0000001
 43
0.0000001
 44
0.0000000001
 40
0.0
 40
0.0
 40
0.0
 40
0.0
 40
0.1509699675
 40
0.2981550079
 40
0.4384962593
 40
0.5699916248
 40
0.6917214612
 40
0.8036155426
 40
1.0
 40
1.0
 40
1.0
 40
1.0
 10
6.3999230778
 20
5.7050053725
 30
0.0
 10
6.400635328
 20
5.7050053725
 30
0.0
 10
6.4020427832
 20
5.7050670733
 30
0.0
 10
6.4040960907
 20
5.7053398678
 30
0.0
 10
6.4060271399
 20
5.7057761719
 30
0.0
 10
6.4077947345
 20
5.7063533467
 30
0.0
 10
6.4093750063
 20
5.7070476875
 30
0.0
 10
6.4111383395
 20
5.7080539943
 30
0.0
 10
6.4122835312
 20
5.7089813541
 30
0.0
 10
6.4129122507
 20
5.7096618897
 30
0.0
  0
SPLINE
  5
491
100
AcDbEntity
  8
0
100
AcDbSpline
 62
7
  6
CONTINUOUS
 70
0
 71
3
 72
15
 73
11
 74
0
 42
0.0000001
 43
0.0000001
 44
0.0000000001
 40
0.0
 40
0.0
 40
0.0
 40
0.0
 40
0.1534537453
 40
0.3028047758
 40
0.4447170647
 40
0.5769731693
 40
0.6985016293
 40
0.8091334869
 40
0.9093379052
 40
1.0
 40
1.0
 40
1.0
 40
1.0
 10
6.3999230782
 20
5.7150277864
 30
0.0
 10
6.4006351772
 20
5.7150277864
 30
0.0
 10
6.4020409694
 20
5.715082227
 30
0.0
 10
6.40409264
 20
5.7153230071
 30
0.0
 10
6.4060221487
 20
5.7157080627
 30
0.0
 10
6.4077886456
 20
5.7162175612
 30
0.0
 10
6.4093674812
 20
5.7168300344
 30
0.0
 10
6.4107471731
 20
5.7175254397
 30
0.0
 10
6.4119246666
 20
5.7182861255
 30
0.0
 10
6.4126082917
 20
5.718853753
 30
0.0
 10
6.4129122507
 20
5.719144632
 30
0.0
  0
SPLINE
  5
492
100
AcDbEntity
  8
0
100
AcDbSpline
 62
7
  6
CONTINUOUS
 70
0
 71
3
 72
15
 73
11
 74
0
 42
0.0000001
 43
0.0000001
 44
0.0000000001
 40
0.0
 40
0.0
 40
0.0
 40
0.0
 40
0.1559027484
 40
0.3074028442
 40
0.4509006146
 40
0.5839693742
 40
0.7053827475
 40
0.814859602
 40
0.9127880221
 40
1.0
 40
1.0
 40
1.0
 40
1.0
 10
6.3999230779
 20
5.7264253842
 30
0.0
 10
6.4006350406
 20
5.7264253842
 30
0.0
 10
6.4020393346
 20
5.7264723939
 30
0.0
 10
6.4040894859
 20
5.7266803583
 30
0.0
 10
6.406017554
 20
5.7270129177
 30
0.0
 10
6.407782757
 20
5.727452913
 30
0.0
 10
6.4093604569
 20
5.7279817579
 30
0.0
 10
6.4107392362
 20
5.7285820997
 30
0.0
 10
6.4119161629
 20
5.729238683
 30
0.0
 10
6.4126054592
 20
5.7297326634
 30
0.0
 10
6.4129122507
 20
5.7299866309
 30
0.0
  0
SPLINE
  5
493
100
AcDbEntity
  8
0
100
AcDbSpline
 62
7
  6
CONTINUOUS
 70
0
 71
3
 72
15
 73
11
 74
0
 42
0.0000001
 43
0.0000001
 44
0.0000000001
 40
0.0
 40
0.0
 40
0.0
 40
0.0
 40
0.1581877277
 40
0.3116997463
 40
0.4566946794
 40
0.5905503147
 40
0.7118890986
 40
0.8203102439
 40
0.9161000142
 40
1.0
 40
1.0
 40
1.0
 40
1.0
 10
6.3999230779
 20
5.7391540708
 30
0.0
 10
6.4006349214
 20
5.7391540708
 30
0.0
 10
6.4020379028
 20
5.7391935031
 30
0.0
 10
6.4040866991
 20
5.7393679798
 30
0.0
 10
6.4060134329
 20
5.7396469664
 30
0.0
 10
6.4077773552
 20
5.740016028
 30
0.0
 10
6.4093538081
 20
5.740459512
 30
0.0
 10
6.410731394
 20
5.740962775
 30
0.0
 10
6.4119072759
 20
5.741512952
 30
0.0
 10
6.4126022914
 20
5.7419303749
 30
0.0
 10
6.4129122507
 20
5.7421459409
 30
0.0
  0
SPLINE
  5
494
100
AcDbEntity
  8
0
100
AcDbSpline
 62
7
  6
CONTINUOUS
 70
0
 71
3
 72
15
 73
11
 74
0
 42
0.0000001
 43
0.0000001
 44
0.0000000001
 40
0.0
 40
0.0
 40
0.0
 40
0.0
 40
0.1602277505
 40
0.3155414793
 40
0.4618876263
 40
0.5964695516
 40
0.7177698331
 40
0.8252687418
 40
0.9191385693
 40
1.0
 40
1.0
 40
1.0
 40
1.0
 10
6.3999230778
 20
5.7531646014
 30
0.0
 10
6.400634821
 20
5.7531646014
 30
0.0
 10
6.4020366967
 20
5.7531963353
 30
0.0
 10
6.4040843342
 20
5.7533367698
 30
0.0
 10
6.4060098899
 20
5.7535613028
 30
0.0
 10
6.4077726175
 20
5.7538582776
 30
0.0
 10
6.4093478098
 20
5.7542150373
 30
0.0
 10
6.4107240268
 20
5.7546196876
 30
0.0
 10
6.4118984628
 20
5.7550617759
 30
0.0
 10
6.4125989096
 20
5.7553999166
 30
0.0
 10
6.4129122507
 20
5.7555755199
 30
0.0
  0
SPLINE
  5
495
100
AcDbEntity
  8
0
100
AcDbSpline
 62
7
  6
CONTINUOUS
 70
0
 71
3
 72
15
 73
11
 74
0
 42
0.0000001
 43
0.0000001
 44
0.0000000001
 40
0.0
 40
0.0
 40
0.0
 40
0.0
 40
0.1619379918
 40
0.3187661164
 40
0.4662556305
 40
0.6014640108
 40
0.7227533735
 40
0.8294956086
 40
0.921749572
 40
1.0
 40
1.0
 40
1.0
 40
1.0
 10
6.3999230779
 20
5.7684027721
 30
0.0
 10
6.4006347413
 20
5.7684027721
 30
0.0
 10
6.4020357361
 20
5.7684267114
 30
0.0
 10
6.4040824387
 20
5.7685326639
 30
0.0
 10
6.4060070195
 20
5.7687020504
 30
0.0
 10
6.4077687138
 20
5.7689260468
 30
0.0
 10
6.4093427477
 20
5.7691950594
 30
0.0
 10
6.4107175789
 20
5.7695000116
 30
0.0
 10
6.4118903659
 20
5.7698329269
 30
0.0
 10
6.4125955595
 20
5.7700893844
 30
0.0
 10
6.4129122507
 20
5.7702234115
 30
0.0
  0
SPLINE
  5
496
100
AcDbEntity
  8
0
100
AcDbSpline
 62
7
  6
CONTINUOUS
 70
0
 71
3
 72
15
 73
11
 74
0
 42
0.0000001
 43
0.0000001
 44
0.0000000001
 40
0.0
 40
0.0
 40
0.0
 40
0.0
 40
0.1632366011
 40
0.3212170165
 40
0.4695811693
 40
0.605276101
 40
0.7265706998
 40
0.8327493834
 40
0.9237734112
 40
1.0
 40
1.0
 40
1.0
 40
1.0
 10
6.3999230777
 20
5.7848096292
 30
0.0
 10
6.4006346829
 20
5.7848096292
 30
0.0
 10
6.402035036
 20
5.7848257022
 30
0.0
 10
6.404081051
 20
5.7848968448
 30
0.0
 10
6.406004901
 20
5.7850105724
 30
0.0
 10
6.407765794
 20
5.7851609422
 30
0.0
 10
6.4093388906
 20
5.7853414878
 30
0.0
 10
6.4107125141
 20
5.7855460436
 30
0.0
 10
6.411883751
 20
5.7857691987
 30
0.0
 10
6.412592624
 20
5.7859420562
 30
0.0
 10
6.4129122507
 20
5.7860329459
 30
0.0
  0
SPLINE
  5
497
100
AcDbEntity
  8
0
100
AcDbSpline
 62
7
  6
CONTINUOUS
 70
0
 71
3
 72
14
 73
10
 74
0
 42
0.0000001
 43
0.0000001
 44
0.0000000001
 40
0.0
 40
0.0
 40
0.0
 40
0.0
 40
0.3227566448
 40
0.4716749786
 40
0.6076817805
 40
0.7289865434
 40
0.8348163824
 40
0.9250658757
 40
1.0
 40
1.0
 40
1.0
 40
1.0
 10
6.3999230778
 20
5.8023216978
 30
0.0
 10
6.4013229992
 20
5.8023216978
 30
0.0
 10
6.4033689717
 20
5.8023446831
 30
0.0
 10
6.4060035926
 20
5.8024236913
 30
0.0
 10
6.4077639777
 20
5.8025000247
 30
0.0
 10
6.40933646
 20
5.8025916448
 30
0.0
 10
6.4107092504
 20
5.8026954115
 30
0.0
 10
6.4118793707
 20
5.8028085558
 30
0.0
 10
6.4125905692
 20
5.802896504
 30
0.0
 10
6.4129122507
 20
5.8029429591
 30
0.0
  0
SPLINE
  5
498
100
AcDbEntity
  8
0
100
AcDbSpline
 62
7
  6
CONTINUOUS
 70
0
 71
3
 72
23
 73
19
 74
0
 42
0.0000001
 43
0.0000001
 44
0.0000000001
 40
0.0
 40
0.0
 40
0.0
 40
0.0
 40
0.1815326917
 40
0.3565546592
 40
0.4396803438
 40
0.5188970348
 40
0.5935319631
 40
0.6629719969
 40
0.7266812376
 40
0.7842194292
 40
0.8352667908
 40
0.8796669448
 40
0.9175063622
 40
0.9492538736
 40
0.9631855166
 40
0.9760848861
 40
0.9882403816
 40
1.0
 40
1.0
 40
1.0
 40
1.0
 10
6.3999230769
 20
6.1718308448
 30
0.0
 10
6.4008988852
 20
6.1718308448
 30
0.0
 10
6.4028158241
 20
6.1717832267
 30
0.0
 10
6.4051736754
 20
6.1716033371
 30
0.0
 10
6.4069743285
 20
6.1713860585
 30
0.0
 10
6.4082337758
 20
6.1711934968
 30
0.0
 10
6.4094134414
 20
6.1709705117
 30
0.0
 10
6.4105020936
 20
6.1707192805
 30
0.0
 10
6.411489436
 20
6.1704423038
 30
0.0
 10
6.4123662893
 20
6.1701423042
 30
0.0
 10
6.4131246764
 20
6.1698222329
 30
0.0
 10
6.4137582623
 20
6.169484833
 30
0.0
 10
6.4142619103
 20
6.1691329037
 30
0.0
 10
6.4145840791
 20
6.1688148924
 30
0.0
 10
6.4147625446
 20
6.1685543387
 30
0.0
 10
6.4148547526
 20
6.1683651543
 30
0.0
 10
6.4149105248
 20
6.1681742405
 30
0.0
 10
6.4149230769
 20
6.168045373
 30
0.0
 10
6.4149230769
 20
6.1679821606
 30
0.0
  0
SPLINE
  5
499
100
AcDbEntity
  8
0
100
AcDbSpline
 62
7
  6
CONTINUOUS
 70
0
 71
3
 72
15
 73
11
 74
0
 42
0.0000001
 43
0.0000001
 44
0.0000000001
 40
0.0
 40
0.0
 40
0.0
 40
0.0
 40
0.0887353671
 40
0.1876626338
 40
0.2976419908
 40
0.4191013754
 40
0.5518099893
 40
0.6946111142
 40
0.8451691927
 40
1.0
 40
1.0
 40
1.0
 40
1.0
 10
6.4129122507
 20
6.1833284704
 30
0.0
 10
6.4126067642
 20
6.1830579184
 30
0.0
 10
6.411920014
 20
6.1825308412
 30
0.0
 10
6.4107427824
 20
6.1818276732
 30
0.0
 10
6.4093635665
 20
6.1811848041
 30
0.0
 10
6.4077853511
 20
6.1806185554
 30
0.0
 10
6.4060195748
 20
6.1801474752
 30
0.0
 10
6.4040908799
 20
6.1797914363
 30
0.0
 10
6.4020400697
 20
6.1795687957
 30
0.0
 10
6.4006351293
 20
6.1795184608
 30
0.0
 10
6.3999231057
 20
6.1795184608
 30
0.0
  0
SPLINE
  5
49A
100
AcDbEntity
  8
0
100
AcDbSpline
 62
7
  6
CONTINUOUS
 70
0
 71
3
 72
17
 73
13
 74
0
 42
0.0000001
 43
0.0000001
 44
0.0000000001
 40
0.0
 40
0.0
 40
0.0
 40
0.0
 40
0.1329058963
 40
0.1989991801
 40
0.2646363904
 40
0.3940392232
 40
0.5206530374
 40
0.582889765
 40
0.6444003959
 40
0.7652859835
 40
0.8836936566
 40
1.0
 40
1.0
 40
1.0
 40
1.0
 10
6.3999230784
 20
6.1914766823
 30
0.0
 10
6.400636755
 20
6.1914766823
 30
0.0
 10
6.4017077089
 20
6.1913938187
 30
0.0
 10
6.4031035089
 20
6.1911220687
 30
0.0
 10
6.404456908
 20
6.1907505937
 30
0.0
 10
6.4060675856
 20
6.1901088595
 30
0.0
 10
6.4075535043
 20
6.189252841
 30
0.0
 10
6.4086439112
 20
6.1884649688
 30
0.0
 10
6.409655851
 20
6.1876260589
 30
0.0
 10
6.4107973373
 20
6.1864765307
 30
0.0
 10
6.411968912
 20
6.1849633096
 30
0.0
 10
6.4126206602
 20
6.1838807619
 30
0.0
 10
6.4129122507
 20
6.1833284704
 30
0.0
  0
SPLINE
  5
49B
100
AcDbEntity
  8
0
100
AcDbSpline
 62
7
  6
CONTINUOUS
 70
0
 71
3
 72
15
 73
11
 74
0
 42
0.0000001
 43
0.0000001
 44
0.0000000001
 40
0.0
 40
0.0
 40
0.0
 40
0.0
 40
0.0853466836
 40
0.1820646648
 40
0.2909399223
 40
0.4123069989
 40
0.5458178847
 40
0.6901621479
 40
0.8428017202
 40
1.0
 40
1.0
 40
1.0
 40
1.0
 10
6.4129122507
 20
6.2061568916
 30
0.0
 10
6.4126037364
 20
6.2059240709
 30
0.0
 10
6.4119112524
 20
6.205472274
 30
0.0
 10
6.4107348562
 20
6.2048745635
 30
0.0
 10
6.4093567183
 20
6.2043279377
 30
0.0
 10
6.407779711
 20
6.2038463265
 30
0.0
 10
6.40601523
 20
6.2034455795
 30
0.0
 10
6.4040879228
 20
6.2031426599
 30
0.0
 10
6.4020385447
 20
6.2029532233
 30
0.0
 10
6.4006350022
 20
6.2029104042
 30
0.0
 10
6.3999231057
 20
6.2029104042
 30
0.0
  0
SPLINE
  5
49C
100
AcDbEntity
  8
0
100
AcDbSpline
 62
7
  6
CONTINUOUS
 70
0
 71
3
 72
17
 73
13
 74
0
 42
0.0000001
 43
0.0000001
 44
0.0000000001
 40
0.0
 40
0.0
 40
0.0
 40
0.0
 40
0.1312853364
 40
0.1966509784
 40
0.2616508718
 40
0.3901307173
 40
0.5163869944
 40
0.5786728815
 40
0.6403835396
 40
0.7621031994
 40
0.8818751003
 40
1.0
 40
1.0
 40
1.0
 40
1.0
 10
6.3999230783
 20
6.2146191848
 30
0.0
 10
6.4006369212
 20
6.2146191848
 30
0.0
 10
6.4017087227
 20
6.2145329736
 30
0.0
 10
6.4031041847
 20
6.2142507381
 30
0.0
 10
6.4044589446
 20
6.2138644804
 30
0.0
 10
6.406071667
 20
6.2131966114
 30
0.0
 10
6.4075558717
 20
6.2123079374
 30
0.0
 10
6.4086448789
 20
6.2114906031
 30
0.0
 10
6.409657943
 20
6.2106182432
 30
0.0
 10
6.410800255
 20
6.209422819
 30
0.0
 10
6.411971077
 20
6.2078514259
 30
0.0
 10
6.412621185
 20
6.2067294394
 30
0.0
 10
6.4129122507
 20
6.2061568916
 30
0.0
  0
SPLINE
  5
49D
100
AcDbEntity
  8
0
100
AcDbSpline
 62
7
  6
CONTINUOUS
 70
0
 71
3
 72
15
 73
11
 74
0
 42
0.0000001
 43
0.0000001
 44
0.0000000001
 40
0.0
 40
0.0
 40
0.0
 40
0.0
 40
0.0821684825
 40
0.1768588741
 40
0.2847484246
 40
0.4060617708
 40
0.5403305091
 40
0.6860983337
 40
0.8406424445
 40
1.0
 40
1.0
 40
1.0
 40
1.0
 10
6.4129122507
 20
6.2284604137
 30
0.0
 10
6.4126004276
 20
6.2282668526
 30
0.0
 10
6.4119023377
 20
6.2278931573
 30
0.0
 10
6.4107272262
 20
6.2274028643
 30
0.0
 10
6.4093503957
 20
6.2269542272
 30
0.0
 10
6.4077746565
 20
6.2265587783
 30
0.0
 10
6.4060114178
 20
6.2262296389
 30
0.0
 10
6.404085364
 20
6.2259808057
 30
0.0
 10
6.4020372357
 20
6.2258251793
 30
0.0
 10
6.4006348933
 20
6.2257900085
 30
0.0
 10
6.3999231057
 20
6.2257900085
 30
0.0
  0
SPLINE
  5
49E
100
AcDbEntity
  8
0
100
AcDbSpline
 62
7
  6
CONTINUOUS
 70
0
 71
3
 72
17
 73
13
 74
0
 42
0.0000001
 43
0.0000001
 44
0.0000000001
 40
0.0
 40
0.0
 40
0.0
 40
0.0
 40
0.129844713
 40
0.1945647477
 40
0.2590004869
 40
0.386667978
 40
0.5126167351
 40
0.5749508502
 40
0.6368426669
 40
0.7593048568
 40
0.8802801084
 40
1.0
 40
1.0
 40
1.0
 40
1.0
 10
6.3999230779
 20
6.2372040491
 30
0.0
 10
6.400637075
 20
6.2372040491
 30
0.0
 10
6.4017096607
 20
6.2371148247
 30
0.0
 10
6.4031048065
 20
6.2368231968
 30
0.0
 10
6.4044608089
 20
6.2364236586
 30
0.0
 10
6.4060753493
 20
6.2357322865
 30
0.0
 10
6.4075579697
 20
6.2348144154
 30
0.0
 10
6.4086457283
 20
6.2339707465
 30
0.0
 10
6.4096597613
 20
6.2330683893
 30
0.0
 10
6.4108027454
 20
6.2318318494
 30
0.0
 10
6.4119728953
 20
6.2302083991
 30
0.0
 10
6.4126216211
 20
6.2290511104
 30
0.0
 10
6.4129122507
 20
6.2284604137
 30
0.0
  0
SPLINE
  5
49F
100
AcDbEntity
  8
0
100
AcDbSpline
 62
7
  6
CONTINUOUS
 70
0
 71
3
 72
15
 73
11
 74
0
 42
0.0000001
 43
0.0000001
 44
0.0000000001
 40
0.0
 40
0.0
 40
0.0
 40
0.0
 40
0.0793476729
 40
0.1722765408
 40
0.2793321034
 40
0.4006235437
 40
0.5355681051
 40
0.6825793968
 40
0.8387751493
 40
1.0
 40
1.0
 40
1.0
 40
1.0
 10
6.4129122507
 20
6.2501527486
 30
0.0
 10
6.4125970241
 20
6.2500000442
 30
0.0
 10
6.4118938329
 20
6.2497070151
 30
0.0
 10
6.4107203124
 20
6.2493254817
 30
0.0
 10
6.4093448827
 20
6.2489761122
 30
0.0
 10
6.4077703622
 20
6.2486679954
 30
0.0
 10
6.4060082376
 20
6.2484114696
 30
0.0
 10
6.4040832545
 20
6.2482174981
 30
0.0
 10
6.4020361638
 20
6.2480961724
 30
0.0
 10
6.4006348042
 20
6.2480687569
 30
0.0
 10
6.3999231057
 20
6.2480687569
 30
0.0
  0
SPLINE
  5
4A0
100
AcDbEntity
  8
0
100
AcDbSpline
 62
7
  6
CONTINUOUS
 70
0
 71
3
 72
16
 73
12
 74
0
 42
0.0000001
 43
0.0000001
 44
0.0000000001
 40
0.0
 40
0.0
 40
0.0
 40
0.0
 40
0.1285962497
 40
0.1927582386
 40
0.2567079288
 40
0.3836816599
 40
0.5093788518
 40
0.633748124
 40
0.756867982
 40
0.8788952558
 40
1.0
 40
1.0
 40
1.0
 40
1.0
 10
6.3999230767
 20
6.2591438988
 30
0.0
 10
6.4006372137
 20
6.2591438988
 30
0.0
 10
6.4017105071
 20
6.2590520131
 30
0.0
 10
6.4031053678
 20
6.2587521193
 30
0.0
 10
6.4044624668
 20
6.2583408784
 30
0.0
 10
6.4060786949
 20
6.2576286718
 30
0.0
 10
6.407850884
 20
6.2564998826
 30
0.0
 10
6.4094297067
 20
6.2551475309
 30
0.0
 10
6.4108047527
 20
6.2536170356
 30
0.0
 10
6.4119744318
 20
6.2519477251
 30
0.0
 10
6.4126219803
 20
6.250759416
 30
0.0
 10
6.4129122507
 20
6.2501527486
 30
0.0
  0
SPLINE
  5
4A1
100
AcDbEntity
  8
0
100
AcDbSpline
 62
7
  6
CONTINUOUS
 70
0
 71
3
 72
15
 73
11
 74
0
 42
0.0000001
 43
0.0000001
 44
0.0000000001
 40
0.0
 40
0.0
 40
0.0
 40
0.0
 40
0.0770436075
 40
0.1685615103
 40
0.2749646645
 40
0.3962556676
 40
0.5317537514
 40
0.6797662864
 40
0.8372840232
 40
1.0
 40
1.0
 40
1.0
 40
1.0
 10
6.4129122507
 20
6.2711499729
 30
0.0
 10
6.4125938494
 20
6.2710397295
 30
0.0
 10
6.4118864618
 20
6.2708295174
 30
0.0
 10
6.4107145769
 20
6.2705575347
 30
0.0
 10
6.4093404591
 20
6.2703082939
 30
0.0
 10
6.4077669883
 20
6.2700883589
 30
0.0
 10
6.4060057763
 20
6.2699052006
 30
0.0
 10
6.4040816369
 20
6.2697666825
 30
0.0
 10
6.4020353463
 20
6.2696800349
 30
0.0
 10
6.4006347363
 20
6.2696604572
 30
0.0
 10
6.3999231057
 20
6.2696604572
 30
0.0
  0
SPLINE
  5
4A2
100
AcDbEntity
  8
0
100
AcDbSpline
 62
7
  6
CONTINUOUS
 70
0
 71
3
 72
16
 73
12
 74
0
 42
0.0000001
 43
0.0000001
 44
0.0000000001
 40
0.0
 40
0.0
 40
0.0
 40
0.0
 40
0.1275232417
 40
0.1912059403
 40
0.2547384561
 40
0.3811172688
 40
0.5065979877
 40
0.6311468149
 40
0.7548206587
 40
0.8777327739
 40
1.0
 40
1.0
 40
1.0
 40
1.0
 10
6.3999230779
 20
6.280353853
 30
0.0
 10
6.4006373381
 20
6.280353853
 30
0.0
 10
6.4017112549
 20
6.2802596696
 30
0.0
 10
6.4031058594
 20
6.2799526741
 30
0.0
 10
6.4044639243
 20
6.2795313424
 30
0.0
 10
6.4060815019
 20
6.2788012511
 30
0.0
 10
6.4078535536
 20
6.277645245
 30
0.0
 10
6.4094319613
 20
6.2762606588
 30
0.0
 10
6.4108064869
 20
6.2746939666
 30
0.0
 10
6.4119756685
 20
6.2729853483
 30
0.0
 10
6.412622272
 20
6.2717703699
 30
0.0
 10
6.4129122507
 20
6.2711499729
 30
0.0
  0
SPLINE
  5
4A3
100
AcDbEntity
  8
0
100
AcDbSpline
 62
7
  6
CONTINUOUS
 70
0
 71
3
 72
14
 73
10
 74
0
 42
0.0000001
 43
0.0000001
 44
0.0000000001
 40
0.0
 40
0.0
 40
0.0
 40
0.0
 40
0.0754110504
 40
0.1659455123
 40
0.2719031981
 40
0.3932045863
 40
0.5290971882
 40
0.6778132314
 40
1.0
 40
1.0
 40
1.0
 40
1.0
 10
6.4129122507
 20
6.2913708524
 30
0.0
 10
6.4125913453
 20
6.2913045168
 30
0.0
 10
6.4118810036
 20
6.2911787115
 30
0.0
 10
6.4107104673
 20
6.291016658
 30
0.0
 10
6.4093373712
 20
6.2908680633
 30
0.0
 10
6.4077646702
 20
6.2907368824
 30
0.0
 10
6.406004098
 20
6.2906275953
 30
0.0
 10
6.4033696585
 20
6.2905144982
 30
0.0
 10
6.4013231308
 20
6.2904815754
 30
0.0
 10
6.3999231057
 20
6.2904815754
 30
0.0
  0
SPLINE
  5
4A4
100
AcDbEntity
  8
0
100
AcDbSpline
 62
7
  6
CONTINUOUS
 70
0
 71
3
 72
16
 73
12
 74
0
 42
0.0000001
 43
0.0000001
 44
0.0000000001
 40
0.0
 40
0.0
 40
0.0
 40
0.0
 40
0.126635775
 40
0.1899225808
 40
0.2531110513
 40
0.3790011125
 40
0.5043067894
 40
0.6290070286
 40
0.7531391895
 40
0.8767793792
 40
1.0
 40
1.0
 40
1.0
 40
1.0
 10
6.3999230773
 20
6.3007518543
 30
0.0
 10
6.4006374424
 20
6.3007518543
 30
0.0
 10
6.4017118884
 20
6.3006557517
 30
0.0
 10
6.403106274
 20
6.3003428434
 30
0.0
 10
6.4044651512
 20
6.2999130937
 30
0.0
 10
6.4060838424
 20
6.2991680761
 30
0.0
 10
6.4078557531
 20
6.2979894103
 30
0.0
 10
6.4094337976
 20
6.2965780012
 30
0.0
 10
6.4108078843
 20
6.2949811914
 30
0.0
 10
6.4119766559
 20
6.2932398622
 30
0.0
 10
6.4126225036
 20
6.2920026834
 30
0.0
 10
6.4129122507
 20
6.2913708524
 30
0.0
  0
LINE
  5
4A5
100
AcDbEntity
  8
0
100
AcDbLine
 62
7
  6
CONTINUOUS
 10
6.4129122507
 20
6.3107371565
 11
6.3999231057
 21
6.3104515586
  0
SPLINE
  5
4A6
100
AcDbEntity
  8
0
100
AcDbSpline
 62
7
  6
CONTINUOUS
 70
0
 71
3
 72
17
 73
13
 74
0
 42
0.0000001
 43
0.0000001
 44
0.0000000001
 40
0.0
 40
0.0
 40
0.0
 40
0.0
 40
0.0630239042
 40
0.1260451246
 40
0.1890112966
 40
0.2519204353
 40
0.3774103016
 40
0.5025642612
 40
0.6273701815
 40
0.7518489082
 40
0.8760465041
 40
1.0
 40
1.0
 40
1.0
 40
1.0
 10
6.3999230782
 20
6.3202589869
 30
0.0
 10
6.4002806708
 20
6.3202589869
 30
0.0
 10
6.4009962589
 20
6.3202265967
 30
0.0
 10
6.4020602614
 20
6.32008201
 30
0.0
 10
6.4031067152
 20
6.319843746
 30
0.0
 10
6.4044660752
 20
6.31940729
 30
0.0
 10
6.4060857264
 20
6.3186503833
 30
0.0
 10
6.4078574816
 20
6.3174537024
 30
0.0
 10
6.4094352332
 20
6.3160209773
 30
0.0
 10
6.410808966
 20
6.3144002343
 30
0.0
 10
6.4119774151
 20
6.3126329078
 30
0.0
 10
6.4126226809
 20
6.3113780803
 30
0.0
 10
6.4129122507
 20
6.3107371565
 30
0.0
  0
SPLINE
  5
4A7
100
AcDbEntity
  8
0
100
AcDbSpline
 62
7
  6
CONTINUOUS
 70
0
 71
3
 72
17
 73
13
 74
0
 42
0.0000001
 43
0.0000001
 44
0.0000000001
 40
0.0
 40
0.0
 40
0.0
 40
0.0
 40
0.0627615102
 40
0.1255314081
 40
0.188267855
 40
0.2509777917
 40
0.3761861636
 40
0.50124145
 40
0.6261374218
 40
0.7508822054
 40
0.8754994251
 40
1.0
 40
1.0
 40
1.0
 40
1.0
 10
6.3999230781
 20
6.3387997815
 30
0.0
 10
6.4002806787
 20
6.3387997815
 30
0.0
 10
6.4009963548
 20
6.3387670308
 30
0.0
 10
6.402060442
 20
6.3386208403
 30
0.0
 10
6.4031069667
 20
6.3383799372
 30
0.0
 10
6.4044668057
 20
6.3379385245
 30
0.0
 10
6.406087103
 20
6.3371728255
 30
0.0
 10
6.4078587525
 20
6.3359628434
 30
0.0
 10
6.409436277
 20
6.3345143844
 30
0.0
 10
6.4108097485
 20
6.3328759759
 30
0.0
 10
6.4119779612
 20
6.3310894583
 30
0.0
 10
6.4126228079
 20
6.3298215999
 30
0.0
 10
6.4129122507
 20
6.3291739606
 30
0.0
  0
SPLINE
  5
4A8
100
AcDbEntity
  8
0
100
AcDbSpline
 62
7
  6
CONTINUOUS
 70
0
 71
3
 72
17
 73
13
 74
0
 42
0.0000001
 43
0.0000001
 44
0.0000000001
 40
0.0
 40
0.0
 40
0.0
 40
0.0
 40
0.0625936181
 40
0.1252027435
 40
0.1877922997
 40
0.2503749517
 40
0.3754037606
 40
0.5003965509
 40
0.62535058
 40
0.7502655803
 40
0.8751506653
 40
1.0
 40
1.0
 40
1.0
 40
1.0
 10
6.3999230782
 20
6.3563025074
 30
0.0
 10
6.4002806839
 20
6.3563025074
 30
0.0
 10
6.400996417
 20
6.3562695251
 30
0.0
 10
6.4020605589
 20
6.3561223047
 30
0.0
 10
6.4031071292
 20
6.3558797071
 30
0.0
 10
6.4044672768
 20
6.35543511
 30
0.0
 10
6.4060879869
 20
6.3546637618
 30
0.0
 10
6.4078595642
 20
6.3534452426
 30
0.0
 10
6.4094369404
 20
6.351986687
 30
0.0
 10
6.4108102437
 20
6.3503369426
 30
0.0
 10
6.4119783054
 20
6.3485381091
 30
0.0
 10
6.4126228879
 20
6.3472618867
 30
0.0
 10
6.4129122507
 20
6.3466099365
 30
0.0
  0
SPLINE
  5
4A9
100
AcDbEntity
  8
0
100
AcDbSpline
 62
7
  6
CONTINUOUS
 70
0
 71
3
 72
17
 73
13
 74
0
 42
0.0000001
 43
0.0000001
 44
0.0000000001
 40
0.0
 40
0.0
 40
0.0
 40
0.0
 40
0.0625201776
 40
0.1250589857
 40
0.1875843121
 40
0.2501113293
 40
0.3750617279
 40
0.5000273374
 40
0.6250068689
 40
0.749996321
 40
0.8749984229
 40
1.0
 40
1.0
 40
1.0
 40
1.0
 10
6.3999230787
 20
6.3726994498
 30
0.0
 10
6.4002806867
 20
6.3726994498
 30
0.0
 10
6.4009964449
 20
6.372666366
 30
0.0
 10
6.4020606108
 20
6.3725186942
 30
0.0
 10
6.4031072011
 20
6.3722753538
 30
0.0
 10
6.4044674841
 20
6.3718293605
 30
0.0
 10
6.4060883744
 20
6.3710555354
 30
0.0
 10
6.4078599191
 20
6.3698332752
 30
0.0
 10
6.4094372297
 20
6.3683702958
 30
0.0
 10
6.410810459
 20
6.3667155845
 30
0.0
 10
6.4119784548
 20
6.3649113546
 30
0.0
 10
6.4126229225
 20
6.3636314671
 30
0.0
 10
6.4129122507
 20
6.3629776276
 30
0.0
  0
SPLINE
  5
4AA
100
AcDbEntity
  8
0
100
AcDbSpline
 62
7
  6
CONTINUOUS
 70
0
 71
3
 72
17
 73
13
 74
0
 42
0.0000001
 43
0.0000001
 44
0.0000000001
 40
0.0
 40
0.0
 40
0.0
 40
0.0
 40
0.0625411599
 40
0.1251000571
 40
0.1876437327
 40
0.2501866423
 40
0.3751594345
 40
0.5001327999
 40
0.6251050387
 40
0.7500732201
 40
0.8750418995
 40
1.0
 40
1.0
 40
1.0
 40
1.0
 10
6.3999230776
 20
6.3879271723
 30
0.0
 10
6.400280685
 20
6.3879271723
 30
0.0
 10
6.400996436
 20
6.3878941175
 30
0.0
 10
6.4020605952
 20
6.3877465749
 30
0.0
 10
6.4031071798
 20
6.3875034468
 30
0.0
 10
6.4044674241
 20
6.3870578527
 30
0.0
 10
6.4060882632
 20
6.3862847356
 30
0.0
 10
6.4078598174
 20
6.3850635447
 30
0.0
 10
6.4094371469
 20
6.3836018296
 30
0.0
 10
6.4108103974
 20
6.3819485378
 30
0.0
 10
6.4119784121
 20
6.3801458501
 30
0.0
 10
6.4126229126
 20
6.3788670101
 30
0.0
 10
6.4129122507
 20
6.3782137106
 30
0.0
  0
SPLINE
  5
4AB
100
AcDbEntity
  8
0
100
AcDbSpline
 62
7
  6
CONTINUOUS
 70
0
 71
3
 72
17
 73
13
 74
0
 42
0.0000001
 43
0.0000001
 44
0.0000000001
 40
0.0
 40
0.0
 40
0.0
 40
0.0
 40
0.0626565734
 40
0.1253259809
 40
0.1879706084
 40
0.2506009729
 40
0.3756970628
 40
0.5007132291
 40
0.6256454484
 40
0.7504966238
 40
0.8752813239
 40
1.0
 40
1.0
 40
1.0
 40
1.0
 10
6.3999230776
 20
6.4019267617
 30
0.0
 10
6.4002806814
 20
6.4019267617
 30
0.0
 10
6.4009963931
 20
6.4018938663
 30
0.0
 10
6.4020605145
 20
6.4017470326
 30
0.0
 10
6.4031070677
 20
6.4015050709
 30
0.0
 10
6.4044670994
 20
6.4010616691
 30
0.0
 10
6.4060876549
 20
6.4002924414
 30
0.0
 10
6.4078592598
 20
6.3990771258
 30
0.0
 10
6.409436692
 20
6.3976223589
 30
0.0
 10
6.4108100584
 20
6.3959768682
 30
0.0
 10
6.4119781768
 20
6.3941826561
 30
0.0
 10
6.412622858
 20
6.3929095724
 30
0.0
 10
6.4129122507
 20
6.39225924
 30
0.0
  0
SPLINE
  5
4AC
100
AcDbEntity
  8
0
100
AcDbSpline
 62
7
  6
CONTINUOUS
 70
0
 71
3
 72
17
 73
13
 74
0
 42
0.0000001
 43
0.0000001
 44
0.0000000001
 40
0.0
 40
0.0
 40
0.0
 40
0.0
 40
0.0628664599
 40
0.1257368711
 40
0.1885651787
 40
0.2513547505
 40
0.3766755859
 40
0.5017701922
 40
0.6266300455
 40
0.7512684182
 40
0.875717945
 40
1.0
 40
1.0
 40
1.0
 40
1.0
 10
6.3999230777
 20
6.4146440563
 30
0.0
 10
6.4002806751
 20
6.4146440563
 30
0.0
 10
6.4009963158
 20
6.41461145
 30
0.0
 10
6.4020603691
 20
6.4144659018
 30
0.0
 10
6.4031068654
 20
6.4142260557
 30
0.0
 10
6.4044665124
 20
6.4137866284
 30
0.0
 10
6.4060865515
 20
6.4130244514
 30
0.0
 10
6.4078582444
 20
6.4118197953
 30
0.0
 10
6.4094358604
 20
6.410377636
 30
0.0
 10
6.4108094367
 20
6.4087463006
 30
0.0
 10
6.4119777439
 20
6.4069674671
 30
0.0
 10
6.4126227574
 20
6.4057048265
 30
0.0
 10
6.4129122507
 20
6.4050598764
 30
0.0
  0
SPLINE
  5
4AD
100
AcDbEntity
  8
0
100
AcDbSpline
 62
7
  6
CONTINUOUS
 70
0
 71
3
 72
16
 73
12
 74
0
 42
0.0000001
 43
0.0000001
 44
0.0000000001
 40
0.0
 40
0.0
 40
0.0
 40
0.0
 40
0.1262230459
 40
0.1893258983
 40
0.252354675
 40
0.3780184572
 40
0.5032439573
 40
0.6280154929
 40
0.752360822
 40
0.8763384509
 40
1.0
 40
1.0
 40
1.0
 40
1.0
 10
6.3999230779
 20
6.4260298554
 30
0.0
 10
6.4006374926
 20
6.4260298554
 30
0.0
 10
6.4017121888
 20
6.4259328539
 30
0.0
 10
6.4031064703
 20
6.4256171829
 30
0.0
 10
6.4044657293
 20
6.425183495
 30
0.0
 10
6.4060849372
 20
6.4244314925
 30
0.0
 10
6.4078567738
 20
6.4232422403
 30
0.0
 10
6.4094346432
 20
6.4218183037
 30
0.0
 10
6.4108085233
 20
6.4202074284
 30
0.0
 10
6.4119771047
 20
6.418450821
 30
0.0
 10
6.4126226085
 20
6.4172032708
 30
0.0
 10
6.4129122507
 20
6.4165660966
 30
0.0
  0
SPLINE
  5
4AE
100
AcDbEntity
  8
0
100
AcDbSpline
 62
7
  6
CONTINUOUS
 70
0
 71
3
 72
16
 73
12
 74
0
 42
0.0000001
 43
0.0000001
 44
0.0000000001
 40
0.0
 40
0.0
 40
0.0
 40
0.0
 40
0.1270072678
 40
0.1904597361
 40
0.2537921135
 40
0.3798864012
 40
0.5052649109
 40
0.6299014529
 40
0.7538417531
 40
0.8771775866
 40
1.0
 40
1.0
 40
1.0
 40
1.0
 10
6.3999230787
 20
6.4360401095
 30
0.0
 10
6.4006373995
 20
6.4360401095
 30
0.0
 10
6.4017116225
 20
6.4359448123
 30
0.0
 10
6.4031061004
 20
6.4356343835
 30
0.0
 10
6.404464636
 20
6.4352081657
 30
0.0
 10
6.4060828611
 20
6.4344694114
 30
0.0
 10
6.4078548337
 20
6.4333002479
 30
0.0
 10
6.4094330323
 20
6.4319000854
 30
0.0
 10
6.4108073035
 20
6.4303159036
 30
0.0
 10
6.4119762464
 20
6.4285882903
 30
0.0
 10
6.4126224077
 20
6.427360421
 30
0.0
 10
6.4129122507
 20
6.4267333853
 30
0.0
  0
SPLINE
  5
4AF
100
AcDbEntity
  8
0
100
AcDbSpline
 62
7
  6
CONTINUOUS
 70
0
 71
3
 72
16
 73
12
 74
0
 42
0.0000001
 43
0.0000001
 44
0.0000000001
 40
0.0
 40
0.0
 40
0.0
 40
0.0
 40
0.1279772642
 40
0.1918626818
 40
0.2555715574
 40
0.3822015676
 40
0.5077732356
 40
0.6322456136
 40
0.7556850237
 40
0.8782233427
 40
1.0
 40
1.0
 40
1.0
 40
1.0
 10
6.3999230775
 20
6.444636091
 30
0.0
 10
6.4006372851
 20
6.444636091
 30
0.0
 10
6.401710936
 20
6.4445428828
 30
0.0
 10
6.40310565
 20
6.4442388983
 30
0.0
 10
6.4044633041
 20
6.4438218477
 30
0.0
 10
6.406080311
 20
6.4430993451
 30
0.0
 10
6.4078524253
 20
6.4419548787
 30
0.0
 10
6.4094310119
 20
6.4405839572
 30
0.0
 10
6.4108057591
 20
6.439032609
 30
0.0
 10
6.411975151
 20
6.4373406542
 30
0.0
 10
6.4126221502
 20
6.4361369825
 30
0.0
 10
6.4129122507
 20
6.4355224072
 30
0.0
  0
SPLINE
  5
4B0
100
AcDbEntity
  8
0
100
AcDbSpline
 62
7
  6
CONTINUOUS
 70
0
 71
3
 72
16
 73
12
 74
0
 42
0.0000001
 43
0.0000001
 44
0.0000000001
 40
0.0
 40
0.0
 40
0.0
 40
0.0
 40
0.1291323719
 40
0.1935341157
 40
0.2576928248
 40
0.3849655388
 40
0.5107729455
 40
0.6350539566
 40
0.7578970526
 40
0.879480266
 40
1.0
 40
1.0
 40
1.0
 40
1.0
 10
6.3999230761
 20
6.4517845436
 30
0.0
 10
6.4006371522
 20
6.4517845436
 30
0.0
 10
6.4017101396
 20
6.4516937972
 30
0.0
 10
6.4031051245
 20
6.4513974347
 30
0.0
 10
6.4044617477
 20
6.450991203
 30
0.0
 10
6.406077301
 20
6.4502878708
 30
0.0
 10
6.4078495458
 20
6.4491726134
 30
0.0
 10
6.4094285657
 20
6.4478362956
 30
0.0
 10
6.4108038673
 20
6.4463238069
 30
0.0
 10
6.4119737956
 20
6.4446740484
 30
0.0
 10
6.4126218295
 20
6.4434990018
 30
0.0
 10
6.4129122507
 20
6.4428991593
 30
0.0
  0
SPLINE
  5
4B1
100
AcDbEntity
  8
0
100
AcDbSpline
 62
7
  6
CONTINUOUS
 70
0
 71
3
 72
17
 73
13
 74
0
 42
0.0000001
 43
0.0000001
 44
0.0000000001
 40
0.0
 40
0.0
 40
0.0
 40
0.0
 40
0.1304625488
 40
0.1954593184
 40
0.2601367254
 40
0.3881516642
 40
0.5142311214
 40
0.5765440382
 40
0.638357786
 40
0.7605014249
 40
0.8809616856
 40
1.0
 40
1.0
 40
1.0
 40
1.0
 10
6.3999230775
 20
6.4574578113
 30
0.0
 10
6.4006370077
 20
6.4574578113
 30
0.0
 10
6.4017092535
 20
6.4573698839
 30
0.0
 10
6.4031045368
 20
6.4570822931
 30
0.0
 10
6.4044600026
 20
6.4566884675
 30
0.0
 10
6.4060737636
 20
6.4560072082
 30
0.0
 10
6.4075570705
 20
6.4551018801
 30
0.0
 10
6.4086453651
 20
6.4542695239
 30
0.0
 10
6.4096589861
 20
6.4533800638
 30
0.0
 10
6.4108016889
 20
6.4521611964
 30
0.0
 10
6.4119721272
 20
6.4505601155
 30
0.0
 10
6.4126214374
 20
6.4494179978
 30
0.0
 10
6.4129122507
 20
6.4488351024
 30
0.0
  0
SPLINE
  5
4B2
100
AcDbEntity
  8
0
100
AcDbSpline
 62
7
  6
CONTINUOUS
 70
0
 71
3
 72
17
 73
13
 74
0
 42
0.0000001
 43
0.0000001
 44
0.0000000001
 40
0.0
 40
0.0
 40
0.0
 40
0.0
 40
0.1319836073
 40
0.1976625981
 40
0.2629367529
 40
0.3918131131
 40
0.5182219353
 40
0.5804859717
 40
0.6421099434
 40
0.7634700389
 40
0.8826554874
 40
1.0
 40
1.0
 40
1.0
 40
1.0
 10
6.3999230779
 20
6.4616339454
 30
0.0
 10
6.4006368482
 20
6.4616339454
 30
0.0
 10
6.4017082802
 20
6.4615491818
 30
0.0
 10
6.4031038901
 20
6.461271474
 30
0.0
 10
6.4044580589
 20
6.460891605
 30
0.0
 10
6.4060699002
 20
6.4602350344
 30
0.0
 10
6.4075548523
 20
6.4593604533
 30
0.0
 10
6.4086444633
 20
6.4585558323
 30
0.0
 10
6.4096570476
 20
6.4576979211
 30
0.0
 10
6.4107990131
 20
6.4565223156
 30
0.0
 10
6.4119701601
 20
6.4549760332
 30
0.0
 10
6.4126209635
 20
6.4538710721
 30
0.0
 10
6.4129122507
 20
6.4533072715
 30
0.0
  0
SPLINE
  5
4B3
100
AcDbEntity
  8
0
100
AcDbSpline
 62
7
  6
CONTINUOUS
 70
0
 71
3
 72
17
 73
13
 74
0
 42
0.0000001
 43
0.0000001
 44
0.0000000001
 40
0.0
 40
0.0
 40
0.0
 40
0.0
 40
0.1336827322
 40
0.2001253349
 40
0.2660690484
 40
0.3959177404
 40
0.5227073265
 40
0.5849224405
 40
0.6463386506
 40
0.7668249775
 40
0.8845747385
 40
1.0
 40
1.0
 40
1.0
 40
1.0
 10
6.3999230776
 20
6.4642967893
 30
0.0
 10
6.4006366772
 20
6.4642967893
 30
0.0
 10
6.4017072374
 20
6.4642155164
 30
0.0
 10
6.4031031931
 20
6.463948767
 30
0.0
 10
6.4044559536
 20
6.4635843262
 30
0.0
 10
6.4060656522
 20
6.4629550166
 30
0.0
 10
6.4075523671
 20
6.4621145934
 30
0.0
 10
6.4086434428
 20
6.4613407959
 30
0.0
 10
6.4096548306
 20
6.4605178229
 30
0.0
 10
6.4107958933
 20
6.4593901794
 30
0.0
 10
6.4119678265
 20
6.4579047232
 30
0.0
 10
6.4126203947
 20
6.4568409969
 30
0.0
 10
6.4129122507
 20
6.4562983645
 30
0.0
  0
SPLINE
  5
4B4
100
AcDbEntity
  8
0
100
AcDbSpline
 62
7
  6
CONTINUOUS
 70
0
 71
3
 72
17
 73
13
 74
0
 42
0.0000001
 43
0.0000001
 44
0.0000000001
 40
0.0
 40
0.0
 40
0.0
 40
0.0
 40
0.1355541638
 40
0.2028396305
 40
0.2695243318
 40
0.4004561176
 40
0.5276808771
 40
0.5898492359
 40
0.651042043
 40
0.7705683768
 40
0.8867227464
 40
1.0
 40
1.0
 40
1.0
 40
1.0
 10
6.3999230779
 20
6.4654360408
 30
0.0
 10
6.4006364983
 20
6.4654360408
 30
0.0
 10
6.4017061416
 20
6.4653585673
 30
0.0
 10
6.4031024566
 20
6.4651038089
 30
0.0
 10
6.4044537144
 20
6.4647561951
 30
0.0
 10
6.4060610595
 20
6.4641565751
 30
0.0
 10
6.4075496241
 20
6.4633536033
 30
0.0
 10
6.4086423037
 20
6.4626136226
 30
0.0
 10
6.4096523262
 20
6.4618288218
 30
0.0
 10
6.4107922902
 20
6.4607536437
 30
0.0
 10
6.4119650759
 20
6.4593348306
 30
0.0
 10
6.4126197149
 20
6.4583162807
 30
0.0
 10
6.4129122507
 20
6.4577968097
 30
0.0
  0
SPLINE
  5
4B5
100
AcDbEntity
  8
0
100
AcDbSpline
 62
7
  6
CONTINUOUS
 70
0
 71
3
 72
19
 73
15
 74
0
 42
0.0000001
 43
0.0000001
 44
0.0000000001
 40
0.0
 40
0.0
 40
0.0
 40
0.0
 40
0.1385612077
 40
0.2750953709
 40
0.3421059525
 40
0.4079865766
 40
0.5356995573
 40
0.6578434252
 40
0.7170037818
 40
0.7749997596
 40
0.8320282201
 40
0.8883368738
 40
0.9442338522
 40
1.0
 40
1.0
 40
1.0
 40
1.0
 10
6.3999230769
 20
6.1671223103
 30
0.0
 10
6.4004837115
 20
6.1671223103
 30
0.0
 10
6.4015988241
 20
6.1670312182
 30
0.0
 10
6.4029476046
 20
6.1666905022
 30
0.0
 10
6.403961904
 20
6.1662874373
 30
0.0
 10
6.4049040727
 20
6.165811358
 30
0.0
 10
6.4059611803
 20
6.1650794335
 30
0.0
 10
6.4068320363
 20
6.1641679994
 30
0.0
 10
6.4073753783
 20
6.1633643603
 30
0.0
 10
6.4077008792
 20
6.1627373625
 30
0.0
 10
6.4079447825
 20
6.1620866283
 30
0.0
 10
6.4081044578
 20
6.1614188917
 30
0.0
 10
6.4081780001
 20
6.1607414899
 30
0.0
 10
6.4081691504
 20
6.1602883241
 30
0.0
 10
6.4081503948
 20
6.1600634687
 30
0.0
  0
SPLINE
  5
4B6
100
AcDbEntity
  8
0
100
AcDbSpline
 62
7
  6
CONTINUOUS
 70
0
 71
3
 72
11
 73
7
 74
0
 42
0.0000001
 43
0.0000001
 44
0.0000000001
 40
0.0
 40
0.0
 40
0.0
 40
0.0
 40
0.2346866538
 40
0.4823290123
 40
0.7388891742
 40
1.0
 40
1.0
 40
1.0
 40
1.0
 10
6.4081503948
 20
6.1600634687
 30
0.0
 10
6.4075263969
 20
6.1598755105
 30
0.0
 10
6.406226056
 20
6.1595471068
 30
0.0
 10
6.404202288
 20
6.159198888
 30
0.0
 10
6.4020861023
 20
6.1589867864
 30
0.0
 10
6.4006481444
 20
6.1589394552
 30
0.0
 10
6.3999230769
 20
6.1589394552
 30
0.0
  0
SPLINE
  5
4B7
100
AcDbEntity
  8
0
100
AcDbSpline
 62
7
  6
CONTINUOUS
 70
0
 71
3
 72
15
 73
11
 74
0
 42
0.0000001
 43
0.0000001
 44
0.0000000001
 40
0.0
 40
0.0
 40
0.0
 40
0.0
 40
0.1388055912
 40
0.2754682959
 40
0.408318623
 40
0.536351918
 40
0.6592338685
 40
0.7771259586
 40
0.8905057017
 40
1.0
 40
1.0
 40
1.0
 40
1.0
 10
6.0374230786
 20
6.119607386
 30
0.0
 10
6.0381362106
 20
6.119607386
 30
0.0
 10
6.0395532855
 20
6.1195132664
 30
0.0
 10
6.0416154879
 20
6.1190979782
 30
0.0
 10
6.0435533531
 20
6.1184343644
 30
0.0
 10
6.0453252092
 20
6.1175571761
 30
0.0
 10
6.0469064167
 20
6.1165039254
 30
0.0
 10
6.048285559
 20
6.1153097363
 30
0.0
 10
6.0494598456
 20
6.1140055437
 30
0.0
 10
6.050118388
 20
6.1130647807
 30
0.0
 10
6.0504122507
 20
6.1125850959
 30
0.0
  0
SPLINE
  5
4B8
100
AcDbEntity
  8
0
100
AcDbSpline
 62
7
  6
CONTINUOUS
 70
0
 71
3
 72
22
 73
18
 74
0
 42
0.0000001
 43
0.0000001
 44
0.0000000001
 40
0.0
 40
0.0
 40
0.0
 40
0.0
 40
0.2054641678
 40
0.3921845627
 40
0.557081937
 40
0.6305210547
 40
0.6975815792
 40
0.7580378424
 40
0.8117292821
 40
0.8585591996
 40
0.8985465341
 40
0.9318671184
 40
0.9590025836
 40
0.9705676204
 40
0.9810496334
 40
0.990738079
 40
1.0
 40
1.0
 40
1.0
 40
1.0
 10
6.044697814
 20
6.0109972215
 30
0.0
 10
6.0452571599
 20
6.0110441589
 30
0.0
 10
6.0463238002
 20
6.0111470056
 30
0.0
 10
6.0478337794
 20
6.0113390521
 30
0.0
 10
6.0489798813
 20
6.0115284663
 30
0.0
 10
6.0497972398
 20
6.0116963344
 30
0.0
 10
6.050331563
 20
6.0118228405
 30
0.0
 10
6.0508089782
 20
6.0119542683
 30
0.0
 10
6.0512274996
 20
6.0120899655
 30
0.0
 10
6.0515854402
 20
6.0122293268
 30
0.0
 10
6.0518816886
 20
6.0123717313
 30
0.0
 10
6.0521153435
 20
6.0125166868
 30
0.0
 10
6.0522654982
 20
6.0126462518
 30
0.0
 10
6.052348732
 20
6.0127522682
 30
0.0
 10
6.0523913392
 20
6.0128282601
 30
0.0
 10
6.0524172228
 20
6.0129049244
 30
0.0
 10
6.0524230769
 20
6.0129568577
 30
0.0
 10
6.0524230769
 20
6.0129821606
 30
0.0
  0
SPLINE
  5
4B9
100
AcDbEntity
  8
0
100
AcDbSpline
 62
7
  6
CONTINUOUS
 70
0
 71
3
 72
11
 73
7
 74
0
 42
0.0000001
 43
0.0000001
 44
0.0000000001
 40
0.0
 40
0.0
 40
0.0
 40
0.0
 40
0.2361292391
 40
0.4806048593
 40
0.7348930347
 40
1.0
 40
1.0
 40
1.0
 40
1.0
 10
6.0504122507
 20
6.016419675
 30
0.0
 10
6.050091423
 20
6.0158806293
 30
0.0
 10
6.0493652797
 20
6.0148252434
 30
0.0
 10
6.0480513479
 20
6.0133735668
 30
0.0
 10
6.0464933891
 20
6.0120636573
 30
0.0
 10
6.0453193574
 20
6.0113284184
 30
0.0
 10
6.044697814
 20
6.0109972215
 30
0.0
  0
SPLINE
  5
4BA
100
AcDbEntity
  8
0
100
AcDbSpline
 62
7
  6
CONTINUOUS
 70
0
 71
3
 72
15
 73
11
 74
0
 42
0.0000001
 43
0.0000001
 44
0.0000000001
 40
0.0
 40
0.0
 40
0.0
 40
0.0
 40
0.1484872838
 40
0.2935037799
 40
0.432262024
 40
0.562965588
 40
0.6848317308
 40
0.7978679571
 40
0.9026286971
 40
1.0
 40
1.0
 40
1.0
 40
1.0
 10
6.0374230784
 20
6.021569375
 30
0.0
 10
6.038135483
 20
6.021569375
 30
0.0
 10
6.0395446275
 20
6.0215010041
 30
0.0
 10
6.041599593
 20
6.0211987936
 30
0.0
 10
6.0435320238
 20
6.0207155113
 30
0.0
 10
6.0453008429
 20
6.0200760576
 30
0.0
 10
6.0468813271
 20
6.0193073824
 30
0.0
 10
6.04826185
 20
6.018434712
 30
0.0
 10
6.0494391999
 20
6.0174803496
 30
0.0
 10
6.0501127468
 20
6.016778198
 30
0.0
 10
6.0504122507
 20
6.016419675
 30
0.0
  0
SPLINE
  5
4BB
100
AcDbEntity
  8
0
100
AcDbSpline
 62
7
  6
CONTINUOUS
 70
0
 71
3
 72
15
 73
11
 74
0
 42
0.0000001
 43
0.0000001
 44
0.0000000001
 40
0.0
 40
0.0
 40
0.0
 40
0.0
 40
0.1081560392
 40
0.2205619427
 40
0.3378861131
 40
0.4606291895
 40
0.588946274
 40
0.7224606898
 40
0.8600788328
 40
1.0
 40
1.0
 40
1.0
 40
1.0
 10
6.0504122507
 20
6.0403795073
 30
0.0
 10
6.0501178795
 20
6.0399135369
 30
0.0
 10
6.049457875
 20
6.0389996395
 30
0.0
 10
6.0482831371
 20
6.0377350334
 30
0.0
 10
6.0469036881
 20
6.036577285
 30
0.0
 10
6.0453224106
 20
6.0355563695
 30
0.0
 10
6.0435507922
 20
6.0347062725
 30
0.0
 10
6.0416135227
 20
6.034063267
 30
0.0
 10
6.0395522047
 20
6.0336609344
 30
0.0
 10
6.0381361463
 20
6.0335697695
 30
0.0
 10
6.0374231057
 20
6.0335697695
 30
0.0
  0
SPLINE
  5
4BC
100
AcDbEntity
  8
0
100
AcDbSpline
 62
7
  6
CONTINUOUS
 70
0
 71
3
 72
14
 73
10
 74
0
 42
0.0000001
 43
0.0000001
 44
0.0000000001
 40
0.0
 40
0.0
 40
0.0
 40
0.0
 40
0.2884491468
 40
0.4256786985
 40
0.5556886236
 40
0.677829418
 40
0.7921729664
 40
0.8992815717
 40
1.0
 40
1.0
 40
1.0
 40
1.0
 10
6.0374230787
 20
6.0460319951
 30
0.0
 10
6.0388309007
 20
6.0460319951
 30
0.0
 10
6.0409183677
 20
6.0458128664
 30
0.0
 10
6.0435371289
 20
6.0450930606
 30
0.0
 10
6.0453072616
 20
6.0443899681
 30
0.0
 10
6.0468881753
 20
6.0435450062
 30
0.0
 10
6.0482686873
 20
6.0425859408
 30
0.0
 10
6.0494454841
 20
6.0415374197
 30
0.0
 10
6.0501145419
 20
6.0407706759
 30
0.0
 10
6.0504122507
 20
6.0403795073
 30
0.0
  0
SPLINE
  5
4BD
100
AcDbEntity
  8
0
100
AcDbSpline
 62
7
  6
CONTINUOUS
 70
0
 71
3
 72
15
 73
11
 74
0
 42
0.0000001
 43
0.0000001
 44
0.0000000001
 40
0.0
 40
0.0
 40
0.0
 40
0.0
 40
0.1053157169
 40
0.2156726685
 40
0.331818013
 40
0.4542886745
 40
0.5832182821
 40
0.7181326508
 40
0.8577510056
 40
1.0
 40
1.0
 40
1.0
 40
1.0
 10
6.0504122507
 20
6.0644558009
 30
0.0
 10
6.0501167165
 20
6.0640185363
 30
0.0
 10
6.0494534511
 20
6.0631609792
 30
0.0
 10
6.0482778216
 20
6.061979286
 30
0.0
 10
6.0468978291
 20
6.0608978305
 30
0.0
 10
6.0453165206
 20
6.0599445499
 30
0.0
 10
6.0435454928
 20
6.0591510545
 30
0.0
 10
6.0416094947
 20
6.0585510551
 30
0.0
 10
6.0395499841
 20
6.0581757249
 30
0.0
 10
6.0381359593
 20
6.0580907197
 30
0.0
 10
6.0374231057
 20
6.0580907197
 30
0.0
  0
SPLINE
  5
4BE
100
AcDbEntity
  8
0
100
AcDbSpline
 62
7
  6
CONTINUOUS
 70
0
 71
3
 72
13
 73
9
 74
0
 42
0.0000001
 43
0.0000001
 44
0.0000000001
 40
0.0
 40
0.0
 40
0.0
 40
0.0
 40
0.2839001979
 40
0.548596591
 40
0.6710503985
 40
0.7866968106
 40
0.8960853784
 40
1.0
 40
1.0
 40
1.0
 40
1.0
 10
6.0374230791
 20
6.070589208
 30
0.0
 10
6.0388323151
 20
6.070589208
 30
0.0
 10
6.0415657807
 20
6.0702773431
 30
0.0
 10
6.0447316513
 20
6.0691421983
 30
0.0
 10
6.0468946281
 20
6.0678863703
 30
0.0
 10
6.0482749428
 20
6.0668446407
 30
0.0
 10
6.0494509737
 20
6.0657062128
 30
0.0
 10
6.0501160532
 20
6.0648780959
 30
0.0
 10
6.0504122507
 20
6.0644558009
 30
0.0
  0
SPLINE
  5
4BF
100
AcDbEntity
  8
0
100
AcDbSpline
 62
7
  6
CONTINUOUS
 70
0
 71
3
 72
14
 73
10
 74
0
 42
0.0000001
 43
0.0000001
 44
0.0000000001
 40
0.0
 40
0.0
 40
0.0
 40
0.0
 40
0.1023153621
 40
0.2105507448
 40
0.3255222331
 40
0.4477888538
 40
0.577446893
 40
0.7139094031
 40
1.0
 40
1.0
 40
1.0
 40
1.0
 10
6.0504122507
 20
6.0885554093
 30
0.0
 10
6.0501153313
 20
6.0881484847
 30
0.0
 10
6.0494483306
 20
6.0873506499
 30
0.0
 10
6.0482718943
 20
6.0862566218
 30
0.0
 10
6.0468914999
 20
6.0852557551
 30
0.0
 10
6.0453104381
 20
6.0843738298
 30
0.0
 10
6.0435398337
 20
6.0836398955
 30
0.0
 10
6.0409226367
 20
6.0828890793
 30
0.0
 10
6.0388316312
 20
6.08265961
 30
0.0
 10
6.0374231057
 20
6.08265961
 30
0.0
  0
SPLINE
  5
4C0
100
AcDbEntity
  8
0
100
AcDbSpline
 62
7
  6
CONTINUOUS
 70
0
 71
3
 72
13
 73
9
 74
0
 42
0.0000001
 43
0.0000001
 44
0.0000000001
 40
0.0
 40
0.0
 40
0.0
 40
0.0
 40
0.2794224396
 40
0.5420111568
 40
0.6647454435
 40
0.7816100984
 40
0.8931251037
 40
1.0
 40
1.0
 40
1.0
 40
1.0
 10
6.0374230787
 20
6.0951460068
 30
0.0
 10
6.0388337645
 20
6.0951460068
 30
0.0
 10
6.0415821077
 20
6.0948077643
 30
0.0
 10
6.0447455322
 20
6.0935835076
 30
0.0
 10
6.0469006939
 20
6.0922373694
 30
0.0
 10
6.0482805721
 20
6.0911171576
 30
0.0
 10
6.0494557343
 20
6.0898934016
 30
0.0
 10
6.0501173225
 20
6.0890072379
 30
0.0
 10
6.0504122507
 20
6.0885554093
 30
0.0
  0
SPLINE
  5
4C1
100
AcDbEntity
  8
0
100
AcDbSpline
 62
7
  6
CONTINUOUS
 70
0
 71
3
 72
14
 73
10
 74
0
 42
0.0000001
 43
0.0000001
 44
0.0000000001
 40
0.0
 40
0.0
 40
0.0
 40
0.0
 40
0.0990799526
 40
0.2050407388
 40
0.3187507014
 40
0.4407720175
 40
0.5711458439
 40
0.7091583459
 40
1.0
 40
1.0
 40
1.0
 40
1.0
 10
6.0504122507
 20
6.1125850959
 30
0.0
 10
6.0501136835
 20
6.1122100654
 30
0.0
 10
6.0494424473
 20
6.1114752232
 30
0.0
 10
6.0482653517
 20
6.1104732803
 30
0.0
 10
6.0468848006
 20
6.1095569645
 30
0.0
 10
6.0453041091
 20
6.1087497733
 30
0.0
 10
6.0435344959
 20
6.1080781669
 30
0.0
 10
6.0409142271
 20
6.1073900635
 30
0.0
 10
6.0388302433
 20
6.1071813881
 30
0.0
 10
6.0374231057
 20
6.1071813881
 30
0.0
  0
SPLINE
  5
4C2
100
AcDbEntity
  8
0
100
AcDbSpline
 62
7
  6
CONTINUOUS
 70
0
 71
3
 72
15
 73
11
 74
0
 42
0.0000001
 43
0.0000001
 44
0.0000000001
 40
0.0
 40
0.0
 40
0.0
 40
0.0
 40
0.1422244397
 40
0.282676656
 40
0.4196261246
 40
0.5514271719
 40
0.6765650968
 40
0.7937085046
 40
0.9017722814
 40
1.0
 40
1.0
 40
1.0
 40
1.0
 10
6.3999230769
 20
5.9730365565
 30
0.0
 10
6.4004818453
 20
5.9730365565
 30
0.0
 10
6.4015926382
 20
5.9730079397
 30
0.0
 10
6.4032369874
 20
5.9728795539
 30
0.0
 10
6.4048314894
 20
5.972667764
 30
0.0
 10
6.4063521471
 20
5.9723758034
 30
0.0
 10
6.4077762021
 20
5.9720081288
 30
0.0
 10
6.4090825592
 20
5.9715702486
 30
0.0
 10
6.4102517606
 20
5.9710688043
 30
0.0
 10
6.4109637508
 20
5.9706775605
 30
0.0
 10
6.4112896071
 20
5.9704708045
 30
0.0
  0
SPLINE
  5
4C3
100
AcDbEntity
  8
0
100
AcDbSpline
 62
7
  6
CONTINUOUS
 70
0
 71
3
 72
17
 73
13
 74
0
 42
0.0000001
 43
0.0000001
 44
0.0000000001
 40
0.0
 40
0.0
 40
0.0
 40
0.0
 40
0.1864501218
 40
0.3547340252
 40
0.5042248913
 40
0.6348333185
 40
0.7471217305
 40
0.796909969
 40
0.8428636769
 40
0.9251470138
 40
0.9630856099
 40
1.0
 40
1.0
 40
1.0
 40
1.0
 10
6.4112896071
 20
5.9704708045
 30
0.0
 10
6.4115663857
 20
5.9705532742
 30
0.0
 10
6.4120894838
 20
5.9707224449
 30
0.0
 10
6.4128177309
 20
5.9710061047
 30
0.0
 10
6.4134455567
 20
5.9713049951
 30
0.0
 10
6.4139684094
 20
5.9716168867
 30
0.0
 10
6.4143275073
 20
5.9718966571
 30
0.0
 10
6.414553389
 20
5.9721272526
 30
0.0
 10
6.4147254282
 20
5.9723430099
 30
0.0
 10
6.4148506054
 20
5.9725724832
 30
0.0
 10
6.4149128576
 20
5.9728087938
 30
0.0
 10
6.4149230769
 20
5.9729249816
 30
0.0
 10
6.4149230769
 20
5.9729821605
 30
0.0
  0
SPLINE
  5
4C4
100
AcDbEntity
  8
0
100
AcDbSpline
 62
7
  6
CONTINUOUS
 70
0
 71
3
 72
17
 73
13
 74
0
 42
0.0000001
 43
0.0000001
 44
0.0000000001
 40
0.0
 40
0.0
 40
0.0
 40
0.0
 40
0.1143798257
 40
0.2313513558
 40
0.3513675595
 40
0.4126738931
 40
0.4748652154
 40
0.6018651969
 40
0.7322419861
 40
0.7985472333
 40
0.8654019527
 40
1.0
 40
1.0
 40
1.0
 40
1.0
 10
6.4129122507
 20
5.683729655
 30
0.0
 10
6.4126200708
 20
5.6831983611
 30
0.0
 10
6.4119665108
 20
5.682156743
 30
0.0
 10
6.4107941647
 20
5.6807039022
 30
0.0
 10
6.4096536327
 20
5.6796019444
 30
0.0
 10
6.4086429107
 20
5.678797666
 30
0.0
 10
6.4075510544
 20
5.6780404081
 30
0.0
 10
6.4060634269
 20
5.6772183056
 30
0.0
 10
6.4044548847
 20
5.6766035425
 30
0.0
 10
6.4031028651
 20
5.6762473417
 30
0.0
 10
6.4017067291
 20
5.6759864589
 30
0.0
 10
6.4006366189
 20
5.6759070431
 30
0.0
 10
6.3999231057
 20
5.6759070431
 30
0.0
  0
SPLINE
  5
4C5
100
AcDbEntity
  8
0
100
AcDbSpline
 62
7
  6
CONTINUOUS
 70
0
 71
3
 72
17
 73
13
 74
0
 42
0.0000001
 43
0.0000001
 44
0.0000000001
 40
0.0
 40
0.0
 40
0.0
 40
0.0
 40
0.1164131416
 40
0.2349004732
 40
0.3558341599
 40
0.417356404
 40
0.4795958629
 40
0.606188244
 40
0.7355372266
 40
0.8011369722
 40
0.8671881137
 40
1.0
 40
1.0
 40
1.0
 40
1.0
 10
6.4129122507
 20
5.6859755104
 30
0.0
 10
6.4126206929
 20
5.6854220414
 30
0.0
 10
6.4119690461
 20
5.6843372003
 30
0.0
 10
6.410797521
 20
5.6828205976
 30
0.0
 10
6.4096559924
 20
5.6816684002
 30
0.0
 10
6.4086439906
 20
5.6808275461
 30
0.0
 10
6.4075536699
 20
5.6800379556
 30
0.0
 10
6.4060678526
 20
5.6791800328
 30
0.0
 10
6.4044570606
 20
5.6785367755
 30
0.0
 10
6.4031035831
 20
5.6781644374
 30
0.0
 10
6.4017078005
 20
5.6778920742
 30
0.0
 10
6.4006367942
 20
5.6778090108
 30
0.0
 10
6.3999231057
 20
5.6778090108
 30
0.0
  0
SPLINE
  5
4C6
100
AcDbEntity
  8
0
100
AcDbSpline
 62
7
  6
CONTINUOUS
 70
0
 71
3
 72
17
 73
13
 74
0
 42
0.0000001
 43
0.0000001
 44
0.0000000001
 40
0.0
 40
0.0
 40
0.0
 40
0.0
 40
0.11821916
 40
0.2380617744
 40
0.3598245236
 40
0.4215457997
 40
0.4838344219
 40
0.6100721332
 40
0.738504298
 40
0.8034707753
 40
0.8687987924
 40
1.0
 40
1.0
 40
1.0
 40
1.0
 10
6.4129122507
 20
5.6897089474
 30
0.0
 10
6.4126212124
 20
5.6891353372
 30
0.0
 10
6.4119711906
 20
5.6880112839
 30
0.0
 10
6.410800414
 20
5.6864368441
 30
0.0
 10
6.4096580689
 20
5.6852390117
 30
0.0
 10
6.4086449516
 20
5.6843648959
 30
0.0
 10
6.4075560224
 20
5.6835460146
 30
0.0
 10
6.4060719127
 20
5.6826556257
 30
0.0
 10
6.4044590883
 20
5.6819863762
 30
0.0
 10
6.4031042562
 20
5.6815993368
 30
0.0
 10
6.4017088105
 20
5.6813165477
 30
0.0
 10
6.4006369598
 20
5.6812301547
 30
0.0
 10
6.3999231057
 20
5.6812301547
 30
0.0
  0
SPLINE
  5
4C7
100
AcDbEntity
  8
0
100
AcDbSpline
 62
7
  6
CONTINUOUS
 70
0
 71
3
 72
17
 73
13
 74
0
 42
0.0000001
 43
0.0000001
 44
0.0000000001
 40
0.0
 40
0.0
 40
0.0
 40
0.0
 40
0.1198018625
 40
0.2408389008
 40
0.3633390227
 40
0.4252403581
 40
0.4875771045
 40
0.6135099894
 40
0.7411359223
 40
0.8055423283
 40
0.8702293254
 40
1.0
 40
1.0
 40
1.0
 40
1.0
 10
6.4129122507
 20
5.694915522
 30
0.0
 10
6.4126216439
 20
5.6943238822
 30
0.0
 10
6.411972991
 20
5.6931647603
 30
0.0
 10
6.4108028817
 20
5.6915386087
 30
0.0
 10
6.4096598724
 20
5.6902999315
 30
0.0
 10
6.4086457947
 20
5.6893960142
 30
0.0
 10
6.4075581055
 20
5.6885509747
 30
0.0
 10
6.4060755721
 20
5.6876315835
 30
0.0
 10
6.4044609427
 20
5.6869389808
 30
0.0
 10
6.4031048751
 20
5.6865387462
 30
0.0
 10
6.4017097442
 20
5.6862466263
 30
0.0
 10
6.4006371133
 20
5.6861572389
 30
0.0
 10
6.3999231057
 20
5.6861572389
 30
0.0
  0
SPLINE
  5
4C8
100
AcDbEntity
  8
0
100
AcDbSpline
 62
7
  6
CONTINUOUS
 70
0
 71
3
 72
16
 73
12
 74
0
 42
0.0000001
 43
0.0000001
 44
0.0000000001
 40
0.0
 40
0.0
 40
0.0
 40
0.0
 40
0.1211747105
 40
0.2432549224
 40
0.3664074705
 40
0.4907874859
 40
0.616471335
 40
0.7434095528
 40
0.8073339985
 40
0.8714675714
 40
1.0
 40
1.0
 40
1.0
 40
1.0
 10
6.4129122507
 20
5.701575091
 30
0.0
 10
6.4126219991
 20
5.7009676034
 30
0.0
 10
6.4119745115
 20
5.6997777015
 30
0.0
 10
6.4108048683
 20
5.6981060444
 30
0.0
 10
6.4094298619
 20
5.6965733845
 30
0.0
 10
6.4078510714
 20
5.695219104
 30
0.0
 10
6.4060788939
 20
5.6940886826
 30
0.0
 10
6.4044625901
 20
5.6933754017
 30
0.0
 10
6.4031054337
 20
5.692963553
 30
0.0
 10
6.4017105863
 20
5.6926632308
 30
0.0
 10
6.4006372523
 20
5.6925712016
 30
0.0
 10
6.3999231057
 20
5.6925712016
 30
0.0
  0
SPLINE
  5
4C9
100
AcDbEntity
  8
0
100
AcDbSpline
 62
7
  6
CONTINUOUS
 70
0
 71
3
 72
16
 73
12
 74
0
 42
0.0000001
 43
0.0000001
 44
0.0000000001
 40
0.0
 40
0.0
 40
0.0
 40
0.0
 40
0.1223254509
 40
0.2452817421
 40
0.3689829745
 40
0.493541039
 40
0.6190107864
 40
0.7453600333
 40
0.8088713794
 40
0.8725302941
 40
1.0
 40
1.0
 40
1.0
 40
1.0
 10
6.4129122507
 20
5.7096618897
 30
0.0
 10
6.4126222873
 20
5.7090407988
 30
0.0
 10
6.4119757335
 20
5.7078244734
 30
0.0
 10
6.410806583
 20
5.7061138716
 30
0.0
 10
6.4094320926
 20
5.7045453495
 30
0.0
 10
6.4078537143
 20
5.7031591323
 30
0.0
 10
6.4060816748
 20
5.7020017446
 30
0.0
 10
6.4044640344
 20
5.7012707409
 30
0.0
 10
6.4031059204
 20
5.7008488931
 30
0.0
 10
6.4017113271
 20
5.7005415345
 30
0.0
 10
6.4006373746
 20
5.7004472284
 30
0.0
 10
6.3999231057
 20
5.7004472284
 30
0.0
  0
SPLINE
  5
4CA
100
AcDbEntity
  8
0
100
AcDbSpline
 62
7
  6
CONTINUOUS
 70
0
 71
3
 72
16
 73
12
 74
0
 42
0.0000001
 43
0.0000001
 44
0.0000000001
 40
0.0
 40
0.0
 40
0.0
 40
0.0
 40
0.1232673592
 40
0.2469430686
 40
0.3710972923
 40
0.4958051527
 40
0.6211020947
 40
0.7469684408
 40
0.8101397942
 40
0.8734074442
 40
1.0
 40
1.0
 40
1.0
 40
1.0
 10
6.4129122507
 20
5.719144632
 30
0.0
 10
6.4126225158
 20
5.718512236
 30
0.0
 10
6.4119767079
 20
5.7172739612
 30
0.0
 10
6.4108079624
 20
5.7155310189
 30
0.0
 10
6.4094339062
 20
5.7139327203
 30
0.0
 10
6.4078558881
 20
5.7125199838
 30
0.0
 10
6.4060839893
 20
5.7113401924
 30
0.0
 10
6.4044652485
 20
5.710594429
 30
0.0
 10
6.403106331
 20
5.7101642574
 30
0.0
 10
6.4017119545
 20
5.7098510526
 30
0.0
 10
6.4006374784
 20
5.7097548485
 30
0.0
 10
6.3999231057
 20
5.7097548485
 30
0.0
  0
SPLINE
  5
4CB
100
AcDbEntity
  8
0
100
AcDbSpline
 62
7
  6
CONTINUOUS
 70
0
 71
3
 72
17
 73
13
 74
0
 42
0.0000001
 43
0.0000001
 44
0.0000000001
 40
0.0
 40
0.0
 40
0.0
 40
0.0
 40
0.1239889454
 40
0.2482134835
 40
0.3727089192
 40
0.4975207418
 40
0.6226680738
 40
0.7481399703
 40
0.8110360113
 40
0.8739876375
 40
0.9369930285
 40
1.0
 40
1.0
 40
1.0
 40
1.0
 10
6.4129122507
 20
5.7299866309
 30
0.0
 10
6.4126226901
 20
5.7293452733
 30
0.0
 10
6.4119774548
 20
5.7280896048
 30
0.0
 10
6.4108090269
 20
5.726321041
 30
0.0
 10
6.4094353195
 20
5.7246991555
 30
0.0
 10
6.4078575904
 20
5.7232654114
 30
0.0
 10
6.4060858461
 20
5.722067865
 30
0.0
 10
6.4044661581
 20
5.7213103832
 30
0.0
 10
6.4031067671
 20
5.7208736015
 30
0.0
 10
6.4020603066
 20
5.7206351635
 30
0.0
 10
6.4009962951
 20
5.7204904685
 30
0.0
 10
6.4002806989
 20
5.7204580524
 30
0.0
 10
6.3999231057
 20
5.7204580524
 30
0.0
  0
SPLINE
  5
4CC
100
AcDbEntity
  8
0
100
AcDbSpline
 62
7
  6
CONTINUOUS
 70
0
 71
3
 72
17
 73
13
 74
0
 42
0.0000001
 43
0.0000001
 44
0.0000000001
 40
0.0
 40
0.0
 40
0.0
 40
0.0
 40
0.1245249416
 40
0.2491606392
 40
0.3739168054
 40
0.4988169241
 40
0.6238676256
 40
0.7490637194
 40
0.8117645643
 40
0.8744910719
 40
0.9372501719
 40
1.0
 40
1.0
 40
1.0
 40
1.0
 10
6.4129122507
 20
5.7421459409
 30
0.0
 10
6.4126228145
 20
5.7414980009
 30
0.0
 10
6.4119779894
 20
5.7402295596
 30
0.0
 10
6.4108097932
 20
5.7384421852
 30
0.0
 10
6.4094363421
 20
5.7368029845
 30
0.0
 10
6.4078588358
 20
5.7353538185
 30
0.0
 10
6.4060871955
 20
5.7341432343
 30
0.0
 10
6.4044668743
 20
5.7333771338
 30
0.0
 10
6.4031070138
 20
5.7329354932
 30
0.0
 10
6.4020604838
 20
5.7326944683
 30
0.0
 10
6.4009963893
 20
5.7325482012
 30
0.0
 10
6.4002807068
 20
5.7325154316
 30
0.0
 10
6.3999231057
 20
5.7325154316
 30
0.0
  0
SPLINE
  5
4CD
100
AcDbEntity
  8
0
100
AcDbSpline
 62
7
  6
CONTINUOUS
 70
0
 71
3
 72
17
 73
13
 74
0
 42
0.0000001
 43
0.0000001
 44
0.0000000001
 40
0.0
 40
0.0
 40
0.0
 40
0.0
 40
0.1248627446
 40
0.2497579066
 40
0.3746789675
 40
0.4996353476
 40
0.6246255344
 40
0.7496477026
 40
0.8122252497
 40
0.8748094621
 40
0.9374128159
 40
1.0
 40
1.0
 40
1.0
 40
1.0
 10
6.4129122507
 20
5.7555755199
 30
0.0
 10
6.4126228919
 20
5.7549234031
 30
0.0
 10
6.4119783226
 20
5.7536468583
 30
0.0
 10
6.4108102726
 20
5.7518475515
 30
0.0
 10
6.4094369846
 20
5.7501973679
 30
0.0
 10
6.407859622
 20
5.7487384197
 30
0.0
 10
6.4060880518
 20
5.7475195642
 30
0.0
 10
6.4044673308
 20
5.74674799
 30
0.0
 10
6.4031071713
 20
5.7463032641
 30
0.0
 10
6.4020605971
 20
5.7460605973
 30
0.0
 10
6.4009964496
 20
5.7459133324
 30
0.0
 10
6.4002807118
 20
5.7458803385
 30
0.0
 10
6.3999231057
 20
5.7458803385
 30
0.0
  0
SPLINE
  5
4CE
100
AcDbEntity
  8
0
100
AcDbSpline
 62
7
  6
CONTINUOUS
 70
0
 71
3
 72
17
 73
13
 74
0
 42
0.0000001
 43
0.0000001
 44
0.0000000001
 40
0.0
 40
0.0
 40
0.0
 40
0.0
 40
0.1250041018
 40
0.2500079167
 40
0.3749981108
 40
0.4999781752
 40
0.6249431282
 40
0.7498924918
 40
0.8124183799
 40
0.8749429512
 40
0.9374810105
 40
1.0
 40
1.0
 40
1.0
 40
1.0
 10
6.4129122507
 20
5.7702234115
 30
0.0
 10
6.412622924
 20
5.7695695404
 30
0.0
 10
6.4119784613
 20
5.768289592
 30
0.0
 10
6.4108104724
 20
5.7664852739
 30
0.0
 10
6.409437253
 20
5.764830478
 30
0.0
 10
6.4078599514
 20
5.7633674218
 30
0.0
 10
6.4060884115
 20
5.7621450923
 30
0.0
 10
6.404467523
 20
5.761371218
 30
0.0
 10
6.4031072376
 20
5.7609251955
 30
0.0
 10
6.4020606449
 20
5.760681839
 30
0.0
 10
6.400996475
 20
5.7605341549
 30
0.0
 10
6.4002807139
 20
5.7605010667
 30
0.0
 10
6.3999231057
 20
5.7605010667
 30
0.0
  0
SPLINE
  5
4CF
100
AcDbEntity
  8
0
100
AcDbSpline
 62
7
  6
CONTINUOUS
 70
0
 71
3
 72
17
 73
13
 74
0
 42
0.0000001
 43
0.0000001
 44
0.0000000001
 40
0.0
 40
0.0
 40
0.0
 40
0.0
 40
0.1249497549
 40
0.2499117911
 40
0.3748753967
 40
0.4998463454
 40
0.6248209938
 40
0.7497983498
 40
0.8123441035
 40
0.8748916114
 40
0.9374547826
 40
1.0
 40
1.0
 40
1.0
 40
1.0
 10
6.4129122507
 20
5.7860329459
 30
0.0
 10
6.4126229117
 20
5.7853797497
 30
0.0
 10
6.411978408
 20
5.7841011108
 30
0.0
 10
6.4108103957
 20
5.7822987207
 30
0.0
 10
6.4094371498
 20
5.7806456991
 30
0.0
 10
6.4078598247
 20
5.7791842234
 30
0.0
 10
6.4060882731
 20
5.7779632304
 30
0.0
 10
6.404467449
 20
5.7771902411
 30
0.0
 10
6.4031072121
 20
5.7767447174
 30
0.0
 10
6.4020606265
 20
5.7765016264
 30
0.0
 10
6.4009964652
 20
5.7763541035
 30
0.0
 10
6.4002807131
 20
5.7763210516
 30
0.0
 10
6.3999231057
 20
5.7763210516
 30
0.0
  0
SPLINE
  5
4D0
100
AcDbEntity
  8
0
100
AcDbSpline
 62
7
  6
CONTINUOUS
 70
0
 71
3
 72
17
 73
13
 74
0
 42
0.0000001
 43
0.0000001
 44
0.0000000001
 40
0.0
 40
0.0
 40
0.0
 40
0.0
 40
0.1246994179
 40
0.2494690972
 40
0.3743103767
 40
0.4992394952
 40
0.6242589033
 40
0.749365174
 40
0.812002362
 40
0.8746554141
 40
0.9373341215
 40
1.0
 40
1.0
 40
1.0
 40
1.0
 10
6.4129122507
 20
5.8029429591
 30
0.0
 10
6.4126228546
 20
5.8022928646
 30
0.0
 10
6.4119781619
 20
5.8010202431
 30
0.0
 10
6.4108100412
 20
5.799226713
 30
0.0
 10
6.4094366741
 20
5.7975818465
 30
0.0
 10
6.4078592418
 20
5.7961276341
 30
0.0
 10
6.4060876373
 20
5.7949127831
 30
0.0
 10
6.4044671096
 20
5.7941438594
 30
0.0
 10
6.4031070949
 20
5.7937006275
 30
0.0
 10
6.4020605422
 20
5.7934587557
 30
0.0
 10
6.4009964203
 20
5.7933119739
 30
0.0
 10
6.4002807094
 20
5.7932790886
 30
0.0
 10
6.3999231057
 20
5.7932790886
 30
0.0
  0
SPLINE
  5
4D1
100
AcDbEntity
  8
0
100
AcDbSpline
 62
7
  6
CONTINUOUS
 70
0
 71
3
 72
17
 73
13
 74
0
 42
0.0000001
 43
0.0000001
 44
0.0000000001
 40
0.0
 40
0.0
 40
0.0
 40
0.0
 40
0.1242517859
 40
0.248677865
 40
0.3733010174
 40
0.4981559893
 40
0.6232558426
 40
0.7485925178
 40
0.8113929067
 40
0.8742342413
 40
0.9371189843
 40
1.0
 40
1.0
 40
1.0
 40
1.0
 10
6.4129122507
 20
5.8208880294
 30
0.0
 10
6.4126227514
 20
5.8202434508
 30
0.0
 10
6.4119777178
 20
5.8189815318
 30
0.0
 10
6.4108094035
 20
5.8172037623
 30
0.0
 10
6.4094358215
 20
5.8155734028
 30
0.0
 10
6.4078582008
 20
5.8141321112
 30
0.0
 10
6.4060865064
 20
5.8129281845
 30
0.0
 10
6.4044665081
 20
5.8121664864
 30
0.0
 10
6.4031068876
 20
5.8117273275
 30
0.0
 10
6.4020603931
 20
5.8114876238
 30
0.0
 10
6.4009963411
 20
5.8113421596
 30
0.0
 10
6.4002807028
 20
5.8113095705
 30
0.0
 10
6.3999231057
 20
5.8113095705
 30
0.0
  0
SPLINE
  5
4D2
100
AcDbEntity
  8
0
100
AcDbSpline
 62
7
  6
CONTINUOUS
 70
0
 71
3
 72
16
 73
12
 74
0
 42
0.0000001
 43
0.0000001
 44
0.0000000001
 40
0.0
 40
0.0
 40
0.0
 40
0.0
 40
0.123620093
 40
0.2475657492
 40
0.3718905076
 40
0.4966554092
 40
0.6218882151
 40
0.7475735422
 40
0.8106171423
 40
0.8737376293
 40
1.0
 40
1.0
 40
1.0
 40
1.0
 10
6.4129122507
 20
5.839798731
 30
0.0
 10
6.4126225997
 20
5.8391620605
 30
0.0
 10
6.4119770668
 20
5.8379154884
 30
0.0
 10
6.4108084734
 20
5.8361603232
 30
0.0
 10
6.4094345825
 20
5.8345507721
 30
0.0
 10
6.4078567045
 20
5.8331280136
 30
0.0
 10
6.406084865
 20
5.8319397527
 30
0.0
 10
6.4044657107
 20
5.8311884013
 30
0.0
 10
6.4031064877
 20
5.830755079
 30
0.0
 10
6.4017121945
 20
5.8304396641
 30
0.0
 10
6.4006375181
 20
5.8303427408
 30
0.0
 10
6.3999231057
 20
5.8303427408
 30
0.0
  0
SPLINE
  5
4D3
100
AcDbEntity
  8
0
100
AcDbSpline
 62
7
  6
CONTINUOUS
 70
0
 71
3
 72
14
 73
10
 74
0
 42
0.0000001
 43
0.0000001
 44
0.0000000001
 40
0.0
 40
0.0
 40
0.0
 40
0.0
 40
0.3228141139
 40
0.4717528484
 40
0.6077711367
 40
0.7290762685
 40
0.8348932091
 40
0.9251139933
 40
1.0
 40
1.0
 40
1.0
 40
1.0
 10
6.3999230785
 20
5.8403864527
 30
0.0
 10
6.4013229897
 20
5.8403864527
 30
0.0
 10
6.4033689066
 20
5.8403647096
 30
0.0
 10
6.4060035454
 20
5.840289967
 30
0.0
 10
6.4077639111
 20
5.8402177562
 30
0.0
 10
6.4093363703
 20
5.8401310846
 30
0.0
 10
6.4107091287
 20
5.8400329241
 30
0.0
 10
6.4118792056
 20
5.8399258947
 30
0.0
 10
6.4125904899
 20
5.839842689
 30
0.0
 10
6.4129122507
 20
5.839798731
 30
0.0
  0
SPLINE
  5
4D4
100
AcDbEntity
  8
0
100
AcDbSpline
 62
7
  6
CONTINUOUS
 70
0
 71
3
 72
16
 73
12
 74
0
 42
0.0000001
 43
0.0000001
 44
0.0000000001
 40
0.0
 40
0.0
 40
0.0
 40
0.0
 40
0.1227695903
 40
0.246064851
 40
0.3699792492
 40
0.4946074908
 40
0.6199954773
 40
0.7461171093
 40
0.8094683465
 40
0.8729430763
 40
1.0
 40
1.0
 40
1.0
 40
1.0
 10
6.4129122507
 20
5.8596019019
 30
0.0
 10
6.4126223959
 20
5.8589754999
 30
0.0
 10
6.4119761958
 20
5.8577488617
 30
0.0
 10
6.4108072361
 20
5.8560230636
 30
0.0
 10
6.4094329491
 20
5.8544405495
 30
0.0
 10
6.4078547382
 20
5.8530418711
 30
0.0
 10
6.4060827619
 20
5.8518739573
 30
0.0
 10
6.4044646033
 20
5.851136023
 30
0.0
 10
6.4031061126
 20
5.8507102662
 30
0.0
 10
6.4017116206
 20
5.850400161
 30
0.0
 10
6.4006374231
 20
5.8503049639
 30
0.0
 10
6.3999231057
 20
5.8503049639
 30
0.0
  0
SPLINE
  5
4D5
100
AcDbEntity
  8
0
100
AcDbSpline
 62
7
  6
CONTINUOUS
 70
0
 71
3
 72
15
 73
11
 74
0
 42
0.0000001
 43
0.0000001
 44
0.0000000001
 40
0.0
 40
0.0
 40
0.0
 40
0.0
 40
0.1632951899
 40
0.3213276407
 40
0.4697313853
 40
0.6054484916
 40
0.7267436084
 40
0.8328971032
 40
0.9238655923
 40
1.0
 40
1.0
 40
1.0
 40
1.0
 10
6.3999230779
 20
5.8607918739
 30
0.0
 10
6.4006346806
 20
5.8607918739
 30
0.0
 10
6.4020350053
 20
5.8607762395
 30
0.0
 10
6.4040809896
 20
5.8607070381
 30
0.0
 10
6.4060048068
 20
5.8605964142
 30
0.0
 10
6.4077656633
 20
5.8604501492
 30
0.0
 10
6.4093387165
 20
5.860274534
 30
0.0
 10
6.4107122821
 20
5.8600755697
 30
0.0
 10
6.4118834427
 20
5.8598585221
 30
0.0
 10
6.4125924824
 20
5.8596903534
 30
0.0
 10
6.4129122507
 20
5.8596019019
 30
0.0
  0
SPLINE
  5
4D6
100
AcDbEntity
  8
0
100
AcDbSpline
 62
7
  6
CONTINUOUS
 70
0
 71
3
 72
16
 73
12
 74
0
 42
0.0000001
 43
0.0000001
 44
0.0000000001
 40
0.0
 40
0.0
 40
0.0
 40
0.0
 40
0.1217122294
 40
0.2442012721
 40
0.3676094636
 40
0.4920719702
 40
0.6176554079
 40
0.7443186543
 40
0.80805045
 40
0.8719627646
 40
1.0
 40
1.0
 40
1.0
 40
1.0
 10
6.4129122507
 20
5.8802209276
 30
0.0
 10
6.412622135
 20
5.8796071136
 30
0.0
 10
6.4119750867
 20
5.8784049215
 30
0.0
 10
6.4108056733
 20
5.8767151486
 30
0.0
 10
6.4094309059
 20
5.8751658061
 30
0.0
 10
6.4078523041
 20
5.8737966696
 30
0.0
 10
6.4060801865
 20
5.8726537062
 30
0.0
 10
6.4044632595
 20
5.8719321882
 30
0.0
 10
6.403105659
 20
5.8715156916
 30
0.0
 10
6.4017109289
 20
5.8712120968
 30
0.0
 10
6.4006373088
 20
5.8711190097
 30
0.0
 10
6.3999231057
 20
5.8711190097
 30
0.0
  0
SPLINE
  5
4D7
100
AcDbEntity
  8
0
100
AcDbSpline
 62
7
  6
CONTINUOUS
 70
0
 71
3
 72
15
 73
11
 74
0
 42
0.0000001
 43
0.0000001
 44
0.0000000001
 40
0.0
 40
0.0
 40
0.0
 40
0.0
 40
0.1620216529
 40
0.3189239495
 40
0.4664696417
 40
0.601709082
 40
0.7229984249
 40
0.8297040588
 40
0.9218788553
 40
1.0
 40
1.0
 40
1.0
 40
1.0
 10
6.3999230783
 20
5.8820085461
 30
0.0
 10
6.4006347378
 20
5.8820085461
 30
0.0
 10
6.4020356906
 20
5.8819850421
 30
0.0
 10
6.4040823482
 20
5.8818810158
 30
0.0
 10
6.4060068817
 20
5.8817147097
 30
0.0
 10
6.4077685247
 20
5.8814947888
 30
0.0
 10
6.4093424996
 20
5.8812306748
 30
0.0
 10
6.4107172571
 20
5.880931285
 30
0.0
 10
6.4118899522
 20
5.8806044561
 30
0.0
 10
6.4125953814
 20
5.8803525979
 30
0.0
 10
6.4129122507
 20
5.8802209276
 30
0.0
  0
SPLINE
  5
4D8
100
AcDbEntity
  8
0
100
AcDbSpline
 62
7
  6
CONTINUOUS
 70
0
 71
3
 72
16
 73
12
 74
0
 42
0.0000001
 43
0.0000001
 44
0.0000000001
 40
0.0
 40
0.0
 40
0.0
 40
0.0
 40
0.1204434296
 40
0.2419685504
 40
0.3647751408
 40
0.4890448278
 40
0.6148664004
 40
0.7421782971
 40
0.8063639592
 40
0.8707972633
 40
1.0
 40
1.0
 40
1.0
 40
1.0
 10
6.4129122507
 20
5.9015760371
 30
0.0
 10
6.4126218106
 20
5.9009770805
 30
0.0
 10
6.4119737162
 20
5.8998037566
 30
0.0
 10
6.4108037618
 20
5.8981565392
 30
0.0
 10
6.4094284361
 20
5.8966463871
 30
0.0
 10
6.4078493995
 20
5.8953121489
 30
0.0
 10
6.4060771533
 20
5.8941986423
 30
0.0
 10
6.4044616938
 20
5.8934964541
 30
0.0
 10
6.4031051328
 20
5.8930908667
 30
0.0
 10
6.4017101296
 20
5.8927949581
 30
0.0
 10
6.400637177
 20
5.8927043529
 30
0.0
 10
6.3999231057
 20
5.8927043529
 30
0.0
  0
SPLINE
  5
4D9
100
AcDbEntity
  8
0
100
AcDbSpline
 62
7
  6
CONTINUOUS
 70
0
 71
3
 72
15
 73
11
 74
0
 42
0.0000001
 43
0.0000001
 44
0.0000000001
 40
0.0
 40
0.0
 40
0.0
 40
0.0
 40
0.1603322003
 40
0.3157383146
 40
0.4621540127
 40
0.5967737345
 40
0.7180727812
 40
0.8255250299
 40
0.9192963225
 40
1.0
 40
1.0
 40
1.0
 40
1.0
 10
6.3999230782
 20
5.903954386
 30
0.0
 10
6.4006348164
 20
5.903954386
 30
0.0
 10
6.4020366371
 20
5.9039230828
 30
0.0
 10
6.4040842165
 20
5.9037845535
 30
0.0
 10
6.4060097122
 20
5.9035630678
 30
0.0
 10
6.4077723774
 20
5.9032701262
 30
0.0
 10
6.4093475015
 20
5.9029182175
 30
0.0
 10
6.4107236402
 20
5.9025190814
 30
0.0
 10
6.4118979875
 20
5.9020830351
 30
0.0
 10
6.4125987197
 20
5.901749373
 30
0.0
 10
6.4129122507
 20
5.9015760371
 30
0.0
  0
SPLINE
  5
4DA
100
AcDbEntity
  8
0
100
AcDbSpline
 62
7
  6
CONTINUOUS
 70
0
 71
3
 72
17
 73
13
 74
0
 42
0.0000001
 43
0.0000001
 44
0.0000000001
 40
0.0
 40
0.0
 40
0.0
 40
0.0
 40
0.1189498805
 40
0.2393431797
 40
0.3614451174
 40
0.4232488697
 40
0.4855591209
 40
0.6116553853
 40
0.7397156287
 40
0.8044241174
 40
0.8694570328
 40
1.0
 40
1.0
 40
1.0
 40
1.0
 10
6.4129122507
 20
5.9235846115
 30
0.0
 10
6.4126214143
 20
5.9230027231
 30
0.0
 10
6.4119720308
 20
5.9218625646
 30
0.0
 10
6.4108015611
 20
5.9202643743
 30
0.0
 10
6.4096589035
 20
5.9190477872
 30
0.0
 10
6.4086453408
 20
5.9181599909
 30
0.0
 10
6.4075569818
 20
5.9173290921
 30
0.0
 10
6.4060735904
 20
5.9164253795
 30
0.0
 10
6.4044599353
 20
5.9157454174
 30
0.0
 10
6.4031045385
 20
5.9153523237
 30
0.0
 10
6.4017092357
 20
5.9150652501
 30
0.0
 10
6.4006370297
 20
5.9149774838
 30
0.0
 10
6.3999231057
 20
5.9149774838
 30
0.0
  0
SPLINE
  5
4DB
100
AcDbEntity
  8
0
100
AcDbSpline
 62
7
  6
CONTINUOUS
 70
0
 71
3
 72
15
 73
11
 74
0
 42
0.0000001
 43
0.0000001
 44
0.0000000001
 40
0.0
 40
0.0
 40
0.0
 40
0.0
 40
0.1583082654
 40
0.3119265968
 40
0.4570009854
 40
0.5908989062
 40
0.712234665
 40
0.820600763
 40
0.9162773508
 40
1.0
 40
1.0
 40
1.0
 40
1.0
 10
6.3999230786
 20
5.9265444896
 30
0.0
 10
6.400634916
 20
5.9265444896
 30
0.0
 10
6.4020378303
 20
5.9265054819
 30
0.0
 10
6.4040865567
 20
5.926332883
 30
0.0
 10
6.4060132204
 20
5.9260569003
 30
0.0
 10
6.4077770732
 20
5.9256918157
 30
0.0
 10
6.4093534553
 20
5.9252531172
 30
0.0
 10
6.4107309685
 20
5.9247552968
 30
0.0
 10
6.4119067793
 20
5.9242110865
 30
0.0
 10
6.4126021075
 20
5.9237979989
 30
0.0
 10
6.4129122507
 20
5.9235846115
 30
0.0
  0
SPLINE
  5
4DC
100
AcDbEntity
  8
0
100
AcDbSpline
 62
7
  6
CONTINUOUS
 70
0
 71
3
 72
17
 73
13
 74
0
 42
0.0000001
 43
0.0000001
 44
0.0000000001
 40
0.0
 40
0.0
 40
0.0
 40
0.0
 40
0.1172436676
 40
0.2363532189
 40
0.3576665198
 40
0.4192794419
 40
0.481540754
 40
0.6079691508
 40
0.7368969578
 40
0.8022062582
 40
0.8679259596
 40
1.0
 40
1.0
 40
1.0
 40
1.0
 10
6.4129122507
 20
5.946161504
 30
0.0
 10
6.4126209355
 20
5.9455988274
 30
0.0
 10
6.4119700445
 20
5.9444960555
 30
0.0
 10
6.4107988617
 20
5.9429530035
 30
0.0
 10
6.4096569497
 20
5.9417799438
 30
0.0
 10
6.4086444324
 20
5.9409238885
 30
0.0
 10
6.4075547484
 20
5.9401208988
 30
0.0
 10
6.4060697045
 20
5.9392481256
 30
0.0
 10
6.4044579817
 20
5.9385929989
 30
0.0
 10
6.4031038884
 20
5.9382139454
 30
0.0
 10
6.4017082578
 20
5.9379368157
 30
0.0
 10
6.4006368691
 20
5.9378522322
 30
0.0
 10
6.3999231057
 20
5.9378522322
 30
0.0
  0
SPLINE
  5
4DD
100
AcDbEntity
  8
0
100
AcDbSpline
 62
7
  6
CONTINUOUS
 70
0
 71
3
 72
15
 73
11
 74
0
 42
0.0000001
 43
0.0000001
 44
0.0000000001
 40
0.0
 40
0.0
 40
0.0
 40
0.0
 40
0.1560347108
 40
0.307650822
 40
0.4512345881
 40
0.5843480345
 40
0.705756223
 40
0.8151715038
 40
0.9129767891
 40
1.0
 40
1.0
 40
1.0
 40
1.0
 10
6.3999230778
 20
5.94969146
 30
0.0
 10
6.4006350334
 20
5.94969146
 30
0.0
 10
6.4020392494
 20
5.9496448676
 30
0.0
 10
6.4040893208
 20
5.9494387472
 30
0.0
 10
6.4060173116
 20
5.9491091376
 30
0.0
 10
6.4077824424
 20
5.9486730482
 30
0.0
 10
6.4093600752
 20
5.9481489036
 30
0.0
 10
6.4107387949
 20
5.9475539067
 30
0.0
 10
6.4119156758
 20
5.94690318
 30
0.0
 10
6.4126052913
 20
5.9464133777
 30
0.0
 10
6.4129122507
 20
5.946161504
 30
0.0
  0
SPLINE
  5
4DE
100
AcDbEntity
  8
0
100
AcDbSpline
 62
7
  6
CONTINUOUS
 70
0
 71
3
 72
17
 73
13
 74
0
 42
0.0000001
 43
0.0000001
 44
0.0000000001
 40
0.0
 40
0.0
 40
0.0
 40
0.0
 40
0.1153117846
 40
0.232976733
 40
0.3534113547
 40
0.4148155779
 40
0.4770280234
 40
0.6038401226
 40
0.7337464249
 40
0.7997292935
 40
0.8662170795
 40
1.0
 40
1.0
 40
1.0
 40
1.0
 10
6.4129122507
 20
5.9692193689
 30
0.0
 10
6.412620361
 20
5.9686779736
 30
0.0
 10
6.4119676892
 20
5.9676166589
 30
0.0
 10
6.4107957162
 20
5.9661347617
 30
0.0
 10
6.409654717
 20
5.9650099195
 30
0.0
 10
6.4086434053
 20
5.9641889862
 30
0.0
 10
6.4075522487
 20
5.9634169889
 30
0.0
 10
6.4060654364
 20
5.9625785599
 30
0.0
 10
6.4044558683
 20
5.961950833
 30
0.0
 10
6.4031031891
 20
5.9615872876
 30
0.0
 10
6.4017072118
 20
5.9613211749
 30
0.0
 10
6.4006366978
 20
5.9612400999
 30
0.0
 10
6.3999231057
 20
5.9612400999
 30
0.0
  0
LINE
  5
4DF
100
AcDbEntity
  8
0
100
AcDbLine
 62
7
  6
CONTINUOUS
 10
6.4112896071
 20
5.9704708045
 11
6.4129122507
 21
5.9692193689
  0
SPLINE
  5
4E0
100
AcDbEntity
  8
0
100
AcDbSpline
 62
7
  6
CONTINUOUS
 70
0
 71
3
 72
11
 73
7
 74
0
 42
0.0000001
 43
0.0000001
 44
0.0000000001
 40
0.0
 40
0.0
 40
0.0
 40
0.0
 40
0.2509053784
 40
0.5011419475
 40
0.7507955995
 40
1.0
 40
1.0
 40
1.0
 40
1.0
 10
6.0599592349
 20
5.973305725
 30
0.0
 10
6.0585830252
 20
5.974000127
 30
0.0
 10
6.0559131652
 20
5.9755499935
 30
0.0
 10
6.0522109276
 20
5.9783177529
 30
0.0
 10
6.0488564139
 20
5.9814824532
 30
0.0
 10
6.0468726026
 20
5.9838284315
 30
0.0
 10
6.0459504673
 20
5.985050604
 30
0.0
  0
SPLINE
  5
4E1
100
AcDbEntity
  8
0
100
AcDbSpline
 62
7
  6
CONTINUOUS
 70
0
 71
3
 72
17
 73
13
 74
0
 42
0.0000001
 43
0.0000001
 44
0.0000000001
 40
0.0
 40
0.0
 40
0.0
 40
0.0
 40
0.0639536074
 40
0.1274622428
 40
0.1903401276
 40
0.2525964058
 40
0.375691647
 40
0.4980384336
 40
0.6210104483
 40
0.7456204126
 40
0.8721586725
 40
1.0
 40
1.0
 40
1.0
 40
1.0
 10
6.0458104538
 20
6.1557046771
 30
0.0
 10
6.0464886118
 20
6.1557046662
 30
0.0
 10
6.0478403328
 20
6.1557395738
 30
0.0
 10
6.0498546871
 20
6.1558722982
 30
0.0
 10
6.0518457953
 20
6.1560671507
 30
0.0
 10
6.0544586562
 20
6.1563872231
 30
0.0
 10
6.0576861453
 20
6.1568683393
 30
0.0
 10
6.061543465
 20
6.157486527
 30
0.0
 10
6.0654229266
 20
6.1580687285
 30
0.0
 10
6.069361827
 20
6.1585482243
 30
0.0
 10
6.0733695075
 20
6.1588652252
 30
0.0
 10
6.0760674595
 20
6.1589394098
 30
0.0
 10
6.0774230769
 20
6.1589394552
 30
0.0
  0
SPLINE
  5
4E2
100
AcDbEntity
  8
0
100
AcDbSpline
 62
7
  6
CONTINUOUS
 70
0
 71
3
 72
17
 73
13
 74
0
 42
0.0000001
 43
0.0000001
 44
0.0000000001
 40
0.0
 40
0.0
 40
0.0
 40
0.0
 40
0.1132772641
 40
0.2294316396
 40
0.3489579722
 40
0.4101507769
 40
0.472319129
 40
0.5995438642
 40
0.7304756374
 40
0.7971603268
 40
0.8644458013
 40
1.0
 40
1.0
 40
1.0
 40
1.0
 10
5.7899339032
 20
6.4577968097
 30
0.0
 10
5.7902264385
 20
6.4583162799
 30
0.0
 10
5.7908810763
 20
6.4593348282
 30
0.0
 10
5.7920538598
 20
6.4607536393
 30
0.0
 10
5.7931938213
 20
6.4618288163
 30
0.0
 10
5.7942038416
 20
6.4626136164
 30
0.0
 10
5.7952965186
 20
6.4633535966
 30
0.0
 10
5.7967850798
 20
6.4641565683
 30
0.0
 10
5.7983924213
 20
6.4647561892
 30
0.0
 10
5.7997436763
 20
6.4651038044
 30
0.0
 10
5.8011399887
 20
6.4653585638
 30
0.0
 10
5.8022096303
 20
6.4654360408
 30
0.0
 10
5.8029230497
 20
6.4654360408
 30
0.0
  0
SPLINE
  5
4E3
100
AcDbEntity
  8
0
100
AcDbSpline
 62
7
  6
CONTINUOUS
 70
0
 71
3
 72
17
 73
13
 74
0
 42
0.0000001
 43
0.0000001
 44
0.0000000001
 40
0.0
 40
0.0
 40
0.0
 40
0.0
 40
0.1099968975
 40
0.2230144414
 40
0.3403191071
 40
0.4629740974
 40
0.5913050886
 40
0.7246100868
 40
0.7927159434
 40
0.8614593511
 40
0.9306403956
 40
1.0
 40
1.0
 40
1.0
 40
1.0
 10
6.0513644532
 20
6.1364518943
 30
0.0
 10
6.0511714701
 20
6.1369581703
 30
0.0
 10
6.0507171778
 20
6.1379623033
 30
0.0
 10
6.0498137576
 20
6.1393817472
 30
0.0
 10
6.0486523435
 20
6.1406865512
 30
0.0
 10
6.0472261315
 20
6.1418221743
 30
0.0
 10
6.0455594197
 20
6.1427375524
 30
0.0
 10
6.0440227106
 20
6.1432842736
 30
0.0
 10
6.0427270896
 20
6.1435915448
 30
0.0
 10
6.0417247821
 20
6.1437558127
 30
0.0
 10
6.0407080243
 20
6.1438555811
 30
0.0
 10
6.0400254222
 20
6.1438787227
 30
0.0
 10
6.0396837788
 20
6.1438787251
 30
0.0
  0
SPLINE
  5
4E4
100
AcDbEntity
  8
0
100
AcDbSpline
 62
7
  6
CONTINUOUS
 70
0
 71
3
 72
17
 73
13
 74
0
 42
0.0000001
 43
0.0000001
 44
0.0000000001
 40
0.0
 40
0.0
 40
0.0
 40
0.0
 40
0.11542527
 40
0.2331750357
 40
0.3536613613
 40
0.4150775694
 40
0.4772926772
 40
0.6040822409
 40
0.7339309223
 40
0.7998746245
 40
0.8663172349
 40
1.0
 40
1.0
 40
1.0
 40
1.0
 10
5.7899339032
 20
6.4562983645
 30
0.0
 10
5.7902257586
 20
6.456840996
 30
0.0
 10
5.7908783257
 20
6.4579047207
 30
0.0
 10
5.7920502566
 20
6.4593901748
 30
0.0
 10
5.7931913169
 20
6.460517817
 30
0.0
 10
5.7942027025
 20
6.4613407893
 30
0.0
 10
5.7952937756
 20
6.4621145862
 30
0.0
 10
5.796780487
 20
6.4629550094
 30
0.0
 10
5.7983901819
 20
6.4635843199
 30
0.0
 10
5.7997429395
 20
6.4639487621
 30
0.0
 10
5.8011388928
 20
6.4642155127
 30
0.0
 10
5.8022094512
 20
6.4642967893
 30
0.0
 10
5.8029230498
 20
6.4642967893
 30
0.0
  0
LINE
  5
4E5
100
AcDbEntity
  8
0
100
AcDbLine
 62
7
  6
CONTINUOUS
 10
6.0774230769
 20
6.1671223103
 11
6.0603748291
 21
6.1678660706
  0
LINE
  5
4E6
100
AcDbEntity
  8
0
100
AcDbLine
 62
7
  6
CONTINUOUS
 10
6.0599868767
 20
5.9733057404
 11
6.0774230777
 21
5.9730365565
  0
SPLINE
  5
4E7
100
AcDbEntity
  8
0
100
AcDbSpline
 62
7
  6
CONTINUOUS
 70
0
 71
3
 72
20
 73
16
 74
0
 42
0.0000001
 43
0.0000001
 44
0.0000000001
 40
0.0
 40
0.0
 40
0.0
 40
0.0
 40
0.1373204215
 40
0.2737097459
 40
0.3412250226
 40
0.4080202883
 40
0.5383772245
 40
0.6015377675
 40
0.6629879872
 40
0.7225975274
 40
0.7804065633
 40
0.8366527778
 40
0.8917183438
 40
0.9460492711
 40
1.0
 40
1.0
 40
1.0
 40
1.0
 10
6.0460376908
 20
5.985050604
 30
0.0
 10
6.0467476825
 20
5.9850505817
 30
0.0
 10
6.0481635328
 20
5.9851250453
 30
0.0
 10
6.0499112203
 20
5.9853916883
 30
0.0
 10
6.0512705741
 20
5.9857294313
 30
0.0
 10
6.0525738851
 20
5.9861482276
 30
0.0
 10
6.05380888
 20
5.9867031517
 30
0.0
 10
6.054920812
 20
5.9874152763
 30
0.0
 10
6.0556624602
 20
5.9880165519
 30
0.0
 10
6.0563040581
 20
5.988686324
 30
0.0
 10
6.0568322277
 20
5.9894161823
 30
0.0
 10
6.0572394845
 20
5.9901933804
 30
0.0
 10
6.0575266336
 20
5.9910031393
 30
0.0
 10
6.0577020064
 20
5.9918314758
 30
0.0
 10
6.0577530358
 20
5.9923902873
 30
0.0
 10
6.057764369
 20
5.992669
 30
0.0
  0
SPLINE
  5
4E8
100
AcDbEntity
  8
0
100
AcDbSpline
 62
7
  6
CONTINUOUS
 70
0
 71
3
 72
17
 73
13
 74
0
 42
0.0000001
 43
0.0000001
 44
0.0000000001
 40
0.0
 40
0.0
 40
0.0
 40
0.0
 40
0.2302446176
 40
0.348221531
 40
0.4695435865
 40
0.5951928468
 40
0.6598727966
 40
0.7258274997
 40
0.793009934
 40
0.8612849691
 40
0.930412854
 40
1.0
 40
1.0
 40
1.0
 40
1.0
 10
6.057764369
 20
5.992669
 30
0.0
 10
6.056415613
 20
5.9932171883
 30
0.0
 10
6.0543742697
 20
5.9940436997
 30
0.0
 10
6.0515827965
 20
5.9950565335
 30
0.0
 10
6.0493856558
 20
5.9957642629
 30
0.0
 10
6.0474817544
 20
5.9962770792
 30
0.0
 10
6.0458994231
 20
5.9966281008
 30
0.0
 10
6.0446696701
 20
5.9968583034
 30
0.0
 10
6.0434098853
 20
5.9970472632
 30
0.0
 10
6.042123726
 20
5.9971896464
 30
0.0
 10
6.0408173764
 20
5.9972772833
 30
0.0
 10
6.0399400982
 20
5.9972960008
 30
0.0
 10
6.0395000786
 20
5.9972960032
 30
0.0
  0
SPLINE
  5
4E9
100
AcDbEntity
  8
0
100
AcDbSpline
 62
7
  6
CONTINUOUS
 70
0
 71
3
 72
17
 73
13
 74
0
 42
0.0000001
 43
0.0000001
 44
0.0000000001
 40
0.0
 40
0.0
 40
0.0
 40
0.0
 40
0.117344519
 40
0.2365299711
 40
0.357890065
 40
0.4195140349
 40
0.4817780658
 40
0.6081868673
 40
0.7370632188
 40
0.8023373631
 40
0.8680163616
 40
1.0
 40
1.0
 40
1.0
 40
1.0
 10
5.7899339032
 20
6.4533072715
 30
0.0
 10
5.7902251899
 20
6.4538710713
 30
0.0
 10
5.7908759921
 20
6.4549760307
 30
0.0
 10
5.7920471368
 20
6.4565223108
 30
0.0
 10
5.7931891
 20
6.4576979151
 30
0.0
 10
5.794201682
 20
6.4585558255
 30
0.0
 10
5.7952912905
 20
6.459360446
 30
0.0
 10
5.7967762392
 20
6.460235027
 30
0.0
 10
5.7983880767
 20
6.4608915985
 30
0.0
 10
5.7997422427
 20
6.461271469
 30
0.0
 10
5.8011378501
 20
6.461549178
 30
0.0
 10
5.8022092804
 20
6.4616339454
 30
0.0
 10
5.8029230497
 20
6.4616339454
 30
0.0
  0
SPLINE
  5
4EA
100
AcDbEntity
  8
0
100
AcDbSpline
 62
7
  6
CONTINUOUS
 70
0
 71
3
 72
18
 73
14
 74
0
 42
0.0000001
 43
0.0000001
 44
0.0000000001
 40
0.0
 40
0.0
 40
0.0
 40
0.0
 40
0.1025357184
 40
0.210094899
 40
0.3237759054
 40
0.4446549364
 40
0.5734283122
 40
0.6408072005
 40
0.7100393476
 40
0.7809074062
 40
0.8531175904
 40
0.9263120431
 40
1.0
 40
1.0
 40
1.0
 40
1.0
 10
6.0513644532
 20
6.1364518943
 30
0.0
 10
6.0509661264
 20
6.1361315438
 30
0.0
 10
6.0501298384
 20
6.1354996239
 30
0.0
 10
6.0487776011
 20
6.1346158014
 30
0.0
 10
6.0472813479
 20
6.1337933697
 30
0.0
 10
6.0456249504
 20
6.1330550812
 30
0.0
 10
6.0441278601
 20
6.1325411843
 30
0.0
 10
6.0428498785
 20
6.1321975164
 30
0.0
 10
6.0418392863
 20
6.1319753664
 30
0.0
 10
6.0407956494
 20
6.1317967288
 30
0.0
 10
6.0397250242
 20
6.1316660672
 30
0.0
 10
6.0386356695
 20
6.1315824634
 30
0.0
 10
6.0379033293
 20
6.1315611851
 30
0.0
 10
6.0375359779
 20
6.131561184
 30
0.0
  0
SPLINE
  5
4EB
100
AcDbEntity
  8
0
100
AcDbSpline
 62
7
  6
CONTINUOUS
 70
0
 71
3
 72
17
 73
13
 74
0
 42
0.0000001
 43
0.0000001
 44
0.0000000001
 40
0.0
 40
0.0
 40
0.0
 40
0.0
 40
0.119038319
 40
0.2394985822
 40
0.3616422195
 40
0.4234559657
 40
0.4857688773
 40
0.6118483153
 40
0.7398632472
 40
0.8045406442
 40
0.8695374215
 40
1.0
 40
1.0
 40
1.0
 40
1.0
 10
5.7899339032
 20
6.4488351024
 30
0.0
 10
5.790224716
 20
6.4494179969
 30
0.0
 10
5.790874025
 20
6.4505601128
 30
0.0
 10
5.792044461
 20
6.4521611914
 30
0.0
 10
5.7931871613
 20
6.4533800574
 30
0.0
 10
5.7942007801
 20
6.4542695167
 30
0.0
 10
5.7952890721
 20
6.4551018724
 30
0.0
 10
5.7967723755
 20
6.4560072004
 30
0.0
 10
5.7983861328
 20
6.4566884607
 30
0.0
 10
5.7997415957
 20
6.4570822878
 30
0.0
 10
5.8011368765
 20
6.4573698798
 30
0.0
 10
5.8022091205
 20
6.4574578113
 30
0.0
 10
5.8029230497
 20
6.4574578113
 30
0.0
  0
SPLINE
  5
4EC
100
AcDbEntity
  8
0
100
AcDbSpline
 62
7
  6
CONTINUOUS
 70
0
 71
3
 72
25
 73
21
 74
0
 42
0.0000001
 43
0.0000001
 44
0.0000000001
 40
0.0
 40
0.0
 40
0.0
 40
0.0
 40
0.1890945385
 40
0.3710862697
 40
0.457281765
 40
0.5391920342
 40
0.6160623532
 40
0.6871918097
 40
0.7519453994
 40
0.8097673697
 40
0.8601963487
 40
0.9028905228
 40
0.9212794356
 40
0.9376915527
 40
0.9521512353
 40
0.9647180122
 40
0.975508739
 40
0.9847258261
 40
0.9927125386
 40
1.0
 40
1.0
 40
1.0
 40
1.0
 10
6.0374230769
 20
6.1302518974
 30
0.0
 10
6.0383986559
 20
6.1302518972
 30
0.0
 10
6.0403132797
 20
6.1302238657
 30
0.0
 10
6.0426705525
 20
6.130117918
 30
0.0
 10
6.0444723156
 20
6.1299897469
 30
0.0
 10
6.0457311811
 20
6.1298762814
 30
0.0
 10
6.0469101389
 20
6.1297449198
 30
0.0
 10
6.0479978921
 20
6.1295969814
 30
0.0
 10
6.0489840334
 20
6.1294339766
 30
0.0
 10
6.0498592624
 20
6.1292576483
 30
0.0
 10
6.0506153083
 20
6.129069805
 30
0.0
 10
6.0511650238
 20
6.128898068
 30
0.0
 10
6.0515377762
 20
6.1287530475
 30
0.0
 10
6.0517693652
 20
6.1286479894
 30
0.0
 10
6.0519667705
 20
6.1285414163
 30
0.0
 10
6.0521296874
 20
6.1284334377
 30
0.0
 10
6.052258004
 20
6.1283240759
 30
0.0
 10
6.0523515372
 20
6.1282128341
 30
0.0
 10
6.0524095261
 20
6.1280990006
 30
0.0
 10
6.0524230769
 20
6.1280197581
 30
0.0
 10
6.0524230769
 20
6.1279821606
 30
0.0
  0
SPLINE
  5
4ED
100
AcDbEntity
  8
0
100
AcDbSpline
 62
7
  6
CONTINUOUS
 70
0
 71
3
 72
16
 73
12
 74
0
 42
0.0000001
 43
0.0000001
 44
0.0000000001
 40
0.0
 40
0.0
 40
0.0
 40
0.0
 40
0.1205197313
 40
0.2421029357
 40
0.3649460234
 40
0.4892270235
 40
0.6150343726
 40
0.7423070396
 40
0.8064656945
 40
0.8708674753
 40
1.0
 40
1.0
 40
1.0
 40
1.0
 10
5.7899339032
 20
6.4428991593
 30
0.0
 10
5.7902243239
 20
6.4434990008
 30
0.0
 10
5.7908723565
 20
6.4446740454
 30
0.0
 10
5.7920422823
 20
6.4463238013
 30
0.0
 10
5.7934175806
 20
6.4478362881
 30
0.0
 10
5.7949965965
 20
6.4491726047
 30
0.0
 10
5.7967688364
 20
6.4502878618
 30
0.0
 10
5.798384385
 20
6.450991195
 30
0.0
 10
5.7997410049
 20
6.4513974285
 30
0.0
 10
5.8011359876
 20
6.4516937927
 30
0.0
 10
5.802208974
 20
6.4517845436
 30
0.0
 10
5.8029230497
 20
6.4517845436
 30
0.0
  0
SPLINE
  5
4EE
100
AcDbEntity
  8
0
100
AcDbSpline
 62
7
  6
CONTINUOUS
 70
0
 71
3
 72
16
 73
12
 74
0
 42
0.0000001
 43
0.0000001
 44
0.0000000001
 40
0.0
 40
0.0
 40
0.0
 40
0.0
 40
0.1217766586
 40
0.244314978
 40
0.3677543859
 40
0.4922267585
 40
0.6177984098
 40
0.7444284161
 40
0.8081372829
 40
0.8720227084
 40
1.0
 40
1.0
 40
1.0
 40
1.0
 10
5.7899339032
 20
6.4355224072
 30
0.0
 10
5.7902240032
 20
6.4361369816
 30
0.0
 10
5.7908710012
 20
6.4373406514
 30
0.0
 10
5.7920403908
 20
6.4390326038
 30
0.0
 10
5.793415135
 20
6.4405839502
 30
0.0
 10
5.7949937181
 20
6.4419548705
 30
0.0
 10
5.7967658282
 20
6.4430993369
 30
0.0
 10
5.7983828313
 20
6.4438218405
 30
0.0
 10
5.7997404825
 20
6.4442388928
 30
0.0
 10
5.801135194
 20
6.4445428786
 30
0.0
 10
5.8022088431
 20
6.444636091
 30
0.0
 10
5.8029230498
 20
6.444636091
 30
0.0
  0
SPLINE
  5
4EF
100
AcDbEntity
  8
0
100
AcDbSpline
 62
7
  6
CONTINUOUS
 70
0
 71
3
 72
16
 73
12
 74
0
 42
0.0000001
 43
0.0000001
 44
0.0000000001
 40
0.0
 40
0.0
 40
0.0
 40
0.0
 40
0.1228224133
 40
0.2461582462
 40
0.3700985438
 40
0.4947350809
 40
0.620113575
 40
0.7462078602
 40
0.8095402293
 40
0.8729927056
 40
1.0
 40
1.0
 40
1.0
 40
1.0
 10
5.7899339032
 20
6.4267333853
 30
0.0
 10
5.7902237457
 20
6.4273604201
 30
0.0
 10
5.7908699059
 20
6.4285882876
 30
0.0
 10
5.7920388466
 20
6.4303158985
 30
0.0
 10
5.7934131149
 20
6.4319000786
 30
0.0
 10
5.7949913101
 20
6.43330024
 30
0.0
 10
5.7967632787
 20
6.4344694034
 30
0.0
 10
5.7983815003
 20
6.4352081587
 30
0.0
 10
5.7997400331
 20
6.4356343781
 30
0.0
 10
5.8011345086
 20
6.4359448082
 30
0.0
 10
5.8022087299
 20
6.4360401095
 30
0.0
 10
5.8029230497
 20
6.4360401095
 30
0.0
  0
SPLINE
  5
4F0
100
AcDbEntity
  8
0
100
AcDbSpline
 62
7
  6
CONTINUOUS
 70
0
 71
3
 72
16
 73
12
 74
0
 42
0.0000001
 43
0.0000001
 44
0.0000000001
 40
0.0
 40
0.0
 40
0.0
 40
0.0
 40
0.123661548
 40
0.2476391756
 40
0.371984502
 40
0.4967560329
 40
0.6219815182
 40
0.7476452989
 40
0.8106740676
 40
0.8737769281
 40
1.0
 40
1.0
 40
1.0
 40
1.0
 10
5.7899339032
 20
6.4165660966
 30
0.0
 10
5.7902235449
 20
6.4172032698
 30
0.0
 10
5.7908690476
 20
6.4184508181
 30
0.0
 10
5.7920376267
 20
6.420207423
 30
0.0
 10
5.7934115039
 20
6.4218182965
 30
0.0
 10
5.7949893697
 20
6.4232422319
 30
0.0
 10
5.7967612022
 20
6.424431484
 30
0.0
 10
5.7983804063
 20
6.4251834876
 30
0.0
 10
5.7997396625
 20
6.4256171773
 30
0.0
 10
5.8011339414
 20
6.4259328495
 30
0.0
 10
5.802208636
 20
6.4260298554
 30
0.0
 10
5.8029230497
 20
6.4260298554
 30
0.0
  0
SPLINE
  5
4F1
100
AcDbEntity
  8
0
100
AcDbSpline
 62
7
  6
CONTINUOUS
 70
0
 71
3
 72
17
 73
13
 74
0
 42
0.0000001
 43
0.0000001
 44
0.0000000001
 40
0.0
 40
0.0
 40
0.0
 40
0.0
 40
0.124282056
 40
0.2487315794
 40
0.3733699506
 40
0.4982298001
 40
0.6233243938
 40
0.7486452193
 40
0.8114347784
 40
0.8742630933
 40
0.9371335319
 40
1.0
 40
1.0
 40
1.0
 40
1.0
 10
5.7899339032
 20
6.4050598764
 30
0.0
 10
5.790223396
 20
6.4057048255
 30
0.0
 10
5.7908684084
 20
6.4069674642
 30
0.0
 10
5.7920367132
 20
6.4087462951
 30
0.0
 10
5.7934102866
 20
6.4103776286
 30
0.0
 10
5.794987899
 20
6.4118197868
 30
0.0
 10
5.7967595876
 20
6.4130244427
 30
0.0
 10
5.7983796229
 20
6.4137866208
 30
0.0
 10
5.7997392669
 20
6.4142260498
 30
0.0
 10
5.8007857614
 20
6.4144658971
 30
0.0
 10
5.8018498127
 20
6.414611448
 30
0.0
 10
5.8025654525
 20
6.4146440563
 30
0.0
 10
5.8029230494
 20
6.4146440563
 30
0.0
  0
SPLINE
  5
4F2
100
AcDbEntity
  8
0
100
AcDbSpline
 62
7
  6
CONTINUOUS
 70
0
 71
3
 72
17
 73
13
 74
0
 42
0.0000001
 43
0.0000001
 44
0.0000000001
 40
0.0
 40
0.0
 40
0.0
 40
0.0
 40
0.1247186734
 40
0.249503371
 40
0.374354543
 40
0.4992867577
 40
0.62430291
 40
0.7493989995
 40
0.8120293565
 40
0.874673992
 40
0.9373434218
 40
1.0
 40
1.0
 40
1.0
 40
1.0
 10
5.7899339032
 20
6.39225924
 30
0.0
 10
5.7902232954
 20
6.3929095714
 30
0.0
 10
5.7908679755
 20
6.3941826532
 30
0.0
 10
5.7920360915
 20
6.3959768627
 30
0.0
 10
5.793409455
 20
6.3976223515
 30
0.0
 10
5.7949868836
 20
6.3990771172
 30
0.0
 10
5.7967584843
 20
6.4002924327
 30
0.0
 10
5.798379036
 20
6.4010616614
 30
0.0
 10
5.7997390649
 20
6.401505065
 30
0.0
 10
5.8007856162
 20
6.4017470278
 30
0.0
 10
5.8018497357
 20
6.4018938644
 30
0.0
 10
5.8025654464
 20
6.4019267617
 30
0.0
 10
5.8029230497
 20
6.4019267617
 30
0.0
  0
SPLINE
  5
4F3
100
AcDbEntity
  8
0
100
AcDbSpline
 62
7
  6
CONTINUOUS
 70
0
 71
3
 72
27
 73
23
 74
0
 42
0.0000001
 43
0.0000001
 44
0.0000000001
 40
0.0
 40
0.0
 40
0.0
 40
0.0
 40
0.0351365922
 40
0.0702246434
 40
0.1052062416
 40
0.1400373474
 40
0.1746742086
 40
0.2090784401
 40
0.2770525499
 40
0.3437912438
 40
0.4091995474
 40
0.4732547458
 40
0.5359866012
 40
0.597459036
 40
0.6577557027
 40
0.716969542
 40
0.7751956875
 40
0.8325267455
 40
0.8890504573
 40
0.91703783
 40
0.9448532731
 40
1.0
 40
1.0
 40
1.0
 40
1.0
 10
5.4834867501
 20
6.0704821606
 30
0.0
 10
5.48348628
 20
6.0653186749
 30
0.0
 10
5.483258966
 20
6.0549974609
 30
0.0
 10
5.4822476315
 20
6.0395654291
 30
0.0
 10
5.480573602
 20
6.0242359821
 30
0.0
 10
5.478246453
 20
6.0090593291
 30
0.0
 10
5.475289352
 20
5.994079106
 30
0.0
 10
5.4705584265
 20
5.9745027243
 30
0.0
 10
5.4632171023
 20
5.9507271079
 30
0.0
 10
5.4522901605
 20
5.9233913732
 30
0.0
 10
5.4395269698
 20
5.8975058849
 30
0.0
 10
5.4251681466
 20
5.8731549613
 30
0.0
 10
5.4094347775
 20
5.8503712054
 30
0.0
 10
5.3925235723
 20
5.8291522668
 30
0.0
 10
5.374605531
 20
5.8094727888
 30
0.0
 10
5.3558277907
 20
5.79129377
 30
0.0
 10
5.336316047
 20
5.7745692443
 30
0.0
 10
5.3161784816
 20
5.7592509016
 30
0.0
 10
5.2988947948
 20
5.7475786563
 30
0.0
 10
5.2848463145
 20
5.7389082067
 30
0.0
 10
5.2707456244
 20
5.7307194864
 30
0.0
 10
5.2599624378
 20
5.7250153358
 30
0.0
 10
5.2527032992
 20
5.7214124445
 30
0.0
  0
SPLINE
  5
4F4
100
AcDbEntity
  8
0
100
AcDbSpline
 62
7
  6
CONTINUOUS
 70
0
 71
3
 72
17
 73
13
 74
0
 42
0.0000001
 43
0.0000001
 44
0.0000000001
 40
0.0
 40
0.0
 40
0.0
 40
0.0
 40
0.1249580974
 40
0.2499267741
 40
0.3748949521
 40
0.4998671864
 40
0.624840538
 40
0.7498133301
 40
0.8123562322
 40
0.874899916
 40
0.9374588355
 40
1.0
 40
1.0
 40
1.0
 40
1.0
 10
5.7899339032
 20
6.3782137106
 30
0.0
 10
5.7902232408
 20
6.3788670091
 30
0.0
 10
5.7908677402
 20
6.3801458472
 30
0.0
 10
5.7920357525
 20
6.3819485323
 30
0.0
 10
5.7934090001
 20
6.3836018221
 30
0.0
 10
5.794986326
 20
6.385063536
 30
0.0
 10
5.7967578761
 20
6.3862847269
 30
0.0
 10
5.7983787113
 20
6.3870578451
 30
0.0
 10
5.7997389527
 20
6.3875034409
 30
0.0
 10
5.8007855355
 20
6.3877465702
 30
0.0
 10
5.8018496928
 20
6.3878941156
 30
0.0
 10
5.8025654428
 20
6.3879271723
 30
0.0
 10
5.8029230497
 20
6.3879271723
 30
0.0
  0
SPLINE
  5
4F5
100
AcDbEntity
  8
0
100
AcDbSpline
 62
7
  6
CONTINUOUS
 70
0
 71
3
 72
17
 73
13
 74
0
 42
0.0000001
 43
0.0000001
 44
0.0000000001
 40
0.0
 40
0.0
 40
0.0
 40
0.0
 40
0.125001574
 40
0.2500036731
 40
0.3749931218
 40
0.4999726488
 40
0.6249382445
 40
0.7498886431
 40
0.8124156529
 40
0.8749409875
 40
0.9374798177
 40
1.0
 40
1.0
 40
1.0
 40
1.0
 10
5.7899339032
 20
6.3629776276
 30
0.0
 10
5.7902232309
 20
6.3636314661
 30
0.0
 10
5.7908676976
 20
6.3649113517
 30
0.0
 10
5.7920356911
 20
6.3667155792
 30
0.0
 10
5.7934089176
 20
6.3683702887
 30
0.0
 10
5.7949862247
 20
6.3698332669
 30
0.0
 10
5.7967577654
 20
6.371055527
 30
0.0
 10
5.7983786521
 20
6.3718293532
 30
0.0
 10
5.7997389323
 20
6.3722753481
 30
0.0
 10
5.8007855208
 20
6.3725186897
 30
0.0
 10
5.8018496849
 20
6.3726663641
 30
0.0
 10
5.8025654422
 20
6.3726994498
 30
0.0
 10
5.8029230497
 20
6.3726994498
 30
0.0
  0
SPLINE
  5
4F6
100
AcDbEntity
  8
0
100
AcDbSpline
 62
7
  6
CONTINUOUS
 70
0
 71
3
 72
17
 73
13
 74
0
 42
0.0000001
 43
0.0000001
 44
0.0000000001
 40
0.0
 40
0.0
 40
0.0
 40
0.0
 40
0.1248493317
 40
0.2497344142
 40
0.3746494111
 40
0.4996034357
 40
0.624596212
 40
0.7496250207
 40
0.8122076652
 40
0.8747972295
 40
0.9374063771
 40
1.0
 40
1.0
 40
1.0
 40
1.0
 10
5.7899339032
 20
6.3466099365
 30
0.0
 10
5.7902232655
 20
6.3472618857
 30
0.0
 10
5.7908678469
 20
6.3485381062
 30
0.0
 10
5.7920359064
 20
6.3503369372
 30
0.0
 10
5.7934092067
 20
6.3519866797
 30
0.0
 10
5.7949865794
 20
6.3534452341
 30
0.0
 10
5.7967581527
 20
6.3546637533
 30
0.0
 10
5.7983788591
 20
6.3554351025
 30
0.0
 10
5.7997390038
 20
6.3558797013
 30
0.0
 10
5.8007855723
 20
6.3561223001
 30
0.0
 10
5.8018497123
 20
6.3562695232
 30
0.0
 10
5.8025654445
 20
6.3563025074
 30
0.0
 10
5.8029230497
 20
6.3563025074
 30
0.0
  0
SPLINE
  5
4F7
100
AcDbEntity
  8
0
100
AcDbSpline
 62
7
  6
CONTINUOUS
 70
0
 71
3
 72
17
 73
13
 74
0
 42
0.0000001
 43
0.0000001
 44
0.0000000001
 40
0.0
 40
0.0
 40
0.0
 40
0.0
 40
0.1245005725
 40
0.2491177899
 40
0.3738625701
 40
0.4987585374
 40
0.6238138095
 40
0.7490221807
 40
0.8117321098
 40
0.8744685647
 40
0.9372384848
 40
1.0
 40
1.0
 40
1.0
 40
1.0
 10
5.7899339032
 20
6.3291739606
 30
0.0
 10
5.7902233455
 20
6.3298215989
 30
0.0
 10
5.7908681911
 20
6.3310894554
 30
0.0
 10
5.7920364015
 20
6.3328759705
 30
0.0
 10
5.7934098701
 20
6.3345143771
 30
0.0
 10
5.7949873911
 20
6.335962835
 30
0.0
 10
5.7967590365
 20
6.337172817
 30
0.0
 10
5.7983793301
 20
6.337938517
 30
0.0
 10
5.7997391663
 20
6.3383799315
 30
0.0
 10
5.8007856892
 20
6.3386208357
 30
0.0
 10
5.8018497745
 20
6.3387670289
 30
0.0
 10
5.8025654496
 20
6.3387997815
 30
0.0
 10
5.8029230497
 20
6.3387997815
 30
0.0
  0
SPLINE
  5
4F8
100
AcDbEntity
  8
0
100
AcDbSpline
 62
7
  6
CONTINUOUS
 70
0
 71
3
 72
17
 73
13
 74
0
 42
0.0000001
 43
0.0000001
 44
0.0000000001
 40
0.0
 40
0.0
 40
0.0
 40
0.0
 40
0.1239534941
 40
0.2481510882
 40
0.3726298118
 40
0.4974357274
 40
0.6225896721
 40
0.7480795371
 40
0.8109886678
 40
0.8739548478
 40
0.9369760905
 40
1.0
 40
1.0
 40
1.0
 40
1.0
 10
5.7899339032
 20
6.3107371565
 30
0.0
 10
5.7902234725
 20
6.3113780793
 30
0.0
 10
5.7908687372
 20
6.312632905
 30
0.0
 10
5.7920371841
 20
6.314400229
 30
0.0
 10
5.793410914
 20
6.3160209701
 30
0.0
 10
5.794988662
 20
6.3174536941
 30
0.0
 10
5.7967604131
 20
6.3186503749
 30
0.0
 10
5.7983800606
 20
6.3194072827
 30
0.0
 10
5.7997394178
 20
6.3198437404
 30
0.0
 10
5.8007858698
 20
6.3200820055
 30
0.0
 10
5.8018498705
 20
6.3202265949
 30
0.0
 10
5.8025654576
 20
6.3202589869
 30
0.0
 10
5.8029230497
 20
6.3202589869
 30
0.0
  0
LINE
  5
4F9
100
AcDbEntity
  8
0
100
AcDbLine
 62
7
  6
CONTINUOUS
 10
5.8029230783
 20
6.3104515586
 11
5.7899339032
 21
6.3107371565
  0
SPLINE
  5
4FA
100
AcDbEntity
  8
0
100
AcDbSpline
 62
7
  6
CONTINUOUS
 70
0
 71
3
 72
16
 73
12
 74
0
 42
0.0000001
 43
0.0000001
 44
0.0000000001
 40
0.0
 40
0.0
 40
0.0
 40
0.0
 40
0.1232206204
 40
0.2468608092
 40
0.3709929675
 40
0.4956932018
 40
0.6209988634
 40
0.7468889225
 40
0.8100773849
 40
0.8733641986
 40
1.0
 40
1.0
 40
1.0
 40
1.0
 10
5.7899339032
 20
6.2913708524
 30
0.0
 10
5.7902236498
 20
6.2920026824
 30
0.0
 10
5.7908694963
 20
6.2932398593
 30
0.0
 10
5.7920382656
 20
6.294981186
 30
0.0
 10
5.7934123493
 20
6.2965779939
 30
0.0
 10
5.7949903902
 20
6.2979894019
 30
0.0
 10
5.7967622967
 20
6.2991680676
 30
0.0
 10
5.7983809841
 20
6.2999130863
 30
0.0
 10
5.7997398584
 20
6.3003428377
 30
0.0
 10
5.8011342414
 20
6.3006557473
 30
0.0
 10
5.8022086857
 20
6.3007518543
 30
0.0
 10
5.8029230497
 20
6.3007518543
 30
0.0
  0
SPLINE
  5
4FB
100
AcDbEntity
  8
0
100
AcDbSpline
 62
7
  6
CONTINUOUS
 70
0
 71
3
 72
14
 73
10
 74
0
 42
0.0000001
 43
0.0000001
 44
0.0000000001
 40
0.0
 40
0.0
 40
0.0
 40
0.0
 40
0.3221865723
 40
0.4709027066
 40
0.6067953661
 40
0.7280968105
 40
0.8340545009
 40
0.9245889703
 40
1.0
 40
1.0
 40
1.0
 40
1.0
 10
5.8029230769
 20
6.2904815754
 30
0.0
 10
5.8015230496
 20
6.2904815754
 30
0.0
 10
5.7994765177
 20
6.2905144975
 30
0.0
 10
5.7968420727
 20
6.2906275944
 30
0.0
 10
5.7950814957
 20
6.2907368816
 30
0.0
 10
5.7935087906
 20
6.2908680625
 30
0.0
 10
5.7921356913
 20
6.2910166574
 30
0.0
 10
5.7909651524
 20
6.2911787111
 30
0.0
 10
5.7902548092
 20
6.2913045167
 30
0.0
 10
5.7899339032
 20
6.2913708524
 30
0.0
  0
SPLINE
  5
4FC
100
AcDbEntity
  8
0
100
AcDbSpline
 62
7
  6
CONTINUOUS
 70
0
 71
3
 72
16
 73
12
 74
0
 42
0.0000001
 43
0.0000001
 44
0.0000000001
 40
0.0
 40
0.0
 40
0.0
 40
0.0
 40
0.1222672267
 40
0.2451793419
 40
0.3688531833
 40
0.4934020053
 40
0.618882708
 40
0.7452615175
 40
0.8087940247
 40
0.8724767313
 40
1.0
 40
1.0
 40
1.0
 40
1.0
 10
5.7899339032
 20
6.2711499729
 30
0.0
 10
5.7902238814
 20
6.2717703689
 30
0.0
 10
5.7908704838
 20
6.2729853455
 30
0.0
 10
5.7920396631
 20
6.2746939614
 30
0.0
 10
5.7934141857
 20
6.2762606517
 30
0.0
 10
5.7949925899
 20
6.2776452368
 30
0.0
 10
5.7967646375
 20
6.2788012429
 30
0.0
 10
5.7983822113
 20
6.2795313352
 30
0.0
 10
5.7997402734
 20
6.2799526686
 30
0.0
 10
5.8011348753
 20
6.2802596654
 30
0.0
 10
5.8022087905
 20
6.280353853
 30
0.0
 10
5.8029230497
 20
6.280353853
 30
0.0
  0
SPLINE
  5
4FD
100
AcDbEntity
  8
0
100
AcDbSpline
 62
7
  6
CONTINUOUS
 70
0
 71
3
 72
15
 73
11
 74
0
 42
0.0000001
 43
0.0000001
 44
0.0000000001
 40
0.0
 40
0.0
 40
0.0
 40
0.0
 40
0.1627158095
 40
0.3202335182
 40
0.4682461454
 40
0.6037442879
 40
0.7250353477
 40
0.831438506
 40
0.9229564151
 40
1.0
 40
1.0
 40
1.0
 40
1.0
 10
5.8029230785
 20
6.2696604572
 30
0.0
 10
5.802211447
 20
6.2696604572
 30
0.0
 10
5.8008108346
 20
6.2696800339
 30
0.0
 10
5.7987645397
 20
6.2697666812
 30
0.0
 10
5.7968403953
 20
6.269905199
 30
0.0
 10
5.7950791782
 20
6.2700883573
 30
0.0
 10
5.7935057032
 20
6.2703082925
 30
0.0
 10
5.7921315818
 20
6.2705575336
 30
0.0
 10
5.7909596943
 20
6.2708295168
 30
0.0
 10
5.7902523051
 20
6.2710397293
 30
0.0
 10
5.7899339032
 20
6.2711499729
 30
0.0
  0
SPLINE
  5
4FE
100
AcDbEntity
  8
0
100
AcDbSpline
 62
7
  6
CONTINUOUS
 70
0
 71
3
 72
16
 73
12
 74
0
 42
0.0000001
 43
0.0000001
 44
0.0000000001
 40
0.0
 40
0.0
 40
0.0
 40
0.0
 40
0.1211047465
 40
0.2431320213
 40
0.3662518772
 40
0.4906211438
 40
0.6163183182
 40
0.7432920446
 40
0.8072417256
 40
0.8714037222
 40
1.0
 40
1.0
 40
1.0
 40
1.0
 10
5.7899339032
 20
6.2501527486
 30
0.0
 10
5.7902241731
 20
6.250759415
 30
0.0
 10
5.7908717204
 20
6.2519477222
 30
0.0
 10
5.7920413971
 20
6.2536170303
 30
0.0
 10
5.79341644
 20
6.2551475238
 30
0.0
 10
5.794995259
 20
6.2564998743
 30
0.0
 10
5.7967674439
 20
6.2576286635
 30
0.0
 10
5.798383668
 20
6.2583408711
 30
0.0
 10
5.7997407641
 20
6.2587521137
 30
0.0
 10
5.8011356222
 20
6.2590520088
 30
0.0
 10
5.8022089137
 20
6.2591438988
 30
0.0
 10
5.8029230497
 20
6.2591438988
 30
0.0
  0
SPLINE
  5
4FF
100
AcDbEntity
  8
0
100
AcDbSpline
 62
7
  6
CONTINUOUS
 70
0
 71
3
 72
15
 73
11
 74
0
 42
0.0000001
 43
0.0000001
 44
0.0000000001
 40
0.0
 40
0.0
 40
0.0
 40
0.0
 40
0.1612246875
 40
0.3174204133
 40
0.4644317965
 40
0.5993764156
 40
0.7206679114
 40
0.8277234768
 40
0.92065235
 40
1.0
 40
1.0
 40
1.0
 40
1.0
 10
5.8029230786
 20
6.2480687569
 30
0.0
 10
5.8022113792
 20
6.2480687569
 30
0.0
 10
5.8008100172
 20
6.248096171
 30
0.0
 10
5.7987629222
 20
6.2482174963
 30
0.0
 10
5.796837934
 20
6.2484114673
 30
0.0
 10
5.7950758044
 20
6.2486679932
 30
0.0
 10
5.7935012797
 20
6.2489761102
 30
0.0
 10
5.7921258464
 20
6.2493254802
 30
0.0
 10
5.7909523231
 20
6.2497070142
 30
0.0
 10
5.7902491304
 20
6.2500000439
 30
0.0
 10
5.7899339032
 20
6.2501527486
 30
0.0
  0
SPLINE
  5
500
100
AcDbEntity
  8
0
100
AcDbSpline
 62
7
  6
CONTINUOUS
 70
0
 71
3
 72
17
 73
13
 74
0
 42
0.0000001
 43
0.0000001
 44
0.0000000001
 40
0.0
 40
0.0
 40
0.0
 40
0.0
 40
0.1197198954
 40
0.2406951489
 40
0.3631573369
 40
0.4250491521
 40
0.4873832623
 40
0.6133320009
 40
0.740999486
 40
0.8054352154
 40
0.870155258
 40
1.0
 40
1.0
 40
1.0
 40
1.0
 10
5.7899339032
 20
6.2284604137
 30
0.0
 10
5.7902245323
 20
6.2290511095
 30
0.0
 10
5.7908732569
 20
6.2302083964
 30
0.0
 10
5.7920434046
 20
6.2318318445
 30
0.0
 10
5.7931863863
 20
6.2330683829
 30
0.0
 10
5.794200417
 20
6.2339707393
 30
0.0
 10
5.7952881731
 20
6.2348144077
 30
0.0
 10
5.79677079
 20
6.2357322788
 30
0.0
 10
5.7983853268
 20
6.2364236518
 30
0.0
 10
5.7997413263
 20
6.2368231916
 30
0.0
 10
5.8011364697
 20
6.2371148207
 30
0.0
 10
5.8022090536
 20
6.2372040491
 30
0.0
 10
5.8029230497
 20
6.2372040491
 30
0.0
  0
SPLINE
  5
501
100
AcDbEntity
  8
0
100
AcDbSpline
 62
7
  6
CONTINUOUS
 70
0
 71
3
 72
15
 73
11
 74
0
 42
0.0000001
 43
0.0000001
 44
0.0000000001
 40
0.0
 40
0.0
 40
0.0
 40
0.0
 40
0.1593573981
 40
0.3139014839
 40
0.4596693984
 40
0.5939381924
 40
0.7152515922
 40
0.8231411438
 40
0.9178315401
 40
1.0
 40
1.0
 40
1.0
 40
1.0
 10
5.8029230781
 20
6.2257900085
 30
0.0
 10
5.8022112897
 20
6.2257900085
 30
0.0
 10
5.8008089449
 20
6.2258251776
 30
0.0
 10
5.7987608123
 20
6.2259808035
 30
0.0
 10
5.7968347536
 20
6.2262296361
 30
0.0
 10
5.7950715098
 20
6.2265587755
 30
0.0
 10
5.7934957665
 20
6.2269542247
 30
0.0
 10
5.7921189325
 20
6.2274028624
 30
0.0
 10
5.7909438183
 20
6.2278931562
 30
0.0
 10
5.7902457268
 20
6.2282668522
 30
0.0
 10
5.7899339032
 20
6.2284604137
 30
0.0
  0
SPLINE
  5
502
100
AcDbEntity
  8
0
100
AcDbSpline
 62
7
  6
CONTINUOUS
 70
0
 71
3
 72
17
 73
13
 74
0
 42
0.0000001
 43
0.0000001
 44
0.0000000001
 40
0.0
 40
0.0
 40
0.0
 40
0.0
 40
0.1181249051
 40
0.237896809
 40
0.3596164672
 40
0.4213271236
 40
0.4836130053
 40
0.6098692625
 40
0.7383491004
 40
0.8033489835
 40
0.8687146332
 40
1.0
 40
1.0
 40
1.0
 40
1.0
 10
5.7899339032
 20
6.2061568916
 30
0.0
 10
5.7902249684
 20
6.2067294385
 30
0.0
 10
5.7908750753
 20
6.2078514233
 30
0.0
 10
5.792045895
 20
6.2094228143
 30
0.0
 10
5.7931882046
 20
6.2106182371
 30
0.0
 10
5.7942012666
 20
6.2114905963
 30
0.0
 10
5.7952902713
 20
6.2123079301
 30
0.0
 10
5.7967744725
 20
6.213196604
 30
0.0
 10
5.7983871913
 20
6.2138644739
 30
0.0
 10
5.7997419484
 20
6.2142507332
 30
0.0
 10
5.8011374079
 20
6.2145329697
 30
0.0
 10
5.8022092078
 20
6.2146191848
 30
0.0
 10
5.8029230497
 20
6.2146191848
 30
0.0
  0
SPLINE
  5
503
100
AcDbEntity
  8
0
100
AcDbSpline
 62
7
  6
CONTINUOUS
 70
0
 71
3
 72
15
 73
11
 74
0
 42
0.0000001
 43
0.0000001
 44
0.0000000001
 40
0.0
 40
0.0
 40
0.0
 40
0.0
 40
0.1571981281
 40
0.3098376769
 40
0.4541820287
 40
0.5876929684
 40
0.7090600967
 40
0.8179353535
 40
0.9146533388
 40
1.0
 40
1.0
 40
1.0
 40
1.0
 10
5.8029230781
 20
6.2029104042
 30
0.0
 10
5.8022111807
 20
6.2029104042
 30
0.0
 10
5.8008076359
 20
6.2029532212
 30
0.0
 10
5.7987582536
 20
6.2031426572
 30
0.0
 10
5.7968309413
 20
6.203445576
 30
0.0
 10
5.7950664553
 20
6.2038463231
 30
0.0
 10
5.7934894438
 20
6.2043279347
 30
0.0
 10
5.7921113025
 20
6.2048745613
 30
0.0
 10
5.7909349035
 20
6.2054722727
 30
0.0
 10
5.790242418
 20
6.2059240704
 30
0.0
 10
5.7899339032
 20
6.2061568916
 30
0.0
  0
SPLINE
  5
504
100
AcDbEntity
  8
0
100
AcDbSpline
 62
7
  6
CONTINUOUS
 70
0
 71
3
 72
17
 73
13
 74
0
 42
0.0000001
 43
0.0000001
 44
0.0000000001
 40
0.0
 40
0.0
 40
0.0
 40
0.0
 40
0.1163063507
 40
0.2347140279
 40
0.3555996141
 40
0.4171102431
 40
0.4793469648
 40
0.6059607576
 40
0.7353635808
 40
0.8010007802
 40
0.8670940718
 40
1.0
 40
1.0
 40
1.0
 40
1.0
 10
5.7899339032
 20
6.1833284704
 30
0.0
 10
5.7902254932
 20
6.183880761
 30
0.0
 10
5.7908772403
 20
6.1849633071
 30
0.0
 10
5.7920488127
 20
6.1864765262
 30
0.0
 10
5.7931902966
 20
6.187626053
 30
0.0
 10
5.7942022342
 20
6.1884649623
 30
0.0
 10
5.7952926386
 20
6.189252834
 30
0.0
 10
5.7967785539
 20
6.1901088523
 30
0.0
 10
5.798389228
 20
6.1907505875
 30
0.0
 10
5.7997426243
 20
6.1911220639
 30
0.0
 10
5.8011384218
 20
6.191393815
 30
0.0
 10
5.8022093741
 20
6.1914766823
 30
0.0
 10
5.8029230497
 20
6.1914766823
 30
0.0
  0
SPLINE
  5
505
100
AcDbEntity
  8
0
100
AcDbSpline
 62
7
  6
CONTINUOUS
 70
0
 71
3
 72
15
 73
11
 74
0
 42
0.0000001
 43
0.0000001
 44
0.0000000001
 40
0.0
 40
0.0
 40
0.0
 40
0.0
 40
0.1548306618
 40
0.3053887184
 40
0.4481899299
 40
0.5808985955
 40
0.7023580295
 40
0.8123373841
 40
0.9112646544
 40
1.0
 40
1.0
 40
1.0
 40
1.0
 10
5.8029230779
 20
6.1795184608
 30
0.0
 10
5.8022110535
 20
6.1795184608
 30
0.0
 10
5.8008061107
 20
6.1795687933
 30
0.0
 10
5.7987552963
 20
6.1797914331
 30
0.0
 10
5.7968265964
 20
6.1801474712
 30
0.0
 10
5.7950608152
 20
6.1806185515
 30
0.0
 10
5.7934825956
 20
6.1811848006
 30
0.0
 10
5.7921033762
 20
6.1818276706
 30
0.0
 10
5.7909261419
 20
6.1825308397
 30
0.0
 10
5.7902393903
 20
6.1830579178
 30
0.0
 10
5.7899339032
 20
6.1833284704
 30
0.0
  0
SPLINE
  5
506
100
AcDbEntity
  8
0
100
AcDbSpline
 62
7
  6
CONTINUOUS
 70
0
 71
3
 72
17
 73
13
 74
0
 42
0.0000001
 43
0.0000001
 44
0.0000000001
 40
0.0
 40
0.0
 40
0.0
 40
0.0
 40
0.1142603149
 40
0.2311433128
 40
0.3511066302
 40
0.4124004845
 40
0.4745891965
 40
0.6016136236
 40
0.7320504123
 40
0.798397084
 40
0.8652983509
 40
1.0
 40
1.0
 40
1.0
 40
1.0
 10
5.7899339032
 20
6.1600634687
 30
0.0
 10
5.7902261214
 20
6.1605934735
 30
0.0
 10
5.7908797987
 20
6.1616325777
 30
0.0
 10
5.7920521961
 20
6.1630817119
 30
0.0
 10
5.7931926722
 20
6.164180749
 30
0.0
 10
5.7942033207
 20
6.1649829031
 30
0.0
 10
5.7952952684
 20
6.1657382761
 30
0.0
 10
5.7967829988
 20
6.1665582914
 30
0.0
 10
5.7983914112
 20
6.1671713978
 30
0.0
 10
5.7997433445
 20
6.1675266594
 30
0.0
 10
5.8011394961
 20
6.1677868729
 30
0.0
 10
5.8022095498
 20
6.1678660755
 30
0.0
 10
5.8029230497
 20
6.1678660755
 30
0.0
  0
SPLINE
  5
507
100
AcDbEntity
  8
0
100
AcDbSpline
 62
7
  6
CONTINUOUS
 70
0
 71
3
 72
15
 73
11
 74
0
 42
0.0000001
 43
0.0000001
 44
0.0000000001
 40
0.0
 40
0.0
 40
0.0
 40
0.0
 40
0.1523326964
 40
0.3007022098
 40
0.4418953294
 40
0.5737894489
 40
0.6953822914
 40
0.8065498075
 40
0.9077902274
 40
1.0
 40
1.0
 40
1.0
 40
1.0
 10
5.8029230769
 20
6.1557046771
 30
0.0
 10
5.8022109093
 20
6.1557046771
 30
0.0
 10
5.8008043934
 20
6.1557623671
 30
0.0
 10
5.7987519976
 20
6.1560174858
 30
0.0
 10
5.7968218259
 20
6.1564254772
 30
0.0
 10
5.7950547664
 20
6.1569653327
 30
0.0
 10
5.7934754852
 20
6.157614317
 30
0.0
 10
5.7920954968
 20
6.1583511981
 30
0.0
 10
5.7909179063
 20
6.1591572537
 30
0.0
 10
5.790236722
 20
6.1597566501
 30
0.0
 10
5.7899339032
 20
6.1600634687
 30
0.0
  0
SPLINE
  5
508
100
AcDbEntity
  8
0
100
AcDbSpline
 62
7
  6
CONTINUOUS
 70
0
 71
3
 72
16
 73
12
 74
0
 42
0.0000001
 43
0.0000001
 44
0.0000000001
 40
0.0
 40
0.0
 40
0.0
 40
0.0
 40
0.1119917427
 40
0.2271993624
 40
0.3461648359
 40
0.4693153863
 40
0.5968146244
 40
0.7284039465
 40
0.7955346461
 40
0.8633258236
 40
1.0
 40
1.0
 40
1.0
 40
1.0
 10
5.7899339032
 20
6.1364518943
 30
0.0
 10
5.7902268714
 20
6.1369576675
 30
0.0
 10
5.7908827853
 20
6.1379494523
 30
0.0
 10
5.7920561613
 20
6.1393288781
 30
0.0
 10
5.7934346078
 20
6.1405923482
 30
0.0
 10
5.7950155844
 20
6.141707133
 30
0.0
 10
5.7967876738
 20
6.1426359131
 30
0.0
 10
5.7983937238
 20
6.1432181179
 30
0.0
 10
5.7997440968
 20
6.1435557995
 30
0.0
 10
5.8011406159
 20
6.1438034704
 30
0.0
 10
5.8022097323
 20
6.1438787092
 30
0.0
 10
5.8029230497
 20
6.1438787092
 30
0.0
  0
SPLINE
  5
509
100
AcDbEntity
  8
0
100
AcDbSpline
 62
7
  6
CONTINUOUS
 70
0
 71
3
 72
14
 73
10
 74
0
 42
0.0000001
 43
0.0000001
 44
0.0000000001
 40
0.0
 40
0.0
 40
0.0
 40
0.0
 40
0.149830294
 40
0.296021449
 40
0.4356417574
 40
0.5667850266
 40
0.6885978576
 40
0.8010476988
 40
1.0
 40
1.0
 40
1.0
 40
1.0
 10
5.8029230727
 20
6.131561184
 30
0.0
 10
5.8022107482
 20
6.131561184
 30
0.0
 10
5.8008025066
 20
6.1316260497
 30
0.0
 10
5.7987484271
 20
6.1319127911
 30
0.0
 10
5.7968167084
 20
6.1323713983
 30
0.0
 10
5.7950485834
 20
6.1329780643
 30
0.0
 10
5.7934679898
 20
6.1337078754
 30
0.0
 10
5.7917000745
 20
6.1347680736
 30
0.0
 10
5.7905586133
 20
6.1357416902
 30
0.0
 10
5.7899339032
 20
6.1364518943
 30
0.0
  0
SPLINE
  5
50A
100
AcDbEntity
  8
0
100
AcDbSpline
 62
7
  6
CONTINUOUS
 70
0
 71
3
 72
15
 73
11
 74
0
 42
0.0000001
 43
0.0000001
 44
0.0000000001
 40
0.0
 40
0.0
 40
0.0
 40
0.0
 40
0.1094943116
 40
0.222874062
 40
0.3407661508
 40
0.4636480907
 40
0.5916813587
 40
0.7245316704
 40
0.8611943706
 40
1.0
 40
1.0
 40
1.0
 40
1.0
 10
5.7899339032
 20
6.1125850959
 30
0.0
 10
5.7902277654
 20
6.1130647799
 30
0.0
 10
5.7908863067
 20
6.1140055415
 30
0.0
 10
5.792060591
 20
6.1153097324
 30
0.0
 10
5.7934397304
 20
6.1165039201
 30
0.0
 10
5.7950209344
 20
6.1175571701
 30
0.0
 10
5.7967927866
 20
6.1184343582
 30
0.0
 10
5.7987306476
 20
6.1190979733
 30
0.0
 10
5.8007928461
 20
6.1195132625
 30
0.0
 10
5.8022099187
 20
6.119607386
 30
0.0
 10
5.8029230497
 20
6.119607386
 30
0.0
  0
SPLINE
  5
50B
100
AcDbEntity
  8
0
100
AcDbSpline
 62
7
  6
CONTINUOUS
 70
0
 71
3
 72
14
 73
10
 74
0
 42
0.0000001
 43
0.0000001
 44
0.0000000001
 40
0.0
 40
0.0
 40
0.0
 40
0.0
 40
0.2908415072
 40
0.428854088
 40
0.5592279581
 40
0.681249317
 40
0.7949592731
 40
0.9009200639
 40
1.0
 40
1.0
 40
1.0
 40
1.0
 10
5.8029230771
 20
6.1071813881
 30
0.0
 10
5.8015159374
 20
6.1071813881
 30
0.0
 10
5.7994319495
 20
6.107390059
 30
0.0
 10
5.7968116749
 20
6.1080781614
 30
0.0
 10
5.7950420568
 20
6.1087497678
 30
0.0
 10
5.7934613612
 20
6.1095569597
 30
0.0
 10
5.7920808067
 20
6.1104732767
 30
0.0
 10
5.7909037085
 20
6.1114752212
 30
0.0
 10
5.7902324709
 20
6.1122100647
 30
0.0
 10
5.7899339032
 20
6.1125850959
 30
0.0
  0
SPLINE
  5
50C
100
AcDbEntity
  8
0
100
AcDbSpline
 62
7
  6
CONTINUOUS
 70
0
 71
3
 72
13
 73
9
 74
0
 42
0.0000001
 43
0.0000001
 44
0.0000000001
 40
0.0
 40
0.0
 40
0.0
 40
0.0
 40
0.1068749111
 40
0.2183899242
 40
0.335254577
 40
0.4579888514
 40
0.7205775228
 40
1.0
 40
1.0
 40
1.0
 40
1.0
 10
5.7899339032
 20
6.0885554093
 30
0.0
 10
5.7902288309
 20
6.0890072372
 30
0.0
 10
5.790890418
 20
6.0898933996
 30
0.0
 10
5.792065578
 20
6.0911171539
 30
0.0
 10
5.7934454533
 20
6.0922373645
 30
0.0
 10
5.7956006102
 20
6.0935835018
 30
0.0
 10
5.7987640281
 20
6.0948077584
 30
0.0
 10
5.8015123661
 20
6.0951460068
 30
0.0
 10
5.8029230497
 20
6.0951460068
 30
0.0
  0
SPLINE
  5
50D
100
AcDbEntity
  8
0
100
AcDbSpline
 62
7
  6
CONTINUOUS
 70
0
 71
3
 72
14
 73
10
 74
0
 42
0.0000001
 43
0.0000001
 44
0.0000000001
 40
0.0
 40
0.0
 40
0.0
 40
0.0
 40
0.2860904551
 40
0.4225530419
 40
0.5522111229
 40
0.6744777848
 40
0.7894492656
 40
0.8976846532
 40
1.0
 40
1.0
 40
1.0
 40
1.0
 10
5.8029230781
 20
6.08265961
 30
0.0
 10
5.8015145505
 20
6.08265961
 30
0.0
 10
5.7994235407
 20
6.0828890741
 30
0.0
 10
5.7968063376
 20
6.0836398893
 30
0.0
 10
5.7950357281
 20
6.0843738237
 30
0.0
 10
5.7934546622
 20
6.0852557497
 30
0.0
 10
5.7920742643
 20
6.0862566177
 30
0.0
 10
5.7908978253
 20
6.0873506477
 30
0.0
 10
5.7902308231
 20
6.0881484839
 30
0.0
 10
5.7899339032
 20
6.0885554093
 30
0.0
  0
SPLINE
  5
50E
100
AcDbEntity
  8
0
100
AcDbSpline
 62
7
  6
CONTINUOUS
 70
0
 71
3
 72
14
 73
10
 74
0
 42
0.0000001
 43
0.0000001
 44
0.0000000001
 40
0.0
 40
0.0
 40
0.0
 40
0.0
 40
0.1056125975
 40
0.216072186
 40
0.3320171504
 40
0.4539661493
 40
0.582171984
 40
0.7165129319
 40
1.0
 40
1.0
 40
1.0
 40
1.0
 10
5.7899339032
 20
6.0644558009
 30
0.0
 10
5.7901950105
 20
6.064828067
 30
0.0
 10
5.7907733464
 20
6.0655596428
 30
0.0
 10
5.7917801977
 20
6.066578192
 30
0.0
 10
5.7929465569
 20
6.0675257999
 30
0.0
 10
5.794271606
 20
6.0683847973
 30
0.0
 10
5.7957508288
 20
6.069135241
 30
0.0
 10
5.7979494541
 20
6.0699759708
 30
0.0
 10
5.7997263531
 20
6.0703505789
 30
0.0
 10
5.8009397735
 20
6.0704821606
 30
0.0
  0
SPLINE
  5
50F
100
AcDbEntity
  8
0
100
AcDbSpline
 62
7
  6
CONTINUOUS
 70
0
 71
3
 72
15
 73
11
 74
0
 42
0.0000001
 43
0.0000001
 44
0.0000000001
 40
0.0
 40
0.0
 40
0.0
 40
0.0
 40
0.1422488769
 40
0.281867214
 40
0.4167816561
 40
0.5457113024
 40
0.6681820029
 40
0.7843273389
 40
0.8946842963
 40
1.0
 40
1.0
 40
1.0
 40
1.0
 10
5.8029230781
 20
6.0580907197
 30
0.0
 10
5.8022102236
 20
6.0580907197
 30
0.0
 10
5.8007961966
 20
6.0581757208
 30
0.0
 10
5.7987366817
 20
6.0585510496
 30
0.0
 10
5.7968006785
 20
6.0591510477
 30
0.0
 10
5.7950296457
 20
6.0599445433
 30
0.0
 10
5.7934483329
 20
6.0608978246
 30
0.0
 10
5.7920683369
 20
6.0619792817
 30
0.0
 10
5.7908927047
 20
6.0631609768
 30
0.0
 10
5.7902294379
 20
6.0640185355
 30
0.0
 10
5.7899339032
 20
6.0644558009
 30
0.0
  0
SPLINE
  5
510
100
AcDbEntity
  8
0
100
AcDbSpline
 62
7
  6
CONTINUOUS
 70
0
 71
3
 72
14
 73
10
 74
0
 42
0.0000001
 43
0.0000001
 44
0.0000000001
 40
0.0
 40
0.0
 40
0.0
 40
0.0
 40
0.100718447
 40
0.207827062
 40
0.3221706076
 40
0.444311387
 40
0.5743212785
 40
0.7115508088
 40
1.0
 40
1.0
 40
1.0
 40
1.0
 10
5.7899339032
 20
6.0403795073
 30
0.0
 10
5.7902316115
 20
6.0407706753
 30
0.0
 10
5.7909006681
 20
6.0415374179
 30
0.0
 10
5.7920774627
 20
6.0425859376
 30
0.0
 10
5.7934579718
 20
6.043545002
 30
0.0
 10
5.795038882
 20
6.0443899632
 30
0.0
 10
5.7968090108
 20
6.0450930558
 30
0.0
 10
5.7994277667
 20
6.0458128623
 30
0.0
 10
5.8015152299
 20
6.0460319951
 30
0.0
 10
5.8029230497
 20
6.0460319951
 30
0.0
  0
SPLINE
  5
511
100
AcDbEntity
  8
0
100
AcDbSpline
 62
7
  6
CONTINUOUS
 70
0
 71
3
 72
15
 73
11
 74
0
 42
0.0000001
 43
0.0000001
 44
0.0000000001
 40
0.0
 40
0.0
 40
0.0
 40
0.0
 40
0.1399210546
 40
0.2775391796
 40
0.4110536651
 40
0.5393707853
 40
0.6621138987
 40
0.7794380602
 40
0.891843971
 40
1.0
 40
1.0
 40
1.0
 40
1.0
 10
5.8029230773
 20
6.0335697695
 30
0.0
 10
5.8022100359
 20
6.0335697695
 30
0.0
 10
5.8007939753
 20
6.0336609301
 30
0.0
 10
5.7987326531
 20
6.0340632613
 30
0.0
 10
5.7967953786
 20
6.0347062654
 30
0.0
 10
5.7950237553
 20
6.0355563625
 30
0.0
 10
5.7934424737
 20
6.036577279
 30
0.0
 10
5.7920630212
 20
6.037735029
 30
0.0
 10
5.7908882808
 20
6.038999637
 30
0.0
 10
5.7902282749
 20
6.039913536
 30
0.0
 10
5.7899339032
 20
6.0403795073
 30
0.0
  0
SPLINE
  5
512
100
AcDbEntity
  8
0
100
AcDbSpline
 62
7
  6
CONTINUOUS
 70
0
 71
3
 72
15
 73
11
 74
0
 42
0.0000001
 43
0.0000001
 44
0.0000000001
 40
0.0
 40
0.0
 40
0.0
 40
0.0
 40
0.0973713235
 40
0.2021320739
 40
0.3151682969
 40
0.4370344232
 40
0.5677379516
 40
0.7064961725
 40
0.8515126646
 40
1.0
 40
1.0
 40
1.0
 40
1.0
 10
5.7899339032
 20
6.016419675
 30
0.0
 10
5.7902334065
 20
6.0167781975
 30
0.0
 10
5.7909069523
 20
6.017480348
 30
0.0
 10
5.7920842999
 20
6.0184347091
 30
0.0
 10
5.7934648199
 20
6.0193073784
 30
0.0
 10
5.7950453006
 20
6.0200760531
 30
0.0
 10
5.7968141157
 20
6.0207155068
 30
0.0
 10
5.7987465423
 20
6.02119879
 30
0.0
 10
5.800801504
 20
6.0215010013
 30
0.0
 10
5.8022106461
 20
6.021569375
 30
0.0
 10
5.8029230497
 20
6.021569375
 30
0.0
  0
SPLINE
  5
513
100
AcDbEntity
  8
0
100
AcDbSpline
 62
7
  6
CONTINUOUS
 70
0
 71
3
 72
15
 73
11
 74
0
 42
0.0000001
 43
0.0000001
 44
0.0000000001
 40
0.0
 40
0.0
 40
0.0
 40
0.0
 40
0.1377271486
 40
0.2734673688
 40
0.4056798341
 40
0.5334437611
 40
0.6564652577
 40
0.7749073138
 40
0.8892240658
 40
1.0
 40
1.0
 40
1.0
 40
1.0
 10
5.802923077
 20
6.0091916262
 30
0.0
 10
5.8022098484
 20
6.0091916262
 30
0.0
 10
5.8007917543
 20
6.0092886224
 30
0.0
 10
5.7987286747
 20
6.009716488
 30
0.0
 10
5.7967902468
 20
6.0104000946
 30
0.0
 10
5.7950181957
 20
6.0113035317
 30
0.0
 10
5.7934371049
 20
6.0123880798
 30
0.0
 10
5.792058303
 20
6.0136175197
 30
0.0
 10
5.7908844773
 20
6.0149599908
 30
0.0
 10
5.7902272989
 20
6.0159267198
 30
0.0
 10
5.7899339032
 20
6.016419675
 30
0.0
  0
SPLINE
  5
514
100
AcDbEntity
  8
0
100
AcDbSpline
 62
7
  6
CONTINUOUS
 70
0
 71
3
 72
14
 73
10
 74
0
 42
0.0000001
 43
0.0000001
 44
0.0000000001
 40
0.0
 40
0.0
 40
0.0
 40
0.0
 40
0.1960625472
 40
0.3078874723
 40
0.4296074192
 40
0.5611470912
 40
0.7015785883
 40
0.8488877427
 40
1.0
 40
1.0
 40
1.0
 40
1.0
 10
5.7899339032
 20
5.992669
 30
0.0
 10
5.790563142
 20
5.9933457787
 30
0.0
 10
5.7917087921
 20
5.9942672873
 30
0.0
 10
5.7934715352
 20
5.9952668179
 30
0.0
 10
5.7950517595
 20
5.9959566884
 30
0.0
 10
5.7968192821
 20
5.9965301485
 30
0.0
 10
5.7987502435
 20
5.9969636449
 30
0.0
 10
5.8008034526
 20
5.9972346839
 30
0.0
 10
5.8022108093
 20
5.9972959891
 30
0.0
 10
5.8029230497
 20
5.9972959891
 30
0.0
  0
SPLINE
  5
515
100
AcDbEntity
  8
0
100
AcDbSpline
 62
7
  6
CONTINUOUS
 70
0
 71
3
 72
16
 73
12
 74
0
 42
0.0000001
 43
0.0000001
 44
0.0000000001
 40
0.0
 40
0.0
 40
0.0
 40
0.0
 40
0.1356725291
 40
0.2030118898
 40
0.2697440571
 40
0.400748246
 40
0.5280070128
 40
0.6512953164
 40
0.7707731494
 40
0.8868415545
 40
1.0
 40
1.0
 40
1.0
 40
1.0
 10
5.8029230784
 20
5.985050604
 30
0.0
 10
5.8022096649
 20
5.985050604
 30
0.0
 10
5.8011400698
 20
5.9851278577
 30
0.0
 10
5.7997437267
 20
5.9853819243
 30
0.0
 10
5.7983925652
 20
5.9857285556
 30
0.0
 10
5.7967852558
 20
5.9863265344
 30
0.0
 10
5.7950130451
 20
5.9872797828
 30
0.0
 10
5.7934322361
 20
5.9884236997
 30
0.0
 10
5.7920541514
 20
5.989719951
 30
0.0
 10
5.7908812206
 20
5.9911349631
 30
0.0
 10
5.79022648
 20
5.9921508731
 30
0.0
 10
5.7899339032
 20
5.992669
 30
0.0
  0
SPLINE
  5
516
100
AcDbEntity
  8
0
100
AcDbSpline
 62
7
  6
CONTINUOUS
 70
0
 71
3
 72
15
 73
11
 74
0
 42
0.0000001
 43
0.0000001
 44
0.0000000001
 40
0.0
 40
0.0
 40
0.0
 40
0.0
 40
0.0904688194
 40
0.1905444803
 40
0.301110144
 40
0.422631106
 40
0.5549324792
 40
0.6969342488
 40
0.8464071173
 40
1.0
 40
1.0
 40
1.0
 40
1.0
 10
5.7899339032
 20
5.9692193689
 30
0.0
 10
5.7902380093
 20
5.9695082349
 30
0.0
 10
5.7909219425
 20
5.9700718484
 30
0.0
 10
5.7920994147
 20
5.9708268203
 30
0.0
 10
5.7934790614
 20
5.9715170048
 30
0.0
 10
5.7950578346
 20
5.9721248835
 30
0.0
 10
5.7968242565
 20
5.972630563
 30
0.0
 10
5.798753679
 20
5.9730127346
 30
0.0
 10
5.8008052576
 20
5.9732517119
 30
0.0
 10
5.8022109598
 20
5.9733057462
 30
0.0
 10
5.8029230497
 20
5.9733057462
 30
0.0
  0
SPLINE
  5
517
100
AcDbEntity
  8
0
100
AcDbSpline
 62
7
  6
CONTINUOUS
 70
0
 71
3
 72
17
 73
13
 74
0
 42
0.0000001
 43
0.0000001
 44
0.0000000001
 40
0.0
 40
0.0
 40
0.0
 40
0.0
 40
0.1337828183
 40
0.2002705666
 40
0.2662534539
 40
0.3961598172
 40
0.522971945
 40
0.5851844106
 40
0.6465886471
 40
0.7670232591
 40
0.8846882188
 40
1.0
 40
1.0
 40
1.0
 40
1.0
 10
5.8029230784
 20
5.9612400999
 30
0.0
 10
5.8022094855
 20
5.9612400999
 30
0.0
 10
5.80113897
 20
5.9613211706
 30
0.0
 10
5.7997429902
 20
5.9615872818
 30
0.0
 10
5.7983903076
 20
5.9619508255
 30
0.0
 10
5.796780735
 20
5.9625785513
 30
0.0
 10
5.7952939183
 20
5.9634169805
 30
0.0
 10
5.7942027587
 20
5.9641889785
 30
0.0
 10
5.7931914443
 20
5.9650099126
 30
0.0
 10
5.7920504423
 20
5.9661347563
 30
0.0
 10
5.7908784666
 20
5.9676166559
 30
0.0
 10
5.7902257934
 20
5.9686779726
 30
0.0
 10
5.7899339032
 20
5.9692193689
 30
0.0
  0
SPLINE
  5
518
100
AcDbEntity
  8
0
100
AcDbSpline
 62
7
  6
CONTINUOUS
 70
0
 71
3
 72
15
 73
11
 74
0
 42
0.0000001
 43
0.0000001
 44
0.0000000001
 40
0.0
 40
0.0
 40
0.0
 40
0.0
 40
0.0870232348
 40
0.1848285303
 40
0.2942438043
 40
0.4156519709
 40
0.5487653754
 40
0.6923491144
 40
0.8439652244
 40
1.0
 40
1.0
 40
1.0
 40
1.0
 10
5.7899339032
 20
5.946161504
 30
0.0
 10
5.790240862
 20
5.9464133773
 30
0.0
 10
5.7909304762
 20
5.9469031788
 30
0.0
 10
5.7921073549
 20
5.9475539046
 30
0.0
 10
5.7934860716
 20
5.9481489009
 30
0.0
 10
5.7950637008
 20
5.9486730451
 30
0.0
 10
5.7968288276
 20
5.9491091345
 30
0.0
 10
5.7987568141
 20
5.9494387447
 30
0.0
 10
5.8008068816
 20
5.9496448657
 30
0.0
 10
5.8022110952
 20
5.94969146
 30
0.0
 10
5.8029230497
 20
5.94969146
 30
0.0
  0
SPLINE
  5
519
100
AcDbEntity
  8
0
100
AcDbSpline
 62
7
  6
CONTINUOUS
 70
0
 71
3
 72
17
 73
13
 74
0
 42
0.0000001
 43
0.0000001
 44
0.0000000001
 40
0.0
 40
0.0
 40
0.0
 40
0.0
 40
0.1320739412
 40
0.197793605
 40
0.263102923
 40
0.3920307879
 40
0.5184592109
 40
0.5807205423
 40
0.6423334773
 40
0.7636467686
 40
0.882756333
 40
1.0
 40
1.0
 40
1.0
 40
1.0
 10
5.8029230772
 20
5.9378522322
 30
0.0
 10
5.802209313
 20
5.9378522322
 30
0.0
 10
5.8011379229
 20
5.9379368114
 30
0.0
 10
5.79974229
 20
5.9382139396
 30
0.0
 10
5.7983881935
 20
5.9385929913
 30
0.0
 10
5.7967764662
 20
5.9392481171
 30
0.0
 10
5.7952914181
 20
5.9401208904
 30
0.0
 10
5.7942017312
 20
5.9409238808
 30
0.0
 10
5.7931892114
 20
5.9417799369
 30
0.0
 10
5.7920472966
 20
5.9429529981
 30
0.0
 10
5.7908761112
 20
5.9444960525
 30
0.0
 10
5.7902252189
 20
5.9455988264
 30
0.0
 10
5.7899339032
 20
5.946161504
 30
0.0
  0
SPLINE
  5
51A
100
AcDbEntity
  8
0
100
AcDbSpline
 62
7
  6
CONTINUOUS
 70
0
 71
3
 72
15
 73
11
 74
0
 42
0.0000001
 43
0.0000001
 44
0.0000000001
 40
0.0
 40
0.0
 40
0.0
 40
0.0
 40
0.0837226725
 40
0.1793992694
 40
0.2877653595
 40
0.4091010954
 40
0.5429989736
 40
0.6880733351
 40
0.8416916667
 40
1.0
 40
1.0
 40
1.0
 40
1.0
 10
5.7899339032
 20
5.9235846115
 30
0.0
 10
5.7902440459
 20
5.9237979986
 30
0.0
 10
5.7909393728
 20
5.9242110855
 30
0.0
 10
5.7921151814
 20
5.9247552951
 30
0.0
 10
5.7934926917
 20
5.925253115
 30
0.0
 10
5.7950690703
 20
5.9256918131
 30
0.0
 10
5.7968329192
 20
5.9260568977
 30
0.0
 10
5.7987595788
 20
5.926332881
 30
0.0
 10
5.8008083014
 20
5.9265054803
 30
0.0
 10
5.8022112134
 20
5.9265444896
 30
0.0
 10
5.8029230497
 20
5.9265444896
 30
0.0
  0
SPLINE
  5
51B
100
AcDbEntity
  8
0
100
AcDbSpline
 62
7
  6
CONTINUOUS
 70
0
 71
3
 72
17
 73
13
 74
0
 42
0.0000001
 43
0.0000001
 44
0.0000000001
 40
0.0
 40
0.0
 40
0.0
 40
0.0
 40
0.1305428703
 40
0.1955757483
 40
0.2602842537
 40
0.3883445527
 40
0.5144408416
 40
0.5767511116
 40
0.6385548764
 40
0.7606568046
 40
0.8810501182
 40
1.0
 40
1.0
 40
1.0
 40
1.0
 10
5.802923078
 20
5.9149774838
 30
0.0
 10
5.8022091532
 20
5.9149774838
 30
0.0
 10
5.8011369457
 20
5.9150652455
 30
0.0
 10
5.7997416405
 20
5.9153523175
 30
0.0
 10
5.7983862404
 20
5.9157454094
 30
0.0
 10
5.7967725807
 20
5.9164253704
 30
0.0
 10
5.7952891851
 20
5.9173290831
 30
0.0
 10
5.7942008231
 20
5.9181599827
 30
0.0
 10
5.7931872577
 20
5.9190477798
 30
0.0
 10
5.7920445973
 20
5.9202643686
 30
0.0
 10
5.7908741249
 20
5.9218625615
 30
0.0
 10
5.7902247401
 20
5.923002722
 30
0.0
 10
5.7899339032
 20
5.9235846115
 30
0.0
  0
SPLINE
  5
51C
100
AcDbEntity
  8
0
100
AcDbSpline
 62
7
  6
CONTINUOUS
 70
0
 71
3
 72
15
 73
11
 74
0
 42
0.0000001
 43
0.0000001
 44
0.0000000001
 40
0.0
 40
0.0
 40
0.0
 40
0.0
 40
0.0807037012
 40
0.1744750022
 40
0.2819272417
 40
0.4032262638
 40
0.5378459414
 40
0.6842616116
 40
0.8396677275
 40
1.0
 40
1.0
 40
1.0
 40
1.0
 10
5.7899339032
 20
5.9015760371
 30
0.0
 10
5.7902474336
 20
5.9017493727
 30
0.0
 10
5.7909481645
 20
5.9020830343
 30
0.0
 10
5.7921225096
 20
5.90251908
 30
0.0
 10
5.7934986454
 20
5.9029182157
 30
0.0
 10
5.7950737659
 20
5.9032701241
 30
0.0
 10
5.7968364272
 20
5.9035630657
 30
0.0
 10
5.7987619188
 20
5.9037845518
 30
0.0
 10
5.8008094943
 20
5.9039230815
 30
0.0
 10
5.8022113126
 20
5.903954386
 30
0.0
 10
5.8029230497
 20
5.903954386
 30
0.0
  0
SPLINE
  5
51D
100
AcDbEntity
  8
0
100
AcDbSpline
 62
7
  6
CONTINUOUS
 70
0
 71
3
 72
16
 73
12
 74
0
 42
0.0000001
 43
0.0000001
 44
0.0000000001
 40
0.0
 40
0.0
 40
0.0
 40
0.0
 40
0.1292026423
 40
0.1936359088
 40
0.2578215865
 40
0.3851335358
 40
0.5109551305
 40
0.6352248478
 40
0.758031429
 40
0.8795565661
 40
1.0
 40
1.0
 40
1.0
 40
1.0
 10
5.802923074
 20
5.8927043529
 30
0.0
 10
5.802209002
 20
5.8927043529
 30
0.0
 10
5.8011360483
 20
5.892794954
 30
0.0
 10
5.7997410431
 20
5.8930908611
 30
0.0
 10
5.7983844791
 20
5.8934964468
 30
0.0
 10
5.7967690156
 20
5.894198634
 30
0.0
 10
5.794996765
 20
5.8953121409
 30
0.0
 10
5.7934177247
 20
5.8966463802
 30
0.0
 10
5.792042396
 20
5.898156534
 30
0.0
 10
5.7908724393
 20
5.8998037537
 30
0.0
 10
5.7902243437
 20
5.9009770796
 30
0.0
 10
5.7899339032
 20
5.9015760371
 30
0.0
  0
SPLINE
  5
51E
100
AcDbEntity
  8
0
100
AcDbSpline
 62
7
  6
CONTINUOUS
 70
0
 71
3
 72
15
 73
11
 74
0
 42
0.0000001
 43
0.0000001
 44
0.0000000001
 40
0.0
 40
0.0
 40
0.0
 40
0.0
 40
0.078121168
 40
0.1702959721
 40
0.2770015956
 40
0.3982909128
 40
0.5335303082
 40
0.6810759723
 40
0.8379782717
 40
1.0
 40
1.0
 40
1.0
 40
1.0
 10
5.7899339032
 20
5.8802209276
 30
0.0
 10
5.7902507719
 20
5.8803525976
 30
0.0
 10
5.7909561998
 20
5.8806044555
 30
0.0
 10
5.7921288927
 20
5.880931284
 30
0.0
 10
5.7935036473
 20
5.8812306734
 30
0.0
 10
5.7950776187
 20
5.8814947873
 30
0.0
 10
5.7968392578
 20
5.8817147081
 30
0.0
 10
5.7987637871
 20
5.8818810146
 30
0.0
 10
5.8008104409
 20
5.8819850411
 30
0.0
 10
5.8022113912
 20
5.8820085461
 30
0.0
 10
5.8029230497
 20
5.8820085461
 30
0.0
  0
SPLINE
  5
51F
100
AcDbEntity
  8
0
100
AcDbSpline
 62
7
  6
CONTINUOUS
 70
0
 71
3
 72
16
 73
12
 74
0
 42
0.0000001
 43
0.0000001
 44
0.0000000001
 40
0.0
 40
0.0
 40
0.0
 40
0.0
 40
0.1280371418
 40
0.1919494154
 40
0.2556812254
 40
0.3823445165
 40
0.5079279716
 40
0.6323905189
 40
0.7557986972
 40
0.8782877636
 40
1.0
 40
1.0
 40
1.0
 40
1.0
 10
5.8029230783
 20
5.8711190097
 30
0.0
 10
5.8022088744
 20
5.8711190097
 30
0.0
 10
5.8011352529
 20
5.8712120919
 30
0.0
 10
5.7997405204
 20
5.8715156851
 30
0.0
 10
5.7983829165
 20
5.8719321796
 30
0.0
 10
5.7967659849
 20
5.8726536964
 30
0.0
 10
5.7949938622
 20
5.87379666
 30
0.0
 10
5.7934152562
 20
5.8751657977
 30
0.0
 10
5.7920404852
 20
5.8767151424
 30
0.0
 10
5.790871069
 20
5.8784049181
 30
0.0
 10
5.7902240194
 20
5.8796071125
 30
0.0
 10
5.7899339032
 20
5.8802209276
 30
0.0
  0
SPLINE
  5
520
100
AcDbEntity
  8
0
100
AcDbSpline
 62
7
  6
CONTINUOUS
 70
0
 71
3
 72
15
 73
11
 74
0
 42
0.0000001
 43
0.0000001
 44
0.0000000001
 40
0.0
 40
0.0
 40
0.0
 40
0.0
 40
0.076134431
 40
0.167102927
 40
0.2732564105
 40
0.3945515006
 40
0.5302685609
 40
0.678672277
 40
0.8367047316
 40
1.0
 40
1.0
 40
1.0
 40
1.0
 10
5.7899339032
 20
5.8596019019
 30
0.0
 10
5.7902536709
 20
5.8596903532
 30
0.0
 10
5.7909627093
 20
5.8598585217
 30
0.0
 10
5.7921338676
 20
5.860075569
 30
0.0
 10
5.7935074303
 20
5.8602745331
 30
0.0
 10
5.7950804799
 20
5.8604501481
 30
0.0
 10
5.7968413324
 20
5.8605964131
 30
0.0
 10
5.7987651455
 20
5.8607070373
 30
0.0
 10
5.8008111259
 20
5.8607762388
 30
0.0
 10
5.8022114481
 20
5.8607918739
 30
0.0
 10
5.8029230497
 20
5.8607918739
 30
0.0
  0
SPLINE
  5
521
100
AcDbEntity
  8
0
100
AcDbSpline
 62
7
  6
CONTINUOUS
 70
0
 71
3
 72
16
 73
12
 74
0
 42
0.0000001
 43
0.0000001
 44
0.0000000001
 40
0.0
 40
0.0
 40
0.0
 40
0.0
 40
0.1270568319
 40
0.1905315246
 40
0.2538827762
 40
0.3800044575
 40
0.5053924642
 40
0.630020735
 40
0.7539351243
 40
0.8772304029
 40
1.0
 40
1.0
 40
1.0
 40
1.0
 10
5.8029230781
 20
5.8503049639
 30
0.0
 10
5.8022087599
 20
5.8503049639
 30
0.0
 10
5.801134561
 20
5.850400156
 30
0.0
 10
5.7997400665
 20
5.8507102596
 30
0.0
 10
5.7983815724
 20
5.8511360143
 30
0.0
 10
5.7967634092
 20
5.8518739474
 30
0.0
 10
5.7949914279
 20
5.8530418615
 30
0.0
 10
5.7934132127
 20
5.8544405412
 30
0.0
 10
5.7920389223
 20
5.8560230574
 30
0.0
 10
5.7908699599
 20
5.8577488583
 30
0.0
 10
5.7902237585
 20
5.8589754988
 30
0.0
 10
5.7899339032
 20
5.8596019019
 30
0.0
  0
SPLINE
  5
522
100
AcDbEntity
  8
0
100
AcDbSpline
 62
7
  6
CONTINUOUS
 70
0
 71
3
 72
14
 73
10
 74
0
 42
0.0000001
 43
0.0000001
 44
0.0000000001
 40
0.0
 40
0.0
 40
0.0
 40
0.0
 40
0.0748860292
 40
0.1651068197
 40
0.2709237486
 40
0.3922288535
 40
0.528247096
 40
0.6771858024
 40
1.0
 40
1.0
 40
1.0
 40
1.0
 10
5.7899339032
 20
5.839798731
 30
0.0
 10
5.7902556634
 20
5.8398426889
 30
0.0
 10
5.7909669465
 20
5.8399258945
 30
0.0
 10
5.7921370211
 20
5.8400329238
 30
0.0
 10
5.7935097766
 20
5.8401310842
 30
0.0
 10
5.7950822324
 20
5.8402177557
 30
0.0
 10
5.7968425941
 20
5.8402899665
 30
0.0
 10
5.7994772278
 20
5.8403647092
 30
0.0
 10
5.8015231409
 20
5.8403864527
 30
0.0
 10
5.8029230497
 20
5.8403864527
 30
0.0
  0
SPLINE
  5
523
100
AcDbEntity
  8
0
100
AcDbSpline
 62
7
  6
CONTINUOUS
 70
0
 71
3
 72
16
 73
12
 74
0
 42
0.0000001
 43
0.0000001
 44
0.0000000001
 40
0.0
 40
0.0
 40
0.0
 40
0.0
 40
0.1262622799
 40
0.1893827299
 40
0.2524263438
 40
0.3781117188
 40
0.5033445438
 40
0.6281094742
 40
0.752434224
 40
0.8763798989
 40
1.0
 40
1.0
 40
1.0
 40
1.0
 10
5.802923078
 20
5.8303427408
 30
0.0
 10
5.8022086649
 20
5.8303427408
 30
0.0
 10
5.801133987
 20
5.8304396591
 30
0.0
 10
5.7997396914
 20
5.8307550722
 30
0.0
 10
5.7983804649
 20
5.8311883924
 30
0.0
 10
5.7967613061
 20
5.8319397427
 30
0.0
 10
5.7949894616
 20
5.8331280038
 30
0.0
 10
5.7934115793
 20
5.8345507636
 30
0.0
 10
5.7920376849
 20
5.836160317
 30
0.0
 10
5.7908690889
 20
5.837915485
 30
0.0
 10
5.7902235547
 20
5.8391620593
 30
0.0
 10
5.7899339032
 20
5.839798731
 30
0.0
  0
SPLINE
  5
524
100
AcDbEntity
  8
0
100
AcDbSpline
 62
7
  6
CONTINUOUS
 70
0
 71
3
 72
17
 73
13
 74
0
 42
0.0000001
 43
0.0000001
 44
0.0000000001
 40
0.0
 40
0.0
 40
0.0
 40
0.0
 40
0.0628809936
 40
0.1257656667
 40
0.1886069644
 40
0.2514073669
 40
0.3767440891
 40
0.501843961
 40
0.6266989617
 40
0.7513221059
 40
0.8757482048
 40
1.0
 40
1.0
 40
1.0
 40
1.0
 10
5.8029230782
 20
5.8113095705
 30
0.0
 10
5.8025654806
 20
5.8113095705
 30
0.0
 10
5.8018498415
 20
5.8113421573
 30
0.0
 10
5.8007857878
 20
5.8114876184
 30
0.0
 10
5.7997392916
 20
5.8117273206
 30
0.0
 10
5.7983796677
 20
5.8121664773
 30
0.0
 10
5.7967596647
 20
5.8129281743
 30
0.0
 10
5.7949879653
 20
5.8141321013
 30
0.0
 10
5.7934103404
 20
5.8155733941
 30
0.0
 10
5.7920367549
 20
5.817203756
 30
0.0
 10
5.7908684379
 20
5.8189815283
 30
0.0
 10
5.790223403
 20
5.8202434497
 30
0.0
 10
5.7899339032
 20
5.8208880294
 30
0.0
  0
SPLINE
  5
525
100
AcDbEntity
  8
0
100
AcDbSpline
 62
7
  6
CONTINUOUS
 70
0
 71
3
 72
17
 73
13
 74
0
 42
0.0000001
 43
0.0000001
 44
0.0000000001
 40
0.0
 40
0.0
 40
0.0
 40
0.0
 40
0.0626658566
 40
0.1253444946
 40
0.1879975096
 40
0.2506347108
 40
0.3757410278
 40
0.5007604539
 40
0.6256896011
 40
0.7505308725
 40
0.8753005721
 40
1.0
 40
1.0
 40
1.0
 40
1.0
 10
5.8029230772
 20
5.7932790886
 30
0.0
 10
5.8025654731
 20
5.7932790886
 30
0.0
 10
5.8018497614
 20
5.7933119717
 30
0.0
 10
5.800785638
 20
5.7934587504
 30
0.0
 10
5.7997390836
 20
5.7937006207
 30
0.0
 10
5.7983790655
 20
5.7941438506
 30
0.0
 10
5.7967585334
 20
5.7949127731
 30
0.0
 10
5.794986924
 20
5.7961276243
 30
0.0
 10
5.7934094875
 20
5.797581838
 30
0.0
 10
5.7920361171
 20
5.7992267068
 30
0.0
 10
5.7908679938
 20
5.8010202396
 30
0.0
 10
5.7902232998
 20
5.8022928634
 30
0.0
 10
5.7899339032
 20
5.8029429591
 30
0.0
  0
SPLINE
  5
526
100
AcDbEntity
  8
0
100
AcDbSpline
 62
7
  6
CONTINUOUS
 70
0
 71
3
 72
17
 73
13
 74
0
 42
0.0000001
 43
0.0000001
 44
0.0000000001
 40
0.0
 40
0.0
 40
0.0
 40
0.0
 40
0.0625451958
 40
0.1251082974
 40
0.1876557684
 40
0.2502015351
 40
0.375178937
 40
0.5001536031
 40
0.6251245803
 40
0.7500881779
 40
0.8750502347
 40
1.0
 40
1.0
 40
1.0
 40
1.0
 10
5.8029230785
 20
5.7763210516
 30
0.0
 10
5.8025654705
 20
5.7763210516
 30
0.0
 10
5.8018497177
 20
5.7763541012
 30
0.0
 10
5.8007855547
 20
5.7765016208
 30
0.0
 10
5.7997389674
 20
5.7767447103
 30
0.0
 10
5.7983787269
 20
5.7771902319
 30
0.0
 10
5.7967578982
 20
5.77796322
 30
0.0
 10
5.7949863415
 20
5.7791842132
 30
0.0
 10
5.7934090121
 20
5.7806456903
 30
0.0
 10
5.7920357627
 20
5.7822987141
 30
0.0
 10
5.7908677477
 20
5.7841011073
 30
0.0
 10
5.7902232427
 20
5.7853797485
 30
0.0
 10
5.7899339032
 20
5.7860329459
 30
0.0
  0
SPLINE
  5
527
100
AcDbEntity
  8
0
100
AcDbSpline
 62
7
  6
CONTINUOUS
 70
0
 71
3
 72
17
 73
13
 74
0
 42
0.0000001
 43
0.0000001
 44
0.0000000001
 40
0.0
 40
0.0
 40
0.0
 40
0.0
 40
0.062518968
 40
0.1250569577
 40
0.187581492
 40
0.2501073932
 40
0.3750568025
 40
0.5000217732
 40
0.6250018661
 40
0.7499920522
 40
0.8749958877
 40
1.0
 40
1.0
 40
1.0
 40
1.0
 10
5.8029230779
 20
5.7605010667
 30
0.0
 10
5.8025654692
 20
5.7605010667
 30
0.0
 10
5.8018497074
 20
5.7605341526
 30
0.0
 10
5.8007855359
 20
5.7606818336
 30
0.0
 10
5.7997389414
 20
5.7609251885
 30
0.0
 10
5.7983786526
 20
5.7613712089
 30
0.0
 10
5.7967577596
 20
5.762145082
 30
0.0
 10
5.7949862146
 20
5.7633674117
 30
0.0
 10
5.7934089088
 20
5.7648304693
 30
0.0
 10
5.7920356859
 20
5.7664852675
 30
0.0
 10
5.7908676944
 20
5.7682895885
 30
0.0
 10
5.7902232304
 20
5.7695695392
 30
0.0
 10
5.7899339032
 20
5.7702234115
 30
0.0
  0
SPLINE
  5
528
100
AcDbEntity
  8
0
100
AcDbSpline
 62
7
  6
CONTINUOUS
 70
0
 71
3
 72
17
 73
13
 74
0
 42
0.0000001
 43
0.0000001
 44
0.0000000001
 40
0.0
 40
0.0
 40
0.0
 40
0.0
 40
0.0625871624
 40
0.1251904466
 40
0.187774622
 40
0.2503521823
 40
0.3753743965
 40
0.5003646012
 40
0.6253210098
 40
0.7502420626
 40
0.8751372451
 40
1.0
 40
1.0
 40
1.0
 40
1.0
 10
5.8029230782
 20
5.7458803385
 30
0.0
 10
5.8025654716
 20
5.7458803385
 30
0.0
 10
5.8018497331
 20
5.7459133301
 30
0.0
 10
5.8007855839
 20
5.7460605919
 30
0.0
 10
5.799739008
 20
5.746303257
 30
0.0
 10
5.798378845
 20
5.7467479809
 30
0.0
 10
5.7967581194
 20
5.7475195539
 30
0.0
 10
5.7949865441
 20
5.7487384096
 30
0.0
 10
5.7934091773
 20
5.7501973591
 30
0.0
 10
5.7920358858
 20
5.7518475451
 30
0.0
 10
5.7908678331
 20
5.7536468548
 30
0.0
 10
5.7902232625
 20
5.7549234019
 30
0.0
 10
5.7899339032
 20
5.7555755199
 30
0.0
  0
SPLINE
  5
529
100
AcDbEntity
  8
0
100
AcDbSpline
 62
7
  6
CONTINUOUS
 70
0
 71
3
 72
13
 73
9
 74
0
 42
0.0000001
 43
0.0000001
 44
0.0000000001
 40
0.0
 40
0.0
 40
0.0
 40
0.0
 40
0.1254947661
 40
0.2508914769
 40
0.3761599965
 40
0.501293191
 40
0.7508059798
 40
1.0
 40
1.0
 40
1.0
 40
1.0
 10
5.8005813049
 20
5.7327501974
 30
0.0
 10
5.7999772243
 20
5.7328720886
 30
0.0
 10
5.7987865137
 20
5.7332096047
 30
0.0
 10
5.7970972321
 20
5.7339713849
 30
0.0
 10
5.7955305392
 20
5.7349571795
 30
0.0
 10
5.7936318022
 20
5.736521967
 30
0.0
 10
5.791627965
 20
5.7388734181
 30
0.0
 10
5.7904329979
 20
5.7410286533
 30
0.0
 10
5.7899339032
 20
5.7421459409
 30
0.0
  0
SPLINE
  5
52A
100
AcDbEntity
  8
0
100
AcDbSpline
 62
7
  6
CONTINUOUS
 70
0
 71
3
 72
17
 73
13
 74
0
 42
0.0000001
 43
0.0000001
 44
0.0000000001
 40
0.0
 40
0.0
 40
0.0
 40
0.0
 40
0.0630069492
 40
0.1260122701
 40
0.1889638594
 40
0.2518599142
 40
0.3773318583
 40
0.5024792092
 40
0.6272910608
 40
0.7517864882
 40
0.8760110457
 40
1.0
 40
1.0
 40
1.0
 40
1.0
 10
5.8029230788
 20
5.7204580524
 30
0.0
 10
5.802565485
 20
5.7204580524
 30
0.0
 10
5.8018498881
 20
5.7204904662
 30
0.0
 10
5.8007858749
 20
5.7206351581
 30
0.0
 10
5.7997394126
 20
5.7208735944
 30
0.0
 10
5.7983800181
 20
5.721310374
 30
0.0
 10
5.7967603254
 20
5.7220678546
 30
0.0
 10
5.7949885759
 20
5.7232654013
 30
0.0
 10
5.7934108425
 20
5.7246991467
 30
0.0
 10
5.7920371316
 20
5.7263210346
 30
0.0
 10
5.790868701
 20
5.7280896013
 30
0.0
 10
5.7902234643
 20
5.7293452721
 30
0.0
 10
5.7899339032
 20
5.7299866309
 30
0.0
  0
SPLINE
  5
52B
100
AcDbEntity
  8
0
100
AcDbSpline
 62
7
  6
CONTINUOUS
 70
0
 71
3
 72
16
 73
12
 74
0
 42
0.0000001
 43
0.0000001
 44
0.0000000001
 40
0.0
 40
0.0
 40
0.0
 40
0.0
 40
0.1265924646
 40
0.1898600775
 40
0.253031445
 40
0.3788978396
 40
0.5041948011
 40
0.6289026906
 40
0.7530569055
 40
0.8767326334
 40
1.0
 40
1.0
 40
1.0
 40
1.0
 10
5.8029230785
 20
5.7097548485
 30
0.0
 10
5.8022087051
 20
5.7097548485
 30
0.0
 10
5.8011342274
 20
5.7098510476
 30
0.0
 10
5.7997398484
 20
5.7101642505
 30
0.0
 10
5.7983809275
 20
5.7105944201
 30
0.0
 10
5.796762182
 20
5.7113401823
 30
0.0
 10
5.7949902781
 20
5.712519974
 30
0.0
 10
5.7934122557
 20
5.7139327118
 30
0.0
 10
5.792038196
 20
5.7155310126
 30
0.0
 10
5.7908694479
 20
5.7172739578
 30
0.0
 10
5.7902236386
 20
5.7185122349
 30
0.0
 10
5.7899339032
 20
5.719144632
 30
0.0
  0
SPLINE
  5
52C
100
AcDbEntity
  8
0
100
AcDbSpline
 62
7
  6
CONTINUOUS
 70
0
 71
3
 72
16
 73
12
 74
0
 42
0.0000001
 43
0.0000001
 44
0.0000000001
 40
0.0
 40
0.0
 40
0.0
 40
0.0
 40
0.1274696136
 40
0.191128491
 40
0.2546398517
 40
0.3809891487
 40
0.5064589165
 40
0.6310170105
 40
0.7547182339
 40
0.8776745428
 40
1.0
 40
1.0
 40
1.0
 40
1.0
 10
5.8029230764
 20
5.7004472284
 30
0.0
 10
5.8022088068
 20
5.7004472284
 30
0.0
 10
5.8011348529
 20
5.7005415298
 30
0.0
 10
5.7997402574
 20
5.7008488868
 30
0.0
 10
5.7983821401
 20
5.7012707327
 30
0.0
 10
5.7967644954
 20
5.7020017353
 30
0.0
 10
5.7949924511
 20
5.7031591233
 30
0.0
 10
5.7934140689
 20
5.7045453417
 30
0.0
 10
5.7920395752
 20
5.7061138658
 30
0.0
 10
5.7908704221
 20
5.7078244702
 30
0.0
 10
5.790223867
 20
5.7090407977
 30
0.0
 10
5.7899339032
 20
5.7096618897
 30
0.0
  0
SPLINE
  5
52D
100
AcDbEntity
  8
0
100
AcDbSpline
 62
7
  6
CONTINUOUS
 70
0
 71
3
 72
16
 73
12
 74
0
 42
0.0000001
 43
0.0000001
 44
0.0000000001
 40
0.0
 40
0.0
 40
0.0
 40
0.0
 40
0.1285323347
 40
0.1926658705
 40
0.2565903315
 40
0.3835286014
 40
0.5092124725
 40
0.6335925178
 40
0.7567450568
 40
0.878825285
 40
1.0
 40
1.0
 40
1.0
 40
1.0
 10
5.8029230779
 20
5.6925712016
 30
0.0
 10
5.8022089305
 20
5.6925712016
 30
0.0
 10
5.801135595
 20
5.692663226
 30
0.0
 10
5.7997407452
 20
5.6929635466
 30
0.0
 10
5.7983835855
 20
5.6933753933
 30
0.0
 10
5.7967672771
 20
5.6940886732
 30
0.0
 10
5.7949950946
 20
5.6952190947
 30
0.0
 10
5.7934162999
 20
5.6965733764
 30
0.0
 10
5.79204129
 20
5.6981060384
 30
0.0
 10
5.7908716442
 20
5.6997776983
 30
0.0
 10
5.7902241552
 20
5.7009676023
 30
0.0
 10
5.7899339032
 20
5.701575091
 30
0.0
  0
LINE
  5
52E
100
AcDbEntity
  8
0
100
AcDbLine
 62
7
  6
CONTINUOUS
 10
5.0636391395
 20
6.4694728313
 11
5.0677763272
 21
6.4692045887
  0
LINE
  5
52F
100
AcDbEntity
  8
0
100
AcDbLine
 62
7
  6
CONTINUOUS
 10
5.0677763272
 20
6.4692045887
 11
5.0685903954
 21
6.4691479577
  0
LINE
  5
530
100
AcDbEntity
  8
0
100
AcDbLine
 62
7
  6
CONTINUOUS
 10
5.074554204
 20
6.4686921181
 11
5.0750459262
 21
6.4686513601
  0
SPLINE
  5
531
100
AcDbEntity
  8
0
100
AcDbSpline
 62
7
  6
CONTINUOUS
 70
0
 71
3
 72
30
 73
26
 74
0
 42
0.0000001
 43
0.0000001
 44
0.0000000001
 40
0.0
 40
0.0
 40
0.0
 40
0.0
 40
0.0538070108
 40
0.1087757195
 40
0.1644871403
 40
0.2209065592
 40
0.278106643
 40
0.3362082147
 40
0.3953625548
 40
0.4557429479
 40
0.5175405741
 40
0.5490422994
 40
0.5809749072
 40
0.613362549
 40
0.6462263486
 40
0.6795840224
 40
0.71344726
 40
0.747818933
 40
0.7826909708
 40
0.818041545
 40
0.8538322425
 40
0.8900066372
 40
0.9264894335
 40
0.9631889105
 40
1.0
 40
1.0
 40
1.0
 40
1.0
 10
5.0990717074
 20
6.4660673733
 30
0.0
 10
5.1097775582
 20
6.4646557039
 30
0.0
 10
5.1313349933
 20
6.4611040949
 30
0.0
 10
5.1635080154
 20
6.4536103188
 30
0.0
 10
5.1956071888
 20
6.4438110921
 30
0.0
 10
5.227369832
 20
6.4316504793
 30
0.0
 10
5.2586187374
 20
6.4170463041
 30
0.0
 10
5.2891808521
 20
6.3998970536
 30
0.0
 10
5.318862084
 20
6.3800829117
 30
0.0
 10
5.3474282429
 20
6.3574716157
 30
0.0
 10
5.3699253646
 20
6.3363107282
 30
0.0
 10
5.3870404379
 20
6.3178960879
 30
0.0
 10
5.3994698323
 20
6.3032125274
 30
0.0
 10
5.4113495271
 20
6.2877345081
 30
0.0
 10
5.4226148438
 20
6.2714538729
 30
0.0
 10
5.4331940985
 20
6.2543692341
 30
0.0
 10
5.4430088616
 20
6.2364874338
 30
0.0
 10
5.4519748593
 20
6.2178267513
 30
0.0
 10
5.4600031692
 20
6.1984196119
 30
0.0
 10
5.4670028139
 20
6.178315607
 30
0.0
 10
5.4728835558
 20
6.157583689
 30
0.0
 10
5.4775603229
 20
6.1363141999
 30
0.0
 10
5.4809617748
 20
6.1146183451
 30
0.0
 10
5.4830219394
 20
6.0926265846
 30
0.0
 10
5.4834860565
 20
6.0778697724
 30
0.0
 10
5.4834867501
 20
6.0704821606
 30
0.0
  0
SPLINE
  5
532
100
AcDbEntity
  8
0
100
AcDbSpline
 62
7
  6
CONTINUOUS
 70
0
 71
3
 72
17
 73
13
 74
0
 42
0.0000001
 43
0.0000001
 44
0.0000000001
 40
0.0
 40
0.0
 40
0.0
 40
0.0
 40
0.1297705777
 40
0.1944575383
 40
0.2588639613
 40
0.3864899499
 40
0.5124228596
 40
0.574759625
 40
0.636660973
 40
0.759161085
 40
0.880198137
 40
1.0
 40
1.0
 40
1.0
 40
1.0
 10
5.8029230861
 20
5.6861572389
 30
0.0
 10
5.8022090773
 20
5.6861572389
 30
0.0
 10
5.8011364445
 20
5.6862466204
 30
0.0
 10
5.7997413102
 20
5.6865387383
 30
0.0
 10
5.7983852385
 20
5.6869389705
 30
0.0
 10
5.7967706034
 20
5.6876315719
 30
0.0
 10
5.7952880647
 20
5.6885509632
 30
0.0
 10
5.7942003718
 20
5.6893960036
 30
0.0
 10
5.7931862907
 20
5.690299922
 30
0.0
 10
5.7920432779
 20
5.6915386014
 30
0.0
 10
5.7908731652
 20
5.6931647563
 30
0.0
 10
5.7902245106
 20
5.6943238808
 30
0.0
 10
5.7899339032
 20
5.694915522
 30
0.0
  0
SPLINE
  5
533
100
AcDbEntity
  8
0
100
AcDbSpline
 62
7
  6
CONTINUOUS
 70
0
 71
3
 72
17
 73
13
 74
0
 42
0.0000001
 43
0.0000001
 44
0.0000000001
 40
0.0
 40
0.0
 40
0.0
 40
0.0
 40
0.131201109
 40
0.196529089
 40
0.2614955839
 40
0.3899278062
 40
0.5161655435
 40
0.5784541851
 40
0.640175474
 40
0.7619382134
 40
0.8817808407
 40
1.0
 40
1.0
 40
1.0
 40
1.0
 10
5.8029230815
 20
5.6812301547
 30
0.0
 10
5.8022092264
 20
5.6812301547
 30
0.0
 10
5.8011373741
 20
5.6813165427
 30
0.0
 10
5.7997419256
 20
5.6815993301
 30
0.0
 10
5.7983870897
 20
5.6819863674
 30
0.0
 10
5.7967742603
 20
5.6826556157
 30
0.0
 10
5.7952901459
 20
5.6835460048
 30
0.0
 10
5.7942012134
 20
5.6843648868
 30
0.0
 10
5.7931880931
 20
5.6852390036
 30
0.0
 10
5.7920457449
 20
5.6864368378
 30
0.0
 10
5.7908749653
 20
5.6880112805
 30
0.0
 10
5.7902249421
 20
5.6891353361
 30
0.0
 10
5.7899339032
 20
5.6897089474
 30
0.0
  0
SPLINE
  5
534
100
AcDbEntity
  8
0
100
AcDbSpline
 62
7
  6
CONTINUOUS
 70
0
 71
3
 72
17
 73
13
 74
0
 42
0.0000001
 43
0.0000001
 44
0.0000000001
 40
0.0
 40
0.0
 40
0.0
 40
0.0
 40
0.1328117861
 40
0.1988628898
 40
0.2644626534
 40
0.393811695
 40
0.520404103
 40
0.5826435815
 40
0.6441658386
 40
0.7650995158
 40
0.8835868598
 40
1.0
 40
1.0
 40
1.0
 40
1.0
 10
5.8029230769
 20
5.6778090108
 30
0.0
 10
5.8022093876
 20
5.6778090108
 30
0.0
 10
5.80113838
 20
5.67789207
 30
0.0
 10
5.799742595
 20
5.6781644318
 30
0.0
 10
5.7983891143
 20
5.6785367681
 30
0.0
 10
5.796778318
 20
5.6791800245
 30
0.0
 10
5.7952924965
 20
5.6800379474
 30
0.0
 10
5.7942021729
 20
5.6808275385
 30
0.0
 10
5.7931901686
 20
5.6816683934
 30
0.0
 10
5.7920486372
 20
5.6828205923
 30
0.0
 10
5.7908771096
 20
5.6843371974
 30
0.0
 10
5.7902254615
 20
5.6854220404
 30
0.0
 10
5.7899339032
 20
5.6859755104
 30
0.0
  0
SPLINE
  5
535
100
AcDbEntity
  8
0
100
AcDbSpline
 62
7
  6
CONTINUOUS
 70
0
 71
3
 72
17
 73
13
 74
0
 42
0.0000001
 43
0.0000001
 44
0.0000000001
 40
0.0
 40
0.0
 40
0.0
 40
0.0
 40
0.1345979441
 40
0.2014526254
 40
0.2677578916
 40
0.3981347427
 40
0.5251347536
 40
0.5873260961
 40
0.6486324432
 40
0.7686486373
 40
0.8856201783
 40
1.0
 40
1.0
 40
1.0
 40
1.0
 10
5.8029230774
 20
5.6759070431
 30
0.0
 10
5.8022095634
 20
5.6759070431
 30
0.0
 10
5.8011394518
 20
5.6759864548
 30
0.0
 10
5.7997433135
 20
5.6762473362
 30
0.0
 10
5.7983912905
 20
5.6766035353
 30
0.0
 10
5.796782744
 20
5.6772182975
 30
0.0
 10
5.7952951122
 20
5.6780404001
 30
0.0
 10
5.794203253
 20
5.6787976586
 30
0.0
 10
5.7931925284
 20
5.6796019378
 30
0.0
 10
5.7920519936
 20
5.680703897
 30
0.0
 10
5.7908796449
 20
5.6821567401
 30
0.0
 10
5.7902260836
 20
5.6831983602
 30
0.0
 10
5.7899339032
 20
5.683729655
 30
0.0
  0
ENDSEC
  0
SECTION
  2
OBJECTS
  0
DICTIONARY
  5
C
100
AcDbDictionary
280
0
281
1
  3
ACAD_GROUP
350
D
  3
ACAD_MLINESTYLE
350
17
  3
ACAD_LAYOUT
350
1A
  3
ACAD_PLOTSETTINGS
350
19
  3
ACAD_PLOTSTYLENAME
350
E
  0
DICTIONARY
  5
D
102
{ACAD_REACTORS
330
C
102
}
100
AcDbDictionary
280
0
281
1
  0
ACDBDICTIONARYWDFLT
  5
E
102
{ACAD_REACTORS
330
C
102
}
100
AcDbDictionary
281
1
  3
Normal
350
F
100
AcDbDictionaryWithDefault
340
F
  0
DICTIONARY
  5
17
102
{ACAD_REACTORS
330
C
102
}
100
AcDbDictionary
280
0
281
1
  3
Standard
350
18
  0
DICTIONARY
  5
19
102
{ACAD_REACTORS
330
C
102
}
100
AcDbDictionary
281
1
  0
DICTIONARY
  5
1A
102
{ACAD_REACTORS
330
C
102
}
100
AcDbDictionary
281
1
  3
Model
350
536
  3
Layout1
350
537
  0
ACDBPLACEHOLDER
  5
F
102
{ACAD_REACTORS
330
E
102
}
  0
MLINESTYLE
  5
18
102
{ACAD_REACTORS
330
17
102
}
100
AcDbMlineStyle
  2
STANDARD
 70
0
  3

 62
256
 51
90.0
 52
90.0
 71
2
 49
0.5
 62
256
  6
BYLAYER
 49
-0.5
 62
256
  6
BYLAYER
  0
LAYOUT
  5
536
102
{ACAD_REACTORS
330
1A
102
}
100
AcDbPlotSettings
  1

  2
none_device
  4
ANSI_A_(11.00_x_8.50_Inches)
  6

 40
0.0
 41
0.0
 42
0.0
 43
0.0
 44
279.4
 45
215.9
 46
0.0
 47
0.0
 48
0.0
 49
0.0
140
0.0
141
0.0
142
1.0
143
1.0
 70
1024
 72
0
 73
0
 74
0
  7

 75
0
147
1.0
148
0.0
149
0.0
100
AcDbLayout
  1
Model
 70
0
 71
0
 10
0.0
 20
0.0
 11
11.0
 21
8.5
 12
0.0
 22
0.0
 32
0.0
 14
0.0
 24
0.0
 34
0.0
 15
0.0
 25
0.0
 35
0.0
146
0.0
 13
0.0
 23
0.0
 33
0.0
 16
1.0
 26
0.0
 36
0.0
 17
0.0
 27
1.0
 37
0.0
 76
0
330
203
345
0
346
0
  0
LAYOUT
  5
537
102
{ACAD_REACTORS
330
1A
102
}
100
AcDbPlotSettings
  1

  2
none_device
  4
ANSI_A_(11.00_x_8.50_Inches)
  6

 40
0.0
 41
0.0
 42
0.0
 43
0.0
 44
279.4
 45
215.9
 46
0.0
 47
0.0
 48
0.0
 49
0.0
140
0.0
141
0.0
142
1.0
143
1.0
 70
0
 72
0
 73
0
 74
0
  7

 75
0
147
1.0
148
0.0
149
0.0
100
AcDbLayout
  1
Layout1
 70
0
 71
1
 10
0.0
 20
0.0
 11
11.0
 21
8.5
 12
0.0
 22
0.0
 32
0.0
 14
0.0
 24
0.0
 34
0.0
 15
0.0
 25
0.0
 35
0.0
146
0.0
 13
0.0
 23
0.0
 33
0.0
 16
1.0
 26
0.0
 36
0.0
 17
0.0
 27
1.0
 37
0.0
 76
0
330
204
345
0
346
0
  0
ENDSEC
  0
EOF
