999
DXF file: 3230-5503_Right.dxf
999
Pro/ENGINEER 2023134 by Parametric Technology Corporation
  0
SECTION
  2
HEADER
  9
$ACADVER
  1
AC1032
  9
$DWGCODEPAGE
  3
ANSI_1252
  9
$EXTMAX
 10
11.0
 20
8.5
 30
0.0
  9
$EXTMIN
 10
0.0
 20
0.0
 30
0.0
  9
$LIMMIN
 10
0.0
 20
0.0
  9
$LIMMAX
 10
11.0
 20
8.5
  9
$VIEWCTR
 10
5.5
 20
4.25
  9
$VIEWSIZE
 40
8.5
  9
$CLAYER
  8
0
  9
$LTSCALE
 40
0.605
  9
$CELTYPE
  6
BYLAYER
  9
$DIMSCALE
 40
1.0
  9
$DIMASZ
 40
0.1
  9
$DIMEXO
 40
0.0625
  9
$DIMDLI
 40
0.418
  9
$DIMEXE
 40
0.125
  9
$DIMCEN
 40
0.099
  9
$DIMLFAC
 40
1.0
  9
$DIMBLK
  1
_FILLED
  9
$DIMALT
 70
1
  9
$DIMALTD
 70
2
  9
$DIMALTTD
 70
2
  9
$DIMALTF
 40
25.4
  9
$DIMTXT
 40
0.08
  9
$DIMTOL
 70
1
  9
$DIMLIM
 70
0
  9
$DIMTFAC
 40
1.0
  9
$DIMTP
 40
0.001
  9
$DIMTM
 40
0.001
  9
$DIMGAP
 40
0.09
  9
$DIMDSEP
 70
46
  9
$AUNITS
 70
0
  9
$PDMODE
 70
3
  9
$PDSIZE
 40
0.3125
  9
$HANDSEED
  5
51B
  9
$TILEMODE
 70
1
  9
$MEASUREMENT
 70
0
  9
$INSUNITS
 70
1
  0
ENDSEC
  0
SECTION
  2
CLASSES
  0
CLASS
  1
ACDBDICTIONARYWDFLT
  2
AcDbDictionaryWithDefault
  3
AutoCAD 2000
 90
0
 91
1
280
0
281
0
  0
CLASS
  1
ACDBPLACEHOLDER
  2
AcDbPlaceHolder
  3
AutoCAD 2000
 90
0
 91
1
280
0
281
0
  0
CLASS
  1
LAYOUT
  2
AcDbLayout
  3
AutoCAD 2000
 90
0
 91
0
280
0
281
0
  0
ENDSEC
  0
SECTION
  2
TABLES
  0
TABLE
  2
VPORT
  5
8
100
AcDbSymbolTable
 70
2
  0
VPORT
  5
1F4
100
AcDbSymbolTableRecord
100
AcDbViewportTableRecord
  2
*ACTIVE
 70
0
 10
0.0
 20
0.0
 11
1.0
 21
1.0
 12
5.5
 22
4.25
 13
0.0
 23
0.0
 14
1.0
 24
1.0
 15
0.0
 25
0.0
 16
0.0
 26
0.0
 36
1.0
 17
0.0
 27
0.0
 37
0.0
 40
8.5
 41
1.2941176471
 42
50.0
 43
0.0
 44
0.0
 50
0.0
 51
0.0
 71
0
 72
100
 73
1
 74
1
 75
0
 76
0
 77
0
 78
0
  0
ENDTAB
  0
TABLE
  2
LTYPE
  5
5
100
AcDbSymbolTable
 70
6
  0
LTYPE
  5
14
100
AcDbSymbolTableRecord
100
AcDbLinetypeTableRecord
  2
BYBLOCK
 70
0
  3

 72
65
 73
0
 40
0.0
  0
LTYPE
  5
15
100
AcDbSymbolTableRecord
100
AcDbLinetypeTableRecord
  2
BYLAYER
 70
0
  3

 72
65
 73
0
 40
0.0
  0
LTYPE
  5
16
100
AcDbSymbolTableRecord
100
AcDbLinetypeTableRecord
  2
CONTINUOUS
 70
64
  3
Solid line
 72
65
 73
0
 40
0.0
  0
LTYPE
  5
1F5
100
AcDbSymbolTableRecord
100
AcDbLinetypeTableRecord
  2
CENTER
 70
64
  3
____ _ ____ _ ____ _ ____ _ ____ _ ____ _ ____
 72
65
 73
4
 40
0.6
 49
0.375
 74
0
 49
-0.075
 74
0
 49
0.075
 74
0
 49
-0.075
 74
0
  0
LTYPE
  5
1F6
100
AcDbSymbolTableRecord
100
AcDbLinetypeTableRecord
  2
HIDDEN
 70
64
  3
- - - - - - - - - - - - - - - - - - - -
 72
65
 73
2
 40
0.2
 49
0.1
 74
0
 49
-0.1
 74
0
  0
LTYPE
  5
1F7
100
AcDbSymbolTableRecord
100
AcDbLinetypeTableRecord
  2
PHANTOM
 70
64
  3
_____ _ _ _____ _ _ _____ _ _ _____
 72
65
 73
6
 40
0.8
 49
0.45
 74
0
 49
-0.05
 74
0
 49
0.1
 74
0
 49
-0.05
 74
0
 49
0.1
 74
0
 49
-0.05
 74
0
  0
LTYPE
  5
1F8
100
AcDbSymbolTableRecord
100
AcDbLinetypeTableRecord
  2
DOT
 70
64
  3
. . . . . . . . . . . . . . . . . . . .
 72
65
 73
2
 40
0.2
 49
0.1
 74
0
 49
-0.1
 74
0
  0
LTYPE
  5
1F9
100
AcDbSymbolTableRecord
100
AcDbLinetypeTableRecord
  2
DASHED
 70
64
  3
- - - - - - - - - - - - - - - - - - - -
 72
65
 73
2
 40
0.2
 49
0.1
 74
0
 49
-0.1
 74
0
  0
ENDTAB
  0
TABLE
  2
LAYER
  5
2
100
AcDbSymbolTable
 70
36
  0
LAYER
  5
10
100
AcDbSymbolTableRecord
100
AcDbLayerTableRecord
  2
0
 70
0
 62
7
  6
CONTINUOUS
370
-3
390
F
  0
LAYER
  5
1FA
100
AcDbSymbolTableRecord
100
AcDbLayerTableRecord
  2
DEFAULT_1
 70
0
 62
7
  6
CENTER
370
-3
390
F
  0
LAYER
  5
1FB
100
AcDbSymbolTableRecord
100
AcDbLayerTableRecord
  2
DEFAULT_2
 70
0
 62
8
  6
HIDDEN
370
-3
390
F
  0
LAYER
  5
1FC
100
AcDbSymbolTableRecord
100
AcDbLayerTableRecord
  2
DEFAULT_3
 70
0
 62
7
  6
PHANTOM
370
-3
390
F
  0
LAYER
  5
1FD
100
AcDbSymbolTableRecord
100
AcDbLayerTableRecord
  2
DEFAULT_COORDINATE_SYSTEM
 70
0
 62
7
  6
CONTINUOUS
370
-3
390
F
  0
LAYER
  5
1FE
100
AcDbSymbolTableRecord
100
AcDbLayerTableRecord
  2
DEFAULT_DATUM_AXES
 70
0
 62
7
  6
CONTINUOUS
370
-3
390
F
  0
LAYER
  5
1FF
100
AcDbSymbolTableRecord
100
AcDbLayerTableRecord
  2
DEFAULT_DATUM_CURVES
 70
0
 62
7
  6
CONTINUOUS
370
-3
390
F
  0
LAYER
  5
200
100
AcDbSymbolTableRecord
100
AcDbLayerTableRecord
  2
DEFAULT_DATUM_PLANES
 70
0
 62
7
  6
CONTINUOUS
370
-3
390
F
  0
ENDTAB
  0
TABLE
  2
STYLE
  5
3
100
AcDbSymbolTable
 70
1
  0
STYLE
  5
11
100
AcDbSymbolTableRecord
100
AcDbTextStyleTableRecord
  2
STANDARD
 70
0
 40
0.0
 41
0.8
 50
0.0
 71
0
 42
0.2
  3
txt
  4

  0
STYLE
  5
201
100
AcDbSymbolTableRecord
100
AcDbTextStyleTableRecord
  2
TEXTSTYLE_1
 70
0
 40
0.0
 41
0.8
 50
0.0
 71
0
 42
0.2
  3
gdt
  4

  0
ENDTAB
  0
TABLE
  2
VIEW
  5
6
100
AcDbSymbolTable
 70
0
  0
ENDTAB
  0
TABLE
  2
UCS
  5
7
100
AcDbSymbolTable
 70
0
  0
ENDTAB
  0
TABLE
  2
APPID
  5
9
100
AcDbSymbolTable
 70
1
  0
APPID
  5
202
100
AcDbSymbolTableRecord
100
AcDbRegAppTableRecord
  2
ACAD
 70
0
  0
ENDTAB
  0
TABLE
  2
BLOCK_RECORD
  5
1
100
AcDbSymbolTable
 70
0
  0
BLOCK_RECORD
  5
203
100
AcDbSymbolTableRecord
100
AcDbBlockTableRecord
  2
*Model_Space
  0
BLOCK_RECORD
  5
204
100
AcDbSymbolTableRecord
100
AcDbBlockTableRecord
  2
*Paper_Space
  0
BLOCK_RECORD
  5
205
100
AcDbSymbolTableRecord
100
AcDbBlockTableRecord
  2
_FILLED
  0
ENDTAB
  0
TABLE
  2
DIMSTYLE
  5
A
100
AcDbSymbolTable
 70
1
100
AcDbDimStyleTable
 71
0
  0
DIMSTYLE
105
206
100
AcDbSymbolTableRecord
100
AcDbDimStyleTableRecord
  2
STANDARD
 70
0
  3

  4

 40
1.0
 41
0.1
 42
0.0625
 43
0.38
 44
0.125
 45
0.0
 46
0.0
 47
0.001
 48
0.001
140
0.08
141
0.09
142
0.0
143
25.4
144
1.0
145
0.0
146
1.0
147
0.09
 71
1
 72
0
 73
1
 74
1
 75
0
 76
0
 77
0
 78
4
 79
1
170
1
171
2
172
0
173
0
174
0
175
0
176
0
177
0
178
0
270
2
179
3
271
3
272
3
273
2
274
2
275
0
280
0
281
0
282
0
283
1
284
4
285
0
286
0
287
3
288
0
340
11
278
46
341
205
342
205
343
205
344
205
  0
ENDTAB
  0
ENDSEC
  0
SECTION
  2
BLOCKS
  0
BLOCK
  5
20
100
AcDbEntity
  8
0
100
AcDbBlockBegin
  2
*Model_Space
 70
0
 10
0.0
 20
0.0
 30
0.0
  3
*Model_Space
  1

  0
ENDBLK
  5
21
100
AcDbEntity
  8
0
100
AcDbBlockEnd
  0
BLOCK
  5
1C
100
AcDbEntity
  8
0
100
AcDbBlockBegin
  2
*Paper_Space
 70
0
 10
0.0
 20
0.0
 30
0.0
  3
*Paper_Space
  1

  0
ENDBLK
  5
1D
100
AcDbEntity
  8
0
100
AcDbBlockEnd
  0
BLOCK
  5
207
100
AcDbEntity
  8
0
100
AcDbBlockBegin
  2
_FILLED
 70
64
 10
0.0
 20
0.0
  3
_FILLED
  1

  0
SOLID
  5
208
100
AcDbEntity
  8
0
  6
BYBLOCK
 62
0
100
AcDbTrace
 10
0.0
 20
0.0
 11
-1.0
 21
0.2
 12
-1.0
 22
-0.2
 13
-1.0
 23
-0.2
  0
ENDBLK
  5
209
100
AcDbEntity
  8
0
  6
BYBLOCK
 62
0
100
AcDbBlockEnd
  0
ENDSEC
  0
SECTION
  2
ENTITIES
  0
MTEXT
  5
20A
100
AcDbEntity
  8
0
100
AcDbMText
 62
2
  6
CONTINUOUS
  7
STANDARD
 71
2
 72
1
 10
5.4405048077
 20
1.3361586538
 30
0.0
 11
1.0
 21
0.0
 31
0.0
 73
2
 44
0.9
  1
SCALE 0.200
 40
0.08
 41
0.704
  0
LINE
  5
20B
100
AcDbEntity
  8
0
100
AcDbLine
 62
7
  6
CONTINUOUS
 10
0.0
 20
0.0
 11
0.0
 21
8.5
  0
LINE
  5
20C
100
AcDbEntity
  8
0
100
AcDbLine
 62
7
  6
CONTINUOUS
 10
0.0
 20
0.0
 11
11.0
 21
0.0
  0
LINE
  5
20D
100
AcDbEntity
  8
0
100
AcDbLine
 62
7
  6
CONTINUOUS
 10
0.0
 20
8.5
 11
11.0
 21
8.5
  0
LINE
  5
20E
100
AcDbEntity
  8
0
100
AcDbLine
 62
7
  6
CONTINUOUS
 10
11.0
 20
0.0
 11
11.0
 21
8.5
  0
LINE
  5
20F
100
AcDbEntity
  8
0
100
AcDbLine
 62
7
  6
CONTINUOUS
 10
6.0599441262
 20
1.9011366758
 11
5.4683538615
 21
1.9011366758
  0
LINE
  5
210
100
AcDbEntity
  8
0
100
AcDbLine
 62
7
  6
CONTINUOUS
 10
6.0599441262
 20
1.9465599833
 11
5.4683538615
 21
1.9465599833
  0
LINE
  5
211
100
AcDbEntity
  8
0
100
AcDbLine
 62
7
  6
CONTINUOUS
 10
6.0555593599
 20
1.9523384796
 11
5.4727386278
 21
1.9523384796
  0
LINE
  5
212
100
AcDbEntity
  8
0
100
AcDbLine
 62
7
  6
CONTINUOUS
 10
5.976100916
 20
1.9829115428
 11
5.5521970716
 21
1.9829115428
  0
LINE
  5
213
100
AcDbEntity
  8
0
100
AcDbLine
 62
7
  6
CONTINUOUS
 10
5.9565182343
 20
2.0099938187
 11
5.5717797533
 21
2.0099938187
  0
LINE
  5
214
100
AcDbEntity
  8
0
100
AcDbLine
 62
7
  6
CONTINUOUS
 10
5.9505797744
 20
2.0151366758
 11
5.5777182132
 21
2.0151366758
  0
LINE
  5
215
100
AcDbEntity
  8
0
100
AcDbLine
 62
7
  6
CONTINUOUS
 10
4.7781489938
 20
6.9911366758
 11
4.6481489938
 21
6.8811366758
  0
LINE
  5
216
100
AcDbEntity
  8
0
100
AcDbLine
 62
7
  6
CONTINUOUS
 10
5.3981489938
 20
2.4831366758
 11
5.0668606216
 21
2.4831366758
  0
LINE
  5
217
100
AcDbEntity
  8
0
100
AcDbLine
 62
7
  6
CONTINUOUS
 10
5.4021489938
 20
2.4831366758
 11
5.6316489938
 21
2.4831366758
  0
LINE
  5
218
100
AcDbEntity
  8
0
100
AcDbLine
 62
7
  6
CONTINUOUS
 10
4.7581489938
 20
7.0111366758
 11
4.6481489938
 21
6.8811366758
  0
LINE
  5
219
100
AcDbEntity
  8
0
100
AcDbLine
 62
7
  6
CONTINUOUS
 10
5.4621489938
 20
2.5600553574
 11
5.4021489938
 21
2.5600553574
  0
LINE
  5
21A
100
AcDbEntity
  8
0
100
AcDbLine
 62
7
  6
CONTINUOUS
 10
5.4621489938
 20
2.6462179943
 11
5.4021489938
 21
2.6462179943
  0
LINE
  5
21B
100
AcDbEntity
  8
0
100
AcDbLine
 62
7
  6
CONTINUOUS
 10
5.3981489938
 20
2.7231366758
 11
5.3261489938
 21
2.7231366758
  0
LINE
  5
21C
100
AcDbEntity
  8
0
100
AcDbLine
 62
7
  6
CONTINUOUS
 10
5.1141489938
 20
2.7231366758
 11
5.0668606216
 21
2.7231366758
  0
LINE
  5
21D
100
AcDbEntity
  8
0
100
AcDbLine
 62
7
  6
CONTINUOUS
 10
5.4021489938
 20
2.7231366758
 11
5.6316489938
 21
2.7231366758
  0
LINE
  5
21E
100
AcDbEntity
  8
0
100
AcDbLine
 62
7
  6
CONTINUOUS
 10
5.8966489938
 20
2.7831366758
 11
5.6316489938
 21
2.7831366758
  0
LINE
  5
21F
100
AcDbEntity
  8
0
100
AcDbLine
 62
7
  6
CONTINUOUS
 10
5.8906489938
 20
2.7867366758
 11
5.6376489938
 21
2.7867366758
  0
LINE
  5
220
100
AcDbEntity
  8
0
100
AcDbLine
 62
7
  6
CONTINUOUS
 10
5.6319268045
 20
2.7927366758
 11
5.6321399999
 21
2.7927366758
  0
LINE
  5
221
100
AcDbEntity
  8
0
100
AcDbLine
 62
7
  6
CONTINUOUS
 10
5.6329539393
 20
2.7927366758
 11
5.6333798249
 21
2.7927366758
  0
LINE
  5
222
100
AcDbEntity
  8
0
100
AcDbLine
 62
7
  6
CONTINUOUS
 10
5.6347324265
 20
2.7927366758
 11
5.6353685633
 21
2.7927366758
  0
LINE
  5
223
100
AcDbEntity
  8
0
100
AcDbLine
 62
7
  6
CONTINUOUS
 10
5.6372520807
 20
2.7927366758
 11
5.6380948255
 21
2.7927366758
  0
LINE
  5
224
100
AcDbEntity
  8
0
100
AcDbLine
 62
7
  6
CONTINUOUS
 10
5.6404984718
 20
2.7927366758
 11
5.6415429984
 21
2.7927366758
  0
LINE
  5
225
100
AcDbEntity
  8
0
100
AcDbLine
 62
7
  6
CONTINUOUS
 10
5.6444530079
 20
2.7927366758
 11
5.6456933341
 21
2.7927366758
  0
LINE
  5
226
100
AcDbEntity
  8
0
100
AcDbLine
 62
7
  6
CONTINUOUS
 10
5.6490930414
 20
2.7927366758
 11
5.650522064
 21
2.7927366758
  0
LINE
  5
227
100
AcDbEntity
  8
0
100
AcDbLine
 62
7
  6
CONTINUOUS
 10
5.6543919988
 20
2.7927366758
 11
5.6560015337
 21
2.7927366758
  0
LINE
  5
228
100
AcDbEntity
  8
0
100
AcDbLine
 62
7
  6
CONTINUOUS
 10
5.6603195331
 20
2.7927366758
 11
5.6621003626
 21
2.7927366758
  0
LINE
  5
229
100
AcDbEntity
  8
0
100
AcDbLine
 62
7
  6
CONTINUOUS
 10
5.6668416974
 20
2.7927366758
 11
5.6687836227
 21
2.7927366758
  0
LINE
  5
22A
100
AcDbEntity
  8
0
100
AcDbLine
 62
7
  6
CONTINUOUS
 10
5.6739211394
 20
2.7927366758
 11
5.676013039
 21
2.7927366758
  0
LINE
  5
22B
100
AcDbEntity
  8
0
100
AcDbLine
 62
7
  6
CONTINUOUS
 10
5.6815173151
 20
2.7927366758
 11
5.6837472088
 21
2.7927366758
  0
LINE
  5
22C
100
AcDbEntity
  8
0
100
AcDbLine
 62
7
  6
CONTINUOUS
 10
5.6895867213
 20
2.7927366758
 11
5.6919418386
 21
2.7927366758
  0
LINE
  5
22D
100
AcDbEntity
  8
0
100
AcDbLine
 62
7
  6
CONTINUOUS
 10
5.6980831447
 20
2.7927366758
 11
5.7005499979
 21
2.7927366758
  0
LINE
  5
22E
100
AcDbEntity
  8
0
100
AcDbLine
 62
7
  6
CONTINUOUS
 10
5.7069579264
 20
2.7927366758
 11
5.7095223877
 21
2.7927366758
  0
LINE
  5
22F
100
AcDbEntity
  8
0
100
AcDbLine
 62
7
  6
CONTINUOUS
 10
5.7161602406
 20
2.7927366758
 11
5.7188076234
 21
2.7927366758
  0
LINE
  5
230
100
AcDbEntity
  8
0
100
AcDbLine
 62
7
  6
CONTINUOUS
 10
5.7256373858
 20
2.7927366758
 11
5.7283525286
 21
2.7927366758
  0
LINE
  5
231
100
AcDbEntity
  8
0
100
AcDbLine
 62
7
  6
CONTINUOUS
 10
5.7353350864
 20
2.7927366758
 11
5.7381024397
 21
2.7927366758
  0
LINE
  5
232
100
AcDbEntity
  8
0
100
AcDbLine
 62
7
  6
CONTINUOUS
 10
5.7451978039
 20
2.7927366758
 11
5.748001519
 21
2.7927366758
  0
LINE
  5
233
100
AcDbEntity
  8
0
100
AcDbLine
 62
7
  6
CONTINUOUS
 10
5.7551690546
 20
2.7927366758
 11
5.7579930748
 21
2.7927366758
  0
LINE
  5
234
100
AcDbEntity
  8
0
100
AcDbLine
 62
7
  6
CONTINUOUS
 10
5.7651917334
 20
2.7927366758
 11
5.7680198854
 21
2.7927366758
  0
LINE
  5
235
100
AcDbEntity
  8
0
100
AcDbLine
 62
7
  6
CONTINUOUS
 10
5.7752084403
 20
2.7927366758
 11
5.7780245274
 21
2.7927366758
  0
LINE
  5
236
100
AcDbEntity
  8
0
100
AcDbLine
 62
7
  6
CONTINUOUS
 10
5.78516181
 20
2.7927366758
 11
5.7879497044
 21
2.7927366758
  0
LINE
  5
237
100
AcDbEntity
  8
0
100
AcDbLine
 62
7
  6
CONTINUOUS
 10
5.7949948396
 20
2.7927366758
 11
5.7977385751
 21
2.7927366758
  0
LINE
  5
238
100
AcDbEntity
  8
0
100
AcDbLine
 62
7
  6
CONTINUOUS
 10
5.8046512153
 20
2.7927366758
 11
5.8073350787
 21
2.7927366758
  0
LINE
  5
239
100
AcDbEntity
  8
0
100
AcDbLine
 62
7
  6
CONTINUOUS
 10
5.8140756354
 20
2.7927366758
 11
5.8166842562
 21
2.7927366758
  0
LINE
  5
23A
100
AcDbEntity
  8
0
100
AcDbLine
 62
7
  6
CONTINUOUS
 10
5.8232141263
 20
2.7927366758
 11
5.8257325648
 21
2.7927366758
  0
LINE
  5
23B
100
AcDbEntity
  8
0
100
AcDbLine
 62
7
  6
CONTINUOUS
 10
5.8320143519
 20
2.7927366758
 11
5.8344281852
 21
2.7927366758
  0
LINE
  5
23C
100
AcDbEntity
  8
0
100
AcDbLine
 62
7
  6
CONTINUOUS
 10
5.8404259134
 20
2.7927366758
 11
5.8427213175
 21
2.7927366758
  0
LINE
  5
23D
100
AcDbEntity
  8
0
100
AcDbLine
 62
7
  6
CONTINUOUS
 10
5.8484006381
 20
2.7927366758
 11
5.8505644671
 21
2.7927366758
  0
LINE
  5
23E
100
AcDbEntity
  8
0
100
AcDbLine
 62
7
  6
CONTINUOUS
 10
5.8558928546
 20
2.7927366758
 11
5.8579127165
 21
2.7927366758
  0
LINE
  5
23F
100
AcDbEntity
  8
0
100
AcDbLine
 62
7
  6
CONTINUOUS
 10
5.8628596553
 20
2.7927366758
 11
5.8647239822
 21
2.7927366758
  0
LINE
  5
240
100
AcDbEntity
  8
0
100
AcDbLine
 62
7
  6
CONTINUOUS
 10
5.8692611412
 20
2.7927366758
 11
5.8709592563
 21
2.7927366758
  0
LINE
  5
241
100
AcDbEntity
  8
0
100
AcDbLine
 62
7
  6
CONTINUOUS
 10
5.8802249717
 20
2.7927366758
 11
5.8815624953
 21
2.7927366758
  0
LINE
  5
242
100
AcDbEntity
  8
0
100
AcDbLine
 62
7
  6
CONTINUOUS
 10
5.8847245265
 20
2.7927366758
 11
5.8858697356
 21
2.7927366758
  0
LINE
  5
243
100
AcDbEntity
  8
0
100
AcDbLine
 62
7
  6
CONTINUOUS
 10
5.8750606513
 20
2.7927366758
 11
5.8765828293
 21
2.7927366758
  0
LINE
  5
244
100
AcDbEntity
  8
0
100
AcDbLine
 62
7
  6
CONTINUOUS
 10
5.8885335468
 20
2.7927366758
 11
5.8894798828
 21
2.7927366758
  0
LINE
  5
245
100
AcDbEntity
  8
0
100
AcDbLine
 62
7
  6
CONTINUOUS
 10
5.8916302183
 20
2.7927366758
 11
5.8923722616
 21
2.7927366758
  0
LINE
  5
246
100
AcDbEntity
  8
0
100
AcDbLine
 62
7
  6
CONTINUOUS
 10
5.8939968066
 20
2.7927366758
 11
5.8945303075
 21
2.7927366758
  0
LINE
  5
247
100
AcDbEntity
  8
0
100
AcDbLine
 62
7
  6
CONTINUOUS
 10
5.895619758
 20
2.7927366758
 11
5.8959416612
 21
2.7927366758
  0
LINE
  5
248
100
AcDbEntity
  8
0
100
AcDbLine
 62
7
  6
CONTINUOUS
 10
5.8964897781
 20
2.7927366758
 11
5.8966000791
 21
2.7927366758
  0
LINE
  5
249
100
AcDbEntity
  8
0
100
AcDbLine
 62
7
  6
CONTINUOUS
 10
5.1261489938
 20
2.8151366758
 11
5.3141489938
 21
2.8151366758
  0
LINE
  5
24A
100
AcDbEntity
  8
0
100
AcDbLine
 62
7
  6
CONTINUOUS
 10
5.6347324265
 20
2.9627366758
 11
5.6316561886
 21
2.9627366758
  0
LINE
  5
24B
100
AcDbEntity
  8
0
100
AcDbLine
 62
7
  6
CONTINUOUS
 10
5.8938491049
 20
2.9627366758
 11
6.3841489938
 21
2.9627366758
  0
LINE
  5
24C
100
AcDbEntity
  8
0
100
AcDbLine
 62
7
  6
CONTINUOUS
 10
6.3901489938
 20
2.9687366758
 11
5.8938491049
 21
2.9687366758
  0
LINE
  5
24D
100
AcDbEntity
  8
0
100
AcDbLine
 62
7
  6
CONTINUOUS
 10
5.6311489938
 20
2.9687366758
 11
5.6347324265
 21
2.9687366758
  0
LINE
  5
24E
100
AcDbEntity
  8
0
100
AcDbLine
 62
7
  6
CONTINUOUS
 10
5.6347324265
 20
3.0787366758
 11
5.6353685633
 21
3.0787366758
  0
LINE
  5
24F
100
AcDbEntity
  8
0
100
AcDbLine
 62
7
  6
CONTINUOUS
 10
5.6372520807
 20
3.0787366758
 11
5.6380948255
 21
3.0787366758
  0
LINE
  5
250
100
AcDbEntity
  8
0
100
AcDbLine
 62
7
  6
CONTINUOUS
 10
5.6404984718
 20
3.0787366758
 11
5.6415429984
 21
3.0787366758
  0
LINE
  5
251
100
AcDbEntity
  8
0
100
AcDbLine
 62
7
  6
CONTINUOUS
 10
5.6444530079
 20
3.0787366758
 11
5.6456933341
 21
3.0787366758
  0
LINE
  5
252
100
AcDbEntity
  8
0
100
AcDbLine
 62
7
  6
CONTINUOUS
 10
5.6490930414
 20
3.0787366758
 11
5.650522064
 21
3.0787366758
  0
LINE
  5
253
100
AcDbEntity
  8
0
100
AcDbLine
 62
7
  6
CONTINUOUS
 10
5.6543919988
 20
3.0787366758
 11
5.6560015337
 21
3.0787366758
  0
LINE
  5
254
100
AcDbEntity
  8
0
100
AcDbLine
 62
7
  6
CONTINUOUS
 10
5.6603195331
 20
3.0787366758
 11
5.6621003626
 21
3.0787366758
  0
LINE
  5
255
100
AcDbEntity
  8
0
100
AcDbLine
 62
7
  6
CONTINUOUS
 10
5.6668416974
 20
3.0787366758
 11
5.6687836227
 21
3.0787366758
  0
LINE
  5
256
100
AcDbEntity
  8
0
100
AcDbLine
 62
7
  6
CONTINUOUS
 10
5.6739211394
 20
3.0787366758
 11
5.676013039
 21
3.0787366758
  0
LINE
  5
257
100
AcDbEntity
  8
0
100
AcDbLine
 62
7
  6
CONTINUOUS
 10
5.6815173151
 20
3.0787366758
 11
5.6837472088
 21
3.0787366758
  0
LINE
  5
258
100
AcDbEntity
  8
0
100
AcDbLine
 62
7
  6
CONTINUOUS
 10
5.6895867213
 20
3.0787366758
 11
5.6919418386
 21
3.0787366758
  0
LINE
  5
259
100
AcDbEntity
  8
0
100
AcDbLine
 62
7
  6
CONTINUOUS
 10
5.6980831447
 20
3.0787366758
 11
5.7005499979
 21
3.0787366758
  0
LINE
  5
25A
100
AcDbEntity
  8
0
100
AcDbLine
 62
7
  6
CONTINUOUS
 10
5.7069579264
 20
3.0787366758
 11
5.7095223877
 21
3.0787366758
  0
LINE
  5
25B
100
AcDbEntity
  8
0
100
AcDbLine
 62
7
  6
CONTINUOUS
 10
5.7161602406
 20
3.0787366758
 11
5.7188076234
 21
3.0787366758
  0
LINE
  5
25C
100
AcDbEntity
  8
0
100
AcDbLine
 62
7
  6
CONTINUOUS
 10
5.7256373857
 20
3.0787366758
 11
5.7283525286
 21
3.0787366758
  0
LINE
  5
25D
100
AcDbEntity
  8
0
100
AcDbLine
 62
7
  6
CONTINUOUS
 10
5.7353350864
 20
3.0787366758
 11
5.7381024397
 21
3.0787366758
  0
LINE
  5
25E
100
AcDbEntity
  8
0
100
AcDbLine
 62
7
  6
CONTINUOUS
 10
5.7451978039
 20
3.0787366758
 11
5.748001519
 21
3.0787366758
  0
LINE
  5
25F
100
AcDbEntity
  8
0
100
AcDbLine
 62
7
  6
CONTINUOUS
 10
5.7551690546
 20
3.0787366758
 11
5.7579930748
 21
3.0787366758
  0
LINE
  5
260
100
AcDbEntity
  8
0
100
AcDbLine
 62
7
  6
CONTINUOUS
 10
5.7651917334
 20
3.0787366758
 11
5.7680198854
 21
3.0787366758
  0
LINE
  5
261
100
AcDbEntity
  8
0
100
AcDbLine
 62
7
  6
CONTINUOUS
 10
5.7752084403
 20
3.0787366758
 11
5.7780245274
 21
3.0787366758
  0
LINE
  5
262
100
AcDbEntity
  8
0
100
AcDbLine
 62
7
  6
CONTINUOUS
 10
5.78516181
 20
3.0787366758
 11
5.7879497044
 21
3.0787366758
  0
LINE
  5
263
100
AcDbEntity
  8
0
100
AcDbLine
 62
7
  6
CONTINUOUS
 10
5.7949948396
 20
3.0787366758
 11
5.7977385751
 21
3.0787366758
  0
LINE
  5
264
100
AcDbEntity
  8
0
100
AcDbLine
 62
7
  6
CONTINUOUS
 10
5.8046512153
 20
3.0787366758
 11
5.8073350787
 21
3.0787366758
  0
LINE
  5
265
100
AcDbEntity
  8
0
100
AcDbLine
 62
7
  6
CONTINUOUS
 10
5.8140756354
 20
3.0787366758
 11
5.8166842562
 21
3.0787366758
  0
LINE
  5
266
100
AcDbEntity
  8
0
100
AcDbLine
 62
7
  6
CONTINUOUS
 10
5.8232141263
 20
3.0787366758
 11
5.8257325648
 21
3.0787366758
  0
LINE
  5
267
100
AcDbEntity
  8
0
100
AcDbLine
 62
7
  6
CONTINUOUS
 10
5.8320143519
 20
3.0787366758
 11
5.8344281852
 21
3.0787366758
  0
LINE
  5
268
100
AcDbEntity
  8
0
100
AcDbLine
 62
7
  6
CONTINUOUS
 10
5.8404259134
 20
3.0787366758
 11
5.8427213175
 21
3.0787366758
  0
LINE
  5
269
100
AcDbEntity
  8
0
100
AcDbLine
 62
7
  6
CONTINUOUS
 10
5.8484006381
 20
3.0787366758
 11
5.8505644671
 21
3.0787366758
  0
LINE
  5
26A
100
AcDbEntity
  8
0
100
AcDbLine
 62
7
  6
CONTINUOUS
 10
5.8558928546
 20
3.0787366758
 11
5.8579127165
 21
3.0787366758
  0
LINE
  5
26B
100
AcDbEntity
  8
0
100
AcDbLine
 62
7
  6
CONTINUOUS
 10
5.8628596553
 20
3.0787366758
 11
5.8647239822
 21
3.0787366758
  0
LINE
  5
26C
100
AcDbEntity
  8
0
100
AcDbLine
 62
7
  6
CONTINUOUS
 10
5.8692611412
 20
3.0787366758
 11
5.8709592563
 21
3.0787366758
  0
LINE
  5
26D
100
AcDbEntity
  8
0
100
AcDbLine
 62
7
  6
CONTINUOUS
 10
5.8802249717
 20
3.0787366758
 11
5.8815624953
 21
3.0787366758
  0
LINE
  5
26E
100
AcDbEntity
  8
0
100
AcDbLine
 62
7
  6
CONTINUOUS
 10
5.8847245265
 20
3.0787366758
 11
5.8858697356
 21
3.0787366758
  0
LINE
  5
26F
100
AcDbEntity
  8
0
100
AcDbLine
 62
7
  6
CONTINUOUS
 10
5.8750606513
 20
3.0787366758
 11
5.8765828293
 21
3.0787366758
  0
LINE
  5
270
100
AcDbEntity
  8
0
100
AcDbLine
 62
7
  6
CONTINUOUS
 10
5.8885335468
 20
3.0787366758
 11
5.8894798828
 21
3.0787366758
  0
LINE
  5
271
100
AcDbEntity
  8
0
100
AcDbLine
 62
7
  6
CONTINUOUS
 10
5.8916302183
 20
3.0787366758
 11
5.8923722616
 21
3.0787366758
  0
LINE
  5
272
100
AcDbEntity
  8
0
100
AcDbLine
 62
7
  6
CONTINUOUS
 10
5.6311489938
 20
3.0797366758
 11
5.6347927939
 21
3.0797366758
  0
LINE
  5
273
100
AcDbEntity
  8
0
100
AcDbLine
 62
7
  6
CONTINUOUS
 10
5.8937466728
 20
3.0797366758
 11
6.3901489938
 21
3.0797366758
  0
LINE
  5
274
100
AcDbEntity
  8
0
100
AcDbLine
 62
7
  6
CONTINUOUS
 10
5.6418951595
 20
3.0847366758
 11
5.8864028281
 21
3.0847366758
  0
LINE
  5
275
100
AcDbEntity
  8
0
100
AcDbLine
 62
7
  6
CONTINUOUS
 10
5.6371489938
 20
3.0857366758
 11
6.3841489938
 21
3.0857366758
  0
LINE
  5
276
100
AcDbEntity
  8
0
100
AcDbLine
 62
7
  6
CONTINUOUS
 10
4.4908606216
 20
4.6011366758
 11
4.4908606216
 21
4.8331366758
  0
LINE
  5
277
100
AcDbEntity
  8
0
100
AcDbLine
 62
7
  6
CONTINUOUS
 10
4.4948606216
 20
4.5971366758
 11
4.4948606216
 21
4.8371366758
  0
LINE
  5
278
100
AcDbEntity
  8
0
100
AcDbLine
 62
7
  6
CONTINUOUS
 10
4.5381489938
 20
6.6111366758
 11
4.5381489938
 21
7.0311366758
  0
LINE
  5
279
100
AcDbEntity
  8
0
100
AcDbLine
 62
7
  6
CONTINUOUS
 10
4.5381489938
 20
7.2471366758
 11
4.5381489938
 21
7.3351366758
  0
LINE
  5
27A
100
AcDbEntity
  8
0
100
AcDbLine
 62
7
  6
CONTINUOUS
 10
4.5381576676
 20
7.2411366758
 11
4.5381576676
 21
7.0411366758
  0
LINE
  5
27B
100
AcDbEntity
  8
0
100
AcDbLine
 62
7
  6
CONTINUOUS
 10
4.5384836535
 20
7.2411366758
 11
4.5384836535
 21
7.0411366758
  0
LINE
  5
27C
100
AcDbEntity
  8
0
100
AcDbLine
 62
7
  6
CONTINUOUS
 10
4.5387389154
 20
7.2411366758
 11
4.5387389154
 21
7.0411366758
  0
LINE
  5
27D
100
AcDbEntity
  8
0
100
AcDbLine
 62
7
  6
CONTINUOUS
 10
4.5397175615
 20
7.2411366758
 11
4.5397175615
 21
7.0411366758
  0
LINE
  5
27E
100
AcDbEntity
  8
0
100
AcDbLine
 62
7
  6
CONTINUOUS
 10
4.5402266336
 20
7.2411366758
 11
4.5402266336
 21
7.0411366758
  0
LINE
  5
27F
100
AcDbEntity
  8
0
100
AcDbLine
 62
7
  6
CONTINUOUS
 10
4.5418498318
 20
7.3341366758
 11
4.5418498318
 21
7.0411366758
  0
LINE
  5
280
100
AcDbEntity
  8
0
100
AcDbLine
 62
7
  6
CONTINUOUS
 10
4.5426084964
 20
7.3341366758
 11
4.5426084964
 21
7.0411366758
  0
LINE
  5
281
100
AcDbEntity
  8
0
100
AcDbLine
 62
7
  6
CONTINUOUS
 10
4.5441489938
 20
7.3411366758
 11
4.5441489938
 21
7.3387120768
  0
LINE
  5
282
100
AcDbEntity
  8
0
100
AcDbLine
 62
7
  6
CONTINUOUS
 10
4.5448627985
 20
7.3341366758
 11
4.5448627985
 21
7.0411366758
  0
LINE
  5
283
100
AcDbEntity
  8
0
100
AcDbLine
 62
7
  6
CONTINUOUS
 10
4.54586477
 20
7.3341366758
 11
4.54586477
 21
7.0411366758
  0
LINE
  5
284
100
AcDbEntity
  8
0
100
AcDbLine
 62
7
  6
CONTINUOUS
 10
4.5487314988
 20
7.3341366758
 11
4.5487314988
 21
7.0411366758
  0
LINE
  5
285
100
AcDbEntity
  8
0
100
AcDbLine
 62
7
  6
CONTINUOUS
 10
4.5499684758
 20
7.3341366758
 11
4.5499684758
 21
7.0411366758
  0
LINE
  5
286
100
AcDbEntity
  8
0
100
AcDbLine
 62
7
  6
CONTINUOUS
 10
4.5534238803
 20
7.3341366758
 11
4.5534238803
 21
7.0411366758
  0
LINE
  5
287
100
AcDbEntity
  8
0
100
AcDbLine
 62
7
  6
CONTINUOUS
 10
4.5541489938
 20
4.9291366758
 11
4.5541489938
 21
4.8491366758
  0
LINE
  5
288
100
AcDbEntity
  8
0
100
AcDbLine
 62
7
  6
CONTINUOUS
 10
4.5548856144
 20
7.3341366758
 11
4.5548856144
 21
7.0411366758
  0
LINE
  5
289
100
AcDbEntity
  8
0
100
AcDbLine
 62
7
  6
CONTINUOUS
 10
4.5589010662
 20
7.3341366758
 11
4.5589010662
 21
7.0411366758
  0
LINE
  5
28A
100
AcDbEntity
  8
0
100
AcDbLine
 62
7
  6
CONTINUOUS
 10
4.5605754468
 20
7.3341366758
 11
4.5605754468
 21
7.0411366758
  0
LINE
  5
28B
100
AcDbEntity
  8
0
100
AcDbLine
 62
7
  6
CONTINUOUS
 10
4.5649741937
 20
7.0360605523
 11
4.5649741937
 21
7.3392127993
  0
LINE
  5
28C
100
AcDbEntity
  8
0
100
AcDbLine
 62
7
  6
CONTINUOUS
 10
4.5651176778
 20
7.3341366758
 11
4.5651176778
 21
7.0411366758
  0
LINE
  5
28D
100
AcDbEntity
  8
0
100
AcDbLine
 62
7
  6
CONTINUOUS
 10
4.5669908325
 20
7.3341366758
 11
4.5669908325
 21
7.0411366758
  0
LINE
  5
28E
100
AcDbEntity
  8
0
100
AcDbLine
 62
7
  6
CONTINUOUS
 10
4.5714680384
 20
7.0360605523
 11
4.5714680384
 21
7.3392127993
  0
LINE
  5
28F
100
AcDbEntity
  8
0
100
AcDbLine
 62
7
  6
CONTINUOUS
 10
4.5720222098
 20
7.3341366758
 11
4.5720222098
 21
7.0411366758
  0
LINE
  5
290
100
AcDbEntity
  8
0
100
AcDbLine
 62
7
  6
CONTINUOUS
 10
4.5731489938
 20
4.9291366758
 11
4.5731489938
 21
6.6111366758
  0
LINE
  5
291
100
AcDbEntity
  8
0
100
AcDbLine
 62
7
  6
CONTINUOUS
 10
4.5740786194
 20
7.3341366758
 11
4.5740786194
 21
7.0411366758
  0
LINE
  5
292
100
AcDbEntity
  8
0
100
AcDbLine
 62
7
  6
CONTINUOUS
 10
4.5785971905
 20
7.0360605523
 11
4.5785971905
 21
7.3392127993
  0
LINE
  5
293
100
AcDbEntity
  8
0
100
AcDbLine
 62
7
  6
CONTINUOUS
 10
4.5795574578
 20
7.3341366758
 11
4.5795574578
 21
7.0411366758
  0
LINE
  5
294
100
AcDbEntity
  8
0
100
AcDbLine
 62
7
  6
CONTINUOUS
 10
4.5817800848
 20
7.3341366758
 11
4.5817800848
 21
7.0411366758
  0
LINE
  5
295
100
AcDbEntity
  8
0
100
AcDbLine
 62
7
  6
CONTINUOUS
 10
4.5863025843
 20
7.0360605523
 11
4.5863025843
 21
7.3392127993
  0
LINE
  5
296
100
AcDbEntity
  8
0
100
AcDbLine
 62
7
  6
CONTINUOUS
 10
4.5876609917
 20
7.3341366758
 11
4.5876609917
 21
7.0411366758
  0
LINE
  5
297
100
AcDbEntity
  8
0
100
AcDbLine
 62
7
  6
CONTINUOUS
 10
4.5900314215
 20
7.3341366758
 11
4.5900314215
 21
7.0411366758
  0
LINE
  5
298
100
AcDbEntity
  8
0
100
AcDbLine
 62
7
  6
CONTINUOUS
 10
4.5945203801
 20
7.0360605523
 11
4.5945203801
 21
7.3392127993
  0
LINE
  5
299
100
AcDbEntity
  8
0
100
AcDbLine
 62
7
  6
CONTINUOUS
 10
4.5962656731
 20
7.3341366758
 11
4.5962656731
 21
7.0411366758
  0
LINE
  5
29A
100
AcDbEntity
  8
0
100
AcDbLine
 62
7
  6
CONTINUOUS
 10
4.5987642665
 20
7.3341366758
 11
4.5987642665
 21
7.0411366758
  0
LINE
  5
29B
100
AcDbEntity
  8
0
100
AcDbLine
 62
7
  6
CONTINUOUS
 10
4.603182493
 20
7.0360605523
 11
4.603182493
 21
7.3392127993
  0
LINE
  5
29C
100
AcDbEntity
  8
0
100
AcDbLine
 62
7
  6
CONTINUOUS
 10
4.6053002116
 20
7.3341366758
 11
4.6053002116
 21
7.0411366758
  0
LINE
  5
29D
100
AcDbEntity
  8
0
100
AcDbLine
 62
7
  6
CONTINUOUS
 10
4.6079062675
 20
7.3341366758
 11
4.6079062675
 21
7.0411366758
  0
LINE
  5
29E
100
AcDbEntity
  8
0
100
AcDbLine
 62
7
  6
CONTINUOUS
 10
4.6122171565
 20
7.0360605523
 11
4.6122171565
 21
7.3392127993
  0
LINE
  5
29F
100
AcDbEntity
  8
0
100
AcDbLine
 62
7
  6
CONTINUOUS
 10
4.6146897554
 20
7.3341366758
 11
4.6146897554
 21
7.0411366758
  0
LINE
  5
2A0
100
AcDbEntity
  8
0
100
AcDbLine
 62
7
  6
CONTINUOUS
 10
4.6173816825
 20
7.3341366758
 11
4.6173816825
 21
7.0411366758
  0
LINE
  5
2A1
100
AcDbEntity
  8
0
100
AcDbLine
 62
7
  6
CONTINUOUS
 10
4.6215495179
 20
7.0360605523
 11
4.6215495179
 21
7.3392127993
  0
LINE
  5
2A2
100
AcDbEntity
  8
0
100
AcDbLine
 62
7
  6
CONTINUOUS
 10
4.6243565114
 20
7.3341366758
 11
4.6243565114
 21
7.0411366758
  0
LINE
  5
2A3
100
AcDbEntity
  8
0
100
AcDbLine
 62
7
  6
CONTINUOUS
 10
4.6271120069
 20
7.3341366758
 11
4.6271120069
 21
7.0411366758
  0
LINE
  5
2A4
100
AcDbEntity
  8
0
100
AcDbLine
 62
7
  6
CONTINUOUS
 10
4.631102258
 20
7.0360605523
 11
4.631102258
 21
7.3392127993
  0
LINE
  5
2A5
100
AcDbEntity
  8
0
100
AcDbLine
 62
7
  6
CONTINUOUS
 10
4.6342203898
 20
7.3341366758
 11
4.6342203898
 21
7.0411366758
  0
LINE
  5
2A6
100
AcDbEntity
  8
0
100
AcDbLine
 62
7
  6
CONTINUOUS
 10
4.6370166242
 20
7.3341366758
 11
4.6370166242
 21
7.0411366758
  0
LINE
  5
2A7
100
AcDbEntity
  8
0
100
AcDbLine
 62
7
  6
CONTINUOUS
 10
4.6407962314
 20
7.0360605523
 11
4.6407962314
 21
7.3392127993
  0
LINE
  5
2A8
100
AcDbEntity
  8
0
100
AcDbLine
 62
7
  6
CONTINUOUS
 10
4.6441996678
 20
7.3341366758
 11
4.6441996678
 21
7.0411366758
  0
LINE
  5
2A9
100
AcDbEntity
  8
0
100
AcDbLine
 62
7
  6
CONTINUOUS
 10
4.6470134741
 20
7.3341366758
 11
4.6470134741
 21
7.0411366758
  0
LINE
  5
2AA
100
AcDbEntity
  8
0
100
AcDbLine
 62
7
  6
CONTINUOUS
 10
4.6505511231
 20
7.0360605523
 11
4.6505511231
 21
7.3392127993
  0
LINE
  5
2AB
100
AcDbEntity
  8
0
100
AcDbLine
 62
7
  6
CONTINUOUS
 10
4.6542116662
 20
7.3341366758
 11
4.6542116662
 21
7.0411366758
  0
LINE
  5
2AC
100
AcDbEntity
  8
0
100
AcDbLine
 62
7
  6
CONTINUOUS
 10
4.6570197318
 20
7.3341366758
 11
4.6570197318
 21
7.0411366758
  0
LINE
  5
2AD
100
AcDbEntity
  8
0
100
AcDbLine
 62
7
  6
CONTINUOUS
 10
4.6602861129
 20
7.0360605523
 11
4.6602861129
 21
7.3392127993
  0
LINE
  5
2AE
100
AcDbEntity
  8
0
100
AcDbLine
 62
7
  6
CONTINUOUS
 10
4.6641734349
 20
7.3341366758
 11
4.6641734349
 21
7.0411366758
  0
LINE
  5
2AF
100
AcDbEntity
  8
0
100
AcDbLine
 62
7
  6
CONTINUOUS
 10
4.6669524948
 20
7.3341366758
 11
4.6669524948
 21
7.0411366758
  0
LINE
  5
2B0
100
AcDbEntity
  8
0
100
AcDbLine
 62
7
  6
CONTINUOUS
 10
4.6699205458
 20
7.0360605523
 11
4.6699205458
 21
7.3392127993
  0
LINE
  5
2B1
100
AcDbEntity
  8
0
100
AcDbLine
 62
7
  6
CONTINUOUS
 10
4.67400244
 20
7.3341366758
 11
4.67400244
 21
7.0411366758
  0
LINE
  5
2B2
100
AcDbEntity
  8
0
100
AcDbLine
 62
7
  6
CONTINUOUS
 10
4.6767294694
 20
7.3341366758
 11
4.6767294694
 21
7.0411366758
  0
LINE
  5
2B3
100
AcDbEntity
  8
0
100
AcDbLine
 62
7
  6
CONTINUOUS
 10
4.6793745999
 20
7.0360605523
 11
4.6793745999
 21
7.3392127993
  0
LINE
  5
2B4
100
AcDbEntity
  8
0
100
AcDbLine
 62
7
  6
CONTINUOUS
 10
4.6836172473
 20
7.3341366758
 11
4.6836172473
 21
7.0411366758
  0
LINE
  5
2B5
100
AcDbEntity
  8
0
100
AcDbLine
 62
7
  6
CONTINUOUS
 10
4.6862696527
 20
7.3341366758
 11
4.6862696527
 21
7.0411366758
  0
LINE
  5
2B6
100
AcDbEntity
  8
0
100
AcDbLine
 62
7
  6
CONTINUOUS
 10
4.6885699475
 20
7.0360605523
 11
4.6885699475
 21
7.3392127993
  0
LINE
  5
2B7
100
AcDbEntity
  8
0
100
AcDbLine
 62
7
  6
CONTINUOUS
 10
4.6929381977
 20
7.3341366758
 11
4.6929381977
 21
7.0411366758
  0
LINE
  5
2B8
100
AcDbEntity
  8
0
100
AcDbLine
 62
7
  6
CONTINUOUS
 10
4.6954940036
 20
7.3341366758
 11
4.6954940036
 21
7.0411366758
  0
LINE
  5
2B9
100
AcDbEntity
  8
0
100
AcDbLine
 62
7
  6
CONTINUOUS
 10
4.6974304045
 20
7.0360605523
 11
4.6974304045
 21
7.3392127993
  0
LINE
  5
2BA
100
AcDbEntity
  8
0
100
AcDbLine
 62
7
  6
CONTINUOUS
 10
4.7018880661
 20
7.3341366758
 11
4.7018880661
 21
7.0411366758
  0
LINE
  5
2BB
100
AcDbEntity
  8
0
100
AcDbLine
 62
7
  6
CONTINUOUS
 10
4.7043260976
 20
7.3341366758
 11
4.7043260976
 21
7.0411366758
  0
LINE
  5
2BC
100
AcDbEntity
  8
0
100
AcDbLine
 62
7
  6
CONTINUOUS
 10
4.7058825615
 20
7.0360605523
 11
4.7058825615
 21
7.3392127993
  0
LINE
  5
2BD
100
AcDbEntity
  8
0
100
AcDbLine
 62
7
  6
CONTINUOUS
 10
4.7103927025
 20
7.3341366758
 11
4.7103927025
 21
7.0411366758
  0
LINE
  5
2BE
100
AcDbEntity
  8
0
100
AcDbLine
 62
7
  6
CONTINUOUS
 10
4.7126927602
 20
7.3341366758
 11
4.7126927602
 21
7.0411366758
  0
LINE
  5
2BF
100
AcDbEntity
  8
0
100
AcDbLine
 62
7
  6
CONTINUOUS
 10
4.7138563916
 20
7.0360605523
 11
4.7138563916
 21
7.3392127993
  0
LINE
  5
2C0
100
AcDbEntity
  8
0
100
AcDbLine
 62
7
  6
CONTINUOUS
 10
4.7183816452
 20
7.3341366758
 11
4.7183816452
 21
7.0411366758
  0
LINE
  5
2C1
100
AcDbEntity
  8
0
100
AcDbLine
 62
7
  6
CONTINUOUS
 10
4.720524673
 20
7.3341366758
 11
4.720524673
 21
7.0411366758
  0
LINE
  5
2C2
100
AcDbEntity
  8
0
100
AcDbLine
 62
7
  6
CONTINUOUS
 10
4.7212858312
 20
7.0360605523
 11
4.7212858312
 21
7.3392127993
  0
LINE
  5
2C3
100
AcDbEntity
  8
0
100
AcDbLine
 62
7
  6
CONTINUOUS
 10
4.7231489938
 20
4.9291366758
 11
4.7231489938
 21
6.6111366758
  0
LINE
  5
2C4
100
AcDbEntity
  8
0
100
AcDbLine
 62
7
  6
CONTINUOUS
 10
4.7257887053
 20
7.3341366758
 11
4.7257887053
 21
7.0411366758
  0
LINE
  5
2C5
100
AcDbEntity
  8
0
100
AcDbLine
 62
7
  6
CONTINUOUS
 10
4.727756948
 20
7.3341366758
 11
4.727756948
 21
7.0411366758
  0
LINE
  5
2C6
100
AcDbEntity
  8
0
100
AcDbLine
 62
7
  6
CONTINUOUS
 10
4.7281093268
 20
7.0360605523
 11
4.7281093268
 21
7.3392127993
  0
LINE
  5
2C7
100
AcDbEntity
  8
0
100
AcDbLine
 62
7
  6
CONTINUOUS
 10
4.7325525146
 20
7.3341366758
 11
4.7325525146
 21
7.0411366758
  0
LINE
  5
2C8
100
AcDbEntity
  8
0
100
AcDbLine
 62
7
  6
CONTINUOUS
 10
4.7343296653
 20
7.3341366758
 11
4.7343296653
 21
7.0411366758
  0
LINE
  5
2C9
100
AcDbEntity
  8
0
100
AcDbLine
 62
7
  6
CONTINUOUS
 10
4.7386170347
 20
7.3341366758
 11
4.7386170347
 21
7.0411366758
  0
LINE
  5
2CA
100
AcDbEntity
  8
0
100
AcDbLine
 62
7
  6
CONTINUOUS
 10
4.7401883695
 20
7.3341366758
 11
4.7401883695
 21
7.0411366758
  0
LINE
  5
2CB
100
AcDbEntity
  8
0
100
AcDbLine
 62
7
  6
CONTINUOUS
 10
4.7421489938
 20
4.9291366758
 11
4.7421489938
 21
4.8491366758
  0
LINE
  5
2CC
100
AcDbEntity
  8
0
100
AcDbLine
 62
7
  6
CONTINUOUS
 10
4.7439320205
 20
7.3341366758
 11
4.7439320205
 21
7.0411366758
  0
LINE
  5
2CD
100
AcDbEntity
  8
0
100
AcDbLine
 62
7
  6
CONTINUOUS
 10
4.7452845207
 20
7.3341366758
 11
4.7452845207
 21
7.0411366758
  0
LINE
  5
2CE
100
AcDbEntity
  8
0
100
AcDbLine
 62
7
  6
CONTINUOUS
 10
4.7484534369
 20
7.3341366758
 11
4.7484534369
 21
7.0411366758
  0
LINE
  5
2CF
100
AcDbEntity
  8
0
100
AcDbLine
 62
7
  6
CONTINUOUS
 10
4.749575897
 20
7.3341366758
 11
4.749575897
 21
7.0411366758
  0
LINE
  5
2D0
100
AcDbEntity
  8
0
100
AcDbLine
 62
7
  6
CONTINUOUS
 10
4.7521438236
 20
7.3341366758
 11
4.7521438236
 21
7.0411366758
  0
LINE
  5
2D1
100
AcDbEntity
  8
0
100
AcDbLine
 62
7
  6
CONTINUOUS
 10
4.753026944
 20
7.3341366758
 11
4.753026944
 21
7.0411366758
  0
LINE
  5
2D2
100
AcDbEntity
  8
0
100
AcDbLine
 62
7
  6
CONTINUOUS
 10
4.7546323918
 20
7.2411366758
 11
4.7546323918
 21
7.3341366758
  0
LINE
  5
2D3
100
AcDbEntity
  8
0
100
AcDbLine
 62
7
  6
CONTINUOUS
 10
4.7549726057
 20
7.2411366758
 11
4.7549726057
 21
7.0411366758
  0
LINE
  5
2D4
100
AcDbEntity
  8
0
100
AcDbLine
 62
7
  6
CONTINUOUS
 10
4.7556090696
 20
7.2411366758
 11
4.7556090696
 21
7.0411366758
  0
LINE
  5
2D5
100
AcDbEntity
  8
0
100
AcDbLine
 62
7
  6
CONTINUOUS
 10
4.7569163463
 20
7.2411366758
 11
4.7569163463
 21
7.0411366758
  0
LINE
  5
2D6
100
AcDbEntity
  8
0
100
AcDbLine
 62
7
  6
CONTINUOUS
 10
4.7573008806
 20
7.2411366758
 11
4.7573008806
 21
7.0411366758
  0
LINE
  5
2D7
100
AcDbEntity
  8
0
100
AcDbLine
 62
7
  6
CONTINUOUS
 10
4.7579589414
 20
7.2411366758
 11
4.7579589414
 21
7.0411366758
  0
LINE
  5
2D8
100
AcDbEntity
  8
0
100
AcDbLine
 62
7
  6
CONTINUOUS
 10
4.7580900689
 20
7.2411366758
 11
4.7580900689
 21
7.0411366758
  0
LINE
  5
2D9
100
AcDbEntity
  8
0
100
AcDbLine
 62
7
  6
CONTINUOUS
 10
4.7581489938
 20
6.6111366758
 11
4.7581489938
 21
6.7511367165
  0
LINE
  5
2DA
100
AcDbEntity
  8
0
100
AcDbLine
 62
7
  6
CONTINUOUS
 10
4.7581489938
 20
7.0111366351
 11
4.7581489938
 21
7.0311366758
  0
LINE
  5
2DB
100
AcDbEntity
  8
0
100
AcDbLine
 62
7
  6
CONTINUOUS
 10
4.8181489938
 20
6.9911366758
 11
4.8181489938
 21
6.7711366758
  0
LINE
  5
2DC
100
AcDbEntity
  8
0
100
AcDbLine
 62
7
  6
CONTINUOUS
 10
4.8261489938
 20
4.8371366758
 11
4.8261489938
 21
4.5971366758
  0
LINE
  5
2DD
100
AcDbEntity
  8
0
100
AcDbLine
 62
7
  6
CONTINUOUS
 10
4.8301489938
 20
4.5971366758
 11
4.8301489938
 21
4.8371366758
  0
LINE
  5
2DE
100
AcDbEntity
  8
0
100
AcDbLine
 62
7
  6
CONTINUOUS
 10
4.8551489938
 20
6.7886366758
 11
4.8551489938
 21
6.9736366758
  0
LINE
  5
2DF
100
AcDbEntity
  8
0
100
AcDbLine
 62
7
  6
CONTINUOUS
 10
4.8879695066
 20
6.7956790584
 11
4.8879695066
 21
6.9665942932
  0
LINE
  5
2E0
100
AcDbEntity
  8
0
100
AcDbLine
 62
7
  6
CONTINUOUS
 10
4.8891489938
 20
6.9647703528
 11
4.8891489938
 21
6.7975029988
  0
LINE
  5
2E1
100
AcDbEntity
  8
0
100
AcDbLine
 62
7
  6
CONTINUOUS
 10
4.8901489938
 20
4.6740553574
 11
4.8901489938
 21
4.7602179943
  0
LINE
  5
2E2
100
AcDbEntity
  8
0
100
AcDbLine
 62
7
  6
CONTINUOUS
 10
4.8907489938
 20
6.8078866758
 11
4.8907489938
 21
6.9543866758
  0
LINE
  5
2E3
100
AcDbEntity
  8
0
100
AcDbLine
 62
7
  6
CONTINUOUS
 10
5.0628606216
 20
2.4871366758
 11
5.0628606216
 21
2.7191366758
  0
LINE
  5
2E4
100
AcDbEntity
  8
0
100
AcDbLine
 62
7
  6
CONTINUOUS
 10
5.0668606216
 20
2.4831366758
 11
5.0668606216
 21
2.7231366758
  0
LINE
  5
2E5
100
AcDbEntity
  8
0
100
AcDbLine
 62
7
  6
CONTINUOUS
 10
5.1261489938
 20
2.8151366758
 11
5.1261489938
 21
2.7351366758
  0
LINE
  5
2E6
100
AcDbEntity
  8
0
100
AcDbLine
 62
7
  6
CONTINUOUS
 10
5.1261489938
 20
4.5051366758
 11
5.1261489938
 21
4.5851366758
  0
LINE
  5
2E7
100
AcDbEntity
  8
0
100
AcDbLine
 62
7
  6
CONTINUOUS
 10
5.1451489938
 20
2.8151366758
 11
5.1451489938
 21
4.5051366758
  0
LINE
  5
2E8
100
AcDbEntity
  8
0
100
AcDbLine
 62
7
  6
CONTINUOUS
 10
5.2321489938
 20
7.2411366758
 11
5.2321489938
 21
7.3411366758
  0
LINE
  5
2E9
100
AcDbEntity
  8
0
100
AcDbLine
 62
7
  6
CONTINUOUS
 10
5.2381489938
 20
7.3351366758
 11
5.2381489938
 21
7.2471366758
  0
LINE
  5
2EA
100
AcDbEntity
  8
0
100
AcDbLine
 62
7
  6
CONTINUOUS
 10
5.2951489938
 20
2.8151366758
 11
5.2951489938
 21
4.5051366758
  0
LINE
  5
2EB
100
AcDbEntity
  8
0
100
AcDbLine
 62
7
  6
CONTINUOUS
 10
5.3141489938
 20
2.8151366758
 11
5.3141489938
 21
2.7351366758
  0
LINE
  5
2EC
100
AcDbEntity
  8
0
100
AcDbLine
 62
7
  6
CONTINUOUS
 10
5.3141489938
 20
4.5051366758
 11
5.3141489938
 21
4.5851366758
  0
LINE
  5
2ED
100
AcDbEntity
  8
0
100
AcDbLine
 62
7
  6
CONTINUOUS
 10
5.3741489938
 20
4.8371366758
 11
5.3741489938
 21
4.5971366758
  0
LINE
  5
2EE
100
AcDbEntity
  8
0
100
AcDbLine
 62
7
  6
CONTINUOUS
 10
5.3781489938
 20
4.8331366758
 11
5.3781489938
 21
4.6011366758
  0
LINE
  5
2EF
100
AcDbEntity
  8
0
100
AcDbLine
 62
7
  6
CONTINUOUS
 10
5.3981489938
 20
2.7231366758
 11
5.3981489938
 21
2.4831366758
  0
LINE
  5
2F0
100
AcDbEntity
  8
0
100
AcDbLine
 62
7
  6
CONTINUOUS
 10
5.4021489938
 20
2.4831366758
 11
5.4021489938
 21
2.7231366758
  0
LINE
  5
2F1
100
AcDbEntity
  8
0
100
AcDbLine
 62
7
  6
CONTINUOUS
 10
5.4621489938
 20
2.5600553574
 11
5.4621489938
 21
2.6462179943
  0
LINE
  5
2F2
100
AcDbEntity
  8
0
100
AcDbLine
 62
7
  6
CONTINUOUS
 10
5.3141489938
 20
4.5051366758
 11
5.1261489938
 21
4.5051366758
  0
LINE
  5
2F3
100
AcDbEntity
  8
0
100
AcDbLine
 62
7
  6
CONTINUOUS
 10
4.8261489938
 20
4.5971366758
 11
4.4948606216
 21
4.5971366758
  0
LINE
  5
2F4
100
AcDbEntity
  8
0
100
AcDbLine
 62
7
  6
CONTINUOUS
 10
4.8301489938
 20
4.5971366758
 11
5.1141489938
 21
4.5971366758
  0
LINE
  5
2F5
100
AcDbEntity
  8
0
100
AcDbLine
 62
7
  6
CONTINUOUS
 10
5.3261489938
 20
4.5971366758
 11
5.3741489938
 21
4.5971366758
  0
LINE
  5
2F6
100
AcDbEntity
  8
0
100
AcDbLine
 62
7
  6
CONTINUOUS
 10
5.4683538615
 20
1.9465599833
 11
5.4683538615
 21
1.9011366758
  0
LINE
  5
2F7
100
AcDbEntity
  8
0
100
AcDbLine
 62
7
  6
CONTINUOUS
 10
5.6311489938
 20
2.9687366758
 11
5.6311489938
 21
3.0797366758
  0
LINE
  5
2F8
100
AcDbEntity
  8
0
100
AcDbLine
 62
7
  6
CONTINUOUS
 10
5.6316489938
 20
2.0151366758
 11
5.6316489938
 21
2.4831366758
  0
LINE
  5
2F9
100
AcDbEntity
  8
0
100
AcDbLine
 62
7
  6
CONTINUOUS
 10
5.6316489938
 20
2.7231366758
 11
5.6316489938
 21
2.7831366758
  0
LINE
  5
2FA
100
AcDbEntity
  8
0
100
AcDbLine
 62
7
  6
CONTINUOUS
 10
5.6316561886
 20
2.9627366758
 11
5.6316561886
 21
2.7927366758
  0
LINE
  5
2FB
100
AcDbEntity
  8
0
100
AcDbLine
 62
7
  6
CONTINUOUS
 10
5.6319268045
 20
2.9627366758
 11
5.6319268045
 21
2.7927366758
  0
LINE
  5
2FC
100
AcDbEntity
  8
0
100
AcDbLine
 62
7
  6
CONTINUOUS
 10
5.6321399999
 20
2.9627366758
 11
5.6321399999
 21
2.7927366758
  0
LINE
  5
2FD
100
AcDbEntity
  8
0
100
AcDbLine
 62
7
  6
CONTINUOUS
 10
5.6329539393
 20
2.9627366758
 11
5.6329539393
 21
2.7927366758
  0
LINE
  5
2FE
100
AcDbEntity
  8
0
100
AcDbLine
 62
7
  6
CONTINUOUS
 10
5.6333798249
 20
2.9627366758
 11
5.6333798249
 21
2.7927366758
  0
LINE
  5
2FF
100
AcDbEntity
  8
0
100
AcDbLine
 62
7
  6
CONTINUOUS
 10
5.6347324265
 20
3.0787366758
 11
5.6347324265
 21
2.7927366758
  0
LINE
  5
300
100
AcDbEntity
  8
0
100
AcDbLine
 62
7
  6
CONTINUOUS
 10
5.6353685633
 20
3.0787366758
 11
5.6353685633
 21
2.7927366758
  0
LINE
  5
301
100
AcDbEntity
  8
0
100
AcDbLine
 62
7
  6
CONTINUOUS
 10
5.6371489938
 20
3.0857366758
 11
5.6371489938
 21
3.0834305838
  0
LINE
  5
302
100
AcDbEntity
  8
0
100
AcDbLine
 62
7
  6
CONTINUOUS
 10
5.6372520807
 20
3.0787366758
 11
5.6372520807
 21
2.7927366758
  0
LINE
  5
303
100
AcDbEntity
  8
0
100
AcDbLine
 62
7
  6
CONTINUOUS
 10
5.6380948255
 20
3.0787366758
 11
5.6380948255
 21
2.7927366758
  0
LINE
  5
304
100
AcDbEntity
  8
0
100
AcDbLine
 62
7
  6
CONTINUOUS
 10
5.6404984718
 20
3.0787366758
 11
5.6404984718
 21
2.7927366758
  0
LINE
  5
305
100
AcDbEntity
  8
0
100
AcDbLine
 62
7
  6
CONTINUOUS
 10
5.6415429984
 20
3.0787366758
 11
5.6415429984
 21
2.7927366758
  0
LINE
  5
306
100
AcDbEntity
  8
0
100
AcDbLine
 62
7
  6
CONTINUOUS
 10
5.6444530079
 20
3.0787366758
 11
5.6444530079
 21
2.7927366758
  0
LINE
  5
307
100
AcDbEntity
  8
0
100
AcDbLine
 62
7
  6
CONTINUOUS
 10
5.6456933341
 20
3.0787366758
 11
5.6456933341
 21
2.7927366758
  0
LINE
  5
308
100
AcDbEntity
  8
0
100
AcDbLine
 62
7
  6
CONTINUOUS
 10
5.6490930414
 20
3.0787366758
 11
5.6490930414
 21
2.7927366758
  0
LINE
  5
309
100
AcDbEntity
  8
0
100
AcDbLine
 62
7
  6
CONTINUOUS
 10
5.650522064
 20
3.0787366758
 11
5.650522064
 21
2.7927366758
  0
LINE
  5
30A
100
AcDbEntity
  8
0
100
AcDbLine
 62
7
  6
CONTINUOUS
 10
5.6543919988
 20
3.0787366758
 11
5.6543919988
 21
2.7927366758
  0
LINE
  5
30B
100
AcDbEntity
  8
0
100
AcDbLine
 62
7
  6
CONTINUOUS
 10
5.6560015337
 20
3.0787366758
 11
5.6560015337
 21
2.7927366758
  0
LINE
  5
30C
100
AcDbEntity
  8
0
100
AcDbLine
 62
7
  6
CONTINUOUS
 10
4.8901489938
 20
4.6740553574
 11
4.8301489938
 21
4.6740553574
  0
LINE
  5
30D
100
AcDbEntity
  8
0
100
AcDbLine
 62
7
  6
CONTINUOUS
 10
4.8901489938
 20
4.7602179943
 11
4.8301489938
 21
4.7602179943
  0
LINE
  5
30E
100
AcDbEntity
  8
0
100
AcDbLine
 62
7
  6
CONTINUOUS
 10
4.8261489938
 20
4.8371366758
 11
4.7541489938
 21
4.8371366758
  0
LINE
  5
30F
100
AcDbEntity
  8
0
100
AcDbLine
 62
7
  6
CONTINUOUS
 10
4.5421489938
 20
4.8371366758
 11
4.4948606216
 21
4.8371366758
  0
LINE
  5
310
100
AcDbEntity
  8
0
100
AcDbLine
 62
7
  6
CONTINUOUS
 10
4.8301489938
 20
4.8371366758
 11
5.3741489938
 21
4.8371366758
  0
LINE
  5
311
100
AcDbEntity
  8
0
100
AcDbLine
 62
7
  6
CONTINUOUS
 10
5.6603195331
 20
3.0787366758
 11
5.6603195331
 21
2.7927366758
  0
LINE
  5
312
100
AcDbEntity
  8
0
100
AcDbLine
 62
7
  6
CONTINUOUS
 10
5.6621003626
 20
3.0787366758
 11
5.6621003626
 21
2.7927366758
  0
LINE
  5
313
100
AcDbEntity
  8
0
100
AcDbLine
 62
7
  6
CONTINUOUS
 10
5.6665415687
 20
2.7876611025
 11
5.6665415687
 21
3.0838122492
  0
LINE
  5
314
100
AcDbEntity
  8
0
100
AcDbLine
 62
7
  6
CONTINUOUS
 10
5.6668416974
 20
3.0787366758
 11
5.6668416974
 21
2.7927366758
  0
LINE
  5
315
100
AcDbEntity
  8
0
100
AcDbLine
 62
7
  6
CONTINUOUS
 10
5.6687836227
 20
3.0787366758
 11
5.6687836227
 21
2.7927366758
  0
LINE
  5
316
100
AcDbEntity
  8
0
100
AcDbLine
 62
7
  6
CONTINUOUS
 10
5.6732799783
 20
2.7876611025
 11
5.6732799783
 21
3.0838122492
  0
LINE
  5
317
100
AcDbEntity
  8
0
100
AcDbLine
 62
7
  6
CONTINUOUS
 10
5.6739211394
 20
3.0787366758
 11
5.6739211394
 21
2.7927366758
  0
LINE
  5
318
100
AcDbEntity
  8
0
100
AcDbLine
 62
7
  6
CONTINUOUS
 10
5.676013039
 20
3.0787366758
 11
5.676013039
 21
2.7927366758
  0
LINE
  5
319
100
AcDbEntity
  8
0
100
AcDbLine
 62
7
  6
CONTINUOUS
 10
5.6805387936
 20
2.7876611025
 11
5.6805387936
 21
3.0838122492
  0
LINE
  5
31A
100
AcDbEntity
  8
0
100
AcDbLine
 62
7
  6
CONTINUOUS
 10
5.6815173151
 20
3.0787366758
 11
5.6815173151
 21
2.7927366758
  0
LINE
  5
31B
100
AcDbEntity
  8
0
100
AcDbLine
 62
7
  6
CONTINUOUS
 10
5.6837472088
 20
3.0787366758
 11
5.6837472088
 21
2.7927366758
  0
LINE
  5
31C
100
AcDbEntity
  8
0
100
AcDbLine
 62
7
  6
CONTINUOUS
 10
5.6882764435
 20
2.7876611025
 11
5.6882764435
 21
3.0838122492
  0
LINE
  5
31D
100
AcDbEntity
  8
0
100
AcDbLine
 62
7
  6
CONTINUOUS
 10
5.6895867213
 20
3.0787366758
 11
5.6895867213
 21
2.7927366758
  0
LINE
  5
31E
100
AcDbEntity
  8
0
100
AcDbLine
 62
7
  6
CONTINUOUS
 10
5.6919418386
 20
3.0787366758
 11
5.6919418386
 21
2.7927366758
  0
LINE
  5
31F
100
AcDbEntity
  8
0
100
AcDbLine
 62
7
  6
CONTINUOUS
 10
5.6964486145
 20
2.7876611025
 11
5.6964486145
 21
3.0838122492
  0
LINE
  5
320
100
AcDbEntity
  8
0
100
AcDbLine
 62
7
  6
CONTINUOUS
 10
5.6980831447
 20
3.0787366758
 11
5.6980831447
 21
2.7927366758
  0
LINE
  5
321
100
AcDbEntity
  8
0
100
AcDbLine
 62
7
  6
CONTINUOUS
 10
5.7005499979
 20
3.0787366758
 11
5.7005499979
 21
2.7927366758
  0
LINE
  5
322
100
AcDbEntity
  8
0
100
AcDbLine
 62
7
  6
CONTINUOUS
 10
5.7050085047
 20
2.7876611025
 11
5.7050085047
 21
3.0838122492
  0
LINE
  5
323
100
AcDbEntity
  8
0
100
AcDbLine
 62
7
  6
CONTINUOUS
 10
5.7069579264
 20
3.0787366758
 11
5.7069579264
 21
2.7927366758
  0
LINE
  5
324
100
AcDbEntity
  8
0
100
AcDbLine
 62
7
  6
CONTINUOUS
 10
5.7095223877
 20
3.0787366758
 11
5.7095223877
 21
2.7927366758
  0
LINE
  5
325
100
AcDbEntity
  8
0
100
AcDbLine
 62
7
  6
CONTINUOUS
 10
5.7139070917
 20
2.7876611025
 11
5.7139070917
 21
3.0838122492
  0
LINE
  5
326
100
AcDbEntity
  8
0
100
AcDbLine
 62
7
  6
CONTINUOUS
 10
5.7161602406
 20
3.0787366758
 11
5.7161602406
 21
2.7927366758
  0
LINE
  5
327
100
AcDbEntity
  8
0
100
AcDbLine
 62
7
  6
CONTINUOUS
 10
5.7188076234
 20
3.0787366758
 11
5.7188076234
 21
2.7927366758
  0
LINE
  5
328
100
AcDbEntity
  8
0
100
AcDbLine
 62
7
  6
CONTINUOUS
 10
5.7230934134
 20
2.7876611025
 11
5.7230934134
 21
3.0838122492
  0
LINE
  5
329
100
AcDbEntity
  8
0
100
AcDbLine
 62
7
  6
CONTINUOUS
 10
5.7256373858
 20
3.0787366758
 11
5.7256373858
 21
2.7927366758
  0
LINE
  5
32A
100
AcDbEntity
  8
0
100
AcDbLine
 62
7
  6
CONTINUOUS
 10
5.7283525286
 20
3.0787366758
 11
5.7283525286
 21
2.7927366758
  0
LINE
  5
32B
100
AcDbEntity
  8
0
100
AcDbLine
 62
7
  6
CONTINUOUS
 10
5.7325148599
 20
2.7876611025
 11
5.7325148599
 21
3.0838122492
  0
LINE
  5
32C
100
AcDbEntity
  8
0
100
AcDbLine
 62
7
  6
CONTINUOUS
 10
5.7353350864
 20
3.0787366758
 11
5.7353350864
 21
2.7927366758
  0
LINE
  5
32D
100
AcDbEntity
  8
0
100
AcDbLine
 62
7
  6
CONTINUOUS
 10
5.7381024397
 20
3.0787366758
 11
5.7381024397
 21
2.7927366758
  0
LINE
  5
32E
100
AcDbEntity
  8
0
100
AcDbLine
 62
7
  6
CONTINUOUS
 10
5.7421174747
 20
2.7876611025
 11
5.7421174747
 21
3.0838122492
  0
LINE
  5
32F
100
AcDbEntity
  8
0
100
AcDbLine
 62
7
  6
CONTINUOUS
 10
5.7451978039
 20
3.0787366758
 11
5.7451978039
 21
2.7927366758
  0
LINE
  5
330
100
AcDbEntity
  8
0
100
AcDbLine
 62
7
  6
CONTINUOUS
 10
5.748001519
 20
3.0787366758
 11
5.748001519
 21
2.7927366758
  0
LINE
  5
331
100
AcDbEntity
  8
0
100
AcDbLine
 62
7
  6
CONTINUOUS
 10
5.7518462637
 20
2.7876611025
 11
5.7518462637
 21
3.0838122492
  0
LINE
  5
332
100
AcDbEntity
  8
0
100
AcDbLine
 62
7
  6
CONTINUOUS
 10
5.7551690546
 20
3.0787366758
 11
5.7551690546
 21
2.7927366758
  0
LINE
  5
333
100
AcDbEntity
  8
0
100
AcDbLine
 62
7
  6
CONTINUOUS
 10
5.7579930748
 20
3.0787366758
 11
5.7579930748
 21
2.7927366758
  0
LINE
  5
334
100
AcDbEntity
  8
0
100
AcDbLine
 62
7
  6
CONTINUOUS
 10
5.7616455103
 20
2.7876611025
 11
5.7616455103
 21
3.0838122492
  0
LINE
  5
335
100
AcDbEntity
  8
0
100
AcDbLine
 62
7
  6
CONTINUOUS
 10
5.7651917334
 20
3.0787366758
 11
5.7651917334
 21
2.7927366758
  0
LINE
  5
336
100
AcDbEntity
  8
0
100
AcDbLine
 62
7
  6
CONTINUOUS
 10
5.7680198854
 20
3.0787366758
 11
5.7680198854
 21
2.7927366758
  0
LINE
  5
337
100
AcDbEntity
  8
0
100
AcDbLine
 62
7
  6
CONTINUOUS
 10
5.7714590943
 20
2.7876611025
 11
5.7714590943
 21
3.0838122492
  0
LINE
  5
338
100
AcDbEntity
  8
0
100
AcDbLine
 62
7
  6
CONTINUOUS
 10
5.7752084403
 20
3.0787366758
 11
5.7752084403
 21
2.7927366758
  0
LINE
  5
339
100
AcDbEntity
  8
0
100
AcDbLine
 62
7
  6
CONTINUOUS
 10
5.7780245274
 20
3.0787366758
 11
5.7780245274
 21
2.7927366758
  0
LINE
  5
33A
100
AcDbEntity
  8
0
100
AcDbLine
 62
7
  6
CONTINUOUS
 10
5.7812308134
 20
2.7876611025
 11
5.7812308134
 21
3.0838122492
  0
LINE
  5
33B
100
AcDbEntity
  8
0
100
AcDbLine
 62
7
  6
CONTINUOUS
 10
5.78516181
 20
3.0787366758
 11
5.78516181
 21
2.7927366758
  0
LINE
  5
33C
100
AcDbEntity
  8
0
100
AcDbLine
 62
7
  6
CONTINUOUS
 10
5.7879497044
 20
3.0787366758
 11
5.7879497044
 21
2.7927366758
  0
LINE
  5
33D
100
AcDbEntity
  8
0
100
AcDbLine
 62
7
  6
CONTINUOUS
 10
5.7909047052
 20
2.7876611025
 11
5.7909047052
 21
3.0838122492
  0
LINE
  5
33E
100
AcDbEntity
  8
0
100
AcDbLine
 62
7
  6
CONTINUOUS
 10
5.7949948396
 20
3.0787366758
 11
5.7949948396
 21
2.7927366758
  0
LINE
  5
33F
100
AcDbEntity
  8
0
100
AcDbLine
 62
7
  6
CONTINUOUS
 10
5.7977385751
 20
3.0787366758
 11
5.7977385751
 21
2.7927366758
  0
LINE
  5
340
100
AcDbEntity
  8
0
100
AcDbLine
 62
7
  6
CONTINUOUS
 10
5.8004253674
 20
2.7876611025
 11
5.8004253674
 21
3.0838122492
  0
LINE
  5
341
100
AcDbEntity
  8
0
100
AcDbLine
 62
7
  6
CONTINUOUS
 10
5.8046512153
 20
3.0787366758
 11
5.8046512153
 21
2.7927366758
  0
LINE
  5
342
100
AcDbEntity
  8
0
100
AcDbLine
 62
7
  6
CONTINUOUS
 10
5.8073350787
 20
3.0787366758
 11
5.8073350787
 21
2.7927366758
  0
LINE
  5
343
100
AcDbEntity
  8
0
100
AcDbLine
 62
7
  6
CONTINUOUS
 10
5.8097382752
 20
2.7876611025
 11
5.8097382752
 21
3.0838122492
  0
LINE
  5
344
100
AcDbEntity
  8
0
100
AcDbLine
 62
7
  6
CONTINUOUS
 10
5.8140756354
 20
3.0787366758
 11
5.8140756354
 21
2.7927366758
  0
LINE
  5
345
100
AcDbEntity
  8
0
100
AcDbLine
 62
7
  6
CONTINUOUS
 10
5.8166842562
 20
3.0787366758
 11
5.8166842562
 21
2.7927366758
  0
LINE
  5
346
100
AcDbEntity
  8
0
100
AcDbLine
 62
7
  6
CONTINUOUS
 10
5.8187900939
 20
2.7876611025
 11
5.8187900939
 21
3.0838122492
  0
LINE
  5
347
100
AcDbEntity
  8
0
100
AcDbLine
 62
7
  6
CONTINUOUS
 10
5.8232141263
 20
3.0787366758
 11
5.8232141263
 21
2.7927366758
  0
LINE
  5
348
100
AcDbEntity
  8
0
100
AcDbLine
 62
7
  6
CONTINUOUS
 10
5.8257325648
 20
3.0787366758
 11
5.8257325648
 21
2.7927366758
  0
LINE
  5
349
100
AcDbEntity
  8
0
100
AcDbLine
 62
7
  6
CONTINUOUS
 10
5.8275289836
 20
2.7876611025
 11
5.8275289836
 21
3.0838122492
  0
LINE
  5
34A
100
AcDbEntity
  8
0
100
AcDbLine
 62
7
  6
CONTINUOUS
 10
5.8320143519
 20
3.0787366758
 11
5.8320143519
 21
2.7927366758
  0
LINE
  5
34B
100
AcDbEntity
  8
0
100
AcDbLine
 62
7
  6
CONTINUOUS
 10
5.8344281852
 20
3.0787366758
 11
5.8344281852
 21
2.7927366758
  0
LINE
  5
34C
100
AcDbEntity
  8
0
100
AcDbLine
 62
7
  6
CONTINUOUS
 10
5.835904897
 20
2.7876611025
 11
5.835904897
 21
3.0838122492
  0
LINE
  5
34D
100
AcDbEntity
  8
0
100
AcDbLine
 62
7
  6
CONTINUOUS
 10
5.8404259134
 20
3.0787366758
 11
5.8404259134
 21
2.7927366758
  0
LINE
  5
34E
100
AcDbEntity
  8
0
100
AcDbLine
 62
7
  6
CONTINUOUS
 10
5.8427213175
 20
3.0787366758
 11
5.8427213175
 21
2.7927366758
  0
LINE
  5
34F
100
AcDbEntity
  8
0
100
AcDbLine
 62
7
  6
CONTINUOUS
 10
5.8438698652
 20
2.7876611025
 11
5.8438698652
 21
3.0838122492
  0
LINE
  5
350
100
AcDbEntity
  8
0
100
AcDbLine
 62
7
  6
CONTINUOUS
 10
5.8484006381
 20
3.0787366758
 11
5.8484006381
 21
2.7927366758
  0
LINE
  5
351
100
AcDbEntity
  8
0
100
AcDbLine
 62
7
  6
CONTINUOUS
 10
4.5541489938
 20
4.9291366758
 11
4.7421489938
 21
4.9291366758
  0
LINE
  5
352
100
AcDbEntity
  8
0
100
AcDbLine
 62
7
  6
CONTINUOUS
 10
5.8505644671
 20
3.0787366758
 11
5.8505644671
 21
2.7927366758
  0
LINE
  5
353
100
AcDbEntity
  8
0
100
AcDbLine
 62
7
  6
CONTINUOUS
 10
5.851378273
 20
2.7876611025
 11
5.851378273
 21
3.0838122492
  0
LINE
  5
354
100
AcDbEntity
  8
0
100
AcDbLine
 62
7
  6
CONTINUOUS
 10
5.8558928546
 20
3.0787366758
 11
5.8558928546
 21
2.7927366758
  0
LINE
  5
355
100
AcDbEntity
  8
0
100
AcDbLine
 62
7
  6
CONTINUOUS
 10
5.8579127165
 20
3.0787366758
 11
5.8579127165
 21
2.7927366758
  0
LINE
  5
356
100
AcDbEntity
  8
0
100
AcDbLine
 62
7
  6
CONTINUOUS
 10
5.8583871199
 20
2.7876611025
 11
5.8583871199
 21
3.0838122492
  0
LINE
  5
357
100
AcDbEntity
  8
0
100
AcDbLine
 62
7
  6
CONTINUOUS
 10
5.8628596553
 20
3.0787366758
 11
5.8628596553
 21
2.7927366758
  0
LINE
  5
358
100
AcDbEntity
  8
0
100
AcDbLine
 62
7
  6
CONTINUOUS
 10
5.8647239822
 20
3.0787366758
 11
5.8647239822
 21
2.7927366758
  0
LINE
  5
359
100
AcDbEntity
  8
0
100
AcDbLine
 62
7
  6
CONTINUOUS
 10
5.8648562663
 20
2.7876611025
 11
5.8648562663
 21
3.0838122492
  0
LINE
  5
35A
100
AcDbEntity
  8
0
100
AcDbLine
 62
7
  6
CONTINUOUS
 10
5.8692611412
 20
3.0787366758
 11
5.8692611412
 21
2.7927366758
  0
LINE
  5
35B
100
AcDbEntity
  8
0
100
AcDbLine
 62
7
  6
CONTINUOUS
 10
5.8709592563
 20
3.0787366758
 11
5.8709592563
 21
2.7927366758
  0
LINE
  5
35C
100
AcDbEntity
  8
0
100
AcDbLine
 62
7
  6
CONTINUOUS
 10
5.8750606513
 20
3.0787366758
 11
5.8750606513
 21
2.7927366758
  0
LINE
  5
35D
100
AcDbEntity
  8
0
100
AcDbLine
 62
7
  6
CONTINUOUS
 10
5.8765828293
 20
3.0787366758
 11
5.8765828293
 21
2.7927366758
  0
LINE
  5
35E
100
AcDbEntity
  8
0
100
AcDbLine
 62
7
  6
CONTINUOUS
 10
5.8802249717
 20
3.0787366758
 11
5.8802249717
 21
2.7927366758
  0
LINE
  5
35F
100
AcDbEntity
  8
0
100
AcDbLine
 62
7
  6
CONTINUOUS
 10
5.8815624953
 20
3.0787366758
 11
5.8815624953
 21
2.7927366758
  0
LINE
  5
360
100
AcDbEntity
  8
0
100
AcDbLine
 62
7
  6
CONTINUOUS
 10
5.8847245265
 20
3.0787366758
 11
5.8847245265
 21
2.7927366758
  0
LINE
  5
361
100
AcDbEntity
  8
0
100
AcDbLine
 62
7
  6
CONTINUOUS
 10
5.8858697356
 20
3.0787366758
 11
5.8858697356
 21
2.7927366758
  0
LINE
  5
362
100
AcDbEntity
  8
0
100
AcDbLine
 62
7
  6
CONTINUOUS
 10
5.8885335468
 20
3.0787366758
 11
5.8885335468
 21
2.7927366758
  0
LINE
  5
363
100
AcDbEntity
  8
0
100
AcDbLine
 62
7
  6
CONTINUOUS
 10
5.8894798828
 20
3.0787366758
 11
5.8894798828
 21
2.7927366758
  0
LINE
  5
364
100
AcDbEntity
  8
0
100
AcDbLine
 62
7
  6
CONTINUOUS
 10
5.8916302183
 20
3.0787366758
 11
5.8916302183
 21
2.7927366758
  0
LINE
  5
365
100
AcDbEntity
  8
0
100
AcDbLine
 62
7
  6
CONTINUOUS
 10
5.8923722616
 20
3.0787366758
 11
5.8923722616
 21
2.7927366758
  0
LINE
  5
366
100
AcDbEntity
  8
0
100
AcDbLine
 62
7
  6
CONTINUOUS
 10
5.8938491049
 20
2.9627366758
 11
5.8938491049
 21
3.0787366758
  0
LINE
  5
367
100
AcDbEntity
  8
0
100
AcDbLine
 62
7
  6
CONTINUOUS
 10
5.8939968066
 20
2.9627366758
 11
5.8939968066
 21
2.7927366758
  0
LINE
  5
368
100
AcDbEntity
  8
0
100
AcDbLine
 62
7
  6
CONTINUOUS
 10
5.8945303075
 20
2.9627366758
 11
5.8945303075
 21
2.7927366758
  0
LINE
  5
369
100
AcDbEntity
  8
0
100
AcDbLine
 62
7
  6
CONTINUOUS
 10
5.8946374991
 20
2.0721366758
 11
5.8946374991
 21
2.0151366758
  0
LINE
  5
36A
100
AcDbEntity
  8
0
100
AcDbLine
 62
7
  6
CONTINUOUS
 10
5.895619758
 20
2.9627366758
 11
5.895619758
 21
2.7927366758
  0
LINE
  5
36B
100
AcDbEntity
  8
0
100
AcDbLine
 62
7
  6
CONTINUOUS
 10
5.8959416612
 20
2.9627366758
 11
5.8959416612
 21
2.7927366758
  0
LINE
  5
36C
100
AcDbEntity
  8
0
100
AcDbLine
 62
7
  6
CONTINUOUS
 10
5.8964897781
 20
2.9627366758
 11
5.8964897781
 21
2.7927366758
  0
LINE
  5
36D
100
AcDbEntity
  8
0
100
AcDbLine
 62
7
  6
CONTINUOUS
 10
5.8966000791
 20
2.9627366758
 11
5.8966000791
 21
2.7927366758
  0
LINE
  5
36E
100
AcDbEntity
  8
0
100
AcDbLine
 62
7
  6
CONTINUOUS
 10
5.8966489938
 20
2.7831366758
 11
5.8966489938
 21
2.0951366758
  0
LINE
  5
36F
100
AcDbEntity
  8
0
100
AcDbLine
 62
7
  6
CONTINUOUS
 10
6.0599441262
 20
1.9465599833
 11
6.0599441262
 21
1.9011366758
  0
LINE
  5
370
100
AcDbEntity
  8
0
100
AcDbLine
 62
7
  6
CONTINUOUS
 10
6.3841489938
 20
2.9627366758
 11
6.3841489938
 21
3.0857366758
  0
LINE
  5
371
100
AcDbEntity
  8
0
100
AcDbLine
 62
7
  6
CONTINUOUS
 10
6.3901489938
 20
3.0797366758
 11
6.3901489938
 21
2.9687366758
  0
LINE
  5
372
100
AcDbEntity
  8
0
100
AcDbLine
 62
7
  6
CONTINUOUS
 10
4.6481489938
 20
6.8811366758
 11
4.7581489938
 21
6.7511366756
  0
LINE
  5
373
100
AcDbEntity
  8
0
100
AcDbLine
 62
7
  6
CONTINUOUS
 10
4.6481489938
 20
6.8811366758
 11
4.778148994
 21
6.7711366759
  0
LINE
  5
374
100
AcDbEntity
  8
0
100
AcDbLine
 62
7
  6
CONTINUOUS
 10
4.5381489938
 20
6.6111366758
 11
4.7581489938
 21
6.6111366758
  0
LINE
  5
375
100
AcDbEntity
  8
0
100
AcDbLine
 62
7
  6
CONTINUOUS
 10
4.8181489938
 20
6.7711366758
 11
4.7781489938
 21
6.7711366758
  0
LINE
  5
376
100
AcDbEntity
  8
0
100
AcDbLine
 62
7
  6
CONTINUOUS
 10
4.8181489938
 20
6.7886366758
 11
4.8551489938
 21
6.7886366758
  0
LINE
  5
377
100
AcDbEntity
  8
0
100
AcDbLine
 62
7
  6
CONTINUOUS
 10
4.8891489938
 20
6.8078866758
 11
4.8907489938
 21
6.8078866758
  0
LINE
  5
378
100
AcDbEntity
  8
0
100
AcDbLine
 62
7
  6
CONTINUOUS
 10
4.8891489938
 20
6.9543866758
 11
4.8907489938
 21
6.9543866758
  0
LINE
  5
379
100
AcDbEntity
  8
0
100
AcDbLine
 62
7
  6
CONTINUOUS
 10
4.8181489938
 20
6.9736366758
 11
4.8551489938
 21
6.9736366758
  0
LINE
  5
37A
100
AcDbEntity
  8
0
100
AcDbLine
 62
7
  6
CONTINUOUS
 10
4.8181489938
 20
6.9911366758
 11
4.7781489938
 21
6.9911366758
  0
LINE
  5
37B
100
AcDbEntity
  8
0
100
AcDbLine
 62
7
  6
CONTINUOUS
 10
4.5381489938
 20
7.0311366758
 11
4.7581489938
 21
7.0311366758
  0
LINE
  5
37C
100
AcDbEntity
  8
0
100
AcDbLine
 62
7
  6
CONTINUOUS
 10
4.5441489938
 20
7.0351366758
 11
4.7521489938
 21
7.0351366758
  0
LINE
  5
37D
100
AcDbEntity
  8
0
100
AcDbLine
 62
7
  6
CONTINUOUS
 10
4.5384836535
 20
7.0411366758
 11
4.5387389154
 21
7.0411366758
  0
LINE
  5
37E
100
AcDbEntity
  8
0
100
AcDbLine
 62
7
  6
CONTINUOUS
 10
4.5397175615
 20
7.0411366758
 11
4.5402266336
 21
7.0411366758
  0
LINE
  5
37F
100
AcDbEntity
  8
0
100
AcDbLine
 62
7
  6
CONTINUOUS
 10
4.5418498318
 20
7.0411366758
 11
4.5426084964
 21
7.0411366758
  0
LINE
  5
380
100
AcDbEntity
  8
0
100
AcDbLine
 62
7
  6
CONTINUOUS
 10
4.5448627985
 20
7.0411366758
 11
4.54586477
 21
7.0411366758
  0
LINE
  5
381
100
AcDbEntity
  8
0
100
AcDbLine
 62
7
  6
CONTINUOUS
 10
4.5487314988
 20
7.0411366758
 11
4.5499684758
 21
7.0411366758
  0
LINE
  5
382
100
AcDbEntity
  8
0
100
AcDbLine
 62
7
  6
CONTINUOUS
 10
4.5534238803
 20
7.0411366758
 11
4.5548856144
 21
7.0411366758
  0
LINE
  5
383
100
AcDbEntity
  8
0
100
AcDbLine
 62
7
  6
CONTINUOUS
 10
4.5589010662
 20
7.0411366758
 11
4.5605754468
 21
7.0411366758
  0
LINE
  5
384
100
AcDbEntity
  8
0
100
AcDbLine
 62
7
  6
CONTINUOUS
 10
4.5651176778
 20
7.0411366758
 11
4.5669908325
 21
7.0411366758
  0
LINE
  5
385
100
AcDbEntity
  8
0
100
AcDbLine
 62
7
  6
CONTINUOUS
 10
4.5720222098
 20
7.0411366758
 11
4.5740786194
 21
7.0411366758
  0
LINE
  5
386
100
AcDbEntity
  8
0
100
AcDbLine
 62
7
  6
CONTINUOUS
 10
4.5795574578
 20
7.0411366758
 11
4.5817800848
 21
7.0411366758
  0
LINE
  5
387
100
AcDbEntity
  8
0
100
AcDbLine
 62
7
  6
CONTINUOUS
 10
4.5876609917
 20
7.0411366758
 11
4.5900314215
 21
7.0411366758
  0
LINE
  5
388
100
AcDbEntity
  8
0
100
AcDbLine
 62
7
  6
CONTINUOUS
 10
4.5962656731
 20
7.0411366758
 11
4.5987642665
 21
7.0411366758
  0
LINE
  5
389
100
AcDbEntity
  8
0
100
AcDbLine
 62
7
  6
CONTINUOUS
 10
4.6053002116
 20
7.0411366758
 11
4.6079062675
 21
7.0411366758
  0
LINE
  5
38A
100
AcDbEntity
  8
0
100
AcDbLine
 62
7
  6
CONTINUOUS
 10
4.6146897554
 20
7.0411366758
 11
4.6173816825
 21
7.0411366758
  0
LINE
  5
38B
100
AcDbEntity
  8
0
100
AcDbLine
 62
7
  6
CONTINUOUS
 10
4.6243565114
 20
7.0411366758
 11
4.6271120069
 21
7.0411366758
  0
LINE
  5
38C
100
AcDbEntity
  8
0
100
AcDbLine
 62
7
  6
CONTINUOUS
 10
4.6342203898
 20
7.0411366758
 11
4.6370166242
 21
7.0411366758
  0
LINE
  5
38D
100
AcDbEntity
  8
0
100
AcDbLine
 62
7
  6
CONTINUOUS
 10
4.6441996678
 20
7.0411366758
 11
4.6470134741
 21
7.0411366758
  0
LINE
  5
38E
100
AcDbEntity
  8
0
100
AcDbLine
 62
7
  6
CONTINUOUS
 10
4.6542116662
 20
7.0411366758
 11
4.6570197318
 21
7.0411366758
  0
LINE
  5
38F
100
AcDbEntity
  8
0
100
AcDbLine
 62
7
  6
CONTINUOUS
 10
4.6641734349
 20
7.0411366758
 11
4.6669524948
 21
7.0411366758
  0
LINE
  5
390
100
AcDbEntity
  8
0
100
AcDbLine
 62
7
  6
CONTINUOUS
 10
4.67400244
 20
7.0411366758
 11
4.6767294694
 21
7.0411366758
  0
LINE
  5
391
100
AcDbEntity
  8
0
100
AcDbLine
 62
7
  6
CONTINUOUS
 10
4.6836172473
 20
7.0411366758
 11
4.6862696527
 21
7.0411366758
  0
LINE
  5
392
100
AcDbEntity
  8
0
100
AcDbLine
 62
7
  6
CONTINUOUS
 10
4.6929381977
 20
7.0411366758
 11
4.6954940036
 21
7.0411366758
  0
LINE
  5
393
100
AcDbEntity
  8
0
100
AcDbLine
 62
7
  6
CONTINUOUS
 10
4.7018880661
 20
7.0411366758
 11
4.7043260976
 21
7.0411366758
  0
LINE
  5
394
100
AcDbEntity
  8
0
100
AcDbLine
 62
7
  6
CONTINUOUS
 10
4.7103927025
 20
7.0411366758
 11
4.7126927602
 21
7.0411366758
  0
LINE
  5
395
100
AcDbEntity
  8
0
100
AcDbLine
 62
7
  6
CONTINUOUS
 10
4.7183816452
 20
7.0411366758
 11
4.720524673
 21
7.0411366758
  0
LINE
  5
396
100
AcDbEntity
  8
0
100
AcDbLine
 62
7
  6
CONTINUOUS
 10
4.7257887053
 20
7.0411366758
 11
4.727756948
 21
7.0411366758
  0
LINE
  5
397
100
AcDbEntity
  8
0
100
AcDbLine
 62
7
  6
CONTINUOUS
 10
4.7325525146
 20
7.0411366758
 11
4.7343296653
 21
7.0411366758
  0
LINE
  5
398
100
AcDbEntity
  8
0
100
AcDbLine
 62
7
  6
CONTINUOUS
 10
4.7386170347
 20
7.0411366758
 11
4.7401883695
 21
7.0411366758
  0
LINE
  5
399
100
AcDbEntity
  8
0
100
AcDbLine
 62
7
  6
CONTINUOUS
 10
4.7439320205
 20
7.0411366758
 11
4.7452845207
 21
7.0411366758
  0
LINE
  5
39A
100
AcDbEntity
  8
0
100
AcDbLine
 62
7
  6
CONTINUOUS
 10
4.7484534369
 20
7.0411366758
 11
4.749575897
 21
7.0411366758
  0
LINE
  5
39B
100
AcDbEntity
  8
0
100
AcDbLine
 62
7
  6
CONTINUOUS
 10
4.7579589414
 20
7.0411366758
 11
4.7580900689
 21
7.0411366758
  0
LINE
  5
39C
100
AcDbEntity
  8
0
100
AcDbLine
 62
7
  6
CONTINUOUS
 10
4.7521438236
 20
7.0411366758
 11
4.753026944
 21
7.0411366758
  0
LINE
  5
39D
100
AcDbEntity
  8
0
100
AcDbLine
 62
7
  6
CONTINUOUS
 10
4.7549726057
 20
7.0411366758
 11
4.7556090696
 21
7.0411366758
  0
LINE
  5
39E
100
AcDbEntity
  8
0
100
AcDbLine
 62
7
  6
CONTINUOUS
 10
4.7569163463
 20
7.0411366758
 11
4.7573008806
 21
7.0411366758
  0
LINE
  5
39F
100
AcDbEntity
  8
0
100
AcDbLine
 62
7
  6
CONTINUOUS
 10
4.5418498318
 20
7.2411366758
 11
4.5381576676
 21
7.2411366758
  0
LINE
  5
3A0
100
AcDbEntity
  8
0
100
AcDbLine
 62
7
  6
CONTINUOUS
 10
4.7546323918
 20
7.2411366758
 11
5.2321489938
 21
7.2411366758
  0
LINE
  5
3A1
100
AcDbEntity
  8
0
100
AcDbLine
 62
7
  6
CONTINUOUS
 10
5.2381489938
 20
7.2471366758
 11
4.7546323918
 21
7.2471366758
  0
LINE
  5
3A2
100
AcDbEntity
  8
0
100
AcDbLine
 62
7
  6
CONTINUOUS
 10
4.5381489938
 20
7.2471366758
 11
4.5418498318
 21
7.2471366758
  0
LINE
  5
3A3
100
AcDbEntity
  8
0
100
AcDbLine
 62
7
  6
CONTINUOUS
 10
4.5418498318
 20
7.3341366758
 11
4.5426084964
 21
7.3341366758
  0
LINE
  5
3A4
100
AcDbEntity
  8
0
100
AcDbLine
 62
7
  6
CONTINUOUS
 10
4.5448627985
 20
7.3341366758
 11
4.54586477
 21
7.3341366758
  0
LINE
  5
3A5
100
AcDbEntity
  8
0
100
AcDbLine
 62
7
  6
CONTINUOUS
 10
4.5487314988
 20
7.3341366758
 11
4.5499684758
 21
7.3341366758
  0
LINE
  5
3A6
100
AcDbEntity
  8
0
100
AcDbLine
 62
7
  6
CONTINUOUS
 10
4.5534238803
 20
7.3341366758
 11
4.5548856144
 21
7.3341366758
  0
LINE
  5
3A7
100
AcDbEntity
  8
0
100
AcDbLine
 62
7
  6
CONTINUOUS
 10
4.5589010662
 20
7.3341366758
 11
4.5605754468
 21
7.3341366758
  0
LINE
  5
3A8
100
AcDbEntity
  8
0
100
AcDbLine
 62
7
  6
CONTINUOUS
 10
4.5651176778
 20
7.3341366758
 11
4.5669908325
 21
7.3341366758
  0
LINE
  5
3A9
100
AcDbEntity
  8
0
100
AcDbLine
 62
7
  6
CONTINUOUS
 10
4.5720222098
 20
7.3341366758
 11
4.5740786194
 21
7.3341366758
  0
LINE
  5
3AA
100
AcDbEntity
  8
0
100
AcDbLine
 62
7
  6
CONTINUOUS
 10
4.5795574578
 20
7.3341366758
 11
4.5817800848
 21
7.3341366758
  0
LINE
  5
3AB
100
AcDbEntity
  8
0
100
AcDbLine
 62
7
  6
CONTINUOUS
 10
4.5876609917
 20
7.3341366758
 11
4.5900314215
 21
7.3341366758
  0
LINE
  5
3AC
100
AcDbEntity
  8
0
100
AcDbLine
 62
7
  6
CONTINUOUS
 10
4.5962656731
 20
7.3341366758
 11
4.5987642665
 21
7.3341366758
  0
LINE
  5
3AD
100
AcDbEntity
  8
0
100
AcDbLine
 62
7
  6
CONTINUOUS
 10
4.6053002116
 20
7.3341366758
 11
4.6079062675
 21
7.3341366758
  0
LINE
  5
3AE
100
AcDbEntity
  8
0
100
AcDbLine
 62
7
  6
CONTINUOUS
 10
4.6146897554
 20
7.3341366758
 11
4.6173816825
 21
7.3341366758
  0
LINE
  5
3AF
100
AcDbEntity
  8
0
100
AcDbLine
 62
7
  6
CONTINUOUS
 10
4.6243565114
 20
7.3341366758
 11
4.6271120069
 21
7.3341366758
  0
LINE
  5
3B0
100
AcDbEntity
  8
0
100
AcDbLine
 62
7
  6
CONTINUOUS
 10
4.6342203898
 20
7.3341366758
 11
4.6370166242
 21
7.3341366758
  0
LINE
  5
3B1
100
AcDbEntity
  8
0
100
AcDbLine
 62
7
  6
CONTINUOUS
 10
4.6441996678
 20
7.3341366758
 11
4.6470134741
 21
7.3341366758
  0
LINE
  5
3B2
100
AcDbEntity
  8
0
100
AcDbLine
 62
7
  6
CONTINUOUS
 10
4.6542116662
 20
7.3341366758
 11
4.6570197318
 21
7.3341366758
  0
LINE
  5
3B3
100
AcDbEntity
  8
0
100
AcDbLine
 62
7
  6
CONTINUOUS
 10
4.6641734349
 20
7.3341366758
 11
4.6669524948
 21
7.3341366758
  0
LINE
  5
3B4
100
AcDbEntity
  8
0
100
AcDbLine
 62
7
  6
CONTINUOUS
 10
4.67400244
 20
7.3341366758
 11
4.6767294694
 21
7.3341366758
  0
LINE
  5
3B5
100
AcDbEntity
  8
0
100
AcDbLine
 62
7
  6
CONTINUOUS
 10
4.6836172473
 20
7.3341366758
 11
4.6862696527
 21
7.3341366758
  0
LINE
  5
3B6
100
AcDbEntity
  8
0
100
AcDbLine
 62
7
  6
CONTINUOUS
 10
4.6929381977
 20
7.3341366758
 11
4.6954940036
 21
7.3341366758
  0
LINE
  5
3B7
100
AcDbEntity
  8
0
100
AcDbLine
 62
7
  6
CONTINUOUS
 10
4.7018880661
 20
7.3341366758
 11
4.7043260976
 21
7.3341366758
  0
LINE
  5
3B8
100
AcDbEntity
  8
0
100
AcDbLine
 62
7
  6
CONTINUOUS
 10
4.7103927025
 20
7.3341366758
 11
4.7126927602
 21
7.3341366758
  0
LINE
  5
3B9
100
AcDbEntity
  8
0
100
AcDbLine
 62
7
  6
CONTINUOUS
 10
4.7183816452
 20
7.3341366758
 11
4.720524673
 21
7.3341366758
  0
LINE
  5
3BA
100
AcDbEntity
  8
0
100
AcDbLine
 62
7
  6
CONTINUOUS
 10
4.7257887053
 20
7.3341366758
 11
4.727756948
 21
7.3341366758
  0
LINE
  5
3BB
100
AcDbEntity
  8
0
100
AcDbLine
 62
7
  6
CONTINUOUS
 10
4.7325525146
 20
7.3341366758
 11
4.7343296653
 21
7.3341366758
  0
LINE
  5
3BC
100
AcDbEntity
  8
0
100
AcDbLine
 62
7
  6
CONTINUOUS
 10
4.7386170347
 20
7.3341366758
 11
4.7401883695
 21
7.3341366758
  0
LINE
  5
3BD
100
AcDbEntity
  8
0
100
AcDbLine
 62
7
  6
CONTINUOUS
 10
4.7439320205
 20
7.3341366758
 11
4.7452845207
 21
7.3341366758
  0
LINE
  5
3BE
100
AcDbEntity
  8
0
100
AcDbLine
 62
7
  6
CONTINUOUS
 10
4.7484534369
 20
7.3341366758
 11
4.749575897
 21
7.3341366758
  0
LINE
  5
3BF
100
AcDbEntity
  8
0
100
AcDbLine
 62
7
  6
CONTINUOUS
 10
4.7521438236
 20
7.3341366758
 11
4.753026944
 21
7.3341366758
  0
LINE
  5
3C0
100
AcDbEntity
  8
0
100
AcDbLine
 62
7
  6
CONTINUOUS
 10
4.5381489938
 20
7.3351366758
 11
4.5419057888
 21
7.3351366758
  0
LINE
  5
3C1
100
AcDbEntity
  8
0
100
AcDbLine
 62
7
  6
CONTINUOUS
 10
4.7545184459
 20
7.3351366758
 11
5.2381489938
 21
7.3351366758
  0
LINE
  5
3C2
100
AcDbEntity
  8
0
100
AcDbLine
 62
7
  6
CONTINUOUS
 10
4.5493575468
 20
7.3401366758
 11
4.7469404408
 21
7.3401366758
  0
LINE
  5
3C3
100
AcDbEntity
  8
0
100
AcDbLine
 62
7
  6
CONTINUOUS
 10
4.5441489938
 20
7.3411366758
 11
5.2321489938
 21
7.3411366758
  0
ARC
  5
3C4
100
AcDbEntity
  8
0
100
AcDbCircle
 62
7
  6
CONTINUOUS
 10
5.3515960994
 20
2.3857257058
 40
0.45
100
AcDbArc
 50
285.6170020124
 51
296.4732497958
  0
ARC
  5
3C5
100
AcDbEntity
  8
0
100
AcDbCircle
 62
7
  6
CONTINUOUS
 10
5.1141490367
 20
2.7351366374
 40
0.0119999951
100
AcDbArc
 50
269.9997952668
 51
0.0001832878
  0
ARC
  5
3C6
100
AcDbEntity
  8
0
100
AcDbCircle
 62
7
  6
CONTINUOUS
 10
5.3261489509
 20
2.7351366374
 40
0.0119999951
100
AcDbArc
 50
179.9998164416
 51
270.0002046968
  0
ARC
  5
3C7
100
AcDbEntity
  8
0
100
AcDbCircle
 62
7
  6
CONTINUOUS
 10
5.3261489509
 20
4.5851367143
 40
0.0119999951
100
AcDbArc
 50
89.9997949985
 51
180.0001835345
  0
ARC
  5
3C8
100
AcDbEntity
  8
0
100
AcDbCircle
 62
7
  6
CONTINUOUS
 10
5.1141490367
 20
4.5851367143
 40
0.0119999951
100
AcDbArc
 50
359.9998161966
 51
90.000204963
  0
ARC
  5
3C9
100
AcDbEntity
  8
0
100
AcDbCircle
 62
7
  6
CONTINUOUS
 10
5.0668606216
 20
2.4871366758
 40
0.004
100
AcDbArc
 50
180.0
 51
270.0
  0
ARC
  5
3CA
100
AcDbEntity
  8
0
100
AcDbCircle
 62
7
  6
CONTINUOUS
 10
5.0668606216
 20
2.7191366758
 40
0.004
100
AcDbArc
 50
90.0
 51
180.0
  0
ARC
  5
3CB
100
AcDbEntity
  8
0
100
AcDbCircle
 62
7
  6
CONTINUOUS
 10
5.3741489938
 20
4.6011366758
 40
0.004
100
AcDbArc
 50
270.0
 51
360.0
  0
ARC
  5
3CC
100
AcDbEntity
  8
0
100
AcDbCircle
 62
7
  6
CONTINUOUS
 10
4.4948606216
 20
4.6011366758
 40
0.004
100
AcDbArc
 50
180.0
 51
270.0
  0
ARC
  5
3CD
100
AcDbEntity
  8
0
100
AcDbCircle
 62
7
  6
CONTINUOUS
 10
4.8551489938
 20
6.8686366758
 40
0.08
100
AcDbArc
 50
270.0
 51
294.220943109
  0
ARC
  5
3CE
100
AcDbEntity
  8
0
100
AcDbCircle
 62
7
  6
CONTINUOUS
 10
4.8551489938
 20
6.8936366758
 40
0.08
100
AcDbArc
 50
65.779056891
 51
90.0
  0
ARC
  5
3CF
100
AcDbEntity
  8
0
100
AcDbCircle
 62
7
  6
CONTINUOUS
 10
4.7781489245
 20
6.7511367451
 40
0.0199999893
100
AcDbArc
 50
89.9998015311
 51
180.0001984689
  0
ARC
  5
3D0
100
AcDbEntity
  8
0
100
AcDbCircle
 62
7
  6
CONTINUOUS
 10
4.7781489246
 20
7.0111366066
 40
0.0199999893
100
AcDbArc
 50
179.9998015829
 51
270.0001984171
  0
ARC
  5
3D1
100
AcDbEntity
  8
0
100
AcDbCircle
 62
7
  6
CONTINUOUS
 10
4.5421490367
 20
4.8491366374
 40
0.0119999951
100
AcDbArc
 50
269.9997952668
 51
0.0001832878
  0
ARC
  5
3D2
100
AcDbEntity
  8
0
100
AcDbCircle
 62
7
  6
CONTINUOUS
 10
4.7541489509
 20
4.8491366374
 40
0.0119999951
100
AcDbArc
 50
179.9998164416
 51
270.0002046968
  0
ARC
  5
3D3
100
AcDbEntity
  8
0
100
AcDbCircle
 62
7
  6
CONTINUOUS
 10
4.7521489938
 20
7.0411366758
 40
0.006
100
AcDbArc
 50
270.0
 51
302.2185520146
  0
ARC
  5
3D4
100
AcDbEntity
  8
0
100
AcDbCircle
 62
7
  6
CONTINUOUS
 10
4.5441489938
 20
7.0411366758
 40
0.006
100
AcDbArc
 50
235.3846153846
 51
270.0
  0
ARC
  5
3D5
100
AcDbEntity
  8
0
100
AcDbCircle
 62
7
  6
CONTINUOUS
 10
5.2321489938
 20
7.3351366758
 40
0.006
100
AcDbArc
 50
0.0
 51
90.0
  0
ARC
  5
3D6
100
AcDbEntity
  8
0
100
AcDbCircle
 62
7
  6
CONTINUOUS
 10
5.2321489938
 20
7.2471366758
 40
0.006
100
AcDbArc
 50
270.0
 51
360.0
  0
ARC
  5
3D7
100
AcDbEntity
  8
0
100
AcDbCircle
 62
7
  6
CONTINUOUS
 10
4.5441489938
 20
7.2471366758
 40
0.006
100
AcDbArc
 50
180.0
 51
247.4334082333
  0
ARC
  5
3D8
100
AcDbEntity
  8
0
100
AcDbCircle
 62
7
  6
CONTINUOUS
 10
4.5441489938
 20
7.3351366758
 40
0.006
100
AcDbArc
 50
90.0
 51
180.0
  0
ARC
  5
3D9
100
AcDbEntity
  8
0
100
AcDbCircle
 62
7
  6
CONTINUOUS
 10
4.7522756706
 20
7.0409364759
 40
0.005763089
100
AcDbArc
 50
302.2142321843
 51
309.7449357436
  0
ARC
  5
3DA
100
AcDbEntity
  8
0
100
AcDbCircle
 62
7
  6
CONTINUOUS
 10
5.3741489938
 20
4.8331366758
 40
0.004
100
AcDbArc
 50
0.0
 51
90.0
  0
ARC
  5
3DB
100
AcDbEntity
  8
0
100
AcDbCircle
 62
7
  6
CONTINUOUS
 10
4.4948606216
 20
4.8331366758
 40
0.004
100
AcDbArc
 50
90.0
 51
180.0
  0
ARC
  5
3DC
100
AcDbEntity
  8
0
100
AcDbCircle
 62
7
  6
CONTINUOUS
 10
4.8871489938
 20
6.7975029988
 40
0.002
100
AcDbArc
 50
294.220943109
 51
360.0
  0
ARC
  5
3DD
100
AcDbEntity
  8
0
100
AcDbCircle
 62
7
  6
CONTINUOUS
 10
4.8871489938
 20
6.9647703528
 40
0.002
100
AcDbArc
 50
0.0
 51
65.779056891
  0
ARC
  5
3DE
100
AcDbEntity
  8
0
100
AcDbCircle
 62
7
  6
CONTINUOUS
 10
6.1767018883
 20
2.3857257058
 40
0.45
100
AcDbArc
 50
243.5267502042
 51
254.3829979876
  0
ARC
  5
3DF
100
AcDbEntity
  8
0
100
AcDbCircle
 62
7
  6
CONTINUOUS
 10
5.5361489938
 20
2.0151366758
 40
0.036
100
AcDbArc
 50
296.4732497958
 51
351.7867892983
  0
ARC
  5
3E0
100
AcDbEntity
  8
0
100
AcDbCircle
 62
7
  6
CONTINUOUS
 10
5.9921489938
 20
2.0151366758
 40
0.036
100
AcDbArc
 50
188.2132107017
 51
243.5267502042
  0
ARC
  5
3E1
100
AcDbEntity
  8
0
100
AcDbCircle
 62
7
  6
CONTINUOUS
 10
5.5777182132
 20
2.0091366758
 40
0.006
100
AcDbArc
 50
90.0
 51
171.7867892983
  0
ARC
  5
3E2
100
AcDbEntity
  8
0
100
AcDbCircle
 62
7
  6
CONTINUOUS
 10
5.9505797744
 20
2.0091366758
 40
0.006
100
AcDbArc
 50
8.2132107017
 51
90.0
  0
ARC
  5
3E3
100
AcDbEntity
  8
0
100
AcDbCircle
 62
7
  6
CONTINUOUS
 10
5.4743538615
 20
1.9465599833
 40
0.006
100
AcDbArc
 50
105.6170020121
 51
180.0
  0
ARC
  5
3E4
100
AcDbEntity
  8
0
100
AcDbCircle
 62
7
  6
CONTINUOUS
 10
6.0539441262
 20
1.9465599833
 40
0.006
100
AcDbArc
 50
0.0
 51
74.3829979879
  0
ARC
  5
3E5
100
AcDbEntity
  8
0
100
AcDbCircle
 62
7
  6
CONTINUOUS
 10
5.8906489938
 20
2.7927366758
 40
0.006
100
AcDbArc
 50
270.0
 51
302.228403776
  0
ARC
  5
3E6
100
AcDbEntity
  8
0
100
AcDbCircle
 62
7
  6
CONTINUOUS
 10
5.6376489938
 20
2.7927366758
 40
0.006
100
AcDbArc
 50
235.3846153846
 51
270.0
  0
ARC
  5
3E7
100
AcDbEntity
  8
0
100
AcDbCircle
 62
7
  6
CONTINUOUS
 10
5.6371489938
 20
3.0797366758
 40
0.006
100
AcDbArc
 50
90.0
 51
180.0
  0
ARC
  5
3E8
100
AcDbEntity
  8
0
100
AcDbCircle
 62
7
  6
CONTINUOUS
 10
5.6371489938
 20
2.9687366758
 40
0.006
100
AcDbArc
 50
180.0
 51
246.2032063907
  0
ARC
  5
3E9
100
AcDbEntity
  8
0
100
AcDbCircle
 62
7
  6
CONTINUOUS
 10
6.3841489938
 20
2.9687366758
 40
0.006
100
AcDbArc
 50
270.0
 51
360.0
  0
ARC
  5
3EA
100
AcDbEntity
  8
0
100
AcDbCircle
 62
7
  6
CONTINUOUS
 10
6.3841489938
 20
3.0797366758
 40
0.006
100
AcDbArc
 50
0.0
 51
90.0
  0
ARC
  5
3EB
100
AcDbEntity
  8
0
100
AcDbCircle
 62
7
  6
CONTINUOUS
 10
5.8907543152
 20
2.7925703655
 40
0.0058031459
100
AcDbArc
 50
302.2244370666
 51
309.7329944096
  0
ARC
  5
3EC
100
AcDbEntity
  8
0
100
AcDbCircle
 62
7
  6
CONTINUOUS
 10
5.8876474749
 20
3.0807578021
 40
0.0041838019
100
AcDbArc
 50
45.9131613655
 51
46.9372251108
  0
SPLINE
  5
3ED
100
AcDbEntity
  8
0
100
AcDbSpline
 62
7
  6
CONTINUOUS
 70
0
 71
3
 72
11
 73
7
 74
0
 42
0.0000001
 43
0.0000001
 44
0.0000000001
 40
0.0
 40
0.0
 40
0.0
 40
0.0
 40
0.3814572894
 40
0.7053152106
 40
0.9230166112
 40
1.0
 40
1.0
 40
1.0
 40
1.0
 10
5.8946374991
 20
2.0721366758
 30
0.0
 10
5.8946374991
 20
2.0750756101
 30
0.0
 10
5.894821677
 20
2.0805115808
 30
0.0
 10
5.895501024
 20
2.0875939146
 30
0.0
 10
5.8961731893
 20
2.0923129195
 30
0.0
 10
5.8965475519
 20
2.0945523055
 30
0.0
 10
5.8966489938
 20
2.0951366758
 30
0.0
  0
SPLINE
  5
3EE
100
AcDbEntity
  8
0
100
AcDbSpline
 62
7
  6
CONTINUOUS
 70
0
 71
3
 72
11
 73
7
 74
0
 42
0.0000001
 43
0.0000001
 44
0.0000000001
 40
0.0
 40
0.0
 40
0.0
 40
0.0
 40
0.2967795591
 40
0.5624790094
 40
0.793888069
 40
1.0
 40
1.0
 40
1.0
 40
1.0
 10
5.6319268045
 20
2.7927366758
 30
0.0
 10
5.6319268045
 20
2.7921500207
 30
0.0
 10
5.6320775976
 20
2.791031831
 30
0.0
 10
5.6326906504
 20
2.7895694108
 30
0.0
 10
5.6335320686
 20
2.7884469034
 30
0.0
 10
5.634201371
 20
2.787886365
 30
0.0
 10
5.6345408636
 20
2.7876611025
 30
0.0
  0
SPLINE
  5
3EF
100
AcDbEntity
  8
0
100
AcDbSpline
 62
7
  6
CONTINUOUS
 70
0
 71
3
 72
11
 73
7
 74
0
 42
0.0000001
 43
0.0000001
 44
0.0000000001
 40
0.0
 40
0.0
 40
0.0
 40
0.0
 40
0.3043273354
 40
0.5729839334
 40
0.8016135045
 40
1.0
 40
1.0
 40
1.0
 40
1.0
 10
5.6329539393
 20
2.7927366758
 30
0.0
 10
5.6329539393
 20
2.7921511369
 30
0.0
 10
5.6330858688
 20
2.7910436028
 30
0.0
 10
5.6336262935
 20
2.789584565
 30
0.0
 10
5.6343720576
 20
2.7884595063
 30
0.0
 10
5.6349746169
 20
2.7878892376
 30
0.0
 10
5.6352806438
 20
2.7876611025
 30
0.0
  0
SPLINE
  5
3F0
100
AcDbEntity
  8
0
100
AcDbSpline
 62
7
  6
CONTINUOUS
 70
0
 71
3
 72
11
 73
7
 74
0
 42
0.0000001
 43
0.0000001
 44
0.0000000001
 40
0.0
 40
0.0
 40
0.0
 40
0.0
 40
0.3120603459
 40
0.58387493
 40
0.80975056
 40
1.0
 40
1.0
 40
1.0
 40
1.0
 10
5.6347324265
 20
2.7927366758
 30
0.0
 10
5.6347324265
 20
2.7921521677
 30
0.0
 10
5.6348454863
 20
2.7910546356
 30
0.0
 10
5.6353113581
 20
2.7896000114
 30
0.0
 10
5.635956842
 20
2.7884739079
 30
0.0
 10
5.6364877528
 20
2.7878928499
 30
0.0
 10
5.6367584512
 20
2.7876611025
 30
0.0
  0
SPLINE
  5
3F1
100
AcDbEntity
  8
0
100
AcDbSpline
 62
7
  6
CONTINUOUS
 70
0
 71
3
 72
13
 73
9
 74
0
 42
0.0000001
 43
0.0000001
 44
0.0000000001
 40
0.0
 40
0.0
 40
0.0
 40
0.0
 40
0.3195517999
 40
0.4639335031
 40
0.5947631243
 40
0.7124095831
 40
0.8181574353
 40
1.0
 40
1.0
 40
1.0
 40
1.0
 10
5.6372520807
 20
2.7927366758
 30
0.0
 10
5.6372520807
 20
2.7921530891
 30
0.0
 10
5.637325686
 20
2.7913027944
 30
0.0
 10
5.6375677939
 20
2.7902428251
 30
0.0
 10
5.6377911315
 20
2.7895599037
 30
0.0
 10
5.638049508
 20
2.7889656006
 30
0.0
 10
5.6384095589
 20
2.7883183735
 30
0.0
 10
5.6387324153
 20
2.7878973369
 30
0.0
 10
5.6389658227
 20
2.7876611025
 30
0.0
  0
SPLINE
  5
3F2
100
AcDbEntity
  8
0
100
AcDbSpline
 62
7
  6
CONTINUOUS
 70
0
 71
3
 72
14
 73
10
 74
0
 42
0.0000001
 43
0.0000001
 44
0.0000000001
 40
0.0
 40
0.0
 40
0.0
 40
0.0
 40
0.1674529324
 40
0.3270222796
 40
0.4736081396
 40
0.6053367908
 40
0.7224735234
 40
0.8262736033
 40
1.0
 40
1.0
 40
1.0
 40
1.0
 10
5.6404984718
 20
2.7927366758
 30
0.0
 10
5.6404984718
 20
2.7924380509
 30
0.0
 10
5.6405196671
 20
2.7918546241
 30
0.0
 10
5.6406118258
 20
2.7910143399
 30
0.0
 10
5.640754205
 20
2.7902457663
 30
0.0
 10
5.6409351351
 20
2.7895634708
 30
0.0
 10
5.6411444611
 20
2.7889694898
 30
0.0
 10
5.6414339849
 20
2.7883276775
 30
0.0
 10
5.6416962347
 20
2.7879027502
 30
0.0
 10
5.6418901166
 20
2.7876611025
 30
0.0
  0
SPLINE
  5
3F3
100
AcDbEntity
  8
0
100
AcDbSpline
 62
7
  6
CONTINUOUS
 70
0
 71
3
 72
15
 73
11
 74
0
 42
0.0000001
 43
0.0000001
 44
0.0000000001
 40
0.0
 40
0.0
 40
0.0
 40
0.0
 40
0.1709195782
 40
0.3334255018
 40
0.4820287709
 40
0.6146330658
 40
0.7313932539
 40
0.8335071756
 40
0.9225195921
 40
1.0
 40
1.0
 40
1.0
 40
1.0
 10
5.6444530079
 20
2.7927366758
 30
0.0
 10
5.6444530079
 20
2.7924381348
 30
0.0
 10
5.644469134
 20
2.7918556117
 30
0.0
 10
5.6445392844
 20
2.7910161658
 30
0.0
 10
5.6446476621
 20
2.7902483151
 30
0.0
 10
5.6447853998
 20
2.7895665406
 30
0.0
 10
5.6449446736
 20
2.7889731946
 30
0.0
 10
5.6451195129
 20
2.7884641243
 30
0.0
 10
5.6453055926
 20
2.7880329198
 30
0.0
 10
5.6454439382
 20
2.7877765322
 30
0.0
 10
5.6455145855
 20
2.7876611025
 30
0.0
  0
SPLINE
  5
3F4
100
AcDbEntity
  8
0
100
AcDbSpline
 62
7
  6
CONTINUOUS
 70
0
 71
3
 72
14
 73
10
 74
0
 42
0.0000001
 43
0.0000001
 44
0.0000000001
 40
0.0
 40
0.0
 40
0.0
 40
0.0
 40
0.3386048046
 40
0.4888955609
 40
0.6222802156
 40
0.7388134358
 40
0.8396252926
 40
0.9261925261
 40
1.0
 40
1.0
 40
1.0
 40
1.0
 10
5.6490930414
 20
2.7927366758
 30
0.0
 10
5.6490930414
 20
2.7921549956
 30
0.0
 10
5.6491233543
 20
2.7913145536
 30
0.0
 10
5.6492258257
 20
2.790250271
 30
0.0
 10
5.6493197999
 20
2.7895689939
 30
0.0
 10
5.6494284191
 20
2.7889761445
 30
0.0
 10
5.6495475992
 20
2.7884675941
 30
0.0
 10
5.6496743599
 20
2.7880369334
 30
0.0
 10
5.6497695496
 20
2.7877780758
 30
0.0
 10
5.6498184721
 20
2.7876611025
 30
0.0
  0
SPLINE
  5
3F5
100
AcDbEntity
  8
0
100
AcDbSpline
 62
7
  6
CONTINUOUS
 70
0
 71
3
 72
13
 73
9
 74
0
 42
0.0000001
 43
0.0000001
 44
0.0000000001
 40
0.0
 40
0.0
 40
0.0
 40
0.0
 40
0.3421371731
 40
0.6274625946
 40
0.7438612238
 40
0.8438125616
 40
0.9287279246
 40
1.0
 40
1.0
 40
1.0
 40
1.0
 10
5.6543919988
 20
2.7927366758
 30
0.0
 10
5.6543919988
 20
2.792155295
 30
0.0
 10
5.6544125398
 20
2.7910889556
 30
0.0
 10
5.6544874244
 20
2.7898267133
 30
0.0
 10
5.6545698252
 20
2.7889781418
 30
0.0
 10
5.6546329872
 20
2.7884700496
 30
0.0
 10
5.6547001081
 20
2.788039936
 30
0.0
 10
5.6547508762
 20
2.787779333
 30
0.0
 10
5.6547771282
 20
2.7876611025
 30
0.0
  0
LINE
  5
3F6
100
AcDbEntity
  8
0
100
AcDbLine
 62
7
  6
CONTINUOUS
 10
5.6603195331
 20
2.7927366758
 11
5.6603621555
 21
2.7876611025
  0
SPLINE
  5
3F7
100
AcDbEntity
  8
0
100
AcDbSpline
 62
7
  6
CONTINUOUS
 70
0
 71
3
 72
11
 73
7
 74
0
 42
0.0000001
 43
0.0000001
 44
0.0000000001
 40
0.0
 40
0.0
 40
0.0
 40
0.0
 40
0.202234228
 40
0.4322282502
 40
0.6994065122
 40
1.0
 40
1.0
 40
1.0
 40
1.0
 10
5.8934723926
 20
2.7876611025
 30
0.0
 10
5.8937950484
 20
2.7878877469
 30
0.0
 10
5.8944309101
 20
2.7884530996
 30
0.0
 10
5.8952241818
 20
2.7895770703
 30
0.0
 10
5.8958004815
 20
2.7910379075
 30
0.0
 10
5.8959416612
 20
2.7921505991
 30
0.0
 10
5.8959416612
 20
2.7927366758
 30
0.0
  0
SPLINE
  5
3F8
100
AcDbEntity
  8
0
100
AcDbSpline
 62
7
  6
CONTINUOUS
 70
0
 71
3
 72
13
 73
9
 74
0
 42
0.0000001
 43
0.0000001
 44
0.0000000001
 40
0.0
 40
0.0
 40
0.0
 40
0.0
 40
0.1491710411
 40
0.2935172382
 40
0.4300898619
 40
0.5580690838
 40
0.7905315097
 40
1.0
 40
1.0
 40
1.0
 40
1.0
 10
5.8966000791
 20
2.7927366758
 30
0.0
 10
5.8966000791
 20
2.7924374682
 30
0.0
 10
5.8965574113
 20
2.7918478219
 30
0.0
 10
5.8963726681
 20
2.791002389
 30
0.0
 10
5.896087783
 20
2.7902304663
 30
0.0
 10
5.8956212233
 20
2.7893468229
 30
0.0
 10
5.8949047803
 20
2.7884411375
 30
0.0
 10
5.894204187
 20
2.7878851679
 30
0.0
 10
5.893848768
 20
2.7876611025
 30
0.0
  0
LINE
  5
3F9
100
AcDbEntity
  8
0
100
AcDbLine
 62
7
  6
CONTINUOUS
 10
5.8707486634
 20
2.7876611025
 11
5.8709592563
 21
2.7927366758
  0
SPLINE
  5
3FA
100
AcDbEntity
  8
0
100
AcDbSpline
 62
7
  6
CONTINUOUS
 70
0
 71
3
 72
14
 73
10
 74
0
 42
0.0000001
 43
0.0000001
 44
0.0000000001
 40
0.0
 40
0.0
 40
0.0
 40
0.0
 40
0.0723451058
 40
0.1579551944
 40
0.258265556
 40
0.3747170421
 40
0.5084081209
 40
0.6593522027
 40
1.0
 40
1.0
 40
1.0
 40
1.0
 10
5.8760305655
 20
2.7876611025
 30
0.0
 10
5.8760680336
 20
2.7877787787
 30
0.0
 10
5.8761406939
 20
2.7880386401
 30
0.0
 10
5.8762370562
 20
2.7884690034
 30
0.0
 10
5.8763276883
 20
2.7889773001
 30
0.0
 10
5.876410312
 20
2.7895699338
 30
0.0
 10
5.876481805
 20
2.790250998
 30
0.0
 10
5.8765598125
 20
2.7913156571
 30
0.0
 10
5.8765828293
 20
2.7921551709
 30
0.0
 10
5.8765828293
 20
2.7927366758
 30
0.0
  0
SPLINE
  5
3FB
100
AcDbEntity
  8
0
100
AcDbSpline
 62
7
  6
CONTINUOUS
 70
0
 71
3
 72
14
 73
10
 74
0
 42
0.0000001
 43
0.0000001
 44
0.0000000001
 40
0.0
 40
0.0
 40
0.0
 40
0.0
 40
0.0754947965
 40
0.1631795546
 40
0.264584812
 40
0.3812225192
 40
0.5142559656
 40
0.6637866005
 40
1.0
 40
1.0
 40
1.0
 40
1.0
 10
5.8806717234
 20
2.7876611025
 30
0.0
 10
5.8807314141
 20
2.7877773314
 30
0.0
 10
5.8808479344
 20
2.7880350448
 30
0.0
 10
5.8810038238
 20
2.7884659898
 30
0.0
 10
5.881150341
 20
2.7889747998
 30
0.0
 10
5.8812838405
 20
2.7895678839
 30
0.0
 10
5.8813993249
 20
2.7902494035
 30
0.0
 10
5.8815251566
 20
2.7913132261
 30
0.0
 10
5.8815624953
 20
2.792154784
 30
0.0
 10
5.8815624953
 20
2.7927366758
 30
0.0
  0
SPLINE
  5
3FC
100
AcDbEntity
  8
0
100
AcDbSpline
 62
7
  6
CONTINUOUS
 70
0
 71
3
 72
15
 73
11
 74
0
 42
0.0000001
 43
0.0000001
 44
0.0000000001
 40
0.0
 40
0.0
 40
0.0
 40
0.0
 40
0.0795723903
 40
0.1700068999
 40
0.2728979802
 40
0.389814991
 40
0.5219863426
 40
0.6696209311
 40
0.8307276663
 40
1.0
 40
1.0
 40
1.0
 40
1.0
 10
5.8846455571
 20
2.7876611025
 30
0.0
 10
5.8847264914
 20
2.7877757756
 30
0.0
 10
5.8848854044
 20
2.788030811
 30
0.0
 10
5.8851003004
 20
2.7884622048
 30
0.0
 10
5.8853021749
 20
2.7889714967
 30
0.0
 10
5.8854860461
 20
2.7895650864
 30
0.0
 10
5.8856450412
 20
2.7902471386
 30
0.0
 10
5.8857701415
 20
2.7910153225
 30
0.0
 10
5.8858511174
 20
2.7918551587
 30
0.0
 10
5.8858697356
 20
2.7924380964
 30
0.0
 10
5.8858697356
 20
2.7927366758
 30
0.0
  0
SPLINE
  5
3FD
100
AcDbEntity
  8
0
100
AcDbSpline
 62
7
  6
CONTINUOUS
 70
0
 71
3
 72
13
 73
9
 74
0
 42
0.0000001
 43
0.0000001
 44
0.0000000001
 40
0.0
 40
0.0
 40
0.0
 40
0.0
 40
0.1776700825
 40
0.2824124131
 40
0.3997983126
 40
0.5311018549
 40
0.6766409826
 40
1.0
 40
1.0
 40
1.0
 40
1.0
 10
5.8879293085
 20
2.7876611025
 30
0.0
 10
5.8881428609
 20
2.7878999858
 30
0.0
 10
5.8884351199
 20
2.7883230958
 30
0.0
 10
5.8887592753
 20
2.7889676051
 30
0.0
 10
5.8889927788
 20
2.7895617611
 30
0.0
 10
5.8891946174
 20
2.7902443938
 30
0.0
 10
5.8894136802
 20
2.7913053547
 30
0.0
 10
5.8894798828
 20
2.7921535098
 30
0.0
 10
5.8894798828
 20
2.7927366758
 30
0.0
  0
SPLINE
  5
3FE
100
AcDbEntity
  8
0
100
AcDbSpline
 62
7
  6
CONTINUOUS
 70
0
 71
3
 72
13
 73
9
 74
0
 42
0.0000001
 43
0.0000001
 44
0.0000000001
 40
0.0
 40
0.0
 40
0.0
 40
0.0
 40
0.1858973673
 40
0.2926449648
 40
0.4105665438
 40
0.5409473119
 40
0.6842003586
 40
1.0
 40
1.0
 40
1.0
 40
1.0
 10
5.8905041717
 20
2.7876611025
 30
0.0
 10
5.8907561083
 20
2.7878950225
 30
0.0
 10
5.8911076826
 20
2.7883139574
 30
0.0
 10
5.8915019743
 20
2.7889636654
 30
0.0
 10
5.8917839133
 20
2.7895580611
 30
0.0
 10
5.8920276397
 20
2.7902412382
 30
0.0
 10
5.8922915363
 20
2.7913001604
 30
0.0
 10
5.8923722616
 20
2.7921526528
 30
0.0
 10
5.8923722616
 20
2.7927366758
 30
0.0
  0
SPLINE
  5
3FF
100
AcDbEntity
  8
0
100
AcDbSpline
 62
7
  6
CONTINUOUS
 70
0
 71
3
 72
11
 73
7
 74
0
 42
0.0000001
 43
0.0000001
 44
0.0000000001
 40
0.0
 40
0.0
 40
0.0
 40
0.0
 40
0.1942750647
 40
0.4214906914
 40
0.6917379599
 40
1.0
 40
1.0
 40
1.0
 40
1.0
 10
5.8923554003
 20
2.7876611025
 30
0.0
 10
5.8926436442
 20
2.7878909783
 30
0.0
 10
5.8932102866
 20
2.7884666383
 30
0.0
 10
5.8939054155
 20
2.7895924427
 30
0.0
 10
5.8944080077
 20
2.7910493421
 30
0.0
 10
5.8945303075
 20
2.7921516749
 30
0.0
 10
5.8945303075
 20
2.7927366758
 30
0.0
  0
SPLINE
  5
400
100
AcDbEntity
  8
0
100
AcDbSpline
 62
7
  6
CONTINUOUS
 70
0
 71
3
 72
15
 73
11
 74
0
 42
0.0000001
 43
0.0000001
 44
0.0000000001
 40
0.0
 40
0.0
 40
0.0
 40
0.0
 40
0.1378681419
 40
0.2731460488
 40
0.4042554539
 40
0.5307691315
 40
0.6529897885
 40
0.7715050923
 40
0.886986489
 40
1.0
 40
1.0
 40
1.0
 40
1.0
 10
5.8938491049
 20
3.0787366758
 30
0.0
 10
5.8938491049
 20
3.079026369
 30
0.0
 10
5.8937984137
 20
3.0796015727
 30
0.0
 10
5.8935792723
 20
3.0804261524
 30
0.0
 10
5.8932409417
 20
3.0811828523
 30
0.0
 10
5.8928107389
 20
3.0818581856
 30
0.0
 10
5.8923125132
 20
3.0824501123
 30
0.0
 10
5.8917642712
 20
3.0829621704
 30
0.0
 10
5.8911791949
 20
3.0833992197
 30
0.0
 10
5.8907680814
 20
3.0836490973
 30
0.0
 10
5.8905585265
 20
3.0837608009
 30
0.0
  0
SPLINE
  5
401
100
AcDbEntity
  8
0
100
AcDbSpline
 62
7
  6
CONTINUOUS
 70
0
 71
3
 72
11
 73
7
 74
0
 42
0.0000001
 43
0.0000001
 44
0.0000000001
 40
0.0
 40
0.0
 40
0.0
 40
0.0
 40
0.2522154026
 40
0.5025478555
 40
0.7514429858
 40
1.0
 40
1.0
 40
1.0
 40
1.0
 10
5.8904761504
 20
3.0838134421
 30
0.0
 10
5.8901612868
 20
3.0839755995
 30
0.0
 10
5.8895089159
 20
3.0842519423
 30
0.0
 10
5.8884898181
 20
3.0845344499
 30
0.0
 10
5.8874509747
 20
3.0847006504
 30
0.0
 10
5.8867518576
 20
3.0847366758
 30
0.0
 10
5.8864028281
 20
3.0847366758
 30
0.0
  0
SPLINE
  5
402
100
AcDbEntity
  8
0
100
AcDbSpline
 62
7
  6
CONTINUOUS
 70
0
 71
3
 72
13
 73
9
 74
0
 42
0.0000001
 43
0.0000001
 44
0.0000000001
 40
0.0
 40
0.0
 40
0.0
 40
0.0
 40
0.3141429861
 40
0.4570919254
 40
0.5875162389
 40
0.8126155388
 40
0.9102608949
 40
1.0
 40
1.0
 40
1.0
 40
1.0
 10
5.8923722616
 20
3.0787366758
 30
0.0
 10
5.8923722616
 20
3.0793100051
 30
0.0
 10
5.8922943887
 20
3.080147494
 30
0.0
 10
5.8920396364
 20
3.081190427
 30
0.0
 10
5.8917392963
 20
3.0820501456
 30
0.0
 10
5.891357597
 20
3.08279149
 30
0.0
 10
5.8909079746
 20
3.0833966564
 30
0.0
 10
5.8906759899
 20
3.0836490239
 30
0.0
 10
5.8905583459
 20
3.083762969
 30
0.0
  0
SPLINE
  5
403
100
AcDbEntity
  8
0
100
AcDbSpline
 62
7
  6
CONTINUOUS
 70
0
 71
3
 72
13
 73
9
 74
0
 42
0.0000001
 43
0.0000001
 44
0.0000000001
 40
0.0
 40
0.0
 40
0.0
 40
0.0
 40
0.3233590888
 40
0.4688981484
 40
0.6002016893
 40
0.7175875906
 40
0.8223299246
 40
1.0
 40
1.0
 40
1.0
 40
1.0
 10
5.8894798828
 20
3.0787366758
 30
0.0
 10
5.8894798828
 20
3.079319842
 30
0.0
 10
5.8894136802
 20
3.080167997
 30
0.0
 10
5.8891946173
 20
3.081228958
 30
0.0
 10
5.8889927788
 20
3.0819115906
 30
0.0
 10
5.8887592753
 20
3.0825057466
 30
0.0
 10
5.8884351199
 20
3.0831502558
 30
0.0
 10
5.8881428609
 20
3.0835733659
 30
0.0
 10
5.8879293085
 20
3.0838122492
 30
0.0
  0
SPLINE
  5
404
100
AcDbEntity
  8
0
100
AcDbSpline
 62
7
  6
CONTINUOUS
 70
0
 71
3
 72
15
 73
11
 74
0
 42
0.0000001
 43
0.0000001
 44
0.0000000001
 40
0.0
 40
0.0
 40
0.0
 40
0.0
 40
0.1692724851
 40
0.3303791725
 40
0.4780136706
 40
0.6101850273
 40
0.7271020335
 40
0.8299931119
 40
0.9204276129
 40
1.0
 40
1.0
 40
1.0
 40
1.0
 10
5.8858697356
 20
3.0787366758
 30
0.0
 10
5.8858697356
 20
3.0790352555
 30
0.0
 10
5.8858511173
 20
3.0796181933
 30
0.0
 10
5.8857701414
 20
3.0804580296
 30
0.0
 10
5.8856450412
 20
3.0812262132
 30
0.0
 10
5.8854860461
 20
3.0819082653
 30
0.0
 10
5.8853021749
 20
3.082501855
 30
0.0
 10
5.8851003004
 20
3.0830111469
 30
0.0
 10
5.8848854044
 20
3.0834425407
 30
0.0
 10
5.8847264914
 20
3.083697576
 30
0.0
 10
5.8846455571
 20
3.0838122492
 30
0.0
  0
SPLINE
  5
405
100
AcDbEntity
  8
0
100
AcDbSpline
 62
7
  6
CONTINUOUS
 70
0
 71
3
 72
14
 73
10
 74
0
 42
0.0000001
 43
0.0000001
 44
0.0000000001
 40
0.0
 40
0.0
 40
0.0
 40
0.0
 40
0.3362135048
 40
0.4857440476
 40
0.618777499
 40
0.7354152015
 40
0.8368204568
 40
0.9245052065
 40
1.0
 40
1.0
 40
1.0
 40
1.0
 10
5.8815624953
 20
3.0787366758
 30
0.0
 10
5.8815624953
 20
3.0793185678
 30
0.0
 10
5.8815251566
 20
3.0801601257
 30
0.0
 10
5.8813993248
 20
3.0812239484
 30
0.0
 10
5.8812838405
 20
3.0819054679
 30
0.0
 10
5.881150341
 20
3.0824985519
 30
0.0
 10
5.8810038238
 20
3.0830073619
 30
0.0
 10
5.8808479344
 20
3.0834383068
 30
0.0
 10
5.8807314141
 20
3.0836960202
 30
0.0
 10
5.8806717234
 20
3.0838122492
 30
0.0
  0
SPLINE
  5
406
100
AcDbEntity
  8
0
100
AcDbSpline
 62
7
  6
CONTINUOUS
 70
0
 71
3
 72
14
 73
10
 74
0
 42
0.0000001
 43
0.0000001
 44
0.0000000001
 40
0.0
 40
0.0
 40
0.0
 40
0.0
 40
0.3406479039
 40
0.4915918924
 40
0.6252829761
 40
0.7417344574
 40
0.8420448167
 40
0.927654897
 40
1.0
 40
1.0
 40
1.0
 40
1.0
 10
5.8765828293
 20
3.0787366758
 30
0.0
 10
5.8765828293
 20
3.0793181809
 30
0.0
 10
5.8765598125
 20
3.0801576948
 30
0.0
 10
5.876481805
 20
3.0812223539
 30
0.0
 10
5.8764103119
 20
3.081903418
 30
0.0
 10
5.8763276883
 20
3.0824960516
 30
0.0
 10
5.8762370562
 20
3.0830043483
 30
0.0
 10
5.8761406939
 20
3.0834347115
 30
0.0
 10
5.8760680336
 20
3.083694573
 30
0.0
 10
5.8760305655
 20
3.0838122492
 30
0.0
  0
LINE
  5
407
100
AcDbEntity
  8
0
100
AcDbLine
 62
7
  6
CONTINUOUS
 10
5.8709592563
 20
3.0787366758
 11
5.8707486634
 21
3.0838122492
  0
LINE
  5
408
100
AcDbEntity
  8
0
100
AcDbLine
 62
7
  6
CONTINUOUS
 10
5.6603621555
 20
3.0838122492
 11
5.6603195331
 21
3.0787366758
  0
SPLINE
  5
409
100
AcDbEntity
  8
0
100
AcDbSpline
 62
7
  6
CONTINUOUS
 70
0
 71
3
 72
13
 73
9
 74
0
 42
0.0000001
 43
0.0000001
 44
0.0000000001
 40
0.0
 40
0.0
 40
0.0
 40
0.0
 40
0.0712719167
 40
0.156186781
 40
0.2561374035
 40
0.3725354565
 40
0.6578602059
 40
1.0
 40
1.0
 40
1.0
 40
1.0
 10
5.6547771282
 20
3.0838122492
 30
0.0
 10
5.6547508762
 20
3.0836940189
 30
0.0
 10
5.6547001084
 20
3.083433417
 30
0.0
 10
5.6546329879
 20
3.0830033057
 30
0.0
 10
5.654569826
 20
3.0824952165
 30
0.0
 10
5.6544874252
 20
3.0816466484
 30
0.0
 10
5.6544125399
 20
3.0803844039
 30
0.0
 10
5.6543919988
 20
3.0793180611
 30
0.0
 10
5.6543919988
 20
3.0787366758
 30
0.0
  0
SPLINE
  5
40A
100
AcDbEntity
  8
0
100
AcDbSpline
 62
7
  6
CONTINUOUS
 70
0
 71
3
 72
14
 73
10
 74
0
 42
0.0000001
 43
0.0000001
 44
0.0000000001
 40
0.0
 40
0.0
 40
0.0
 40
0.0
 40
0.0738073093
 40
0.1603740361
 40
0.2611851825
 40
0.3777178365
 40
0.5111020164
 40
0.661392598
 40
1.0
 40
1.0
 40
1.0
 40
1.0
 10
5.6498184721
 20
3.0838122492
 30
0.0
 10
5.6497695497
 20
3.0836952761
 30
0.0
 10
5.6496743605
 20
3.0834364196
 30
0.0
 10
5.6495476004
 20
3.0830057612
 30
0.0
 10
5.6494284206
 20
3.0824972138
 30
0.0
 10
5.6493198015
 20
3.0819043674
 30
0.0
 10
5.6492258272
 20
3.0812230925
 30
0.0
 10
5.6491233545
 20
3.0801588067
 30
0.0
 10
5.6490930414
 20
3.0793183605
 30
0.0
 10
5.6490930414
 20
3.0787366758
 30
0.0
  0
SPLINE
  5
40B
100
AcDbEntity
  8
0
100
AcDbSpline
 62
7
  6
CONTINUOUS
 70
0
 71
3
 72
15
 73
11
 74
0
 42
0.0000001
 43
0.0000001
 44
0.0000000001
 40
0.0
 40
0.0
 40
0.0
 40
0.0
 40
0.0774802346
 40
0.1664921325
 40
0.2686053508
 40
0.3853649871
 40
0.5179688252
 40
0.6665719353
 40
0.8290781185
 40
1.0
 40
1.0
 40
1.0
 40
1.0
 10
5.6455145855
 20
3.0838122492
 30
0.0
 10
5.6454439384
 20
3.0836968197
 30
0.0
 10
5.6453055933
 20
3.0834404332
 30
0.0
 10
5.6451195146
 20
3.0830092309
 30
0.0
 10
5.6449446757
 20
3.0825001638
 30
0.0
 10
5.6447854022
 20
3.0819068208
 30
0.0
 10
5.6446476642
 20
3.0812250484
 30
0.0
 10
5.6445392856
 20
3.0804571985
 30
0.0
 10
5.6444691346
 20
3.0796177484
 30
0.0
 10
5.6444530079
 20
3.0790352208
 30
0.0
 10
5.6444530079
 20
3.0787366758
 30
0.0
  0
SPLINE
  5
40C
100
AcDbEntity
  8
0
100
AcDbSpline
 62
7
  6
CONTINUOUS
 70
0
 71
3
 72
14
 73
10
 74
0
 42
0.0000001
 43
0.0000001
 44
0.0000000001
 40
0.0
 40
0.0
 40
0.0
 40
0.0
 40
0.1737256809
 40
0.2775250649
 40
0.3946612632
 40
0.5263894798
 40
0.6729752006
 40
0.8325448091
 40
1.0
 40
1.0
 40
1.0
 40
1.0
 10
5.6418901166
 20
3.0838122492
 30
0.0
 10
5.6416962355
 20
3.0835706024
 30
0.0
 10
5.6414339872
 20
3.0831456773
 30
0.0
 10
5.6411444639
 20
3.0825038686
 30
0.0
 10
5.6409351383
 20
3.0819098906
 30
0.0
 10
5.6407542079
 20
3.0812275972
 30
0.0
 10
5.6406118273
 20
3.0804590244
 30
0.0
 10
5.6405196679
 20
3.079618736
 30
0.0
 10
5.6404984718
 20
3.0790353047
 30
0.0
 10
5.6404984718
 20
3.0787366758
 30
0.0
  0
SPLINE
  5
40D
100
AcDbEntity
  8
0
100
AcDbSpline
 62
7
  6
CONTINUOUS
 70
0
 71
3
 72
13
 73
9
 74
0
 42
0.0000001
 43
0.0000001
 44
0.0000000001
 40
0.0
 40
0.0
 40
0.0
 40
0.0
 40
0.1818418219
 40
0.2875889864
 40
0.4052349307
 40
0.5360641432
 40
0.6804457306
 40
1.0
 40
1.0
 40
1.0
 40
1.0
 10
5.6389658227
 20
3.0838122492
 30
0.0
 10
5.6387324162
 20
3.0835760157
 30
0.0
 10
5.6384095617
 20
3.0831549811
 30
0.0
 10
5.6380495115
 20
3.0825077577
 30
0.0
 10
5.6377911354
 20
3.0819134576
 30
0.0
 10
5.6375677974
 20
3.0812305384
 30
0.0
 10
5.6373256865
 20
3.0801705662
 30
0.0
 10
5.6372520807
 20
3.0793202671
 30
0.0
 10
5.6372520807
 20
3.0787366758
 30
0.0
  0
SPLINE
  5
40E
100
AcDbEntity
  8
0
100
AcDbSpline
 62
7
  6
CONTINUOUS
 70
0
 71
3
 72
9
 73
5
 74
0
 42
0.0000001
 43
0.0000001
 44
0.0000000001
 40
0.0
 40
0.0
 40
0.0
 40
0.0
 40
0.2262261269
 40
1.0
 40
1.0
 40
1.0
 40
1.0
 10
5.6352967048
 20
3.0817118333
 30
0.0
 10
5.6352097876
 20
3.0814998289
 30
0.0
 10
5.6348729995
 20
3.0805437378
 30
0.0
 10
5.6347324265
 20
3.0795203815
 30
0.0
 10
5.6347324265
 20
3.0787366758
 30
0.0
  0
SPLINE
  5
40F
100
AcDbEntity
  8
0
100
AcDbSpline
 62
7
  6
CONTINUOUS
 70
0
 71
3
 72
9
 73
5
 74
0
 42
0.0000001
 43
0.0000001
 44
0.0000000001
 40
0.0
 40
0.0
 40
0.0
 40
0.0
 40
0.4983408222
 40
1.0
 40
1.0
 40
1.0
 40
1.0
 10
5.6418951595
 20
3.0847366758
 30
0.0
 10
5.6413349211
 20
3.0847366758
 30
0.0
 10
5.6402086549
 20
3.0846437668
 30
0.0
 10
5.6391147657
 20
3.0843529283
 30
0.0
 10
5.638586847
 20
3.0841545276
 30
0.0
  0
SPLINE
  5
410
100
AcDbEntity
  8
0
100
AcDbSpline
 62
7
  6
CONTINUOUS
 70
0
 71
3
 72
10
 73
6
 74
0
 42
0.0000001
 43
0.0000001
 44
0.0000000001
 40
0.0
 40
0.0
 40
0.0
 40
0.0
 40
0.2406168759
 40
0.4861641827
 40
1.0
 40
1.0
 40
1.0
 40
1.0
 10
5.638586847
 20
3.0841545276
 30
0.0
 10
5.6382754503
 20
3.0840374995
 30
0.0
 10
5.6376592123
 20
3.0837632808
 30
0.0
 10
5.6364773363
 20
3.0830428865
 30
0.0
 10
5.635705183
 20
3.0822930458
 30
0.0
 10
5.6352967048
 20
3.0817118333
 30
0.0
  0
SPLINE
  5
411
100
AcDbEntity
  8
0
100
AcDbSpline
 62
7
  6
CONTINUOUS
 70
0
 71
3
 72
11
 73
7
 74
0
 42
0.0000001
 43
0.0000001
 44
0.0000000001
 40
0.0
 40
0.0
 40
0.0
 40
0.0
 40
0.2526602632
 40
0.5025411948
 40
0.7512390152
 40
1.0
 40
1.0
 40
1.0
 40
1.0
 10
4.7514394025
 20
7.3391276104
 30
0.0
 10
4.7510896919
 20
7.3393038363
 30
0.0
 10
4.7503688029
 20
7.3396060842
 30
0.0
 10
4.7492440621
 20
7.339917228
 30
0.0
 10
4.7480976388
 20
7.340097799
 30
0.0
 10
4.7473260004
 20
7.3401366758
 30
0.0
 10
4.7469404408
 20
7.3401366758
 30
0.0
  0
SPLINE
  5
412
100
AcDbEntity
  8
0
100
AcDbSpline
 62
7
  6
CONTINUOUS
 70
0
 71
3
 72
11
 73
7
 74
0
 42
0.0000001
 43
0.0000001
 44
0.0000000001
 40
0.0
 40
0.0
 40
0.0
 40
0.0
 40
0.304049519
 40
0.5764827978
 40
0.8070881747
 40
1.0
 40
1.0
 40
1.0
 40
1.0
 10
4.753026944
 20
7.3341366758
 30
0.0
 10
4.753026944
 20
7.3346206209
 30
0.0
 10
4.7529627121
 20
7.3355396467
 30
0.0
 10
4.7526924336
 20
7.336799938
 30
0.0
 10
4.7523029728
 20
7.3378411869
 30
0.0
 10
4.7519688478
 20
7.3384308415
 30
0.0
 10
4.7517931125
 20
7.33868263
 30
0.0
  0
LINE
  5
413
100
AcDbEntity
  8
0
100
AcDbLine
 62
7
  6
CONTINUOUS
 10
4.7517931125
 20
7.33868263
 11
4.7514394025
 21
7.3391276104
  0
SPLINE
  5
414
100
AcDbEntity
  8
0
100
AcDbSpline
 62
7
  6
CONTINUOUS
 70
0
 71
3
 72
15
 73
11
 74
0
 42
0.0000001
 43
0.0000001
 44
0.0000000001
 40
0.0
 40
0.0
 40
0.0
 40
0.0
 40
0.1686302631
 40
0.3292522357
 40
0.4766207051
 40
0.6087293875
 40
0.7257566451
 40
0.8289185767
 40
0.9197935281
 40
1.0
 40
1.0
 40
1.0
 40
1.0
 10
4.749575897
 20
7.3341366758
 30
0.0
 10
4.749575897
 20
7.3344352085
 30
0.0
 10
4.7495565302
 20
7.3350182932
 30
0.0
 10
4.7494722495
 20
7.3358584663
 30
0.0
 10
4.7493418941
 20
7.336627245
 30
0.0
 10
4.7491760222
 20
7.3373099387
 30
0.0
 10
4.7489840081
 20
7.3379039712
 30
0.0
 10
4.7487730411
 20
7.3384133569
 30
0.0
 10
4.7485483615
 20
7.3388444628
 30
0.0
 10
4.7483824487
 20
7.3390986311
 30
0.0
 10
4.748298024
 20
7.3392127993
 30
0.0
  0
SPLINE
  5
415
100
AcDbEntity
  8
0
100
AcDbSpline
 62
7
  6
CONTINUOUS
 70
0
 71
3
 72
14
 73
10
 74
0
 42
0.0000001
 43
0.0000001
 44
0.0000000001
 40
0.0
 40
0.0
 40
0.0
 40
0.0
 40
0.3363699409
 40
0.4860477899
 40
0.6192074433
 40
0.7358934087
 40
0.8372414386
 40
0.9247616813
 40
1.0
 40
1.0
 40
1.0
 40
1.0
 10
4.7452845207
 20
7.3341366758
 30
0.0
 10
4.7452845207
 20
7.334718555
 30
0.0
 10
4.7452478741
 20
7.3355602007
 30
0.0
 10
4.7451241624
 20
7.3366244874
 30
0.0
 10
4.7450104712
 20
7.3373065234
 30
0.0
 10
4.7448789202
 20
7.3378999414
 30
0.0
 10
4.7447344473
 20
7.3384087505
 30
0.0
 10
4.7445806725
 20
7.338839335
 30
0.0
 10
4.7444656302
 20
7.3390967597
 30
0.0
 10
4.7444066839
 20
7.3392127993
 30
0.0
  0
SPLINE
  5
416
100
AcDbEntity
  8
0
100
AcDbSpline
 62
7
  6
CONTINUOUS
 70
0
 71
3
 72
13
 73
9
 74
0
 42
0.0000001
 43
0.0000001
 44
0.0000000001
 40
0.0
 40
0.0
 40
0.0
 40
0.0
 40
0.3414084255
 40
0.6265939072
 40
0.7430806393
 40
0.8431931219
 40
0.9283559377
 40
1.0
 40
1.0
 40
1.0
 40
1.0
 10
4.7401883695
 20
7.3341366758
 30
0.0
 10
4.7401883695
 20
7.3347181228
 30
0.0
 10
4.7401633423
 20
7.3357854364
 30
0.0
 10
4.7400720015
 20
7.3370483314
 30
0.0
 10
4.7399713517
 20
7.3378970926
 30
0.0
 10
4.7398941044
 20
7.338405292
 30
0.0
 10
4.7398119698
 20
7.3388351793
 30
0.0
 10
4.7397498977
 20
7.3390950696
 30
0.0
 10
4.7397178418
 20
7.3392127993
 30
0.0
  0
LINE
  5
417
100
AcDbEntity
  8
0
100
AcDbLine
 62
7
  6
CONTINUOUS
 10
4.7343296653
 20
7.3341366758
 11
4.7342703451
 21
7.3392127993
  0
LINE
  5
418
100
AcDbEntity
  8
0
100
AcDbLine
 62
7
  6
CONTINUOUS
 10
4.5591694582
 20
7.3392127993
 11
4.5589010662
 21
7.3341366758
  0
SPLINE
  5
419
100
AcDbEntity
  8
0
100
AcDbSpline
 62
7
  6
CONTINUOUS
 70
0
 71
3
 72
14
 73
10
 74
0
 42
0.0000001
 43
0.0000001
 44
0.0000000001
 40
0.0
 40
0.0
 40
0.0
 40
0.0
 40
0.0732490564
 40
0.1594560465
 40
0.2601102764
 40
0.3766782889
 40
0.5102547501
 40
0.6608275376
 40
1.0
 40
1.0
 40
1.0
 40
1.0
 10
4.5541019247
 20
7.3392127993
 30
0.0
 10
4.5540560438
 20
7.3390958662
 30
0.0
 10
4.5539668564
 20
7.3388370851
 30
0.0
 10
4.5538482986
 20
7.3384068503
 30
0.0
 10
4.5537368659
 20
7.3378983576
 30
0.0
 10
4.5536353674
 20
7.337305223
 30
0.0
 10
4.5535476339
 20
7.3366234761
 30
0.0
 10
4.5534520837
 20
7.3355586629
 30
0.0
 10
4.5534238803
 20
7.3347183102
 30
0.0
 10
4.5534238803
 20
7.3341366758
 30
0.0
  0
SPLINE
  5
41A
100
AcDbEntity
  8
0
100
AcDbSpline
 62
7
  6
CONTINUOUS
 70
0
 71
3
 72
15
 73
11
 74
0
 42
0.0000001
 43
0.0000001
 44
0.0000000001
 40
0.0
 40
0.0
 40
0.0
 40
0.0
 40
0.0776311049
 40
0.1667511932
 40
0.268952634
 40
0.3857856588
 40
0.5184288926
 40
0.6669930932
 40
0.829340413
 40
1.0
 40
1.0
 40
1.0
 40
1.0
 10
4.549813578
 20
7.3392127993
 30
0.0
 10
4.549741519
 20
7.3390977211
 30
0.0
 10
4.549600348
 20
7.3388418963
 30
0.0
 10
4.5494104269
 20
7.3384110005
 30
0.0
 10
4.5492320588
 20
7.3379018757
 30
0.0
 10
4.5490696843
 20
7.3373081396
 30
0.0
 10
4.5489294023
 20
7.3366257887
 30
0.0
 10
4.5488191537
 20
7.3358574231
 30
0.0
 10
4.5487478741
 20
7.3350177333
 30
0.0
 10
4.5487314988
 20
7.3344351606
 30
0.0
 10
4.5487314988
 20
7.3341366758
 30
0.0
  0
SPLINE
  5
41B
100
AcDbEntity
  8
0
100
AcDbSpline
 62
7
  6
CONTINUOUS
 70
0
 71
3
 72
14
 73
10
 74
0
 42
0.0000001
 43
0.0000001
 44
0.0000000001
 40
0.0
 40
0.0
 40
0.0
 40
0.0
 40
0.1756683733
 40
0.2799500181
 40
0.3972490712
 40
0.5288120152
 40
0.6748867569
 40
0.8336127573
 40
1.0
 40
1.0
 40
1.0
 40
1.0
 10
4.5463399474
 20
7.3392127993
 30
0.0
 10
4.5461351141
 20
7.33897317
 30
0.0
 10
4.5458562808
 20
7.3385495762
 30
0.0
 10
4.5455480131
 20
7.3379064056
 30
0.0
 10
4.5453256685
 20
7.3373119458
 30
0.0
 10
4.5451336883
 20
7.3366289457
 30
0.0
 10
4.5449827875
 20
7.3358596888
 30
0.0
 10
4.544885225
 20
7.3350189574
 30
0.0
 10
4.5448627985
 20
7.3344352646
 30
0.0
 10
4.5448627985
 20
7.3341366758
 30
0.0
  0
SPLINE
  5
41C
100
AcDbEntity
  8
0
100
AcDbSpline
 62
7
  6
CONTINUOUS
 70
0
 71
3
 72
9
 73
5
 74
0
 42
0.0000001
 43
0.0000001
 44
0.0000000001
 40
0.0
 40
0.0
 40
0.0
 40
0.0
 40
0.4708523558
 40
1.0
 40
1.0
 40
1.0
 40
1.0
 10
4.5423283062
 20
7.3370079413
 30
0.0
 10
4.5421736599
 20
7.3365762861
 30
0.0
 10
4.5419308075
 20
7.3356277067
 30
0.0
 10
4.5418498318
 20
7.3346519655
 30
0.0
 10
4.5418498318
 20
7.3341366758
 30
0.0
  0
SPLINE
  5
41D
100
AcDbEntity
  8
0
100
AcDbSpline
 62
7
  6
CONTINUOUS
 70
0
 71
3
 72
15
 73
11
 74
0
 42
0.0000001
 43
0.0000001
 44
0.0000000001
 40
0.0
 40
0.0
 40
0.0
 40
0.0
 40
0.2425105893
 40
0.4862738214
 40
0.6101163255
 40
0.7362174746
 40
0.8004791586
 40
0.8657283626
 40
0.9321893396
 40
1.0
 40
1.0
 40
1.0
 40
1.0
 10
4.5493575468
 20
7.3401366758
 30
0.0
 10
4.5487125704
 20
7.3401366758
 30
0.0
 10
4.5474165532
 20
7.3400278022
 30
0.0
 10
4.5458409614
 20
7.3395929165
 30
0.0
 10
4.5446470177
 20
7.3390402875
 30
0.0
 10
4.5439354078
 20
7.3385969798
 30
0.0
 10
4.5433990233
 20
7.3381784347
 30
0.0
 10
4.5430137671
 20
7.3378265336
 30
0.0
 10
4.5426518444
 20
7.3374377092
 30
0.0
 10
4.5424318655
 20
7.3371555923
 30
0.0
 10
4.5423283062
 20
7.3370079413
 30
0.0
  0
SPLINE
  5
41E
100
AcDbEntity
  8
0
100
AcDbSpline
 62
7
  6
CONTINUOUS
 70
0
 71
3
 72
11
 73
7
 74
0
 42
0.0000001
 43
0.0000001
 44
0.0000000001
 40
0.0
 40
0.0
 40
0.0
 40
0.0
 40
0.2976875766
 40
0.5638433977
 40
0.7949209706
 40
1.0
 40
1.0
 40
1.0
 40
1.0
 10
4.5384836535
 20
7.0411366758
 30
0.0
 10
4.5384836535
 20
7.0405501998
 30
0.0
 10
4.538631328
 20
7.0394332433
 30
0.0
 10
4.5392336219
 20
7.0379701958
 30
0.0
 10
4.5400628646
 20
7.0368467141
 30
0.0
 10
4.5407244836
 20
7.0362856123
 30
0.0
 10
4.5410600222
 20
7.0360605523
 30
0.0
  0
SPLINE
  5
41F
100
AcDbEntity
  8
0
100
AcDbSpline
 62
7
  6
CONTINUOUS
 70
0
 71
3
 72
11
 73
7
 74
0
 42
0.0000001
 43
0.0000001
 44
0.0000000001
 40
0.0
 40
0.0
 40
0.0
 40
0.0
 40
0.3068282017
 40
0.5766212826
 40
0.8043611219
 40
1.0
 40
1.0
 40
1.0
 40
1.0
 10
4.5397175615
 20
7.0411366758
 30
0.0
 10
4.5397175615
 20
7.0405515096
 30
0.0
 10
4.5398426779
 20
7.0394471497
 30
0.0
 10
4.5403572692
 20
7.0379885907
 30
0.0
 10
4.5410701322
 20
7.0368624522
 30
0.0
 10
4.5416501679
 20
7.0362892625
 30
0.0
 10
4.5419449631
 20
7.0360605523
 30
0.0
  0
SPLINE
  5
420
100
AcDbEntity
  8
0
100
AcDbSpline
 62
7
  6
CONTINUOUS
 70
0
 71
3
 72
11
 73
7
 74
0
 42
0.0000001
 43
0.0000001
 44
0.0000000001
 40
0.0
 40
0.0
 40
0.0
 40
0.0
 40
0.3161274212
 40
0.5898069356
 40
0.8142947919
 40
1.0
 40
1.0
 40
1.0
 40
1.0
 10
4.5418498318
 20
7.0411366758
 30
0.0
 10
4.5418498318
 20
7.0405526854
 30
0.0
 10
4.5419524174
 20
7.0394598429
 30
0.0
 10
4.5423769102
 20
7.038007116
 30
0.0
 10
4.5429672452
 20
7.0368806945
 30
0.0
 10
4.5434584857
 20
7.0362940558
 30
0.0
 10
4.5437098121
 20
7.0360605523
 30
0.0
  0
SPLINE
  5
421
100
AcDbEntity
  8
0
100
AcDbSpline
 62
7
  6
CONTINUOUS
 70
0
 71
3
 72
14
 73
10
 74
0
 42
0.0000001
 43
0.0000001
 44
0.0000000001
 40
0.0
 40
0.0
 40
0.0
 40
0.0
 40
0.1663873449
 40
0.3251133038
 40
0.4711879814
 40
0.6027509423
 40
0.7200499905
 40
0.8243316337
 40
1.0
 40
1.0
 40
1.0
 40
1.0
 10
4.5448627985
 20
7.0411366758
 30
0.0
 10
4.5448627985
 20
7.0408380869
 30
0.0
 10
4.544885225
 20
7.040254394
 30
0.0
 10
4.5449827876
 20
7.0394136626
 30
0.0
 10
4.5451336883
 20
7.0386444058
 30
0.0
 10
4.5453256685
 20
7.0379614058
 30
0.0
 10
4.5455480131
 20
7.037366946
 30
0.0
 10
4.5458562808
 20
7.0367237754
 30
0.0
 10
4.5461351141
 20
7.0363001816
 30
0.0
 10
4.5463399474
 20
7.0360605523
 30
0.0
  0
SPLINE
  5
422
100
AcDbEntity
  8
0
100
AcDbSpline
 62
7
  6
CONTINUOUS
 70
0
 71
3
 72
15
 73
11
 74
0
 42
0.0000001
 43
0.0000001
 44
0.0000000001
 40
0.0
 40
0.0
 40
0.0
 40
0.0
 40
0.1706597052
 40
0.3330069764
 40
0.4815711055
 40
0.6142143607
 40
0.7310473789
 40
0.833248817
 40
0.9223688955
 40
1.0
 40
1.0
 40
1.0
 40
1.0
 10
4.5487314988
 20
7.0411366758
 30
0.0
 10
4.5487314988
 20
7.0408381908
 30
0.0
 10
4.5487478742
 20
7.040255618
 30
0.0
 10
4.5488191537
 20
7.0394159283
 30
0.0
 10
4.5489294023
 20
7.0386475628
 30
0.0
 10
4.5490696843
 20
7.037965212
 30
0.0
 10
4.5492320588
 20
7.0373714759
 30
0.0
 10
4.549410427
 20
7.0368623511
 30
0.0
 10
4.549600348
 20
7.0364314553
 30
0.0
 10
4.549741519
 20
7.0361756305
 30
0.0
 10
4.549813578
 20
7.0360605523
 30
0.0
  0
SPLINE
  5
423
100
AcDbEntity
  8
0
100
AcDbSpline
 62
7
  6
CONTINUOUS
 70
0
 71
3
 72
14
 73
10
 74
0
 42
0.0000001
 43
0.0000001
 44
0.0000000001
 40
0.0
 40
0.0
 40
0.0
 40
0.0
 40
0.3391725331
 40
0.4897452479
 40
0.6233217306
 40
0.7398897363
 40
0.8405439633
 40
0.9267509439
 40
1.0
 40
1.0
 40
1.0
 40
1.0
 10
4.5534238803
 20
7.0411366758
 30
0.0
 10
4.5534238803
 20
7.0405550413
 30
0.0
 10
4.5534520837
 20
7.0397146886
 30
0.0
 10
4.553547634
 20
7.0386498754
 30
0.0
 10
4.5536353674
 20
7.0379681286
 30
0.0
 10
4.5537368659
 20
7.0373749939
 30
0.0
 10
4.5538482986
 20
7.0368665014
 30
0.0
 10
4.5539668564
 20
7.0364362666
 30
0.0
 10
4.5540560438
 20
7.0361774854
 30
0.0
 10
4.5541019247
 20
7.0360605523
 30
0.0
  0
LINE
  5
424
100
AcDbEntity
  8
0
100
AcDbLine
 62
7
  6
CONTINUOUS
 10
4.5589010662
 20
7.0411366758
 11
4.5591694582
 21
7.0360605523
  0
SPLINE
  5
425
100
AcDbEntity
  8
0
100
AcDbSpline
 62
7
  6
CONTINUOUS
 70
0
 71
3
 72
11
 73
7
 74
0
 42
0.0000001
 43
0.0000001
 44
0.0000000001
 40
0.0
 40
0.0
 40
0.0
 40
0.0
 40
0.2003698836
 40
0.4297526342
 40
0.6977151507
 40
1.0
 40
1.0
 40
1.0
 40
1.0
 10
4.7548992147
 20
7.0360605523
 30
0.0
 10
4.7552144001
 20
7.0362873388
 30
0.0
 10
4.7558354729
 20
7.0368543703
 30
0.0
 10
4.756606509
 20
7.0379794568
 30
0.0
 10
4.7571646531
 20
7.0394404225
 30
0.0
 10
4.7573008806
 20
7.040550879
 30
0.0
 10
4.7573008806
 20
7.0411366758
 30
0.0
  0
SPLINE
  5
426
100
AcDbEntity
  8
0
100
AcDbSpline
 62
7
  6
CONTINUOUS
 70
0
 71
3
 72
13
 73
9
 74
0
 42
0.0000001
 43
0.0000001
 44
0.0000000001
 40
0.0
 40
0.0
 40
0.0
 40
0.0
 40
0.1492321899
 40
0.2936631566
 40
0.4303281107
 40
0.5583704562
 40
0.7907830445
 40
1.0
 40
1.0
 40
1.0
 40
1.0
 10
4.7580900689
 20
7.0411366758
 30
0.0
 10
4.7580900689
 20
7.0408375391
 30
0.0
 10
4.7580477223
 20
7.040247993
 30
0.0
 10
4.7578642256
 20
7.0394024006
 30
0.0
 10
4.7575808958
 20
7.038629969
 30
0.0
 10
4.7571163982
 20
7.037745733
 30
0.0
 10
4.7564022251
 20
7.0368396947
 30
0.0
 10
4.7557026965
 20
7.0362841431
 30
0.0
 10
4.7553478953
 20
7.0360605523
 30
0.0
  0
LINE
  5
427
100
AcDbEntity
  8
0
100
AcDbLine
 62
7
  6
CONTINUOUS
 10
4.7342703451
 20
7.0360605523
 11
4.7343296653
 21
7.0411366758
  0
SPLINE
  5
428
100
AcDbEntity
  8
0
100
AcDbSpline
 62
7
  6
CONTINUOUS
 70
0
 71
3
 72
13
 73
9
 74
0
 42
0.0000001
 43
0.0000001
 44
0.0000000001
 40
0.0
 40
0.0
 40
0.0
 40
0.0
 40
0.0716440661
 40
0.1568068896
 40
0.2569193774
 40
0.3734061138
 40
0.658591662
 40
1.0
 40
1.0
 40
1.0
 40
1.0
 10
4.7397178418
 20
7.0360605523
 30
0.0
 10
4.7397498977
 20
7.036178282
 30
0.0
 10
4.7398119698
 20
7.0364381723
 30
0.0
 10
4.7398941044
 20
7.0368680597
 30
0.0
 10
4.7399713517
 20
7.0373762591
 30
0.0
 10
4.7400720015
 20
7.0382250204
 30
0.0
 10
4.7401633423
 20
7.0394879154
 30
0.0
 10
4.7401883695
 20
7.040555229
 30
0.0
 10
4.7401883695
 20
7.0411366758
 30
0.0
  0
SPLINE
  5
429
100
AcDbEntity
  8
0
100
AcDbSpline
 62
7
  6
CONTINUOUS
 70
0
 71
3
 72
14
 73
10
 74
0
 42
0.0000001
 43
0.0000001
 44
0.0000000001
 40
0.0
 40
0.0
 40
0.0
 40
0.0
 40
0.0752383228
 40
0.1627585733
 40
0.2641066081
 40
0.3807925777
 40
0.5139522393
 40
0.6636301455
 40
1.0
 40
1.0
 40
1.0
 40
1.0
 10
4.7444066839
 20
7.0360605523
 30
0.0
 10
4.7444656302
 20
7.0361765919
 30
0.0
 10
4.7445806725
 20
7.0364340167
 30
0.0
 10
4.7447344473
 20
7.0368646012
 30
0.0
 10
4.7448789202
 20
7.0373734103
 30
0.0
 10
4.7450104712
 20
7.0379668284
 30
0.0
 10
4.7451241624
 20
7.0386488645
 30
0.0
 10
4.7452478741
 20
7.0397131511
 30
0.0
 10
4.7452845207
 20
7.0405547968
 30
0.0
 10
4.7452845207
 20
7.0411366758
 30
0.0
  0
SPLINE
  5
42A
100
AcDbEntity
  8
0
100
AcDbSpline
 62
7
  6
CONTINUOUS
 70
0
 71
3
 72
15
 73
11
 74
0
 42
0.0000001
 43
0.0000001
 44
0.0000000001
 40
0.0
 40
0.0
 40
0.0
 40
0.0
 40
0.0802064762
 40
0.1710814357
 40
0.2742433719
 40
0.3912706335
 40
0.5233793238
 40
0.670747849
 40
0.8313698653
 40
1.0
 40
1.0
 40
1.0
 40
1.0
 10
4.748298024
 20
7.0360605523
 30
0.0
 10
4.7483824487
 20
7.0361747206
 30
0.0
 10
4.7485483615
 20
7.0364288888
 30
0.0
 10
4.7487730412
 20
7.0368599948
 30
0.0
 10
4.7489840081
 20
7.0373693805
 30
0.0
 10
4.7491760222
 20
7.037963413
 30
0.0
 10
4.7493418941
 20
7.0386461069
 30
0.0
 10
4.7494722495
 20
7.0394148858
 30
0.0
 10
4.7495565302
 20
7.0402550588
 30
0.0
 10
4.749575897
 20
7.0408381434
 30
0.0
 10
4.749575897
 20
7.0411366758
 30
0.0
  0
SPLINE
  5
42B
100
AcDbEntity
  8
0
100
AcDbSpline
 62
7
  6
CONTINUOUS
 70
0
 71
3
 72
13
 73
9
 74
0
 42
0.0000001
 43
0.0000001
 44
0.0000000001
 40
0.0
 40
0.0
 40
0.0
 40
0.0
 40
0.1805285636
 40
0.2859839479
 40
0.4035989705
 40
0.534638291
 40
0.6794135021
 40
1.0
 40
1.0
 40
1.0
 40
1.0
 10
4.7513596222
 20
7.0360605523
 30
0.0
 10
4.7515877529
 20
7.0362969962
 30
0.0
 10
4.7519023981
 20
7.0367182343
 30
0.0
 10
4.7522523968
 20
7.0373646255
 30
0.0
 10
4.752503713
 20
7.0379592701
 30
0.0
 10
4.7527207306
 20
7.0386426718
 30
0.0
 10
4.7529557373
 20
7.0397034062
 30
0.0
 10
4.753026944
 20
7.0405532183
 30
0.0
 10
4.753026944
 20
7.0411366758
 30
0.0
  0
SPLINE
  5
42C
100
AcDbEntity
  8
0
100
AcDbSpline
 62
7
  6
CONTINUOUS
 70
0
 71
3
 72
11
 73
7
 74
0
 42
0.0000001
 43
0.0000001
 44
0.0000000001
 40
0.0
 40
0.0
 40
0.0
 40
0.0
 40
0.1906303751
 40
0.4166968919
 40
0.6884429259
 40
1.0
 40
1.0
 40
1.0
 40
1.0
 10
4.7535661127
 20
7.0360605523
 30
0.0
 10
4.753839187
 20
7.0362915381
 30
0.0
 10
4.7543750587
 20
7.0368714355
 30
0.0
 10
4.7550263457
 20
7.0379980495
 30
0.0
 10
4.7554954064
 20
7.0394537798
 30
0.0
 10
4.7556090696
 20
7.040552126
 30
0.0
 10
4.7556090696
 20
7.0411366758
 30
0.0
  0
SPLINE
  5
42D
100
AcDbEntity
  8
0
100
AcDbSpline
 62
7
  6
CONTINUOUS
 70
0
 71
3
 72
13
 73
9
 74
0
 42
0.0000001
 43
0.0000001
 44
0.0000000001
 40
0.0
 40
0.0
 40
0.0
 40
0.0
 40
0.2129286835
 40
0.4467060319
 40
0.5743735077
 40
0.7099609569
 40
0.8527418767
 40
1.0
 40
1.0
 40
1.0
 40
1.0
 10
5.6345408636
 20
2.7876611025
 30
0.0
 10
5.6341699905
 20
2.7878841012
 30
0.0
 10
5.6334391713
 20
2.7884359796
 30
0.0
 10
5.6326849109
 20
2.7893428798
 30
0.0
 10
5.6321941322
 20
2.7902287083
 30
0.0
 10
5.631895066
 20
2.7910008873
 30
0.0
 10
5.6317010315
 20
2.7918469237
 30
0.0
 10
5.6316561886
 20
2.7924373906
 30
0.0
 10
5.6316561886
 20
2.7927366758
 30
0.0
  0
SPLINE
  5
42E
100
AcDbEntity
  8
0
100
AcDbSpline
 62
7
  6
CONTINUOUS
 70
0
 71
3
 72
14
 73
10
 74
0
 42
0.0000001
 43
0.0000001
 44
0.0000000001
 40
0.0
 40
0.0
 40
0.0
 40
0.0
 40
0.2193149875
 40
0.3350427003
 40
0.4559788086
 40
0.5830358192
 40
0.7167163071
 40
0.8564605455
 40
1.0
 40
1.0
 40
1.0
 40
1.0
 10
5.6352806438
 20
2.7876611025
 30
0.0
 10
5.6348801396
 20
2.7878822908
 30
0.0
 10
5.634299717
 20
2.7882837009
 30
0.0
 10
5.6336169466
 20
2.7889484069
 30
0.0
 10
5.6331404892
 20
2.7895417206
 30
0.0
 10
5.6327273612
 20
2.7902253095
 30
0.0
 10
5.6324010626
 20
2.7909978623
 30
0.0
 10
5.632189056
 20
2.7918450904
 30
0.0
 10
5.6321399999
 20
2.7924372312
 30
0.0
 10
5.6321399999
 20
2.7927366758
 30
0.0
  0
SPLINE
  5
42F
100
AcDbEntity
  8
0
100
AcDbSpline
 62
7
  6
CONTINUOUS
 70
0
 71
3
 72
98
 73
94
 74
0
 42
0.0000001
 43
0.0000001
 44
0.0000000001
 40
0.0
 40
0.0
 40
0.0
 40
0.0
 40
0.0000033136
 40
0.0000130461
 40
0.0000291927
 40
0.0000517483
 40
0.0001160665
 40
0.0002059601
 40
0.0003213888
 40
0.0004623122
 40
0.0006286898
 40
0.0008204812
 40
0.001280136
 40
0.0018409038
 40
0.0025023979
 40
0.0032642318
 40
0.0041259769
 40
0.0050868533
 40
0.0073021821
 40
0.0099024915
 40
0.012879366
 40
0.0162239897
 40
0.0199265664
 40
0.0239765626
 40
0.0283629544
 40
0.038098392
 40
0.0490408849
 40
0.0610983118
 40
0.0741785576
 40
0.0881949409
 40
0.1030667806
 40
0.1187179272
 40
0.1350775211
 40
0.1696790726
 40
0.2064301707
 40
0.2449761151
 40
0.264829568
 40
0.285026691
 40
0.3055403019
 40
0.3263433372
 40
0.3474098771
 40
0.3687170743
 40
0.3902388522
 40
0.4119475724
 40
0.433814421
 40
0.4558052614
 40
0.4778815301
 40
0.5000020835
 40
0.5221226381
 40
0.5441989026
 40
0.5661897543
 40
0.5880565889
 40
0.6097653139
 40
0.6312870999
 40
0.6525942868
 40
0.6736608079
 40
0.7149733154
 40
0.7351703917
 40
0.755023888
 40
0.7935698039
 40
0.8303209551
 40
0.8649224652
 40
0.8812820706
 40
0.8969332281
 40
0.9118050535
 40
0.9258214271
 40
0.9389017007
 40
0.9509591242
 40
0.9619015889
 40
0.9716370363
 40
0.9760234443
 40
0.9800734385
 40
0.9837760036
 40
0.987120637
 40
0.9900975413
 40
0.9926978574
 40
0.9949131495
 40
0.995874001
 40
0.9967357235
 40
0.9974975404
 40
0.9981590242
 40
0.9987197892
 40
0.9991794496
 40
0.999371247
 40
0.9995376323
 40
0.9996785646
 40
0.999794003
 40
0.9998839066
 40
0.9999482345
 40
0.9999707948
 40
0.9999869459
 40
0.9999966826
 40
1.0
 40
1.0
 40
1.0
 40
1.0
 10
5.3261489938
 20
4.5971366758
 30
0.0
 10
5.3261487397
 20
4.597136738
 30
0.0
 10
5.3261479953
 20
4.5971375453
 30
0.0
 10
5.3261460373
 20
4.5971386959
 30
0.0
 10
5.3261429888
 20
4.5971410487
 30
0.0
 10
5.326136372
 20
4.597145754
 30
0.0
 10
5.3261250996
 20
4.5971540026
 30
0.0
 10
5.3261078668
 20
4.5971664943
 30
0.0
 10
5.3260857638
 20
4.5971825858
 30
0.0
 10
5.3260587796
 20
4.5972022277
 30
0.0
 10
5.3260269318
 20
4.5972254348
 30
0.0
 10
5.3259747576
 20
4.5972634783
 30
0.0
 10
5.3258974525
 20
4.5973199093
 30
0.0
 10
5.3257902017
 20
4.5973982167
 30
0.0
 10
5.3256636646
 20
4.5974905696
 30
0.0
 10
5.3255178929
 20
4.5975968777
 30
0.0
 10
5.3253529617
 20
4.5977170303
 30
0.0
 10
5.3250951876
 20
4.5979046387
 30
0.0
 10
5.3247262622
 20
4.5981727962
 30
0.0
 10
5.3242283612
 20
4.5985342361
 30
0.0
 10
5.3236579595
 20
4.598947581
 30
0.0
 10
5.323016605
 20
4.599411329
 30
0.0
 10
5.3223059803
 20
4.5999238784
 30
0.0
 10
5.3215279051
 20
4.6004835177
 30
0.0
 10
5.3203619355
 20
4.6013196115
 30
0.0
 10
5.3187510545
 20
4.6024691136
 30
0.0
 10
5.3166415866
 20
4.6039625921
 30
0.0
 10
5.3143092911
 20
4.6055983319
 30
0.0
 10
5.3117695902
 20
4.6073609612
 30
0.0
 10
5.3090366655
 20
4.6092348336
 30
0.0
 10
5.3061233166
 20
4.611204396
 30
0.0
 10
5.3030414738
 20
4.613254898
 30
0.0
 10
5.2986391941
 20
4.6161326721
 30
0.0
 10
5.2927876172
 20
4.6198376692
 30
0.0
 10
5.2853487162
 20
4.6243065065
 30
0.0
 10
5.278792583
 20
4.6279783015
 30
0.0
 10
5.2732929463
 20
4.6308537803
 30
0.0
 10
5.2690074399
 20
4.6329762517
 30
0.0
 10
5.2646016243
 20
4.635021551
 30
0.0
 10
5.2600763765
 20
4.6369682518
 30
0.0
 10
5.2554330455
 20
4.6387932554
 30
0.0
 10
5.2506721225
 20
4.6404657295
 30
0.0
 10
5.2457984537
 20
4.6419584212
 30
0.0
 10
5.2408192454
 20
4.6432408916
 30
0.0
 10
5.2357452732
 20
4.6442795662
 30
0.0
 10
5.2305934299
 20
4.6450456999
 30
0.0
 10
5.2253859528
 20
4.6455189413
 30
0.0
 10
5.2201489946
 20
4.645675103
 30
0.0
 10
5.2149120347
 20
4.6455189589
 30
0.0
 10
5.2097045618
 20
4.6450456739
 30
0.0
 10
5.2045527102
 20
4.6442795989
 30
0.0
 10
5.1994787468
 20
4.6432408784
 30
0.0
 10
5.194499536
 20
4.6419584127
 30
0.0
 10
5.1896258689
 20
4.6404657461
 30
0.0
 10
5.1848649174
 20
4.6387932507
 30
0.0
 10
5.1787143792
 20
4.636375781
 30
0.0
 10
5.1727620545
 20
4.6337050661
 30
0.0
 10
5.1670050991
 20
4.6308537654
 30
0.0
 10
5.1615053801
 20
4.6279783092
 30
0.0
 10
5.1549492911
 20
4.6243064862
 30
0.0
 10
5.1475103541
 20
4.6198376939
 30
0.0
 10
5.1416587991
 20
4.6161326621
 30
0.0
 10
5.137256514
 20
4.6132548986
 30
0.0
 10
5.1341746682
 20
4.6112044
 30
0.0
 10
5.1312613232
 20
4.6092348337
 30
0.0
 10
5.1285284019
 20
4.6073609558
 30
0.0
 10
5.125988693
 20
4.605598336
 30
0.0
 10
5.1236563984
 20
4.6039625954
 30
0.0
 10
5.1215469375
 20
4.6024691101
 30
0.0
 10
5.1199360558
 20
4.6013196092
 30
0.0
 10
5.1187700811
 20
4.6004835194
 30
0.0
 10
5.1179920059
 20
4.5999238797
 30
0.0
 10
5.1172813836
 20
4.5994113276
 30
0.0
 10
5.1166400266
 20
4.5989475791
 30
0.0
 10
5.1160696178
 20
4.5985342378
 30
0.0
 10
5.1155717152
 20
4.5981728002
 30
0.0
 10
5.115202797
 20
4.5979046402
 30
0.0
 10
5.114945032
 20
4.5977170305
 30
0.0
 10
5.1147801075
 20
4.5975968774
 30
0.0
 10
5.1146343409
 20
4.597490569
 30
0.0
 10
5.1145078068
 20
4.597398216
 30
0.0
 10
5.1144005568
 20
4.5973199085
 30
0.0
 10
5.1143232507
 20
4.5972634777
 30
0.0
 10
5.1142710742
 20
4.5972254347
 30
0.0
 10
5.1142392241
 20
4.5972022279
 30
0.0
 10
5.1142122372
 20
4.597182586
 30
0.0
 10
5.1141901313
 20
4.5971664947
 30
0.0
 10
5.1141728956
 20
4.597154003
 30
0.0
 10
5.1141616208
 20
4.5971457545
 30
0.0
 10
5.1141550023
 20
4.597141049
 30
0.0
 10
5.1141519524
 20
4.5971386964
 30
0.0
 10
5.1141499936
 20
4.5971375451
 30
0.0
 10
5.1141492482
 20
4.5971367381
 30
0.0
 10
5.1141489938
 20
4.5971366758
 30
0.0
  0
SPLINE
  5
430
100
AcDbEntity
  8
0
100
AcDbSpline
 62
7
  6
CONTINUOUS
 70
0
 71
3
 72
14
 73
10
 74
0
 42
0.0000001
 43
0.0000001
 44
0.0000000001
 40
0.0
 40
0.0
 40
0.0
 40
0.0
 40
0.2251258181
 40
0.3425521966
 40
0.4641731658
 40
0.5907672415
 40
0.7227899116
 40
0.8598194841
 40
1.0
 40
1.0
 40
1.0
 40
1.0
 10
5.6367584512
 20
2.7876611025
 30
0.0
 10
5.636330406
 20
2.7878808497
 30
0.0
 10
5.635708328
 20
2.7882795021
 30
0.0
 10
5.6349710929
 20
2.7889459581
 30
0.0
 10
5.6344583814
 20
2.7895387424
 30
0.0
 10
5.6340134692
 20
2.7902220608
 30
0.0
 10
5.6336616968
 20
2.7909949211
 30
0.0
 10
5.633432858
 20
2.7918432509
 30
0.0
 10
5.6333798249
 20
2.792437071
 30
0.0
 10
5.6333798249
 20
2.7927366758
 30
0.0
  0
SPLINE
  5
431
100
AcDbEntity
  8
0
100
AcDbSpline
 62
7
  6
CONTINUOUS
 70
0
 71
3
 72
14
 73
10
 74
0
 42
0.0000001
 43
0.0000001
 44
0.0000000001
 40
0.0
 40
0.0
 40
0.0
 40
0.0
 40
0.2302673516
 40
0.3492271699
 40
0.4714925027
 40
0.5977066247
 40
0.728264766
 40
0.8628565182
 40
1.0
 40
1.0
 40
1.0
 40
1.0
 10
5.6389658227
 20
2.7876611025
 30
0.0
 10
5.6385124637
 20
2.7878796996
 30
0.0
 10
5.637852301
 20
2.7882760157
 30
0.0
 10
5.6370650122
 20
2.7889438522
 30
0.0
 10
5.6365190592
 20
2.789536091
 30
0.0
 10
5.6360449647
 20
2.7902190608
 30
0.0
 10
5.6356697251
 20
2.7909921132
 30
0.0
 10
5.6354253007
 20
2.7918414513
 30
0.0
 10
5.6353685633
 20
2.7924369137
 30
0.0
 10
5.6353685633
 20
2.7927366758
 30
0.0
  0
SPLINE
  5
432
100
AcDbEntity
  8
0
100
AcDbSpline
 62
7
  6
CONTINUOUS
 70
0
 71
3
 72
13
 73
9
 74
0
 42
0.0000001
 43
0.0000001
 44
0.0000000001
 40
0.0
 40
0.0
 40
0.0
 40
0.0
 40
0.2348616801
 40
0.4776949183
 40
0.6036586947
 40
0.733000726
 40
0.8654978319
 40
1.0
 40
1.0
 40
1.0
 40
1.0
 10
5.6418901166
 20
2.7876611025
 30
0.0
 10
5.641413809
 20
2.7878787813
 30
0.0
 10
5.6404812436
 20
2.7884077664
 30
0.0
 10
5.6394691431
 20
2.7893174973
 30
0.0
 10
5.6388101771
 20
2.7902163251
 30
0.0
 10
5.6384135924
 20
2.7909895075
 30
0.0
 10
5.6381549652
 20
2.7918397341
 30
0.0
 10
5.6380948255
 20
2.7924367645
 30
0.0
 10
5.6380948255
 20
2.7927366758
 30
0.0
  0
SPLINE
  5
433
100
AcDbEntity
  8
0
100
AcDbSpline
 62
7
  6
CONTINUOUS
 70
0
 71
3
 72
13
 73
9
 74
0
 42
0.0000001
 43
0.0000001
 44
0.0000000001
 40
0.0
 40
0.0
 40
0.0
 40
0.0
 40
0.2387176996
 40
0.4832686898
 40
0.6089861722
 40
0.7372352192
 40
0.8678593893
 40
1.0
 40
1.0
 40
1.0
 40
1.0
 10
5.6455145855
 20
2.7876611025
 30
0.0
 10
5.6450178314
 20
2.7878780483
 30
0.0
 10
5.6440467808
 20
2.7884035531
 30
0.0
 10
5.6429850719
 20
2.7893130166
 30
0.0
 10
5.6422931371
 20
2.7902139166
 30
0.0
 10
5.6418775721
 20
2.7909871153
 30
0.0
 10
5.6416062032
 20
2.7918381295
 30
0.0
 10
5.6415429984
 20
2.7924366215
 30
0.0
 10
5.6415429984
 20
2.7927366758
 30
0.0
  0
SPLINE
  5
434
100
AcDbEntity
  8
0
100
AcDbSpline
 62
7
  6
CONTINUOUS
 70
0
 71
3
 72
13
 73
9
 74
0
 42
0.0000001
 43
0.0000001
 44
0.0000000001
 40
0.0
 40
0.0
 40
0.0
 40
0.0
 40
0.241969115
 40
0.4879974458
 40
0.6135207652
 40
0.7408508024
 40
0.8698807241
 40
1.0
 40
1.0
 40
1.0
 40
1.0
 10
5.6498184721
 20
2.7876611025
 30
0.0
 10
5.6493038919
 20
2.7878774682
 30
0.0
 10
5.6482993973
 20
2.7884001641
 30
0.0
 10
5.647194592
 20
2.7893092535
 30
0.0
 10
5.6464738744
 20
2.7902118403
 30
0.0
 10
5.6460417647
 20
2.7909850017
 30
0.0
 10
5.6457592384
 20
2.7918366827
 30
0.0
 10
5.6456933341
 20
2.7924364934
 30
0.0
 10
5.6456933341
 20
2.7927366758
 30
0.0
  0
SPLINE
  5
435
100
AcDbEntity
  8
0
100
AcDbSpline
 62
7
  6
CONTINUOUS
 70
0
 71
3
 72
13
 73
9
 74
0
 42
0.0000001
 43
0.0000001
 44
0.0000000001
 40
0.0
 40
0.0
 40
0.0
 40
0.0
 40
0.2446422976
 40
0.4919047505
 40
0.6172779513
 40
0.7438545157
 40
0.8715634054
 40
1.0
 40
1.0
 40
1.0
 40
1.0
 10
5.6547771282
 20
2.7876611025
 30
0.0
 10
5.6542474519
 20
2.7878770152
 30
0.0
 10
5.6532147017
 20
2.7883974855
 30
0.0
 10
5.6520735149
 20
2.7893061699
 30
0.0
 10
5.6513284021
 20
2.7902100989
 30
0.0
 10
5.6508822861
 20
2.7909831906
 30
0.0
 10
5.6505902754
 20
2.7918354205
 30
0.0
 10
5.650522064
 20
2.7924363812
 30
0.0
 10
5.650522064
 20
2.7927366758
 30
0.0
  0
SPLINE
  5
436
100
AcDbEntity
  8
0
100
AcDbSpline
 62
7
  6
CONTINUOUS
 70
0
 71
3
 72
13
 73
9
 74
0
 42
0.0000001
 43
0.0000001
 44
0.0000000001
 40
0.0
 40
0.0
 40
0.0
 40
0.0
 40
0.2467618691
 40
0.4950153049
 40
0.6202757229
 40
0.7462564001
 40
0.872911243
 40
1.0
 40
1.0
 40
1.0
 40
1.0
 10
5.6603621555
 20
2.7876611025
 30
0.0
 10
5.6598202057
 20
2.7878766706
 30
0.0
 10
5.6587645216
 20
2.7883954291
 30
0.0
 10
5.6575938345
 20
2.7893037331
 30
0.0
 10
5.6568288791
 20
2.7902086964
 30
0.0
 10
5.6563713809
 20
2.7909817059
 30
0.0
 10
5.6560716357
 20
2.7918343698
 30
0.0
 10
5.6560015337
 20
2.7924362876
 30
0.0
 10
5.6560015337
 20
2.7927366758
 30
0.0
  0
SPLINE
  5
437
100
AcDbEntity
  8
0
100
AcDbSpline
 62
7
  6
CONTINUOUS
 70
0
 71
3
 72
13
 73
9
 74
0
 42
0.0000001
 43
0.0000001
 44
0.0000000001
 40
0.0
 40
0.0
 40
0.0
 40
0.0
 40
0.2483487389
 40
0.497351272
 40
0.6225309357
 40
0.7480664739
 40
0.8739283659
 40
1.0
 40
1.0
 40
1.0
 40
1.0
 10
5.6665415687
 20
2.7876611025
 30
0.0
 10
5.6659902439
 20
2.7878764205
 30
0.0
 10
5.6649170621
 20
2.7883939278
 30
0.0
 10
5.6637238884
 20
2.7893019142
 30
0.0
 10
5.6629437733
 20
2.790207634
 30
0.0
 10
5.6624775848
 20
2.7909805652
 30
0.0
 10
5.6621719178
 20
2.7918335526
 30
0.0
 10
5.6621003626
 20
2.7924362146
 30
0.0
 10
5.6621003626
 20
2.7927366758
 30
0.0
  0
LINE
  5
438
100
AcDbEntity
  8
0
100
AcDbLine
 62
7
  6
CONTINUOUS
 10
5.6668416974
 20
2.7927366758
 11
5.6665415687
 21
2.7876611025
  0
SPLINE
  5
439
100
AcDbEntity
  8
0
100
AcDbSpline
 62
7
  6
CONTINUOUS
 70
0
 71
3
 72
13
 73
9
 74
0
 42
0.0000001
 43
0.0000001
 44
0.0000000001
 40
0.0
 40
0.0
 40
0.0
 40
0.0
 40
0.2494192802
 40
0.4989306312
 40
0.624057622
 40
0.7492933708
 40
0.8746184774
 40
1.0
 40
1.0
 40
1.0
 40
1.0
 10
5.6732799783
 20
2.7876611025
 30
0.0
 10
5.6727222348
 20
2.7878762556
 30
0.0
 10
5.6716370823
 20
2.7883929333
 30
0.0
 10
5.6704285368
 20
2.78930069
 30
0.0
 10
5.6696380417
 20
2.7902069113
 30
0.0
 10
5.6691659057
 20
2.7909797813
 30
0.0
 10
5.6688561774
 20
2.7918329859
 30
0.0
 10
5.6687836227
 20
2.7924361639
 30
0.0
 10
5.6687836227
 20
2.7927366758
 30
0.0
  0
SPLINE
  5
43A
100
AcDbEntity
  8
0
100
AcDbSpline
 62
7
  6
CONTINUOUS
 70
0
 71
3
 72
14
 73
10
 74
0
 42
0.0000001
 43
0.0000001
 44
0.0000000001
 40
0.0
 40
0.0
 40
0.0
 40
0.0
 40
0.3396608061
 40
0.4902887876
 40
0.6238310977
 40
0.7403211916
 40
0.8408731851
 40
0.9269459476
 40
1.0
 40
1.0
 40
1.0
 40
1.0
 10
5.6739211394
 20
2.7927366758
 30
0.0
 10
5.6739211394
 20
2.7921550868
 30
0.0
 10
5.673894384
 20
2.7913151275
 30
0.0
 10
5.673803818
 20
2.7902506484
 30
0.0
 10
5.6737207895
 20
2.7895694807
 30
0.0
 10
5.6736248281
 20
2.7889767411
 30
0.0
 10
5.6735195509
 20
2.7884683181
 30
0.0
 10
5.6734075971
 20
2.7880378045
 30
0.0
 10
5.673323349
 20
2.7877784308
 30
0.0
 10
5.6732799783
 20
2.7876611025
 30
0.0
  0
SPLINE
  5
43B
100
AcDbEntity
  8
0
100
AcDbSpline
 62
7
  6
CONTINUOUS
 70
0
 71
3
 72
13
 73
9
 74
0
 42
0.0000001
 43
0.0000001
 44
0.0000000001
 40
0.0
 40
0.0
 40
0.0
 40
0.0
 40
0.2499848578
 40
0.4997661446
 40
0.6248659007
 40
0.7499434421
 40
0.8749843617
 40
1.0
 40
1.0
 40
1.0
 40
1.0
 10
5.6805387936
 20
2.7876611025
 30
0.0
 10
5.6799776276
 20
2.7878761697
 30
0.0
 10
5.678886095
 20
2.7883924137
 30
0.0
 10
5.6776693606
 20
2.7893000442
 30
0.0
 10
5.6768733308
 20
2.7902065276
 30
0.0
 10
5.6763980243
 20
2.7909793624
 30
0.0
 10
5.6760861283
 20
2.7918326814
 30
0.0
 10
5.676013039
 20
2.7924361366
 30
0.0
 10
5.676013039
 20
2.7927366758
 30
0.0
  0
SPLINE
  5
43C
100
AcDbEntity
  8
0
100
AcDbSpline
 62
7
  6
CONTINUOUS
 70
0
 71
3
 72
15
 73
11
 74
0
 42
0.0000001
 43
0.0000001
 44
0.0000000001
 40
0.0
 40
0.0
 40
0.0
 40
0.0
 40
0.171694167
 40
0.3348592748
 40
0.4839211337
 40
0.6167336305
 40
0.7334250666
 40
0.8351765872
 40
0.9235176108
 40
1.0
 40
1.0
 40
1.0
 40
1.0
 10
5.6815173151
 20
2.7927366758
 30
0.0
 10
5.6815173151
 20
2.7924381524
 30
0.0
 10
5.6815024587
 20
2.7918558184
 30
0.0
 10
5.6814378263
 20
2.7910165523
 30
0.0
 10
5.6813379734
 20
2.7902488585
 30
0.0
 10
5.6812110727
 20
2.7895672198
 30
0.0
 10
5.6810643387
 20
2.7889739999
 30
0.0
 10
5.680903282
 20
2.7884650543
 30
0.0
 10
5.6807318942
 20
2.7880339696
 30
0.0
 10
5.6806041336
 20
2.7877769222
 30
0.0
 10
5.6805387936
 20
2.7876611025
 30
0.0
  0
SPLINE
  5
43D
100
AcDbEntity
  8
0
100
AcDbSpline
 62
7
  6
CONTINUOUS
 70
0
 71
3
 72
13
 73
9
 74
0
 42
0.0000001
 43
0.0000001
 44
0.0000000001
 40
0.0
 40
0.0
 40
0.0
 40
0.0
 40
0.2500515697
 40
0.4998647494
 40
0.6249613235
 40
0.7500202092
 40
0.8750275778
 40
1.0
 40
1.0
 40
1.0
 40
1.0
 10
5.6882764435
 20
2.7876611025
 30
0.0
 10
5.6877148723
 20
2.7878761596
 30
0.0
 10
5.6866225845
 20
2.7883923527
 30
0.0
 10
5.6854048811
 20
2.7892999681
 30
0.0
 10
5.6846081959
 20
2.7902064823
 30
0.0
 10
5.6841325142
 20
2.7909793128
 30
0.0
 10
5.6838203615
 20
2.7918326452
 30
0.0
 10
5.6837472088
 20
2.7924361333
 30
0.0
 10
5.6837472088
 20
2.7927366758
 30
0.0
  0
SPLINE
  5
43E
100
AcDbEntity
  8
0
100
AcDbSpline
 62
7
  6
CONTINUOUS
 70
0
 71
3
 72
15
 73
11
 74
0
 42
0.0000001
 43
0.0000001
 44
0.0000000001
 40
0.0
 40
0.0
 40
0.0
 40
0.0
 40
0.1683364597
 40
0.3286497587
 40
0.4757378171
 40
0.6076691234
 40
0.7246814998
 40
0.8280178197
 40
0.9192567378
 40
1.0
 40
1.0
 40
1.0
 40
1.0
 10
5.6895867213
 20
2.7927366758
 30
0.0
 10
5.6895867213
 20
2.7924380737
 30
0.0
 10
5.6895667797
 20
2.7918548929
 30
0.0
 10
5.6894800582
 20
2.7910148301
 30
0.0
 10
5.6893460839
 20
2.7902464575
 30
0.0
 10
5.6891758098
 20
2.7895642548
 30
0.0
 10
5.6889788887
 20
2.7889705415
 30
0.0
 10
5.6887626732
 20
2.7884611487
 30
0.0
 10
5.6885324956
 20
2.7880296833
 30
0.0
 10
5.688362775
 20
2.7877753849
 30
0.0
 10
5.6882764435
 20
2.7876611025
 30
0.0
  0
SPLINE
  5
43F
100
AcDbEntity
  8
0
100
AcDbSpline
 62
7
  6
CONTINUOUS
 70
0
 71
3
 72
13
 73
9
 74
0
 42
0.0000001
 43
0.0000001
 44
0.0000000001
 40
0.0
 40
0.0
 40
0.0
 40
0.0
 40
0.2496201501
 40
0.4992272823
 40
0.6243445534
 40
0.7495240994
 40
0.8747483218
 40
1.0
 40
1.0
 40
1.0
 40
1.0
 10
5.6964486145
 20
2.7876611025
 30
0.0
 10
5.695889658
 20
2.787876225
 30
0.0
 10
5.694802244
 20
2.7883927483
 30
0.0
 10
5.6935907955
 20
2.7893004606
 30
0.0
 10
5.6927983388
 20
2.7902067752
 30
0.0
 10
5.6923250791
 20
2.7909796329
 30
0.0
 10
5.6920145827
 20
2.7918328782
 30
0.0
 10
5.6919418386
 20
2.7924361542
 30
0.0
 10
5.6919418386
 20
2.7927366758
 30
0.0
  0
SPLINE
  5
440
100
AcDbEntity
  8
0
100
AcDbSpline
 62
7
  6
CONTINUOUS
 70
0
 71
3
 72
13
 73
9
 74
0
 42
0.0000001
 43
0.0000001
 44
0.0000000001
 40
0.0
 40
0.0
 40
0.0
 40
0.0
 40
0.321422763
 40
0.4663717212
 40
0.5974319061
 40
0.7149479363
 40
0.8202004666
 40
1.0
 40
1.0
 40
1.0
 40
1.0
 10
5.6980831447
 20
2.7927366758
 30
0.0
 10
5.6980831447
 20
2.7921532985
 30
0.0
 10
5.6980131484
 20
2.7913040666
 30
0.0
 10
5.6977822268
 20
2.7902436013
 30
0.0
 10
5.6975693334
 20
2.7895608182
 30
0.0
 10
5.697323037
 20
2.7889665806
 30
0.0
 10
5.6969804531
 20
2.7883206634
 30
0.0
 10
5.6966724214
 20
2.7878985975
 30
0.0
 10
5.6964486145
 20
2.7876611025
 30
0.0
  0
SPLINE
  5
441
100
AcDbEntity
  8
0
100
AcDbSpline
 62
7
  6
CONTINUOUS
 70
0
 71
3
 72
13
 73
9
 74
0
 42
0.0000001
 43
0.0000001
 44
0.0000000001
 40
0.0
 40
0.0
 40
0.0
 40
0.0
 40
0.2486859228
 40
0.4978484159
 40
0.6230113316
 40
0.7484524007
 40
0.8741453835
 40
1.0
 40
1.0
 40
1.0
 40
1.0
 10
5.7050085047
 20
2.7876611025
 30
0.0
 10
5.7044551665
 20
2.7878763683
 30
0.0
 10
5.7033782291
 20
2.788393613
 30
0.0
 10
5.7021802317
 20
2.7893015283
 30
0.0
 10
5.7013968608
 20
2.7902074069
 30
0.0
 10
5.7009288065
 20
2.7909803196
 30
0.0
 10
5.7006218661
 20
2.7918333755
 30
0.0
 10
5.7005499979
 20
2.7924361987
 30
0.0
 10
5.7005499979
 20
2.7927366758
 30
0.0
  0
SPLINE
  5
442
100
AcDbEntity
  8
0
100
AcDbSpline
 62
7
  6
CONTINUOUS
 70
0
 71
3
 72
11
 73
7
 74
0
 42
0.0000001
 43
0.0000001
 44
0.0000000001
 40
0.0
 40
0.0
 40
0.0
 40
0.0
 40
0.3139839598
 40
0.5866042366
 40
0.811811109
 40
1.0
 40
1.0
 40
1.0
 40
1.0
 10
5.7069579264
 20
2.7927366758
 30
0.0
 10
5.7069579264
 20
2.7921524078
 30
0.0
 10
5.7068495468
 20
2.791057227
 30
0.0
 10
5.7064024153
 20
2.7896038261
 30
0.0
 10
5.7057824429
 20
2.7884777379
 30
0.0
 10
5.7052701249
 20
2.7878938791
 30
0.0
 10
5.7050085047
 20
2.7876611025
 30
0.0
  0
SPLINE
  5
443
100
AcDbEntity
  8
0
100
AcDbSpline
 62
7
  6
CONTINUOUS
 70
0
 71
3
 72
13
 73
9
 74
0
 42
0.0000001
 43
0.0000001
 44
0.0000000001
 40
0.0
 40
0.0
 40
0.0
 40
0.0
 40
0.2472389199
 40
0.4957169075
 40
0.6209527148
 40
0.7467994803
 40
0.8732162863
 40
1.0
 40
1.0
 40
1.0
 40
1.0
 10
5.7139070917
 20
2.7876611025
 30
0.0
 10
5.7133623407
 20
2.7878765947
 30
0.0
 10
5.7123014267
 20
2.7883949744
 30
0.0
 10
5.7111240164
 20
2.7893031858
 30
0.0
 10
5.7103545316
 20
2.7902083781
 30
0.0
 10
5.7098944364
 20
2.7909813656
 30
0.0
 10
5.709592923
 20
2.7918341269
 30
0.0
 10
5.7095223877
 20
2.7924362659
 30
0.0
 10
5.7095223877
 20
2.7927366758
 30
0.0
  0
SPLINE
  5
444
100
AcDbEntity
  8
0
100
AcDbSpline
 62
7
  6
CONTINUOUS
 70
0
 71
3
 72
11
 73
7
 74
0
 42
0.0000001
 43
0.0000001
 44
0.0000000001
 40
0.0
 40
0.0
 40
0.0
 40
0.0
 40
0.3062404249
 40
0.5756662119
 40
0.8036051445
 40
1.0
 40
1.0
 40
1.0
 40
1.0
 10
5.7161602406
 20
2.7927366758
 30
0.0
 10
5.7161602406
 20
2.792151402
 30
0.0
 10
5.7160330047
 20
2.7910464263
 30
0.0
 10
5.7155109607
 20
2.7895883988
 30
0.0
 10
5.7147897302
 20
2.7884629242
 30
0.0
 10
5.714204513
 20
2.7878900606
 30
0.0
 10
5.7139070917
 20
2.7876611025
 30
0.0
  0
SPLINE
  5
445
100
AcDbEntity
  8
0
100
AcDbSpline
 62
7
  6
CONTINUOUS
 70
0
 71
3
 72
13
 73
9
 74
0
 42
0.0000001
 43
0.0000001
 44
0.0000000001
 40
0.0
 40
0.0
 40
0.0
 40
0.0
 40
0.2452640756
 40
0.4928160958
 40
0.6181556337
 40
0.744557245
 40
0.8719575336
 40
1.0
 40
1.0
 40
1.0
 40
1.0
 10
5.7230934134
 20
2.7876611025
 30
0.0
 10
5.7225601654
 20
2.7878769128
 30
0.0
 10
5.7215207377
 20
2.7883968761
 30
0.0
 10
5.7203709587
 20
2.7893054543
 30
0.0
 10
5.719620072
 20
2.7902096895
 30
0.0
 10
5.7191706431
 20
2.7909827596
 30
0.0
 10
5.7188763837
 20
2.7918351169
 30
0.0
 10
5.7188076234
 20
2.7924363542
 30
0.0
 10
5.7188076234
 20
2.7927366758
 30
0.0
  0
SPLINE
  5
446
100
AcDbEntity
  8
0
100
AcDbSpline
 62
7
  6
CONTINUOUS
 70
0
 71
3
 72
11
 73
7
 74
0
 42
0.0000001
 43
0.0000001
 44
0.0000000001
 40
0.0
 40
0.0
 40
0.0
 40
0.0
 40
0.298627532
 40
0.5650395488
 40
0.7957603839
 40
1.0
 40
1.0
 40
1.0
 40
1.0
 10
5.7256373858
 20
2.7927366758
 30
0.0
 10
5.7256373858
 20
2.7921503047
 30
0.0
 10
5.7254912745
 20
2.7910348085
 30
0.0
 10
5.7248960506
 20
2.7895731216
 30
0.0
 10
5.724077922
 20
2.7884498627
 30
0.0
 10
5.7234247615
 20
2.787887018
 30
0.0
 10
5.7230934134
 20
2.7876611025
 30
0.0
  0
SPLINE
  5
447
100
AcDbEntity
  8
0
100
AcDbSpline
 62
7
  6
CONTINUOUS
 70
0
 71
3
 72
13
 73
9
 74
0
 42
0.0000001
 43
0.0000001
 44
0.0000000001
 40
0.0
 40
0.0
 40
0.0
 40
0.0
 40
0.2427416339
 40
0.4891248079
 40
0.6146038523
 40
0.7417159359
 40
0.8703650493
 40
1.0
 40
1.0
 40
1.0
 40
1.0
 10
5.7325148599
 20
2.7876611025
 30
0.0
 10
5.7319959594
 20
2.7878773352
 30
0.0
 10
5.7309833727
 20
2.7883993802
 30
0.0
 10
5.7298681448
 20
2.7893083613
 30
0.0
 10
5.7291404471
 20
2.7902113403
 30
0.0
 10
5.7287043284
 20
2.7909844852
 30
0.0
 10
5.7284190912
 20
2.7918363249
 30
0.0
 10
5.7283525286
 20
2.7924364616
 30
0.0
 10
5.7283525286
 20
2.7927366758
 30
0.0
  0
SPLINE
  5
448
100
AcDbEntity
  8
0
100
AcDbSpline
 62
7
  6
CONTINUOUS
 70
0
 71
3
 72
13
 73
9
 74
0
 42
0.0000001
 43
0.0000001
 44
0.0000000001
 40
0.0
 40
0.0
 40
0.0
 40
0.0
 40
0.1481822787
 40
0.2917186569
 40
0.4277804502
 40
0.5555966733
 40
0.7887370768
 40
1.0
 40
1.0
 40
1.0
 40
1.0
 10
5.7353350864
 20
2.7927366758
 30
0.0
 10
5.7353350864
 20
2.7924374285
 30
0.0
 10
5.7352912965
 20
2.7918473627
 30
0.0
 10
5.7351017573
 20
2.7910016191
 30
0.0
 10
5.734809548
 20
2.7902295612
 30
0.0
 10
5.7343304895
 20
2.7893447816
 30
0.0
 10
5.7335945092
 20
2.7884384376
 30
0.0
 10
5.7328782668
 20
2.7878846053
 30
0.0
 10
5.7325148599
 20
2.7876611025
 30
0.0
  0
SPLINE
  5
449
100
AcDbEntity
  8
0
100
AcDbSpline
 62
7
  6
CONTINUOUS
 70
0
 71
3
 72
13
 73
9
 74
0
 42
0.0000001
 43
0.0000001
 44
0.0000000001
 40
0.0
 40
0.0
 40
0.0
 40
0.0
 40
0.2396478609
 40
0.4846188174
 40
0.6102794756
 40
0.7382653521
 40
0.8684348477
 40
1.0
 40
1.0
 40
1.0
 40
1.0
 10
5.7421174747
 20
2.7876611025
 30
0.0
 10
5.7416156782
 20
2.787877879
 30
0.0
 10
5.7406351581
 20
2.7884025687
 30
0.0
 10
5.739561244
 20
2.7893119389
 30
0.0
 10
5.7388611709
 20
2.7902133273
 30
0.0
 10
5.7384409256
 20
2.7909865204
 30
0.0
 10
5.7381664054
 20
2.7918377251
 30
0.0
 10
5.7381024397
 20
2.7924365857
 30
0.0
 10
5.7381024397
 20
2.7927366758
 30
0.0
  0
SPLINE
  5
44A
100
AcDbEntity
  8
0
100
AcDbSpline
 62
7
  6
CONTINUOUS
 70
0
 71
3
 72
14
 73
10
 74
0
 42
0.0000001
 43
0.0000001
 44
0.0000000001
 40
0.0
 40
0.0
 40
0.0
 40
0.0
 40
0.1443977275
 40
0.2848385912
 40
0.4189489588
 40
0.546131577
 40
0.6668976624
 40
0.7821911699
 40
1.0
 40
1.0
 40
1.0
 40
1.0
 10
5.7451978039
 20
2.7927366758
 30
0.0
 10
5.7451978039
 20
2.7924372699
 30
0.0
 10
5.745149747
 20
2.7918455365
 30
0.0
 10
5.7449419846
 20
2.7909985868
 30
0.0
 10
5.7446221288
 20
2.790226127
 30
0.0
 10
5.7442170573
 20
2.7895424883
 30
0.0
 10
5.7437497988
 20
2.7889490529
 30
0.0
 10
5.7430808246
 20
2.7882848357
 30
0.0
 10
5.7425109987
 20
2.7878826914
 30
0.0
 10
5.7421174747
 20
2.7876611025
 30
0.0
  0
SPLINE
  5
44B
100
AcDbEntity
  8
0
100
AcDbSpline
 62
7
  6
CONTINUOUS
 70
0
 71
3
 72
13
 73
9
 74
0
 42
0.0000001
 43
0.0000001
 44
0.0000000001
 40
0.0
 40
0.0
 40
0.0
 40
0.0
 40
0.235956248
 40
0.4792731051
 40
0.6051652172
 40
0.7341966562
 40
0.8661640137
 40
1.0
 40
1.0
 40
1.0
 40
1.0
 10
5.7518462637
 20
2.7876611025
 30
0.0
 10
5.7513642234
 20
2.7878785677
 30
0.0
 10
5.7504208528
 20
2.7884065472
 30
0.0
 10
5.7493948236
 20
2.7893162206
 30
0.0
 10
5.7487266183
 20
2.7902156433
 30
0.0
 10
5.7483247105
 20
2.7909888367
 30
0.0
 10
5.7480625155
 20
2.7918392876
 30
0.0
 10
5.748001519
 20
2.7924367237
 30
0.0
 10
5.748001519
 20
2.7927366758
 30
0.0
  0
SPLINE
  5
44C
100
AcDbEntity
  8
0
100
AcDbSpline
 62
7
  6
CONTINUOUS
 70
0
 71
3
 72
14
 73
10
 74
0
 42
0.0000001
 43
0.0000001
 44
0.0000000001
 40
0.0
 40
0.0
 40
0.0
 40
0.0
 40
0.1409641654
 40
0.2786253349
 40
0.4110311681
 40
0.5377292242
 40
0.6591877241
 40
0.7762179932
 40
1.0
 40
1.0
 40
1.0
 40
1.0
 10
5.7551690546
 20
2.7927366758
 30
0.0
 10
5.7551690546
 20
2.7924371096
 30
0.0
 10
5.7551169596
 20
2.7918436936
 30
0.0
 10
5.7548920824
 20
2.7909956224
 30
0.0
 10
5.7545462938
 20
2.7902228255
 30
0.0
 10
5.7541088376
 20
2.7895394332
 30
0.0
 10
5.7536046257
 20
2.7889465181
 30
0.0
 10
5.752880172
 20
2.7882804482
 30
0.0
 10
5.7522678466
 20
2.787881169
 30
0.0
 10
5.7518462637
 20
2.7876611025
 30
0.0
  0
SPLINE
  5
44D
100
AcDbEntity
  8
0
100
AcDbSpline
 62
7
  6
CONTINUOUS
 70
0
 71
3
 72
14
 73
10
 74
0
 42
0.0000001
 43
0.0000001
 44
0.0000000001
 40
0.0
 40
0.0
 40
0.0
 40
0.0
 40
0.145295722
 40
0.2864667767
 40
0.4210297181
 40
0.5483469502
 40
0.6689373932
 40
0.7837765893
 40
1.0
 40
1.0
 40
1.0
 40
1.0
 10
5.8964897781
 20
2.7927366758
 30
0.0
 10
5.8964897781
 20
2.7924373096
 30
0.0
 10
5.8964427605
 20
2.7918459934
 30
0.0
 10
5.896239418
 20
2.7909993333
 30
0.0
 10
5.8959262794
 20
2.7902269767
 30
0.0
 10
5.8955296153
 20
2.7895432942
 30
0.0
 10
5.895071961
 20
2.7889497379
 30
0.0
 10
5.8944173796
 20
2.7882860516
 30
0.0
 10
5.8938586314
 20
2.787883126
 30
0.0
 10
5.8934723926
 20
2.7876611025
 30
0.0
  0
SPLINE
  5
44E
100
AcDbEntity
  8
0
100
AcDbSpline
 62
7
  6
CONTINUOUS
 70
0
 71
3
 72
58
 73
54
 74
0
 42
0.0000001
 43
0.0000001
 44
0.0000000001
 40
0.0
 40
0.0
 40
0.0
 40
0.0
 40
0.0126932642
 40
0.0484925579
 40
0.1022826359
 40
0.1342645255
 40
0.1688895915
 40
0.1870484136
 40
0.205703606
 40
0.2248110401
 40
0.2443295787
 40
0.2642229562
 40
0.2844578304
 40
0.3050042505
 40
0.3258355856
 40
0.3363504876
 40
0.3469281245
 40
0.3682585873
 40
0.3898079817
 40
0.4006590344
 40
0.4115580726
 40
0.4334816476
 40
0.4445038229
 40
0.455559411
 40
0.466643322
 40
0.4777495455
 40
0.4888712053
 40
0.5000008766
 40
0.5111305332
 40
0.5222522616
 40
0.5333584735
 40
0.5444424367
 40
0.5554979635
 40
0.566520214
 40
0.5884437882
 40
0.6101912561
 40
0.6317406398
 40
0.6530711662
 40
0.6636487688
 40
0.6741636865
 40
0.6949951584
 40
0.7155417041
 40
0.7357767785
 40
0.755670339
 40
0.7751889835
 40
0.7942964199
 40
0.8129515744
 40
0.8311103843
 40
0.8657354756
 40
0.8977173669
 40
0.9515074422
 40
0.9873067353
 40
1.0
 40
1.0
 40
1.0
 40
1.0
 10
5.6316489938
 20
2.4831366758
 30
0.0
 10
5.6324715774
 20
2.4840449524
 30
0.0
 10
5.6356106247
 20
2.4875180464
 30
0.0
 10
5.642201364
 20
2.4948709591
 30
0.0
 10
5.6499556589
 20
2.5036813764
 30
0.0
 10
5.6575324428
 20
2.5124956642
 30
0.0
 10
5.6627984674
 20
2.5187597479
 30
0.0
 10
5.6671787643
 20
2.5240868772
 30
0.0
 10
5.6705719644
 20
2.5282859559
 30
0.0
 10
5.6740041549
 20
2.532621968
 30
0.0
 10
5.6774588248
 20
2.5370922108
 30
0.0
 10
5.6809158947
 20
2.541697517
 30
0.0
 10
5.6843556655
 20
2.5464390508
 30
0.0
 10
5.6877516812
 20
2.5513228644
 30
0.0
 10
5.6905138164
 20
2.5555030795
 30
0.0
 10
5.6926700248
 20
2.5589283916
 30
0.0
 10
5.6947959415
 20
2.5624290793
 30
0.0
 10
5.6973547509
 20
2.5669123766
 30
0.0
 10
5.6997249737
 20
2.5715289806
 30
0.0
 10
5.7014786139
 20
2.5753241429
 30
0.0
 10
5.7031290279
 20
2.5792043974
 30
0.0
 10
5.7045847205
 20
2.5831841605
 30
0.0
 10
5.7057928189
 20
2.5872578267
 30
0.0
 10
5.7065622895
 20
2.5903666674
 30
0.0
 10
5.7071795773
 20
2.5935176834
 30
0.0
 10
5.7076309636
 20
2.5967033323
 30
0.0
 10
5.7079068098
 20
2.5999135238
 30
0.0
 10
5.7079991482
 20
2.6031365552
 30
0.0
 10
5.707906808
 20
2.6063595919
 30
0.0
 10
5.7076310063
 20
2.6095697922
 30
0.0
 10
5.707179593
 20
2.6127554468
 30
0.0
 10
5.7065623567
 20
2.615906474
 30
0.0
 10
5.7057928624
 20
2.6190153041
 30
0.0
 10
5.7045848012
 20
2.6230890396
 30
0.0
 10
5.7027688808
 20
2.6280530678
 30
0.0
 10
5.7002054797
 20
2.6338080557
 30
0.0
 10
5.6973549688
 20
2.6393607797
 30
0.0
 10
5.6947959853
 20
2.6438440579
 30
0.0
 10
5.6926701682
 20
2.6473448002
 30
0.0
 10
5.690513931
 20
2.6507701112
 30
0.0
 10
5.6877517596
 20
2.654950332
 30
0.0
 10
5.6843557709
 20
2.6598342195
 30
0.0
 10
5.6809159277
 20
2.6645757617
 30
0.0
 10
5.6774588589
 20
2.6691811274
 30
0.0
 10
5.6740041551
 20
2.6736513798
 30
0.0
 10
5.6705719584
 20
2.6779873955
 30
0.0
 10
5.6671787653
 20
2.6821864739
 30
0.0
 10
5.6627984706
 20
2.687513602
 30
0.0
 10
5.6575324437
 20
2.6937776856
 30
0.0
 10
5.6499556588
 20
2.7025919756
 30
0.0
 10
5.6422013638
 20
2.7114023927
 30
0.0
 10
5.6356106247
 20
2.7187553052
 30
0.0
 10
5.6324715774
 20
2.7222283992
 30
0.0
 10
5.6316489938
 20
2.7231366758
 30
0.0
  0
SPLINE
  5
44F
100
AcDbEntity
  8
0
100
AcDbSpline
 62
7
  6
CONTINUOUS
 70
0
 71
3
 72
97
 73
93
 74
0
 42
0.0000001
 43
0.0000001
 44
0.0000000001
 40
0.0
 40
0.0
 40
0.0
 40
0.0
 40
0.0000033121
 40
0.0000130407
 40
0.0000291814
 40
0.0000517298
 40
0.0001160313
 40
0.000205909
 40
0.0003213267
 40
0.0004622481
 40
0.000628637
 40
0.000820457
 40
0.0012802459
 40
0.0018412785
 40
0.0025030357
 40
0.0032649537
 40
0.0041264687
 40
0.0050870168
 40
0.0073023429
 40
0.0099030381
 40
0.0128804194
 40
0.0162253109
 40
0.0199278196
 40
0.0239779109
 40
0.0283645475
 40
0.0381007755
 40
0.0490437655
 40
0.0611015865
 40
0.0741824634
 40
0.0881994351
 40
0.1030717741
 40
0.1187234586
 40
0.1350835174
 40
0.1696859071
 40
0.1878180885
 40
0.2064387499
 40
0.2255076456
 40
0.2449869412
 40
0.2648412238
 40
0.2850386991
 40
0.326351491
 40
0.3687199844
 40
0.4119413793
 40
0.4338089372
 40
0.4558008227
 40
0.477878475
 40
0.500000004
 40
0.5221215183
 40
0.5441991751
 40
0.5661910712
 40
0.5880586119
 40
0.6312800329
 40
0.6736484921
 40
0.7149613162
 40
0.7351587532
 40
0.7550130355
 40
0.7744923645
 40
0.7935612679
 40
0.8121819108
 40
0.8303140868
 40
0.8649164903
 40
0.8812765446
 40
0.8969282268
 40
0.9118005644
 40
0.9258175349
 40
0.938898423
 40
0.9509562475
 40
0.9618992074
 40
0.971635439
 40
0.9760220919
 40
0.9800721928
 40
0.9837747003
 40
0.9871195909
 40
0.9900969824
 40
0.9926976891
 40
0.9949130052
 40
0.9958735343
 40
0.9967350245
 40
0.9974969173
 40
0.9981586542
 40
0.9987196766
 40
0.9991794691
 40
0.9993712953
 40
0.9995376923
 40
0.9996786234
 40
0.9997940516
 40
0.9998839402
 40
0.9999482523
 40
0.9999708057
 40
0.9999869511
 40
0.999996684
 40
1.0
 40
1.0
 40
1.0
 40
1.0
 10
5.1141489938
 20
2.7231366758
 30
0.0
 10
5.1141492478
 20
2.7231366137
 30
0.0
 10
5.1141499909
 20
2.7231358054
 30
0.0
 10
5.1141519472
 20
2.723134654
 30
0.0
 10
5.1141549924
 20
2.7231322992
 30
0.0
 10
5.1141616035
 20
2.7231275905
 30
0.0
 10
5.1141728676
 20
2.7231193368
 30
0.0
 10
5.1141900912
 20
2.7231068395
 30
0.0
 10
5.1142121866
 20
2.7230907432
 30
0.0
 10
5.114239167
 20
2.7230710982
 30
0.0
 10
5.1142710167
 20
2.7230478912
 30
0.0
 10
5.1143232078
 20
2.7230098515
 30
0.0
 10
5.1144005634
 20
2.7229534382
 30
0.0
 10
5.1145078756
 20
2.7228751344
 30
0.0
 10
5.1146344607
 20
2.7227827748
 30
0.0
 10
5.1147802329
 20
2.7226764626
 30
0.0
 10
5.1149451044
 20
2.7225563042
 30
0.0
 10
5.1152027882
 20
2.7223686665
 30
0.0
 10
5.115571672
 20
2.7221004723
 30
0.0
 10
5.1160696612
 20
2.7217390718
 30
0.0
 10
5.1166401615
 20
2.72132575
 30
0.0
 10
5.1172815252
 20
2.720861968
 30
0.0
 10
5.1179921179
 20
2.7203493883
 30
0.0
 10
5.1187701648
 20
2.7197897318
 30
0.0
 10
5.1199361613
 20
2.7189536108
 30
0.0
 10
5.1215471395
 20
2.7178041589
 30
0.0
 10
5.1236566105
 20
2.7163106159
 30
0.0
 10
5.1259889089
 20
2.7146748488
 30
0.0
 10
5.1285286346
 20
2.7129122267
 30
0.0
 10
5.1312615632
 20
2.7110383301
 30
0.0
 10
5.1341749487
 20
2.7090688191
 30
0.0
 10
5.1372567476
 20
2.707018274
 30
0.0
 10
5.1416590032
 20
2.7041405597
 30
0.0
 10
5.1462683604
 20
2.7012219495
 30
0.0
 10
5.1510800769
 20
2.6982915993
 30
0.0
 10
5.1548744701
 20
2.6960493117
 30
0.0
 10
5.1587952025
 20
2.6938127038
 30
0.0
 10
5.1628395635
 20
2.6915975594
 30
0.0
 10
5.1670050868
 20
2.6894197194
 30
0.0
 10
5.1727621156
 20
2.6865686961
 30
0.0
 10
5.1802484449
 20
2.6832077632
 30
0.0
 10
5.1896400934
 20
2.6796942594
 30
0.0
 10
5.1978142152
 20
2.6773736926
 30
0.0
 10
5.2045524086
 20
2.6759937494
 30
0.0
 10
5.2097043638
 20
2.6752271304
 30
0.0
 10
5.2149120245
 20
2.6747558569
 30
0.0
 10
5.2201489935
 20
2.6745966935
 30
0.0
 10
5.2253859659
 20
2.6747558274
 30
0.0
 10
5.2305936198
 20
2.6752271659
 30
0.0
 10
5.2357455843
 20
2.6759937193
 30
0.0
 10
5.2424837691
 20
2.6773737149
 30
0.0
 10
5.2506579086
 20
2.6796942118
 30
0.0
 10
5.2600495199
 20
2.6832078209
 30
0.0
 10
5.2675358879
 20
2.6865686573
 30
0.0
 10
5.2732928904
 20
2.6894197344
 30
0.0
 10
5.2774584095
 20
2.6915975805
 30
0.0
 10
5.2815027881
 20
2.6938126995
 30
0.0
 10
5.2854235266
 20
2.6960493006
 30
0.0
 10
5.2892179107
 20
2.6982916012
 30
0.0
 10
5.2940296236
 20
2.7012219555
 30
0.0
 10
5.2986389879
 20
2.7041405552
 30
0.0
 10
5.3030412411
 20
2.7070182742
 30
0.0
 10
5.3061230391
 20
2.7090688195
 30
0.0
 10
5.3090364244
 20
2.7110383301
 30
0.0
 10
5.3117693529
 20
2.712912228
 30
0.0
 10
5.3143090811
 20
2.7146748483
 30
0.0
 10
5.3166413807
 20
2.7163106117
 30
0.0
 10
5.3187508442
 20
2.7178041621
 30
0.0
 10
5.3203618216
 20
2.7189536137
 30
0.0
 10
5.3215278233
 20
2.7197897314
 30
0.0
 10
5.3223058731
 20
2.7203493872
 30
0.0
 10
5.323016466
 20
2.7208619677
 30
0.0
 10
5.3236578297
 20
2.7213257508
 30
0.0
 10
5.3242283325
 20
2.721739072
 30
0.0
 10
5.3247263241
 20
2.7221004706
 30
0.0
 10
5.3250952065
 20
2.7223686645
 30
0.0
 10
5.3253528841
 20
2.7225563035
 30
0.0
 10
5.3255177485
 20
2.7226764625
 30
0.0
 10
5.3256635134
 20
2.7227827751
 30
0.0
 10
5.3257900927
 20
2.7228751351
 30
0.0
 10
5.3258974021
 20
2.7229534393
 30
0.0
 10
5.3259747581
 20
2.7230098519
 30
0.0
 10
5.3260269514
 20
2.723047891
 30
0.0
 10
5.3260588036
 20
2.7230710979
 30
0.0
 10
5.3260857868
 20
2.7230907427
 30
0.0
 10
5.3261078854
 20
2.7231068389
 30
0.0
 10
5.326125112
 20
2.7231193363
 30
0.0
 10
5.3261363788
 20
2.7231275899
 30
0.0
 10
5.3261429917
 20
2.7231322989
 30
0.0
 10
5.3261460384
 20
2.7231346535
 30
0.0
 10
5.3261479954
 20
2.7231358056
 30
0.0
 10
5.3261487395
 20
2.7231366136
 30
0.0
 10
5.3261489938
 20
2.7231366758
 30
0.0
  0
SPLINE
  5
450
100
AcDbEntity
  8
0
100
AcDbSpline
 62
7
  6
CONTINUOUS
 70
0
 71
3
 72
11
 73
7
 74
0
 42
0.0000001
 43
0.0000001
 44
0.0000000001
 40
0.0
 40
0.0
 40
0.0
 40
0.0
 40
0.2591719591
 40
0.5137731228
 40
0.7609763992
 40
1.0
 40
1.0
 40
1.0
 40
1.0
 10
5.7651917334
 20
2.7927366758
 30
0.0
 10
5.7651917334
 20
2.7924536276
 30
0.0
 10
5.7651419124
 20
2.7918912842
 30
0.0
 10
5.7649262437
 20
2.7910847728
 30
0.0
 10
5.7645927099
 20
2.790344148
 30
0.0
 10
5.7643046017
 20
2.7898956798
 30
0.0
 10
5.7641489938
 20
2.7896860849
 30
0.0
  0
SPLINE
  5
451
100
AcDbEntity
  8
0
100
AcDbSpline
 62
7
  6
CONTINUOUS
 70
0
 71
3
 72
14
 73
10
 74
0
 42
0.0000001
 43
0.0000001
 44
0.0000000001
 40
0.0
 40
0.0
 40
0.0
 40
0.0
 40
0.2265699068
 40
0.3444241288
 40
0.466222434
 40
0.5927069202
 40
0.7243179607
 40
0.8606662301
 40
1.0
 40
1.0
 40
1.0
 40
1.0
 10
5.7714590943
 20
2.7876611025
 30
0.0
 10
5.7710240363
 20
2.7878805155
 30
0.0
 10
5.7703913894
 20
2.7882785016
 30
0.0
 10
5.769640285
 20
2.7889453607
 30
0.0
 10
5.769118356
 20
2.7895379989
 30
0.0
 10
5.7686653551
 20
2.7902212301
 30
0.0
 10
5.7683070857
 20
2.7909941526
 30
0.0
 10
5.7680739399
 20
2.7918427627
 30
0.0
 10
5.7680198854
 20
2.7924370284
 30
0.0
 10
5.7680198854
 20
2.7927366758
 30
0.0
  0
SPLINE
  5
452
100
AcDbEntity
  8
0
100
AcDbSpline
 62
7
  6
CONTINUOUS
 70
0
 71
3
 72
13
 73
9
 74
0
 42
0.0000001
 43
0.0000001
 44
0.0000000001
 40
0.0
 40
0.0
 40
0.0
 40
0.0
 40
0.135125671
 40
0.2681183623
 40
0.3977519295
 40
0.5237841748
 40
0.7661656478
 40
1.0
 40
1.0
 40
1.0
 40
1.0
 10
5.7752084403
 20
2.7927366758
 30
0.0
 10
5.7752084403
 20
2.7924367983
 30
0.0
 10
5.7751490923
 20
2.7918401361
 30
0.0
 10
5.7748937714
 20
2.7909901151
 30
0.0
 10
5.7745021278
 20
2.7902169471
 30
0.0
 10
5.7738517371
 20
2.7893186859
 30
0.0
 10
5.7728525882
 20
2.7884089217
 30
0.0
 10
5.7719300748
 20
2.7878789844
 30
0.0
 10
5.7714590943
 20
2.7876611025
 30
0.0
  0
SPLINE
  5
453
100
AcDbEntity
  8
0
100
AcDbSpline
 62
7
  6
CONTINUOUS
 70
0
 71
3
 72
14
 73
10
 74
0
 42
0.0000001
 43
0.0000001
 44
0.0000000001
 40
0.0
 40
0.0
 40
0.0
 40
0.0
 40
0.2209391852
 40
0.3371379625
 40
0.458260871
 40
0.5851850025
 40
0.7184019391
 40
0.8573917163
 40
1.0
 40
1.0
 40
1.0
 40
1.0
 10
5.7812308134
 20
2.7876611025
 30
0.0
 10
5.780822713
 20
2.7878818717
 30
0.0
 10
5.7802307769
 20
2.7882824988
 30
0.0
 10
5.7795329875
 20
2.7889477153
 30
0.0
 10
5.7790465233
 20
2.7895408906
 30
0.0
 10
5.7786246274
 20
2.7902244166
 30
0.0
 10
5.7782913106
 20
2.7909970639
 30
0.0
 10
5.778074675
 20
2.7918445955
 30
0.0
 10
5.7780245274
 20
2.7924371882
 30
0.0
 10
5.7780245274
 20
2.7927366758
 30
0.0
  0
SPLINE
  5
454
100
AcDbEntity
  8
0
100
AcDbSpline
 62
7
  6
CONTINUOUS
 70
0
 71
3
 72
13
 73
9
 74
0
 42
0.0000001
 43
0.0000001
 44
0.0000000001
 40
0.0
 40
0.0
 40
0.0
 40
0.0
 40
0.1326807073
 40
0.2637321534
 40
0.3922292508
 40
0.5180012124
 40
0.7621585441
 40
1.0
 40
1.0
 40
1.0
 40
1.0
 10
5.78516181
 20
2.7927366758
 30
0.0
 10
5.78516181
 20
2.7924366545
 30
0.0
 10
5.7850993139
 20
2.7918385037
 30
0.0
 10
5.784830885
 20
2.7909876687
 30
0.0
 10
5.7844196914
 20
2.7902144682
 30
0.0
 10
5.7837353553
 20
2.7893140327
 30
0.0
 10
5.7826850565
 20
2.7884044915
 30
0.0
 10
5.7817228579
 20
2.7878782104
 30
0.0
 10
5.7812308134
 20
2.7876611025
 30
0.0
  0
SPLINE
  5
455
100
AcDbEntity
  8
0
100
AcDbSpline
 62
7
  6
CONTINUOUS
 70
0
 71
3
 72
14
 73
10
 74
0
 42
0.0000001
 43
0.0000001
 44
0.0000000001
 40
0.0
 40
0.0
 40
0.0
 40
0.0
 40
0.2146388617
 40
0.3290268308
 40
0.4494451348
 40
0.5768993289
 40
0.7119146287
 40
0.8538123048
 40
1.0
 40
1.0
 40
1.0
 40
1.0
 10
5.7909047052
 20
2.7876611025
 30
0.0
 10
5.7905256884
 20
2.7878835742
 30
0.0
 10
5.78997794
 20
2.7882872888
 30
0.0
 10
5.7893376177
 20
2.7889504273
 30
0.0
 10
5.7888894864
 20
2.7895440971
 30
0.0
 10
5.7885011543
 20
2.7902278147
 30
0.0
 10
5.7881946669
 20
2.7910000634
 30
0.0
 10
5.7879956956
 20
2.7918464376
 30
0.0
 10
5.7879497044
 20
2.7924373481
 30
0.0
 10
5.7879497044
 20
2.7927366758
 30
0.0
  0
SPLINE
  5
456
100
AcDbEntity
  8
0
100
AcDbSpline
 62
7
  6
CONTINUOUS
 70
0
 71
3
 72
13
 73
9
 74
0
 42
0.0000001
 43
0.0000001
 44
0.0000000001
 40
0.0
 40
0.0
 40
0.0
 40
0.0
 40
0.13057702
 40
0.2599672407
 40
0.3875040161
 40
0.5130699965
 40
0.7587632754
 40
1.0
 40
1.0
 40
1.0
 40
1.0
 10
5.7949948396
 20
2.7927366758
 30
0.0
 10
5.7949948396
 20
2.792436523
 30
0.0
 10
5.7949295532
 20
2.7918370167
 30
0.0
 10
5.7946495753
 20
2.7909854861
 30
0.0
 10
5.7942212381
 20
2.7902123121
 30
0.0
 10
5.7935070868
 20
2.7893101001
 30
0.0
 10
5.7924120963
 20
2.7884009148
 30
0.0
 10
5.7914152204
 20
2.787877596
 30
0.0
 10
5.7909047052
 20
2.7876611025
 30
0.0
  0
SPLINE
  5
457
100
AcDbEntity
  8
0
100
AcDbSpline
 62
7
  6
CONTINUOUS
 70
0
 71
3
 72
13
 73
9
 74
0
 42
0.0000001
 43
0.0000001
 44
0.0000000001
 40
0.0
 40
0.0
 40
0.0
 40
0.0
 40
0.2077770619
 40
0.4396082163
 40
0.5677437265
 40
0.7047975375
 40
0.8499032407
 40
1.0
 40
1.0
 40
1.0
 40
1.0
 10
5.8004253674
 20
2.7876611025
 30
0.0
 10
5.8000774316
 20
2.7878857175
 30
0.0
 10
5.7993915512
 20
2.7884437323
 30
0.0
 10
5.798693386
 20
2.7893487396
 30
0.0
 10
5.7982384951
 20
2.7902313066
 30
0.0
 10
5.7979604592
 20
2.7910030975
 30
0.0
 10
5.7977801959
 20
2.7918482418
 30
0.0
 10
5.7977385751
 20
2.7924375045
 30
0.0
 10
5.7977385751
 20
2.7927366758
 30
0.0
  0
SPLINE
  5
458
100
AcDbEntity
  8
0
100
AcDbSpline
 62
7
  6
CONTINUOUS
 70
0
 71
3
 72
13
 73
9
 74
0
 42
0.0000001
 43
0.0000001
 44
0.0000000001
 40
0.0
 40
0.0
 40
0.0
 40
0.0
 40
0.1288127474
 40
0.2568164223
 40
0.3835604496
 40
0.5089663273
 40
0.7559526132
 40
1.0
 40
1.0
 40
1.0
 40
1.0
 10
5.8046512153
 20
2.7927366758
 30
0.0
 10
5.8046512153
 20
2.7924364067
 30
0.0
 10
5.8045835245
 20
2.7918357072
 30
0.0
 10
5.8042936501
 20
2.7909835995
 30
0.0
 10
5.8038506841
 20
2.7902104891
 30
0.0
 10
5.8031110599
 20
2.7893068553
 30
0.0
 10
5.8019780473
 20
2.7883980734
 30
0.0
 10
5.800951648
 20
2.7878771142
 30
0.0
 10
5.8004253674
 20
2.7876611025
 30
0.0
  0
SPLINE
  5
459
100
AcDbEntity
  8
0
100
AcDbSpline
 62
7
  6
CONTINUOUS
 70
0
 71
3
 72
11
 73
7
 74
0
 42
0.0000001
 43
0.0000001
 44
0.0000000001
 40
0.0
 40
0.0
 40
0.0
 40
0.0
 40
0.2004537322
 40
0.4298114397
 40
0.6976724953
 40
1.0
 40
1.0
 40
1.0
 40
1.0
 10
5.8097382752
 20
2.7876611025
 30
0.0
 10
5.8094233188
 20
2.7878884211
 30
0.0
 10
5.8088028423
 20
2.7884560321
 30
0.0
 10
5.8080315788
 20
2.7895805523
 30
0.0
 10
5.8074719456
 20
2.7910405832
 30
0.0
 10
5.8073350787
 20
2.7921508523
 30
0.0
 10
5.8073350787
 20
2.7927366758
 30
0.0
  0
SPLINE
  5
45A
100
AcDbEntity
  8
0
100
AcDbSpline
 62
7
  6
CONTINUOUS
 70
0
 71
3
 72
13
 73
9
 74
0
 42
0.0000001
 43
0.0000001
 44
0.0000000001
 40
0.0
 40
0.0
 40
0.0
 40
0.0
 40
0.1273843038
 40
0.254269923
 40
0.3803806248
 40
0.5056652287
 40
0.7537012179
 40
1.0
 40
1.0
 40
1.0
 40
1.0
 10
5.8140756354
 20
2.7927366758
 30
0.0
 10
5.8140756354
 20
2.7924363084
 30
0.0
 10
5.8140059513
 20
2.7918346031
 30
0.0
 10
5.8137079128
 20
2.790982034
 30
0.0
 10
5.813252923
 20
2.7902090045
 30
0.0
 10
5.8124923419
 20
2.7893042649
 30
0.0
 10
5.8113281513
 20
2.7883958734
 30
0.0
 10
5.8102775196
 20
2.7878767448
 30
0.0
 10
5.8097382752
 20
2.7876611025
 30
0.0
  0
SPLINE
  5
45B
100
AcDbEntity
  8
0
100
AcDbSpline
 62
7
  6
CONTINUOUS
 70
0
 71
3
 72
11
 73
7
 74
0
 42
0.0000001
 43
0.0000001
 44
0.0000000001
 40
0.0
 40
0.0
 40
0.0
 40
0.0
 40
0.192405208
 40
0.4189929303
 40
0.6899670585
 40
1.0
 40
1.0
 40
1.0
 40
1.0
 10
5.8187900939
 20
2.7876611025
 30
0.0
 10
5.818509975
 20
2.7878918257
 30
0.0
 10
5.8179598444
 20
2.7884699798
 30
0.0
 10
5.8172877535
 20
2.7895959769
 30
0.0
 10
5.8168022451
 20
2.7910518398
 30
0.0
 10
5.8166842562
 20
2.7921519078
 30
0.0
 10
5.8166842562
 20
2.7927366758
 30
0.0
  0
SPLINE
  5
45C
100
AcDbEntity
  8
0
100
AcDbSpline
 62
7
  6
CONTINUOUS
 70
0
 71
3
 72
13
 73
9
 74
0
 42
0.0000001
 43
0.0000001
 44
0.0000000001
 40
0.0
 40
0.0
 40
0.0
 40
0.0
 40
0.1262875582
 40
0.2523175733
 40
0.3779472294
 40
0.5031437449
 40
0.7519871899
 40
1.0
 40
1.0
 40
1.0
 40
1.0
 10
5.8232141263
 20
2.7927366758
 30
0.0
 10
5.8232141263
 20
2.7924362302
 30
0.0
 10
5.8231428815
 20
2.7918337277
 30
0.0
 10
5.8228384777
 20
2.7909808087
 30
0.0
 10
5.8223741413
 20
2.7902078598
 30
0.0
 10
5.8215972577
 20
2.7893022989
 30
0.0
 10
5.8204088738
 20
2.7883942429
 30
0.0
 10
5.8193394203
 20
2.7878764729
 30
0.0
 10
5.8187900939
 20
2.7876611025
 30
0.0
  0
SPLINE
  5
45D
100
AcDbEntity
  8
0
100
AcDbSpline
 62
7
  6
CONTINUOUS
 70
0
 71
3
 72
13
 73
9
 74
0
 42
0.0000001
 43
0.0000001
 44
0.0000000001
 40
0.0
 40
0.0
 40
0.0
 40
0.0
 40
0.184004042
 40
0.2902820819
 40
0.4080725028
 40
0.5386613706
 40
0.6824419051
 40
1.0
 40
1.0
 40
1.0
 40
1.0
 10
5.8275289836
 20
2.7876611025
 30
0.0
 10
5.8272856241
 20
2.7878960737
 30
0.0
 10
5.8269473567
 20
2.7883159981
 30
0.0
 10
5.8265689969
 20
2.7889645673
 30
0.0
 10
5.8262980027
 20
2.7895589259
 30
0.0
 10
5.8260637498
 20
2.7902419869
 30
0.0
 10
5.8258099692
 20
2.7913014087
 30
0.0
 10
5.8257325648
 20
2.79215286
 30
0.0
 10
5.8257325648
 20
2.7927366758
 30
0.0
  0
SPLINE
  5
45E
100
AcDbEntity
  8
0
100
AcDbSpline
 62
7
  6
CONTINUOUS
 70
0
 71
3
 72
13
 73
9
 74
0
 42
0.0000001
 43
0.0000001
 44
0.0000000001
 40
0.0
 40
0.0
 40
0.0
 40
0.0
 40
0.1255186506
 40
0.2509503071
 40
0.3762454286
 40
0.5013827702
 40
0.7507930048
 40
1.0
 40
1.0
 40
1.0
 40
1.0
 10
5.8320143519
 20
2.7927366758
 30
0.0
 10
5.8320143519
 20
2.792436174
 30
0.0
 10
5.8319419966
 20
2.7918330992
 30
0.0
 10
5.831633078
 20
2.7909799376
 30
0.0
 10
5.8311621269
 20
2.790207055
 30
0.0
 10
5.8303737002
 20
2.7893009326
 30
0.0
 10
5.829168216
 20
2.7883931293
 30
0.0
 10
5.8280854481
 20
2.7878762881
 30
0.0
 10
5.8275289836
 20
2.7876611025
 30
0.0
  0
SPLINE
  5
45F
100
AcDbEntity
  8
0
100
AcDbSpline
 62
7
  6
CONTINUOUS
 70
0
 71
3
 72
14
 73
10
 74
0
 42
0.0000001
 43
0.0000001
 44
0.0000000001
 40
0.0
 40
0.0
 40
0.0
 40
0.0
 40
0.1757891482
 40
0.2800705041
 40
0.3973198991
 40
0.5288033935
 40
0.6748147265
 40
0.8335427468
 40
1.0
 40
1.0
 40
1.0
 40
1.0
 10
5.835904897
 20
2.7876611025
 30
0.0
 10
5.8357004413
 20
2.7879012495
 30
0.0
 10
5.8354221058
 20
2.7883252331
 30
0.0
 10
5.8351140891
 20
2.7889684894
 30
0.0
 10
5.8348918249
 20
2.7895625759
 30
0.0
 10
5.8346997241
 20
2.790245021
 30
0.0
 10
5.8345485483
 20
2.7910137942
 30
0.0
 10
5.8344506937
 20
2.7918543274
 30
0.0
 10
5.8344281852
 20
2.7924380257
 30
0.0
 10
5.8344281852
 20
2.7927366758
 30
0.0
  0
SPLINE
  5
460
100
AcDbEntity
  8
0
100
AcDbSpline
 62
7
  6
CONTINUOUS
 70
0
 71
3
 72
13
 73
9
 74
0
 42
0.0000001
 43
0.0000001
 44
0.0000000001
 40
0.0
 40
0.0
 40
0.0
 40
0.0
 40
0.1250745404
 40
0.250161159
 40
0.3752640827
 40
0.5003682113
 40
0.7501060564
 40
1.0
 40
1.0
 40
1.0
 40
1.0
 10
5.8404259134
 20
2.7927366758
 30
0.0
 10
5.8404259134
 20
2.7924361409
 30
0.0
 10
5.8403529103
 20
2.7918327304
 30
0.0
 10
5.8400413638
 20
2.7909794299
 30
0.0
 10
5.8395665684
 20
2.7902065894
 30
0.0
 10
5.8387714307
 20
2.789300148
 30
0.0
 10
5.8375560157
 20
2.788392497
 30
0.0
 10
5.8364655114
 20
2.7878761835
 30
0.0
 10
5.835904897
 20
2.7876611025
 30
0.0
  0
SPLINE
  5
461
100
AcDbEntity
  8
0
100
AcDbSpline
 62
7
  6
CONTINUOUS
 70
0
 71
3
 72
15
 73
11
 74
0
 42
0.0000001
 43
0.0000001
 44
0.0000000001
 40
0.0
 40
0.0
 40
0.0
 40
0.0
 40
0.0785783384
 40
0.1683346538
 40
0.2708535037
 40
0.3876938402
 40
0.5200702888
 40
0.668166433
 40
0.8299409747
 40
1.0
 40
1.0
 40
1.0
 40
1.0
 10
5.8438698652
 20
2.7876611025
 30
0.0
 10
5.8437936996
 20
2.7877761253
 30
0.0
 10
5.8436443274
 20
2.7880317978
 30
0.0
 10
5.8434428427
 20
2.7884631118
 30
0.0
 10
5.8432535514
 20
2.788972305
 30
0.0
 10
5.8430811292
 20
2.7895657825
 30
0.0
 10
5.8429320284
 20
2.7902477041
 30
0.0
 10
5.8428147121
 20
2.7910157289
 30
0.0
 10
5.8427387755
 20
2.7918553774
 30
0.0
 10
5.8427213175
 20
2.792438115
 30
0.0
 10
5.8427213175
 20
2.7927366758
 30
0.0
  0
SPLINE
  5
462
100
AcDbEntity
  8
0
100
AcDbSpline
 62
7
  6
CONTINUOUS
 70
0
 71
3
 72
13
 73
9
 74
0
 42
0.0000001
 43
0.0000001
 44
0.0000000001
 40
0.0
 40
0.0
 40
0.0
 40
0.0
 40
0.124953351
 40
0.2499458876
 40
0.3749964948
 40
0.5000916825
 40
0.7499189556
 40
1.0
 40
1.0
 40
1.0
 40
1.0
 10
5.8484006381
 20
2.7927366758
 30
0.0
 10
5.8484006381
 20
2.7924361318
 30
0.0
 10
5.8483274574
 20
2.7918326291
 30
0.0
 10
5.8480151912
 20
2.7909792908
 30
0.0
 10
5.8475393436
 20
2.7902064623
 30
0.0
 10
5.8467423689
 20
2.7892999345
 30
0.0
 10
5.8455242371
 20
2.7883923258
 30
0.0
 10
5.8444316155
 20
2.7878761552
 30
0.0
 10
5.8438698652
 20
2.7876611025
 30
0.0
  0
SPLINE
  5
463
100
AcDbEntity
  8
0
100
AcDbSpline
 62
7
  6
CONTINUOUS
 70
0
 71
3
 72
14
 73
10
 74
0
 42
0.0000001
 43
0.0000001
 44
0.0000000001
 40
0.0
 40
0.0
 40
0.0
 40
0.0
 40
0.074676722
 40
0.161817936
 40
0.2629335235
 40
0.3795192018
 40
0.5127225759
 40
0.6626226123
 40
1.0
 40
1.0
 40
1.0
 40
1.0
 10
5.851378273
 20
2.7876611025
 30
0.0
 10
5.8513235744
 20
2.787777684
 30
0.0
 10
5.8512169597
 20
2.7880359498
 30
0.0
 10
5.8510746421
 20
2.7884667646
 30
0.0
 10
5.8509408602
 20
2.7889754532
 30
0.0
 10
5.85081895
 20
2.7895684255
 30
0.0
 10
5.8507134846
 20
2.790249828
 30
0.0
 10
5.8505985273
 20
2.7913138771
 30
0.0
 10
5.8505644671
 20
2.7921548879
 30
0.0
 10
5.8505644671
 20
2.7927366758
 30
0.0
  0
SPLINE
  5
464
100
AcDbEntity
  8
0
100
AcDbSpline
 62
7
  6
CONTINUOUS
 70
0
 71
3
 72
13
 73
9
 74
0
 42
0.0000001
 43
0.0000001
 44
0.0000000001
 40
0.0
 40
0.0
 40
0.0
 40
0.0
 40
0.1251545556
 40
0.2503033088
 40
0.3754408052
 40
0.5005508657
 40
0.7502296729
 40
1.0
 40
1.0
 40
1.0
 40
1.0
 10
5.8558928546
 20
2.7927366758
 30
0.0
 10
5.8558928546
 20
2.7924361469
 30
0.0
 10
5.8558199686
 20
2.7918327972
 30
0.0
 10
5.8555088967
 20
2.7909795217
 30
0.0
 10
5.8550347952
 20
2.7902066734
 30
0.0
 10
5.854240869
 20
2.7893002891
 30
0.0
 10
5.8530272462
 20
2.7883926103
 30
0.0
 10
5.8519381383
 20
2.7878762022
 30
0.0
 10
5.851378273
 20
2.7876611025
 30
0.0
  0
SPLINE
  5
465
100
AcDbEntity
  8
0
100
AcDbSpline
 62
7
  6
CONTINUOUS
 70
0
 71
3
 72
13
 73
9
 74
0
 42
0.0000001
 43
0.0000001
 44
0.0000000001
 40
0.0
 40
0.0
 40
0.0
 40
0.0
 40
0.0718030573
 40
0.15706214
 40
0.2571916631
 40
0.3736178892
 40
0.6585902537
 40
1.0
 40
1.0
 40
1.0
 40
1.0
 10
5.8583871199
 20
2.7876611025
 30
0.0
 10
5.8583548587
 20
2.7877790551
 30
0.0
 10
5.858292381
 20
2.7880392918
 30
0.0
 10
5.8582096541
 20
2.7884695322
 30
0.0
 10
5.8581318189
 20
2.7889777264
 30
0.0
 10
5.8580303423
 20
2.7898259385
 30
0.0
 10
5.8579380388
 20
2.7910882907
 30
0.0
 10
5.8579127165
 20
2.7921552343
 30
0.0
 10
5.8579127165
 20
2.7927366758
 30
0.0
  0
SPLINE
  5
466
100
AcDbEntity
  8
0
100
AcDbSpline
 62
7
  6
CONTINUOUS
 70
0
 71
3
 72
13
 73
9
 74
0
 42
0.0000001
 43
0.0000001
 44
0.0000000001
 40
0.0
 40
0.0
 40
0.0
 40
0.0
 40
0.1256790255
 40
0.2512353824
 40
0.3766000939
 40
0.5017496027
 40
0.7510415745
 40
1.0
 40
1.0
 40
1.0
 40
1.0
 10
5.8628596553
 20
2.7927366758
 30
0.0
 10
5.8628596553
 20
2.7924361858
 30
0.0
 10
5.8627875328
 20
2.7918332313
 30
0.0
 10
5.8624795595
 20
2.7909801202
 30
0.0
 10
5.8620099923
 20
2.790207223
 30
0.0
 10
5.8612239811
 20
2.7893012167
 30
0.0
 10
5.8600220732
 20
2.7883933596
 30
0.0
 10
5.8589420908
 20
2.7878763263
 30
0.0
 10
5.8583871199
 20
2.7876611025
 30
0.0
  0
LINE
  5
467
100
AcDbEntity
  8
0
100
AcDbLine
 62
7
  6
CONTINUOUS
 10
5.8648562663
 20
2.7876611025
 11
5.8647239822
 21
2.7927366758
  0
SPLINE
  5
468
100
AcDbEntity
  8
0
100
AcDbSpline
 62
7
  6
CONTINUOUS
 70
0
 71
3
 72
13
 73
9
 74
0
 42
0.0000001
 43
0.0000001
 44
0.0000000001
 40
0.0
 40
0.0
 40
0.0
 40
0.0
 40
0.1265289489
 40
0.2527470669
 40
0.3784822093
 40
0.5036977402
 40
0.7523633624
 40
1.0
 40
1.0
 40
1.0
 40
1.0
 10
5.8692611412
 20
2.7927366758
 30
0.0
 10
5.8692611412
 20
2.7924362476
 30
0.0
 10
5.8691902423
 20
2.7918339225
 30
0.0
 10
5.8688872469
 20
2.7909810802
 30
0.0
 10
5.8684249765
 20
2.7902081121
 30
0.0
 10
5.8676516972
 20
2.7893027298
 30
0.0
 10
5.8664686578
 20
2.7883945975
 30
0.0
 10
5.8654033638
 20
2.7878765319
 30
0.0
 10
5.8648562663
 20
2.7876611025
 30
0.0
  0
SPLINE
  5
469
100
AcDbEntity
  8
0
100
AcDbSpline
 62
7
  6
CONTINUOUS
 70
0
 71
3
 72
13
 73
9
 74
0
 42
0.0000001
 43
0.0000001
 44
0.0000000001
 40
0.0
 40
0.0
 40
0.0
 40
0.0
 40
0.127707609
 40
0.2548459198
 40
0.3810992935
 40
0.5064106955
 40
0.7542088984
 40
1.0
 40
1.0
 40
1.0
 40
1.0
 10
5.8750606513
 20
2.7927366758
 30
0.0
 10
5.8750606513
 20
2.792436331
 30
0.0
 10
5.8749914221
 20
2.7918348565
 30
0.0
 10
5.8746952437
 20
2.7909823913
 30
0.0
 10
5.8742429899
 20
2.7902093411
 30
0.0
 10
5.873487179
 20
2.7893048482
 30
0.0
 10
5.8723300772
 20
2.7883963636
 30
0.0
 10
5.8712849573
 20
2.7878768269
 30
0.0
 10
5.8707486634
 20
2.7876611025
 30
0.0
  0
SPLINE
  5
46A
100
AcDbEntity
  8
0
100
AcDbSpline
 62
7
  6
CONTINUOUS
 70
0
 71
3
 72
13
 73
9
 74
0
 42
0.0000001
 43
0.0000001
 44
0.0000000001
 40
0.0
 40
0.0
 40
0.0
 40
0.0
 40
0.1292189933
 40
0.257541391
 40
0.3844669308
 40
0.5099086596
 40
0.7565968553
 40
1.0
 40
1.0
 40
1.0
 40
1.0
 10
5.8802249717
 20
2.7927366758
 30
0.0
 10
5.8802249717
 20
2.792436434
 30
0.0
 10
5.88015784
 20
2.7918360139
 30
0.0
 10
5.8798702623
 20
2.7909840385
 30
0.0
 10
5.879430686
 20
2.79021091
 30
0.0
 10
5.8786969666
 20
2.789307598
 30
0.0
 10
5.8775727554
 20
2.7883987153
 30
0.0
 10
5.8765531925
 20
2.7878772226
 30
0.0
 10
5.8760305655
 20
2.7876611025
 30
0.0
  0
SPLINE
  5
46B
100
AcDbEntity
  8
0
100
AcDbSpline
 62
7
  6
CONTINUOUS
 70
0
 71
3
 72
13
 73
9
 74
0
 42
0.0000001
 43
0.0000001
 44
0.0000000001
 40
0.0
 40
0.0
 40
0.0
 40
0.0
 40
0.1310671859
 40
0.2608437147
 40
0.38860279
 40
0.514215292
 40
0.7595500926
 40
1.0
 40
1.0
 40
1.0
 40
1.0
 10
5.8847245265
 20
2.7927366758
 30
0.0
 10
5.8847245265
 20
2.7924365543
 30
0.0
 10
5.8846598974
 20
2.7918373702
 30
0.0
 10
5.8843826343
 20
2.7909860011
 30
0.0
 10
5.8839583198
 20
2.7902128162
 30
0.0
 10
5.8832511684
 20
2.7893110104
 30
0.0
 10
5.8821666516
 20
2.7884017295
 30
0.0
 10
5.8811779041
 20
2.7878777352
 30
0.0
 10
5.8806717234
 20
2.7876611025
 30
0.0
  0
SPLINE
  5
46C
100
AcDbEntity
  8
0
100
AcDbSpline
 62
7
  6
CONTINUOUS
 70
0
 71
3
 72
13
 73
9
 74
0
 42
0.0000001
 43
0.0000001
 44
0.0000000001
 40
0.0
 40
0.0
 40
0.0
 40
0.0
 40
0.1332554711
 40
0.2647622621
 40
0.3935245634
 40
0.5193556825
 40
0.7630945937
 40
1.0
 40
1.0
 40
1.0
 40
1.0
 10
5.8885335468
 20
2.7927366758
 30
0.0
 10
5.8885335468
 20
2.7924366892
 30
0.0
 10
5.8884717995
 20
2.7918388965
 30
0.0
 10
5.8882064812
 20
2.7909882524
 30
0.0
 10
5.8877999183
 20
2.7902150536
 30
0.0
 10
5.8871236281
 20
2.7893151187
 30
0.0
 10
5.8860854265
 20
2.7884055059
 30
0.0
 10
5.8851326127
 20
2.7878783863
 30
0.0
 10
5.8846455571
 20
2.7876611025
 30
0.0
  0
SPLINE
  5
46D
100
AcDbEntity
  8
0
100
AcDbSpline
 62
7
  6
CONTINUOUS
 70
0
 71
3
 72
14
 73
10
 74
0
 42
0.0000001
 43
0.0000001
 44
0.0000000001
 40
0.0
 40
0.0
 40
0.0
 40
0.0
 40
0.1357231427
 40
0.2691803829
 40
0.3990649124
 40
0.5251137473
 40
0.6476881094
 40
0.7673638215
 40
1.0
 40
1.0
 40
1.0
 40
1.0
 10
5.8916302183
 20
2.7927366758
 30
0.0
 10
5.8916302183
 20
2.7924368356
 30
0.0
 10
5.8915717067
 20
2.7918405619
 30
0.0
 10
5.8913198527
 20
2.7909907504
 30
0.0
 10
5.8909334695
 20
2.7902176391
 30
0.0
 10
5.8904455503
 20
2.7895348662
 30
0.0
 10
5.889883861
 20
2.7889429019
 30
0.0
 10
5.8890728435
 20
2.7882744787
 30
0.0
 10
5.8883946757
 20
2.7878792052
 30
0.0
 10
5.8879293085
 20
2.7876611025
 30
0.0
  0
SPLINE
  5
46E
100
AcDbEntity
  8
0
100
AcDbSpline
 62
7
  6
CONTINUOUS
 70
0
 71
3
 72
13
 73
9
 74
0
 42
0.0000001
 43
0.0000001
 44
0.0000000001
 40
0.0
 40
0.0
 40
0.0
 40
0.0
 40
0.1386532176
 40
0.2744659047
 40
0.4057771633
 40
0.5322251775
 40
0.7720653738
 40
1.0
 40
1.0
 40
1.0
 40
1.0
 10
5.8939968066
 20
2.7927366758
 30
0.0
 10
5.8939968066
 20
2.7924369901
 30
0.0
 10
5.8939418441
 20
2.7918423228
 30
0.0
 10
5.8937049099
 20
2.7909934775
 30
0.0
 10
5.8933408471
 20
2.7902204659
 30
0.0
 10
5.8927382292
 20
2.7893255452
 30
0.0
 10
5.8918115907
 20
2.7884158712
 30
0.0
 10
5.8909454149
 20
2.7878802309
 30
0.0
 10
5.8905041717
 20
2.7876611025
 30
0.0
  0
SPLINE
  5
46F
100
AcDbEntity
  8
0
100
AcDbSpline
 62
7
  6
CONTINUOUS
 70
0
 71
3
 72
14
 73
10
 74
0
 42
0.0000001
 43
0.0000001
 44
0.0000000001
 40
0.0
 40
0.0
 40
0.0
 40
0.0
 40
0.1417873367
 40
0.2801131208
 40
0.4129238368
 40
0.5397337375
 40
0.66102331
 40
0.7776373342
 40
1.0
 40
1.0
 40
1.0
 40
1.0
 10
5.895619758
 20
2.7927366758
 30
0.0
 10
5.895619758
 20
2.7924371493
 30
0.0
 10
5.8955686414
 20
2.7918441497
 30
0.0
 10
5.8953479019
 20
2.7909963492
 30
0.0
 10
5.895008371
 20
2.7902236244
 30
0.0
 10
5.8945787187
 20
2.7895401616
 30
0.0
 10
5.8940834061
 20
2.7889471137
 30
0.0
 10
5.893372327
 20
2.7882814636
 30
0.0
 10
5.8927702209
 20
2.7878815151
 30
0.0
 10
5.8923554003
 20
2.7876611025
 30
0.0
  0
SPLINE
  5
470
100
AcDbEntity
  8
0
100
AcDbSpline
 62
7
  6
CONTINUOUS
 70
0
 71
3
 72
100
 73
96
 74
0
 42
0.0000001
 43
0.0000001
 44
0.0000000001
 40
0.0
 40
0.0
 40
0.0
 40
0.0
 40
0.0000032433
 40
0.0000127579
 40
0.0000285401
 40
0.0000505857
 40
0.0001134512
 40
0.0002013224
 40
0.0003141668
 40
0.0004519525
 40
0.000614647
 40
0.0008022183
 40
0.001251852
 40
0.001800498
 40
0.0024477565
 40
0.0031932274
 40
0.004036502
 40
0.0049769451
 40
0.0071457927
 40
0.0096925904
 40
0.0126095745
 40
0.0158884688
 40
0.019520352
 40
0.0234952812
 40
0.0278030612
 40
0.037373841
 40
0.0481456082
 40
0.0600312097
 40
0.0729431607
 40
0.0867986015
 40
0.1015191275
 40
0.1170308964
 40
0.1332666971
 40
0.1501644933
 40
0.167667386
 40
0.1857252424
 40
0.2042920598
 40
0.2427888571
 40
0.2828791168
 40
0.3243372659
 40
0.366977376
 40
0.3886927513
 40
0.4106372179
 40
0.4327812456
 40
0.4550879549
 40
0.4662901576
 40
0.4775148767
 40
0.4999986283
 40
0.5224823727
 40
0.5337070955
 40
0.5449092975
 40
0.567216006
 40
0.5893600342
 40
0.6113045009
 40
0.6330198755
 40
0.6756599914
 40
0.7171181397
 40
0.7373488705
 40
0.7572111296
 40
0.7957079495
 40
0.8142747575
 40
0.8323326054
 40
0.8498355027
 40
0.8667333025
 40
0.8829691038
 40
0.8984808719
 40
0.9132013967
 40
0.9270568386
 40
0.9399687952
 40
0.951854398
 40
0.9626261417
 40
0.9721969373
 40
0.9765047275
 40
0.9804796485
 40
0.9841115232
 40
0.9873904317
 40
0.9903074393
 40
0.9928542354
 40
0.9950230504
 40
0.9959634741
 40
0.9968067321
 40
0.9975521909
 40
0.9981994424
 40
0.9987480869
 40
0.9991977252
 40
0.999385301
 40
0.9995480014
 40
0.9996857938
 40
0.9997986457
 40
0.9998865248
 40
0.9999493985
 40
0.9999714482
 40
0.9999872343
 40
0.9999967529
 40
1.0
 40
1.0
 40
1.0
 40
1.0
 10
4.5541489938
 20
4.8491366758
 30
0.0
 10
4.5541490934
 20
4.849136459
 30
0.0
 10
4.5541499563
 20
4.849135945
 30
0.0
 10
4.5541513373
 20
4.8491344073
 30
0.0
 10
4.5541539998
 20
4.8491321219
 30
0.0
 10
4.5541594128
 20
4.8491270853
 30
0.0
 10
4.5541688485
 20
4.8491185508
 30
0.0
 10
4.5541831686
 20
4.8491054826
 30
0.0
 10
4.5542016038
 20
4.849088736
 30
0.0
 10
4.5542241135
 20
4.8490682919
 30
0.0
 10
4.5542507103
 20
4.8490441693
 30
0.0
 10
4.5542943201
 20
4.8490046543
 30
0.0
 10
4.5543590207
 20
4.8489461273
 30
0.0
 10
4.5544488476
 20
4.8488649632
 30
0.0
 10
4.5545548482
 20
4.8487692343
 30
0.0
 10
4.5546769448
 20
4.8486589875
 30
0.0
 10
4.5548150422
 20
4.8485342757
 30
0.0
 10
4.5550308575
 20
4.8483393778
 30
0.0
 10
4.5553397786
 20
4.8480605817
 30
0.0
 10
4.555756988
 20
4.8476847302
 30
0.0
 10
4.5562353096
 20
4.8472547012
 30
0.0
 10
4.5567734732
 20
4.8467718293
 30
0.0
 10
4.5573701384
 20
4.8462376118
 30
0.0
 10
4.5580239298
 20
4.8456537191
 30
0.0
 10
4.5590048132
 20
4.8447801338
 30
0.0
 10
4.5603621184
 20
4.8435773442
 30
0.0
 10
4.5621425545
 20
4.8420114594
 30
0.0
 10
4.5641146841
 20
4.8402913507
 30
0.0
 10
4.5662672413
 20
4.8384330067
 30
0.0
 10
4.5685889209
 20
4.8364514641
 30
0.0
 10
4.5710695827
 20
4.8343616544
 30
0.0
 10
4.5737004302
 20
4.8321784374
 30
0.0
 10
4.5764733216
 20
4.8299157267
 30
0.0
 10
4.579381776
 20
4.8275876745
 30
0.0
 10
4.5824206998
 20
4.8252084383
 30
0.0
 10
4.5855855298
 20
4.8227912324
 30
0.0
 10
4.5900232013
 20
4.8194967269
 30
0.0
 10
4.5958634661
 20
4.8153732653
 30
0.0
 10
4.6032804019
 20
4.8105724785
 30
0.0
 10
4.611210395
 20
4.8060239257
 30
0.0
 10
4.6182299327
 20
4.8026346703
 30
0.0
 10
4.624131518
 20
4.8002861718
 30
0.0
 10
4.6287226831
 20
4.798741605
 30
0.0
 10
4.633442955
 20
4.7974715152
 30
0.0
 10
4.6374646264
 20
4.7966826407
 30
0.0
 10
4.6407250034
 20
4.7962288721
 30
0.0
 10
4.6440135207
 20
4.7959005877
 30
0.0
 10
4.6481489929
 20
4.7957349628
 30
0.0
 10
4.6522844668
 20
4.7959005812
 30
0.0
 10
4.6555729812
 20
4.7962288896
 30
0.0
 10
4.658833361
 20
4.7966826363
 30
0.0
 10
4.6628550357
 20
4.7974714998
 30
0.0
 10
4.667575299
 20
4.7987416222
 30
0.0
 10
4.6721664701
 20
4.8002861631
 30
0.0
 10
4.6780680664
 20
4.8026346631
 30
0.0
 10
4.6850875149
 20
4.806023947
 30
0.0
 10
4.6917496607
 20
4.8098450794
 30
0.0
 10
4.6968288359
 20
4.8130396721
 30
0.0
 10
4.7016504189
 20
4.816231552
 30
0.0
 10
4.706274788
 20
4.8194967775
 30
0.0
 10
4.7107124545
 20
4.8227912276
 30
0.0
 10
4.7138772931
 20
4.8252084324
 30
0.0
 10
4.7169162115
 20
4.8275876726
 30
0.0
 10
4.7198246654
 20
4.8299157271
 30
0.0
 10
4.7225975569
 20
4.832178438
 30
0.0
 10
4.7252284047
 20
4.8343616545
 30
0.0
 10
4.727709067
 20
4.8364514635
 30
0.0
 10
4.7300307466
 20
4.8384330067
 30
0.0
 10
4.7321833031
 20
4.8402913524
 30
0.0
 10
4.734155429
 20
4.8420114634
 30
0.0
 10
4.7359358741
 20
4.8435773374
 30
0.0
 10
4.7372931757
 20
4.8447801314
 30
0.0
 10
4.7382740557
 20
4.8456537224
 30
0.0
 10
4.7389278488
 20
4.8462376125
 30
0.0
 10
4.7395245166
 20
4.8467718269
 30
0.0
 10
4.7400626792
 20
4.847254703
 30
0.0
 10
4.7405409974
 20
4.8476847399
 30
0.0
 10
4.7409582056
 20
4.8480605915
 30
0.0
 10
4.7412671291
 20
4.8483393791
 30
0.0
 10
4.7414829454
 20
4.8485342682
 30
0.0
 10
4.7416210432
 20
4.8486589743
 30
0.0
 10
4.74174314
 20
4.848769217
 30
0.0
 10
4.7418491408
 20
4.8488649433
 30
0.0
 10
4.7419389678
 20
4.848946107
 30
0.0
 10
4.742003668
 20
4.8490046352
 30
0.0
 10
4.7420472772
 20
4.8490441525
 30
0.0
 10
4.7420738737
 20
4.8490682774
 30
0.0
 10
4.7420963831
 20
4.8490887239
 30
0.0
 10
4.7421148182
 20
4.8491054731
 30
0.0
 10
4.7421291383
 20
4.8491185439
 30
0.0
 10
4.7421385739
 20
4.8491270807
 30
0.0
 10
4.7421439871
 20
4.8491321188
 30
0.0
 10
4.7421466497
 20
4.8491344055
 30
0.0
 10
4.7421480314
 20
4.8491359437
 30
0.0
 10
4.7421488942
 20
4.8491364587
 30
0.0
 10
4.7421489938
 20
4.8491366758
 30
0.0
  0
SPLINE
  5
471
100
AcDbEntity
  8
0
100
AcDbSpline
 62
7
  6
CONTINUOUS
 70
0
 71
3
 72
101
 73
97
 74
0
 42
0.0000001
 43
0.0000001
 44
0.0000000001
 40
0.0
 40
0.0
 40
0.0
 40
0.0
 40
0.0000032434
 40
0.0000127581
 40
0.0000285404
 40
0.0000505862
 40
0.0001134522
 40
0.0002013239
 40
0.000314169
 40
0.0004519552
 40
0.0006146503
 40
0.0008022221
 40
0.001251859
 40
0.0018005123
 40
0.0024477724
 40
0.0031932287
 40
0.0040364686
 40
0.0049769057
 40
0.0071457995
 40
0.0096926059
 40
0.0126095699
 40
0.01588841
 40
0.019520343
 40
0.023495325
 40
0.0278030542
 40
0.0373737988
 40
0.048145632
 40
0.0600311032
 40
0.0729431137
 40
0.0867985167
 40
0.101518958
 40
0.1170307341
 40
0.1332664844
 40
0.1501641755
 40
0.1676670962
 40
0.1857247813
 40
0.2042915311
 40
0.223325525
 40
0.2427896578
 40
0.2828799227
 40
0.303452281
 40
0.3243430538
 40
0.3669828729
 40
0.3886983083
 40
0.4106428338
 40
0.43278686
 40
0.4550934252
 40
0.4775163145
 40
0.4999999959
 40
0.5224836763
 40
0.5449065692
 40
0.5672131305
 40
0.5893571609
 40
0.6113016847
 40
0.6330171195
 40
0.6756569437
 40
0.6965477122
 40
0.7171200815
 40
0.7572103308
 40
0.7766744702
 40
0.7957084728
 40
0.8142752225
 40
0.8323328994
 40
0.8498358181
 40
0.8667335184
 40
0.8829692681
 40
0.8984810395
 40
0.9132014835
 40
0.9270568849
 40
0.9399689018
 40
0.9518543747
 40
0.962626181
 40
0.9721969461
 40
0.9765046819
 40
0.9804796539
 40
0.9841115812
 40
0.9873904385
 40
0.990307424
 40
0.9928542263
 40
0.9950230897
 40
0.9959635091
 40
0.9968067331
 40
0.9975521771
 40
0.9981994292
 40
0.9987480801
 40
0.999197721
 40
0.9993852973
 40
0.9995479982
 40
0.9996857912
 40
0.9997986439
 40
0.9998865236
 40
0.9999493979
 40
0.9999714478
 40
0.9999872341
 40
0.9999967528
 40
1.0
 40
1.0
 40
1.0
 40
1.0
 10
5.3141489938
 20
4.5851366758
 30
0.0
 10
5.3141488943
 20
4.5851368927
 30
0.0
 10
5.3141480313
 20
4.5851374066
 30
0.0
 10
5.3141466502
 20
4.5851389442
 30
0.0
 10
5.3141439874
 20
4.5851412295
 30
0.0
 10
5.3141385741
 20
4.5851462658
 30
0.0
 10
5.3141291379
 20
4.5851548
 30
0.0
 10
5.3141148173
 20
4.5851678678
 30
0.0
 10
5.3140963816
 20
4.5851846142
 30
0.0
 10
5.3140738717
 20
4.5852050583
 30
0.0
 10
5.314047275
 20
4.5852291813
 30
0.0
 10
5.3140036659
 20
4.5852686977
 30
0.0
 10
5.3139389668
 20
4.5853272279
 30
0.0
 10
5.3138491399
 20
4.5854083937
 30
0.0
 10
5.3137431389
 20
4.5855041218
 30
0.0
 10
5.3136210424
 20
4.585614364
 30
0.0
 10
5.3134829425
 20
4.5857390677
 30
0.0
 10
5.3132671257
 20
4.5859339652
 30
0.0
 10
5.3129582078
 20
4.5862127715
 30
0.0
 10
5.3125410024
 20
4.5865886329
 30
0.0
 10
5.3120626734
 20
4.5870186485
 30
0.0
 10
5.3115245002
 20
4.5875015091
 30
0.0
 10
5.3109278451
 20
4.5880357456
 30
0.0
 10
5.3102740617
 20
4.5886196558
 30
0.0
 10
5.3092931589
 20
4.5894932195
 30
0.0
 10
5.3079358496
 20
4.5906960075
 30
0.0
 10
5.3061554479
 20
4.5922619279
 30
0.0
 10
5.3041832644
 20
4.5939819822
 30
0.0
 10
5.3020307615
 20
4.5958403854
 30
0.0
 10
5.2997090426
 20
4.5978218846
 30
0.0
 10
5.2972283831
 20
4.5999116935
 30
0.0
 10
5.2945975871
 20
4.6020949689
 30
0.0
 10
5.2918246236
 20
4.604357586
 30
0.0
 10
5.2889162071
 20
4.60668568
 30
0.0
 10
5.2858773591
 20
4.6090650018
 30
0.0
 10
5.2827123451
 20
4.6114819398
 30
0.0
 10
5.2794245407
 20
4.6139231084
 30
0.0
 10
5.2760145638
 20
4.6163726025
 30
0.0
 10
5.27125854
 20
4.6196607439
 30
0.0
 10
5.2663080725
 20
4.6228660783
 30
0.0
 10
5.2611438574
 20
4.6259224424
 30
0.0
 10
5.2557237462
 20
4.6289082022
 30
0.0
 10
5.2500679793
 20
4.6316385826
 30
0.0
 10
5.2441665329
 20
4.6339871838
 30
0.0
 10
5.2395753857
 20
4.6355318628
 30
0.0
 10
5.2348549036
 20
4.6368015745
 30
0.0
 10
5.2300229301
 20
4.637749961
 30
0.0
 10
5.2251083515
 20
4.6383403666
 30
0.0
 10
5.2201489944
 20
4.6385379133
 30
0.0
 10
5.2151896347
 20
4.638340381
 30
0.0
 10
5.2102750614
 20
4.6377499419
 30
0.0
 10
5.2054430781
 20
4.636801602
 30
0.0
 10
5.2007226092
 20
4.6355318395
 30
0.0
 10
5.1961314521
 20
4.6339871932
 30
0.0
 10
5.1902300043
 20
4.6316385914
 30
0.0
 10
5.1845742469
 20
4.6289081946
 30
0.0
 10
5.1791541182
 20
4.6259224635
 30
0.0
 10
5.1739899362
 20
4.6228660452
 30
0.0
 10
5.1690394334
 20
4.6196607666
 30
0.0
 10
5.164283422
 20
4.6163726064
 30
0.0
 10
5.1608734505
 20
4.6139231033
 30
0.0
 10
5.1575856458
 20
4.611481935
 30
0.0
 10
5.1544206271
 20
4.6090650044
 30
0.0
 10
5.1513817772
 20
4.606685685
 30
0.0
 10
5.1484733663
 20
4.6043575833
 30
0.0
 10
5.1457004021
 20
4.6020949667
 30
0.0
 10
5.1430696031
 20
4.599911695
 30
0.0
 10
5.1405889459
 20
4.5978218839
 30
0.0
 10
5.1382672255
 20
4.5958403857
 30
0.0
 10
5.1361147233
 20
4.5939819808
 30
0.0
 10
5.1341425447
 20
4.5922619231
 30
0.0
 10
5.1323621318
 20
4.5906960161
 30
0.0
 10
5.1310048286
 20
4.589493221
 30
0.0
 10
5.1300239279
 20
4.588619653
 30
0.0
 10
5.1293701425
 20
4.5880357462
 30
0.0
 10
5.1287734851
 20
4.587501512
 30
0.0
 10
5.1282353135
 20
4.587018646
 30
0.0
 10
5.1277569877
 20
4.5865886231
 30
0.0
 10
5.1273397828
 20
4.5862127625
 30
0.0
 10
5.1270308629
 20
4.5859339642
 30
0.0
 10
5.1268150451
 20
4.5857390747
 30
0.0
 10
5.126676945
 20
4.5856143765
 30
0.0
 10
5.1265548482
 20
4.5855041385
 30
0.0
 10
5.1264488469
 20
4.5854084131
 30
0.0
 10
5.1263590199
 20
4.5853272481
 30
0.0
 10
5.1262943213
 20
4.5852687168
 30
0.0
 10
5.1262507128
 20
4.5852291982
 30
0.0
 10
5.1262241164
 20
4.5852050729
 30
0.0
 10
5.1262016067
 20
4.5851846264
 30
0.0
 10
5.1261831712
 20
4.5851678773
 30
0.0
 10
5.1261688506
 20
4.5851548069
 30
0.0
 10
5.1261594144
 20
4.5851462705
 30
0.0
 10
5.1261540009
 20
4.5851412326
 30
0.0
 10
5.1261513381
 20
4.585138946
 30
0.0
 10
5.1261499564
 20
4.5851374079
 30
0.0
 10
5.1261490935
 20
4.5851368929
 30
0.0
 10
5.1261489938
 20
4.5851366758
 30
0.0
  0
SPLINE
  5
472
100
AcDbEntity
  8
0
100
AcDbSpline
 62
7
  6
CONTINUOUS
 70
0
 71
3
 72
14
 73
10
 74
0
 42
0.0000001
 43
0.0000001
 44
0.0000000001
 40
0.0
 40
0.0
 40
0.0
 40
0.0
 40
0.2326352565
 40
0.3523103134
 40
0.4748842822
 40
0.600932886
 40
0.7308174769
 40
0.8642750058
 40
1.0
 40
1.0
 40
1.0
 40
1.0
 10
5.8879293085
 20
3.0838122492
 30
0.0
 10
5.8883946738
 20
3.0835941473
 30
0.0
 10
5.8890728384
 20
3.0831988754
 30
0.0
 10
5.8898838535
 20
3.0825304563
 30
0.0
 10
5.8904455419
 20
3.081938495
 30
0.0
 10
5.8909334619
 20
3.0812557243
 30
0.0
 10
5.8913198484
 20
3.0804826144
 30
0.0
 10
5.8915717047
 20
3.0796327984
 30
0.0
 10
5.8916302183
 20
3.0790365202
 30
0.0
 10
5.8916302183
 20
3.0787366758
 30
0.0
  0
SPLINE
  5
473
100
AcDbEntity
  8
0
100
AcDbSpline
 62
7
  6
CONTINUOUS
 70
0
 71
3
 72
13
 73
9
 74
0
 42
0.0000001
 43
0.0000001
 44
0.0000000001
 40
0.0
 40
0.0
 40
0.0
 40
0.0
 40
0.2369044676
 40
0.4806423449
 40
0.6064732479
 40
0.7352356272
 40
0.8667427096
 40
1.0
 40
1.0
 40
1.0
 40
1.0
 10
5.8846455571
 20
3.0838122492
 30
0.0
 10
5.8851326108
 20
3.0835949662
 30
0.0
 10
5.8860854204
 20
3.0830678485
 30
0.0
 10
5.8871236197
 20
3.0821582409
 30
0.0
 10
5.8877999103
 20
3.0812583098
 30
0.0
 10
5.8882064767
 20
3.0804851124
 30
0.0
 10
5.8884717974
 20
3.0796344639
 30
0.0
 10
5.8885335468
 20
3.0790366666
 30
0.0
 10
5.8885335468
 20
3.0787366758
 30
0.0
  0
SPLINE
  5
474
100
AcDbEntity
  8
0
100
AcDbSpline
 62
7
  6
CONTINUOUS
 70
0
 71
3
 72
13
 73
9
 74
0
 42
0.0000001
 43
0.0000001
 44
0.0000000001
 40
0.0
 40
0.0
 40
0.0
 40
0.0
 40
0.240448956
 40
0.4857827317
 40
0.6113950311
 40
0.7391541994
 40
0.8689310226
 40
1.0
 40
1.0
 40
1.0
 40
1.0
 10
5.8806717234
 20
3.0838122492
 30
0.0
 10
5.8811779021
 20
3.0835956174
 30
0.0
 10
5.8821666453
 20
3.0830716249
 30
0.0
 10
5.8832511596
 20
3.0821623493
 30
0.0
 10
5.8839583114
 20
3.0812605472
 30
0.0
 10
5.8843826295
 20
3.0804873637
 30
0.0
 10
5.8846598953
 20
3.0796359902
 30
0.0
 10
5.8847245265
 20
3.0790368015
 30
0.0
 10
5.8847245265
 20
3.0787366758
 30
0.0
  0
SPLINE
  5
475
100
AcDbEntity
  8
0
100
AcDbSpline
 62
7
  6
CONTINUOUS
 70
0
 71
3
 72
13
 73
9
 74
0
 42
0.0000001
 43
0.0000001
 44
0.0000000001
 40
0.0
 40
0.0
 40
0.0
 40
0.0
 40
0.2434021826
 40
0.4900893608
 40
0.6155308982
 40
0.742456544
 40
0.8707792386
 40
1.0
 40
1.0
 40
1.0
 40
1.0
 10
5.8760305655
 20
3.0838122492
 30
0.0
 10
5.8765531905
 20
3.0835961299
 30
0.0
 10
5.8775727489
 20
3.0830746391
 30
0.0
 10
5.8786969576
 20
3.0821657616
 30
0.0
 10
5.8794306773
 20
3.0812624534
 30
0.0
 10
5.8798702573
 20
3.0804893264
 30
0.0
 10
5.8801578378
 20
3.0796373465
 30
0.0
 10
5.8802249717
 20
3.0790369218
 30
0.0
 10
5.8802249717
 20
3.0787366758
 30
0.0
  0
SPLINE
  5
476
100
AcDbEntity
  8
0
100
AcDbSpline
 62
7
  6
CONTINUOUS
 70
0
 71
3
 72
13
 73
9
 74
0
 42
0.0000001
 43
0.0000001
 44
0.0000000001
 40
0.0
 40
0.0
 40
0.0
 40
0.0
 40
0.2457901308
 40
0.4935873221
 40
0.618898542
 40
0.7451520321
 40
0.8722906421
 40
1.0
 40
1.0
 40
1.0
 40
1.0
 10
5.8707486634
 20
3.0838122492
 30
0.0
 10
5.8712849552
 20
3.0835965256
 30
0.0
 10
5.8723300706
 20
3.0830769907
 30
0.0
 10
5.8734871697
 20
3.0821685113
 30
0.0
 10
5.874242981
 20
3.0812640222
 30
0.0
 10
5.8746952386
 20
3.0804909736
 30
0.0
 10
5.8749914198
 20
3.0796385039
 30
0.0
 10
5.8750606513
 20
3.0790370248
 30
0.0
 10
5.8750606513
 20
3.0787366758
 30
0.0
  0
SPLINE
  5
477
100
AcDbEntity
  8
0
100
AcDbSpline
 62
7
  6
CONTINUOUS
 70
0
 71
3
 72
13
 73
9
 74
0
 42
0.0000001
 43
0.0000001
 44
0.0000000001
 40
0.0
 40
0.0
 40
0.0
 40
0.0
 40
0.2476356601
 40
0.4963002751
 40
0.621515631
 40
0.7472508982
 40
0.8734693171
 40
1.0
 40
1.0
 40
1.0
 40
1.0
 10
5.8648562663
 20
3.0838122492
 30
0.0
 10
5.8654033616
 20
3.0835968206
 30
0.0
 10
5.8664686511
 20
3.0830787568
 30
0.0
 10
5.8676516878
 20
3.0821706297
 30
0.0
 10
5.8684249673
 20
3.0812652513
 30
0.0
 10
5.8688872417
 20
3.0804922848
 30
0.0
 10
5.8691902399
 20
3.079639438
 30
0.0
 10
5.8692611412
 20
3.0790371081
 30
0.0
 10
5.8692611412
 20
3.0787366758
 30
0.0
  0
LINE
  5
478
100
AcDbEntity
  8
0
100
AcDbLine
 62
7
  6
CONTINUOUS
 10
5.8647239822
 20
3.0787366758
 11
5.8648562663
 21
3.0838122492
  0
SPLINE
  5
479
100
AcDbEntity
  8
0
100
AcDbSpline
 62
7
  6
CONTINUOUS
 70
0
 71
3
 72
13
 73
9
 74
0
 42
0.0000001
 43
0.0000001
 44
0.0000000001
 40
0.0
 40
0.0
 40
0.0
 40
0.0
 40
0.2489574262
 40
0.4982483883
 40
0.6233977155
 40
0.7487625315
 40
0.8743192116
 40
1.0
 40
1.0
 40
1.0
 40
1.0
 10
5.8583871199
 20
3.0838122492
 30
0.0
 10
5.8589420885
 20
3.0835970262
 30
0.0
 10
5.8600220664
 20
3.0830799947
 30
0.0
 10
5.8612239714
 20
3.0821721429
 30
0.0
 10
5.8620099829
 20
3.0812661405
 30
0.0
 10
5.862479554
 20
3.0804932451
 30
0.0
 10
5.8627875303
 20
3.0796401294
 30
0.0
 10
5.8628596553
 20
3.0790371701
 30
0.0
 10
5.8628596553
 20
3.0787366758
 30
0.0
  0
SPLINE
  5
47A
100
AcDbEntity
  8
0
100
AcDbSpline
 62
7
  6
CONTINUOUS
 70
0
 71
3
 72
13
 73
9
 74
0
 42
0.0000001
 43
0.0000001
 44
0.0000000001
 40
0.0
 40
0.0
 40
0.0
 40
0.0
 40
0.341409853
 40
0.6263821291
 40
0.7428083503
 40
0.8429378712
 40
0.9281969455
 40
1.0
 40
1.0
 40
1.0
 40
1.0
 10
5.8579127165
 20
3.0787366758
 30
0.0
 10
5.8579127165
 20
3.0793181176
 30
0.0
 10
5.8579380388
 20
3.0803850612
 30
0.0
 10
5.8580303423
 20
3.0816474134
 30
0.0
 10
5.8581318189
 20
3.0824956254
 30
0.0
 10
5.8582096541
 20
3.0830038195
 30
0.0
 10
5.858292381
 20
3.0834340599
 30
0.0
 10
5.8583548587
 20
3.0836942966
 30
0.0
 10
5.8583871199
 20
3.0838122492
 30
0.0
  0
SPLINE
  5
47B
100
AcDbEntity
  8
0
100
AcDbSpline
 62
7
  6
CONTINUOUS
 70
0
 71
3
 72
13
 73
9
 74
0
 42
0.0000001
 43
0.0000001
 44
0.0000000001
 40
0.0
 40
0.0
 40
0.0
 40
0.0
 40
0.249769342
 40
0.499447147
 40
0.6245570408
 40
0.7496946716
 40
0.8748437278
 40
1.0
 40
1.0
 40
1.0
 40
1.0
 10
5.851378273
 20
3.0838122492
 30
0.0
 10
5.8519381361
 20
3.0835971503
 30
0.0
 10
5.8530272394
 20
3.0830807439
 30
0.0
 10
5.8542408593
 20
3.0821730704
 30
0.0
 10
5.8550347858
 20
3.08126669
 30
0.0
 10
5.8555088913
 20
3.0804938433
 30
0.0
 10
5.8558199661
 20
3.0796405633
 30
0.0
 10
5.8558928546
 20
3.0790372089
 30
0.0
 10
5.8558928546
 20
3.0787366758
 30
0.0
  0
SPLINE
  5
47C
100
AcDbEntity
  8
0
100
AcDbSpline
 62
7
  6
CONTINUOUS
 70
0
 71
3
 72
14
 73
10
 74
0
 42
0.0000001
 43
0.0000001
 44
0.0000000001
 40
0.0
 40
0.0
 40
0.0
 40
0.0
 40
0.3373774933
 40
0.4872774374
 40
0.6204808164
 40
0.73706649
 40
0.8381820754
 40
0.9253232809
 40
1.0
 40
1.0
 40
1.0
 40
1.0
 10
5.8505644671
 20
3.0787366758
 30
0.0
 10
5.8505644671
 20
3.079318464
 30
0.0
 10
5.8505985273
 20
3.0801594747
 30
0.0
 10
5.8507134846
 20
3.0812235239
 30
0.0
 10
5.8508189501
 20
3.0819049263
 30
0.0
 10
5.8509408602
 20
3.0824978985
 30
0.0
 10
5.8510746421
 20
3.0830065871
 30
0.0
 10
5.8512169598
 20
3.0834374019
 30
0.0
 10
5.8513235744
 20
3.0836956677
 30
0.0
 10
5.851378273
 20
3.0838122492
 30
0.0
  0
SPLINE
  5
47D
100
AcDbEntity
  8
0
100
AcDbSpline
 62
7
  6
CONTINUOUS
 70
0
 71
3
 72
13
 73
9
 74
0
 42
0.0000001
 43
0.0000001
 44
0.0000000001
 40
0.0
 40
0.0
 40
0.0
 40
0.0
 40
0.2500800581
 40
0.4999063298
 40
0.625001352
 40
0.750052095
 40
0.8750449349
 40
1.0
 40
1.0
 40
1.0
 40
1.0
 10
5.8438698652
 20
3.0838122492
 30
0.0
 10
5.8444316133
 20
3.0835971973
 30
0.0
 10
5.8455242302
 20
3.0830810285
 30
0.0
 10
5.8467423592
 20
3.082173425
 30
0.0
 10
5.8475393342
 20
3.081266901
 30
0.0
 10
5.8480151858
 20
3.0804940741
 30
0.0
 10
5.8483274549
 20
3.0796407314
 30
0.0
 10
5.8484006381
 20
3.0790372239
 30
0.0
 10
5.8484006381
 20
3.0787366758
 30
0.0
  0
SPLINE
  5
47E
100
AcDbEntity
  8
0
100
AcDbSpline
 62
7
  6
CONTINUOUS
 70
0
 71
3
 72
15
 73
11
 74
0
 42
0.0000001
 43
0.0000001
 44
0.0000000001
 40
0.0
 40
0.0
 40
0.0
 40
0.0
 40
0.1700591775
 40
0.331833671
 40
0.4799297243
 40
0.6123061781
 40
0.7291465099
 40
0.8316653579
 40
0.9214216647
 40
1.0
 40
1.0
 40
1.0
 40
1.0
 10
5.8427213175
 20
3.0787366758
 30
0.0
 10
5.8427213175
 20
3.0790352369
 30
0.0
 10
5.8427387755
 20
3.0796179747
 30
0.0
 10
5.8428147122
 20
3.0804576232
 30
0.0
 10
5.8429320285
 20
3.0812256478
 30
0.0
 10
5.8430811292
 20
3.0819075692
 30
0.0
 10
5.8432535514
 20
3.0825010467
 30
0.0
 10
5.8434428428
 20
3.0830102399
 30
0.0
 10
5.8436443274
 20
3.0834415539
 30
0.0
 10
5.8437936996
 20
3.0836972264
 30
0.0
 10
5.8438698652
 20
3.0838122492
 30
0.0
  0
SPLINE
  5
47F
100
AcDbEntity
  8
0
100
AcDbSpline
 62
7
  6
CONTINUOUS
 70
0
 71
3
 72
13
 73
9
 74
0
 42
0.0000001
 43
0.0000001
 44
0.0000000001
 40
0.0
 40
0.0
 40
0.0
 40
0.0
 40
0.249892958
 40
0.4996298012
 40
0.6247337636
 40
0.7498368223
 40
0.874923744
 40
1.0
 40
1.0
 40
1.0
 40
1.0
 10
5.835904897
 20
3.0838122492
 30
0.0
 10
5.8364655091
 20
3.083597169
 30
0.0
 10
5.8375560089
 20
3.0830808573
 30
0.0
 10
5.838771421
 20
3.0821732115
 30
0.0
 10
5.839566559
 20
3.0812667739
 30
0.0
 10
5.8400413585
 20
3.080493935
 30
0.0
 10
5.8403529079
 20
3.07964063
 30
0.0
 10
5.8404259134
 20
3.0790372148
 30
0.0
 10
5.8404259134
 20
3.0787366758
 30
0.0
  0
SPLINE
  5
480
100
AcDbEntity
  8
0
100
AcDbSpline
 62
7
  6
CONTINUOUS
 70
0
 71
3
 72
14
 73
10
 74
0
 42
0.0000001
 43
0.0000001
 44
0.0000000001
 40
0.0
 40
0.0
 40
0.0
 40
0.0
 40
0.1664574023
 40
0.3251853756
 40
0.4711966195
 40
0.6026801191
 40
0.7199295098
 40
0.8242108639
 40
1.0
 40
1.0
 40
1.0
 40
1.0
 10
5.8344281852
 20
3.0787366758
 30
0.0
 10
5.8344281852
 20
3.0790353262
 30
0.0
 10
5.8344506938
 20
3.0796190247
 30
0.0
 10
5.8345485484
 20
3.0804595579
 30
0.0
 10
5.8346997241
 20
3.0812283309
 30
0.0
 10
5.8348918249
 20
3.0819107758
 30
0.0
 10
5.8351140891
 20
3.0825048623
 30
0.0
 10
5.8354221059
 20
3.0831481186
 30
0.0
 10
5.8357004414
 20
3.0835721022
 30
0.0
 10
5.835904897
 20
3.0838122492
 30
0.0
  0
SPLINE
  5
481
100
AcDbEntity
  8
0
100
AcDbSpline
 62
7
  6
CONTINUOUS
 70
0
 71
3
 72
13
 73
9
 74
0
 42
0.0000001
 43
0.0000001
 44
0.0000000001
 40
0.0
 40
0.0
 40
0.0
 40
0.0
 40
0.2492060121
 40
0.4986152431
 40
0.6237524159
 40
0.7490476692
 40
0.8744796281
 40
1.0
 40
1.0
 40
1.0
 40
1.0
 10
5.8275289836
 20
3.0838122492
 30
0.0
 10
5.8280854459
 20
3.0835970644
 30
0.0
 10
5.8291682092
 20
3.0830802249
 30
0.0
 10
5.8303736906
 20
3.082172427
 30
0.0
 10
5.8311621176
 20
3.0812663083
 30
0.0
 10
5.8316330726
 20
3.0804934273
 30
0.0
 10
5.8319419941
 20
3.0796402613
 30
0.0
 10
5.8320143519
 20
3.0790371818
 30
0.0
 10
5.8320143519
 20
3.0787366758
 30
0.0
  0
SPLINE
  5
482
100
AcDbEntity
  8
0
100
AcDbSpline
 62
7
  6
CONTINUOUS
 70
0
 71
3
 72
13
 73
9
 74
0
 42
0.0000001
 43
0.0000001
 44
0.0000000001
 40
0.0
 40
0.0
 40
0.0
 40
0.0
 40
0.317558195
 40
0.4613386423
 40
0.5919275154
 40
0.7097179321
 40
0.8159959705
 40
1.0
 40
1.0
 40
1.0
 40
1.0
 10
5.8257325648
 20
3.0787366758
 30
0.0
 10
5.8257325648
 20
3.0793204918
 30
0.0
 10
5.8258099693
 20
3.0801719431
 30
0.0
 10
5.8260637499
 20
3.0812313649
 30
0.0
 10
5.8262980027
 20
3.0819144258
 30
0.0
 10
5.8265689969
 20
3.0825087844
 30
0.0
 10
5.8269473567
 20
3.0831573536
 30
0.0
 10
5.8272856241
 20
3.083577278
 30
0.0
 10
5.8275289836
 20
3.0838122492
 30
0.0
  0
SPLINE
  5
483
100
AcDbEntity
  8
0
100
AcDbSpline
 62
7
  6
CONTINUOUS
 70
0
 71
3
 72
13
 73
9
 74
0
 42
0.0000001
 43
0.0000001
 44
0.0000000001
 40
0.0
 40
0.0
 40
0.0
 40
0.0
 40
0.2480118313
 40
0.49685427
 40
0.622050612
 40
0.7476803945
 40
0.8737107109
 40
1.0
 40
1.0
 40
1.0
 40
1.0
 10
5.8187900939
 20
3.0838122492
 30
0.0
 10
5.8193394181
 20
3.0835968796
 30
0.0
 10
5.820408867
 20
3.0830791114
 30
0.0
 10
5.8215972483
 20
3.0821710607
 30
0.0
 10
5.8223741321
 20
3.0812655035
 30
0.0
 10
5.8228384725
 20
3.0804925562
 30
0.0
 10
5.8231428791
 20
3.0796396327
 30
0.0
 10
5.8232141263
 20
3.0790371256
 30
0.0
 10
5.8232141263
 20
3.0787366758
 30
0.0
  0
SPLINE
  5
484
100
AcDbEntity
  8
0
100
AcDbSpline
 62
7
  6
CONTINUOUS
 70
0
 71
3
 72
11
 73
7
 74
0
 42
0.0000001
 43
0.0000001
 44
0.0000000001
 40
0.0
 40
0.0
 40
0.0
 40
0.0
 40
0.3100330394
 40
0.5810070881
 40
0.807594805
 40
1.0
 40
1.0
 40
1.0
 40
1.0
 10
5.8166842562
 20
3.0787366758
 30
0.0
 10
5.8166842562
 20
3.079321444
 30
0.0
 10
5.8168022451
 20
3.0804215121
 30
0.0
 10
5.8172877537
 20
3.081877375
 30
0.0
 10
5.8179598445
 20
3.0830033719
 30
0.0
 10
5.818509975
 20
3.0835815259
 30
0.0
 10
5.8187900939
 20
3.0838122492
 30
0.0
  0
SPLINE
  5
485
100
AcDbEntity
  8
0
100
AcDbSpline
 62
7
  6
CONTINUOUS
 70
0
 71
3
 72
13
 73
9
 74
0
 42
0.0000001
 43
0.0000001
 44
0.0000000001
 40
0.0
 40
0.0
 40
0.0
 40
0.0
 40
0.2462978095
 40
0.4943327882
 40
0.619617212
 40
0.7457280325
 40
0.8726139514
 40
1.0
 40
1.0
 40
1.0
 40
1.0
 10
5.8097382752
 20
3.0838122492
 30
0.0
 10
5.8102775174
 20
3.0835966077
 30
0.0
 10
5.8113281446
 20
3.0830774809
 30
0.0
 10
5.8124923326
 20
3.0821690947
 30
0.0
 10
5.813252914
 20
3.0812643589
 30
0.0
 10
5.8137079077
 20
3.0804913309
 30
0.0
 10
5.8140059489
 20
3.0796387573
 30
0.0
 10
5.8140756354
 20
3.0790370474
 30
0.0
 10
5.8140756354
 20
3.0787366758
 30
0.0
  0
SPLINE
  5
486
100
AcDbEntity
  8
0
100
AcDbSpline
 62
7
  6
CONTINUOUS
 70
0
 71
3
 72
11
 73
7
 74
0
 42
0.0000001
 43
0.0000001
 44
0.0000000001
 40
0.0
 40
0.0
 40
0.0
 40
0.0
 40
0.3023276005
 40
0.5701885787
 40
0.7995462813
 40
1.0
 40
1.0
 40
1.0
 40
1.0
 10
5.8073350787
 20
3.0787366758
 30
0.0
 10
5.8073350787
 20
3.0793224995
 30
0.0
 10
5.8074719456
 20
3.0804327687
 30
0.0
 10
5.8080315789
 20
3.0818927996
 30
0.0
 10
5.8088028424
 20
3.0830173196
 30
0.0
 10
5.8094233189
 20
3.0835849306
 30
0.0
 10
5.8097382752
 20
3.0838122492
 30
0.0
  0
SPLINE
  5
487
100
AcDbEntity
  8
0
100
AcDbSpline
 62
7
  6
CONTINUOUS
 70
0
 71
3
 72
13
 73
9
 74
0
 42
0.0000001
 43
0.0000001
 44
0.0000000001
 40
0.0
 40
0.0
 40
0.0
 40
0.0
 40
0.2440464223
 40
0.4910316924
 40
0.6164373812
 40
0.7431815172
 40
0.8711854897
 40
1.0
 40
1.0
 40
1.0
 40
1.0
 10
5.8004253674
 20
3.0838122492
 30
0.0
 10
5.8009516459
 20
3.0835962383
 30
0.0
 10
5.8019780408
 20
3.083075281
 30
0.0
 10
5.8031110508
 20
3.0821665043
 30
0.0
 10
5.8038506754
 20
3.0812628742
 30
0.0
 10
5.8042936451
 20
3.0804897654
 30
0.0
 10
5.8045835223
 20
3.0796376533
 30
0.0
 10
5.8046512153
 20
3.079036949
 30
0.0
 10
5.8046512153
 20
3.0787366758
 30
0.0
  0
SPLINE
  5
488
100
AcDbEntity
  8
0
100
AcDbSpline
 62
7
  6
CONTINUOUS
 70
0
 71
3
 72
13
 73
9
 74
0
 42
0.0000001
 43
0.0000001
 44
0.0000000001
 40
0.0
 40
0.0
 40
0.0
 40
0.0
 40
0.1500968774
 40
0.2952025418
 40
0.4322562878
 40
0.5603918095
 40
0.7922229517
 40
1.0
 40
1.0
 40
1.0
 40
1.0
 10
5.7977385751
 20
3.0787366758
 30
0.0
 10
5.7977385751
 20
3.0790358474
 30
0.0
 10
5.797780196
 20
3.0796251102
 30
0.0
 10
5.7979604593
 20
3.0804702546
 30
0.0
 10
5.7982384952
 20
3.0812420452
 30
0.0
 10
5.7986933861
 20
3.0821246121
 30
0.0
 10
5.7993915513
 20
3.0830296194
 30
0.0
 10
5.8000774317
 20
3.0835876341
 30
0.0
 10
5.8004253674
 20
3.0838122492
 30
0.0
  0
SPLINE
  5
489
100
AcDbEntity
  8
0
100
AcDbSpline
 62
7
  6
CONTINUOUS
 70
0
 71
3
 72
13
 73
9
 74
0
 42
0.0000001
 43
0.0000001
 44
0.0000000001
 40
0.0
 40
0.0
 40
0.0
 40
0.0
 40
0.2412357703
 40
0.4869280263
 40
0.6124938071
 40
0.7400306789
 40
0.8694211947
 40
1.0
 40
1.0
 40
1.0
 40
1.0
 10
5.7909047052
 20
3.0838122492
 30
0.0
 10
5.7914152183
 20
3.0835957565
 30
0.0
 10
5.79241209
 20
3.0830724395
 30
0.0
 10
5.793507078
 20
3.0821632595
 30
0.0
 10
5.7942212296
 20
3.0812610513
 30
0.0
 10
5.7946495705
 20
3.0804878787
 30
0.0
 10
5.7949295509
 20
3.0796363437
 30
0.0
 10
5.7949948396
 20
3.0790368328
 30
0.0
 10
5.7949948396
 20
3.0787366758
 30
0.0
  0
SPLINE
  5
48A
100
AcDbEntity
  8
0
100
AcDbSpline
 62
7
  6
CONTINUOUS
 70
0
 71
3
 72
14
 73
10
 74
0
 42
0.0000001
 43
0.0000001
 44
0.0000000001
 40
0.0
 40
0.0
 40
0.0
 40
0.0
 40
0.1461878269
 40
0.2880854633
 40
0.4231006835
 40
0.5505548835
 40
0.670973184
 40
0.7853611525
 40
1.0
 40
1.0
 40
1.0
 40
1.0
 10
5.7879497044
 20
3.0787366758
 30
0.0
 10
5.7879497044
 20
3.0790360038
 30
0.0
 10
5.7879956957
 20
3.0796269145
 30
0.0
 10
5.788194667
 20
3.0804732888
 30
0.0
 10
5.7885011545
 20
3.0812455372
 30
0.0
 10
5.7888894865
 20
3.0819292546
 30
0.0
 10
5.7893376178
 20
3.0825229245
 30
0.0
 10
5.78997794
 20
3.0831860629
 30
0.0
 10
5.7905256884
 20
3.0835897775
 30
0.0
 10
5.7909047052
 20
3.0838122492
 30
0.0
  0
SPLINE
  5
48B
100
AcDbEntity
  8
0
100
AcDbSpline
 62
7
  6
CONTINUOUS
 70
0
 71
3
 72
13
 73
9
 74
0
 42
0.0000001
 43
0.0000001
 44
0.0000000001
 40
0.0
 40
0.0
 40
0.0
 40
0.0
 40
0.2378405138
 40
0.4819968141
 40
0.6077685631
 40
0.7362657424
 40
0.8673174806
 40
1.0
 40
1.0
 40
1.0
 40
1.0
 10
5.7812308134
 20
3.0838122492
 30
0.0
 10
5.7817228559
 20
3.0835951422
 30
0.0
 10
5.7826850503
 20
3.0830688629
 30
0.0
 10
5.7837353469
 20
3.082159327
 30
0.0
 10
5.7844196833
 20
3.0812588952
 30
0.0
 10
5.7848308804
 20
3.0804856962
 30
0.0
 10
5.7850993118
 20
3.0796348567
 30
0.0
 10
5.78516181
 20
3.0790367012
 30
0.0
 10
5.78516181
 20
3.0787366758
 30
0.0
  0
SPLINE
  5
48C
100
AcDbEntity
  8
0
100
AcDbSpline
 62
7
  6
CONTINUOUS
 70
0
 71
3
 72
14
 73
10
 74
0
 42
0.0000001
 43
0.0000001
 44
0.0000000001
 40
0.0
 40
0.0
 40
0.0
 40
0.0
 40
0.1426084124
 40
0.2815981511
 40
0.4148150097
 40
0.5417391473
 40
0.6628620526
 40
0.7790608294
 40
1.0
 40
1.0
 40
1.0
 40
1.0
 10
5.7780245274
 20
3.0787366758
 30
0.0
 10
5.7780245274
 20
3.0790361637
 30
0.0
 10
5.7780746751
 20
3.0796287566
 30
0.0
 10
5.7782913108
 20
3.0804762882
 30
0.0
 10
5.7786246275
 20
3.0812489353
 30
0.0
 10
5.7790465234
 20
3.0819324611
 30
0.0
 10
5.7795329876
 20
3.0825256364
 30
0.0
 10
5.780230777
 20
3.0831908529
 30
0.0
 10
5.7808227131
 20
3.0835914799
 30
0.0
 10
5.7812308134
 20
3.0838122492
 30
0.0
  0
SPLINE
  5
48D
100
AcDbEntity
  8
0
100
AcDbSpline
 62
7
  6
CONTINUOUS
 70
0
 71
3
 72
13
 73
9
 74
0
 42
0.0000001
 43
0.0000001
 44
0.0000000001
 40
0.0
 40
0.0
 40
0.0
 40
0.0
 40
0.2338334246
 40
0.4762138556
 40
0.6022458732
 40
0.7318795055
 40
0.8648724858
 40
1.0
 40
1.0
 40
1.0
 40
1.0
 10
5.7714590943
 20
3.0838122492
 30
0.0
 10
5.7719300729
 20
3.0835943681
 30
0.0
 10
5.7728525823
 20
3.0830644327
 30
0.0
 10
5.773851729
 20
3.0821546738
 30
0.0
 10
5.7745021201
 20
3.0812564163
 30
0.0
 10
5.7748937671
 20
3.0804832497
 30
0.0
 10
5.7751490903
 20
3.0796332243
 30
0.0
 10
5.7752084403
 20
3.0790365574
 30
0.0
 10
5.7752084403
 20
3.0787366758
 30
0.0
  0
SPLINE
  5
48E
100
AcDbEntity
  8
0
100
AcDbSpline
 62
7
  6
CONTINUOUS
 70
0
 71
3
 72
14
 73
10
 74
0
 42
0.0000001
 43
0.0000001
 44
0.0000000001
 40
0.0
 40
0.0
 40
0.0
 40
0.0
 40
0.1393338958
 40
0.2756821279
 40
0.407293092
 40
0.5337775843
 40
0.6555758864
 40
0.773430108
 40
1.0
 40
1.0
 40
1.0
 40
1.0
 10
5.7680198854
 20
3.0787366758
 30
0.0
 10
5.7680198854
 20
3.0790363235
 30
0.0
 10
5.76807394
 20
3.0796305894
 30
0.0
 10
5.7683070858
 20
3.0804791995
 30
0.0
 10
5.7686653552
 20
3.0812521218
 30
0.0
 10
5.7691183561
 20
3.0819353528
 30
0.0
 10
5.7696402851
 20
3.082527991
 30
0.0
 10
5.7703913895
 20
3.08319485
 30
0.0
 10
5.7710240363
 20
3.0835928361
 30
0.0
 10
5.7714590943
 20
3.0838122492
 30
0.0
  0
SPLINE
  5
48F
100
AcDbEntity
  8
0
100
AcDbSpline
 62
7
  6
CONTINUOUS
 70
0
 71
3
 72
14
 73
10
 74
0
 42
0.0000001
 43
0.0000001
 44
0.0000000001
 40
0.0
 40
0.0
 40
0.0
 40
0.0
 40
0.2290836752
 40
0.3476875968
 40
0.4698010983
 40
0.5960998662
 40
0.7269946372
 40
0.8621504473
 40
1.0
 40
1.0
 40
1.0
 40
1.0
 10
5.7616455103
 20
3.0838122492
 30
0.0
 10
5.7620929568
 20
3.083593398
 30
0.0
 10
5.7627442396
 20
3.0831965548
 30
0.0
 10
5.7635198418
 20
3.0825290268
 30
0.0
 10
5.7640580401
 20
3.0819366593
 30
0.0
 10
5.7645253254
 20
3.0812536021
 30
0.0
 10
5.7648950854
 20
3.0804805877
 30
0.0
 10
5.7651358632
 20
3.0796314797
 30
0.0
 10
5.7651917334
 20
3.0790364045
 30
0.0
 10
5.7651917334
 20
3.0787366758
 30
0.0
  0
SPLINE
  5
490
100
AcDbEntity
  8
0
100
AcDbSpline
 62
7
  6
CONTINUOUS
 70
0
 71
3
 72
14
 73
10
 74
0
 42
0.0000001
 43
0.0000001
 44
0.0000000001
 40
0.0
 40
0.0
 40
0.0
 40
0.0
 40
0.1363858421
 40
0.2703718511
 40
0.4005696624
 40
0.5266946234
 40
0.6491242316
 40
0.7684660939
 40
1.0
 40
1.0
 40
1.0
 40
1.0
 10
5.7579930748
 20
3.0787366758
 30
0.0
 10
5.7579930748
 20
3.0790364795
 30
0.0
 10
5.7580507553
 20
3.0796323713
 30
0.0
 10
5.7582991314
 20
3.080481962
 30
0.0
 10
5.7586803018
 20
3.0812550481
 30
0.0
 10
5.7591617565
 20
3.0819379155
 30
0.0
 10
5.7597160882
 20
3.0825300092
 30
0.0
 10
5.7605160087
 20
3.0831981631
 30
0.0
 10
5.7611857597
 20
3.0835939191
 30
0.0
 10
5.7616455103
 20
3.0838122492
 30
0.0
  0
SPLINE
  5
491
100
AcDbEntity
  8
0
100
AcDbSpline
 62
7
  6
CONTINUOUS
 70
0
 71
3
 72
14
 73
10
 74
0
 42
0.0000001
 43
0.0000001
 44
0.0000000001
 40
0.0
 40
0.0
 40
0.0
 40
0.0
 40
0.2237811165
 40
0.3408107269
 40
0.4622688129
 40
0.5889666049
 40
0.7213724641
 40
0.8590339163
 40
1.0
 40
1.0
 40
1.0
 40
1.0
 10
5.7518462637
 20
3.0838122492
 30
0.0
 10
5.7522678449
 20
3.0835921836
 30
0.0
 10
5.7528801673
 20
3.0831929059
 30
0.0
 10
5.753604619
 20
3.0825268401
 30
0.0
 10
5.75410883
 20
3.081933928
 30
0.0
 10
5.7545462869
 20
3.081250538
 30
0.0
 10
5.7548920786
 20
3.0804777422
 30
0.0
 10
5.7551169578
 20
3.0796296667
 30
0.0
 10
5.7551690546
 20
3.0790362461
 30
0.0
 10
5.7551690546
 20
3.0787366758
 30
0.0
  0
SPLINE
  5
492
100
AcDbEntity
  8
0
100
AcDbSpline
 62
7
  6
CONTINUOUS
 70
0
 71
3
 72
13
 73
9
 74
0
 42
0.0000001
 43
0.0000001
 44
0.0000000001
 40
0.0
 40
0.0
 40
0.0
 40
0.0
 40
0.1338361076
 40
0.2658034297
 40
0.3948347948
 40
0.5207269132
 40
0.7640437674
 40
1.0
 40
1.0
 40
1.0
 40
1.0
 10
5.748001519
 20
3.0787366758
 30
0.0
 10
5.748001519
 20
3.0790366282
 30
0.0
 10
5.7480625157
 20
3.0796340645
 30
0.0
 10
5.7483247106
 20
3.0804845154
 30
0.0
 10
5.7487266185
 20
3.0812577085
 30
0.0
 10
5.7493948237
 20
3.0821571311
 30
0.0
 10
5.7504208528
 20
3.0830668045
 30
0.0
 10
5.7513642234
 20
3.083594784
 30
0.0
 10
5.7518462637
 20
3.0838122492
 30
0.0
  0
SPLINE
  5
493
100
AcDbEntity
  8
0
100
AcDbSpline
 62
7
  6
CONTINUOUS
 70
0
 71
3
 72
14
 73
10
 74
0
 42
0.0000001
 43
0.0000001
 44
0.0000000001
 40
0.0
 40
0.0
 40
0.0
 40
0.0
 40
0.217807961
 40
0.333100807
 40
0.4538664643
 40
0.5810487966
 40
0.7151591675
 40
0.8556003103
 40
1.0
 40
1.0
 40
1.0
 40
1.0
 10
5.7421174747
 20
3.0838122492
 30
0.0
 10
5.7425109971
 20
3.0835906612
 30
0.0
 10
5.7430808202
 20
3.0831885185
 30
0.0
 10
5.7437497926
 20
3.0825243053
 30
0.0
 10
5.7442170503
 20
3.0819308729
 30
0.0
 10
5.7446221224
 20
3.0812472365
 30
0.0
 10
5.7449419811
 20
3.0804747778
 30
0.0
 10
5.7451497453
 20
3.0796278238
 30
0.0
 10
5.7451978039
 20
3.0790360858
 30
0.0
 10
5.7451978039
 20
3.0787366758
 30
0.0
  0
SPLINE
  5
494
100
AcDbEntity
  8
0
100
AcDbSpline
 62
7
  6
CONTINUOUS
 70
0
 71
3
 72
13
 73
9
 74
0
 42
0.0000001
 43
0.0000001
 44
0.0000000001
 40
0.0
 40
0.0
 40
0.0
 40
0.0
 40
0.1315652717
 40
0.2617347327
 40
0.3897205363
 40
0.5153812009
 40
0.7603521547
 40
1.0
 40
1.0
 40
1.0
 40
1.0
 10
5.7381024397
 20
3.0787366758
 30
0.0
 10
5.7381024397
 20
3.0790367662
 30
0.0
 10
5.7381664056
 20
3.079635627
 30
0.0
 10
5.7384409258
 20
3.0804868317
 30
0.0
 10
5.7388611711
 20
3.0812600245
 30
0.0
 10
5.7395612441
 20
3.0821614128
 30
0.0
 10
5.7406351581
 20
3.083070783
 30
0.0
 10
5.7416156782
 20
3.0835954727
 30
0.0
 10
5.7421174747
 20
3.0838122492
 30
0.0
  0
SPLINE
  5
495
100
AcDbEntity
  8
0
100
AcDbSpline
 62
7
  6
CONTINUOUS
 70
0
 71
3
 72
13
 73
9
 74
0
 42
0.0000001
 43
0.0000001
 44
0.0000000001
 40
0.0
 40
0.0
 40
0.0
 40
0.0
 40
0.2112620763
 40
0.4444013735
 40
0.5722172863
 40
0.708279058
 40
0.8518157112
 40
1.0
 40
1.0
 40
1.0
 40
1.0
 10
5.7325148599
 20
3.0838122492
 30
0.0
 10
5.7328782654
 20
3.0835887472
 30
0.0
 10
5.7335945044
 20
3.0830349173
 30
0.0
 10
5.7343304833
 20
3.0821285783
 30
0.0
 10
5.7348095422
 20
3.0812438022
 30
0.0
 10
5.7351017541
 20
3.0804717455
 30
0.0
 10
5.735291295
 20
3.0796259976
 30
0.0
 10
5.7353350864
 20
3.0790359272
 30
0.0
 10
5.7353350864
 20
3.0787366758
 30
0.0
  0
SPLINE
  5
496
100
AcDbEntity
  8
0
100
AcDbSpline
 62
7
  6
CONTINUOUS
 70
0
 71
3
 72
13
 73
9
 74
0
 42
0.0000001
 43
0.0000001
 44
0.0000000001
 40
0.0
 40
0.0
 40
0.0
 40
0.0
 40
0.1296348521
 40
0.2582839926
 40
0.3853960509
 40
0.5108751568
 40
0.7572583548
 40
1.0
 40
1.0
 40
1.0
 40
1.0
 10
5.7283525286
 20
3.0787366758
 30
0.0
 10
5.7283525286
 20
3.0790368898
 30
0.0
 10
5.7284190911
 20
3.0796370264
 30
0.0
 10
5.7287043282
 20
3.0804888658
 30
0.0
 10
5.7291404468
 20
3.081262011
 30
0.0
 10
5.7298681445
 20
3.0821649901
 30
0.0
 10
5.7309833726
 20
3.0830739714
 30
0.0
 10
5.7319959594
 20
3.0835960165
 30
0.0
 10
5.7325148599
 20
3.0838122492
 30
0.0
  0
SPLINE
  5
497
100
AcDbEntity
  8
0
100
AcDbSpline
 62
7
  6
CONTINUOUS
 70
0
 71
3
 72
11
 73
7
 74
0
 42
0.0000001
 43
0.0000001
 44
0.0000000001
 40
0.0
 40
0.0
 40
0.0
 40
0.0
 40
0.2042387946
 40
0.4349585005
 40
0.70137014
 40
1.0
 40
1.0
 40
1.0
 40
1.0
 10
5.7230934134
 20
3.0838122492
 30
0.0
 10
5.7234247602
 20
3.0835863346
 30
0.0
 10
5.7240779176
 20
3.0830234923
 30
0.0
 10
5.7248960452
 20
3.0819002387
 30
0.0
 10
5.7254912733
 20
3.0804385518
 30
0.0
 10
5.7256373858
 20
3.0793230515
 30
0.0
 10
5.7256373858
 20
3.0787366758
 30
0.0
  0
SPLINE
  5
498
100
AcDbEntity
  8
0
100
AcDbSpline
 62
7
  6
CONTINUOUS
 70
0
 71
3
 72
13
 73
9
 74
0
 42
0.0000001
 43
0.0000001
 44
0.0000000001
 40
0.0
 40
0.0
 40
0.0
 40
0.0
 40
0.1280425828
 40
0.2554428381
 40
0.3818443781
 40
0.5071839224
 40
0.7547359403
 40
1.0
 40
1.0
 40
1.0
 40
1.0
 10
5.7188076234
 20
3.0787366758
 30
0.0
 10
5.7188076234
 20
3.0790369977
 30
0.0
 10
5.7188763838
 20
3.0796382352
 30
0.0
 10
5.7191706432
 20
3.0804905925
 30
0.0
 10
5.7196200722
 20
3.0812636624
 30
0.0
 10
5.7203709588
 20
3.0821678974
 30
0.0
 10
5.7215207378
 20
3.0830764755
 30
0.0
 10
5.7225601654
 20
3.0835964388
 30
0.0
 10
5.7230934134
 20
3.0838122492
 30
0.0
  0
SPLINE
  5
499
100
AcDbEntity
  8
0
100
AcDbSpline
 62
7
  6
CONTINUOUS
 70
0
 71
3
 72
11
 73
7
 74
0
 42
0.0000001
 43
0.0000001
 44
0.0000000001
 40
0.0
 40
0.0
 40
0.0
 40
0.0
 40
0.1963940615
 40
0.4243318401
 40
0.6937571963
 40
1.0
 40
1.0
 40
1.0
 40
1.0
 10
5.7139070917
 20
3.0838122492
 30
0.0
 10
5.7142045118
 20
3.083583292
 30
0.0
 10
5.7147897262
 20
3.083010431
 30
0.0
 10
5.7155109559
 20
3.0818849615
 30
0.0
 10
5.7160330037
 20
3.0804269338
 30
0.0
 10
5.7161602406
 20
3.0793219541
 30
0.0
 10
5.7161602406
 20
3.0787366758
 30
0.0
  0
SPLINE
  5
49A
100
AcDbEntity
  8
0
100
AcDbSpline
 62
7
  6
CONTINUOUS
 70
0
 71
3
 72
13
 73
9
 74
0
 42
0.0000001
 43
0.0000001
 44
0.0000000001
 40
0.0
 40
0.0
 40
0.0
 40
0.0
 40
0.1267838291
 40
0.2532006022
 40
0.3790472969
 40
0.5042831108
 40
0.7527610961
 40
1.0
 40
1.0
 40
1.0
 40
1.0
 10
5.7095223877
 20
3.0787366758
 30
0.0
 10
5.7095223877
 20
3.079037086
 30
0.0
 10
5.7095929232
 20
3.0796392252
 30
0.0
 10
5.7098944366
 20
3.0804919865
 30
0.0
 10
5.7103545318
 20
3.0812649737
 30
0.0
 10
5.7111240165
 20
3.0821701659
 30
0.0
 10
5.7123014268
 20
3.0830783773
 30
0.0
 10
5.7133623408
 20
3.083596757
 30
0.0
 10
5.7139070917
 20
3.0838122492
 30
0.0
  0
SPLINE
  5
49B
100
AcDbEntity
  8
0
100
AcDbSpline
 62
7
  6
CONTINUOUS
 70
0
 71
3
 72
11
 73
7
 74
0
 42
0.0000001
 43
0.0000001
 44
0.0000000001
 40
0.0
 40
0.0
 40
0.0
 40
0.0
 40
0.1881881254
 40
0.4133938171
 40
0.6860136095
 40
1.0
 40
1.0
 40
1.0
 40
1.0
 10
5.7050085047
 20
3.0838122492
 30
0.0
 10
5.7052701239
 20
3.0835794735
 30
0.0
 10
5.7057824393
 20
3.0829956174
 30
0.0
 10
5.7064024111
 20
3.0818695344
 30
0.0
 10
5.706849546
 20
3.0804161329
 30
0.0
 10
5.7069579264
 20
3.0793209483
 30
0.0
 10
5.7069579264
 20
3.0787366758
 30
0.0
  0
SPLINE
  5
49C
100
AcDbEntity
  8
0
100
AcDbSpline
 62
7
  6
CONTINUOUS
 70
0
 71
3
 72
13
 73
9
 74
0
 42
0.0000001
 43
0.0000001
 44
0.0000000001
 40
0.0
 40
0.0
 40
0.0
 40
0.0
 40
0.1258547311
 40
0.2515476815
 40
0.3769886801
 40
0.5021516024
 40
0.7513140932
 40
1.0
 40
1.0
 40
1.0
 40
1.0
 10
5.7005499979
 20
3.0787366758
 30
0.0
 10
5.7005499979
 20
3.0790371532
 30
0.0
 10
5.7006218663
 20
3.0796399766
 30
0.0
 10
5.7009288067
 20
3.0804930325
 30
0.0
 10
5.7013968609
 20
3.081265945
 30
0.0
 10
5.7021802318
 20
3.0821718234
 30
0.0
 10
5.7033782292
 20
3.0830797387
 30
0.0
 10
5.7044551666
 20
3.0835969834
 30
0.0
 10
5.7050085047
 20
3.0838122492
 30
0.0
  0
SPLINE
  5
49D
100
AcDbEntity
  8
0
100
AcDbSpline
 62
7
  6
CONTINUOUS
 70
0
 71
3
 72
13
 73
9
 74
0
 42
0.0000001
 43
0.0000001
 44
0.0000000001
 40
0.0
 40
0.0
 40
0.0
 40
0.0
 40
0.1797987976
 40
0.2850506382
 40
0.4025661488
 40
0.5336259186
 40
0.6785747551
 40
1.0
 40
1.0
 40
1.0
 40
1.0
 10
5.6964486145
 20
3.0838122492
 30
0.0
 10
5.6966724205
 20
3.0835747551
 30
0.0
 10
5.6969804505
 20
3.0831526913
 30
0.0
 10
5.6973230336
 20
3.0825067778
 30
0.0
 10
5.6975693297
 20
3.0819125431
 30
0.0
 10
5.6977822235
 20
3.0812297622
 30
0.0
 10
5.6980131479
 20
3.080169294
 30
0.0
 10
5.6980831447
 20
3.0793200576
 30
0.0
 10
5.6980831447
 20
3.0787366758
 30
0.0
  0
SPLINE
  5
49E
100
AcDbEntity
  8
0
100
AcDbSpline
 62
7
  6
CONTINUOUS
 70
0
 71
3
 72
13
 73
9
 74
0
 42
0.0000001
 43
0.0000001
 44
0.0000000001
 40
0.0
 40
0.0
 40
0.0
 40
0.0
 40
0.1252517923
 40
0.2504759825
 40
0.3756554583
 40
0.500772736
 40
0.750379866
 40
1.0
 40
1.0
 40
1.0
 40
1.0
 10
5.6919418386
 20
3.0787366758
 30
0.0
 10
5.6919418386
 20
3.0790371977
 30
0.0
 10
5.6920145828
 20
3.0796404739
 30
0.0
 10
5.6923250793
 20
3.0804937192
 30
0.0
 10
5.692798339
 20
3.0812665766
 30
0.0
 10
5.6935907956
 20
3.0821728912
 30
0.0
 10
5.6948022441
 20
3.0830806034
 30
0.0
 10
5.695889658
 20
3.0835971266
 30
0.0
 10
5.6964486145
 20
3.0838122492
 30
0.0
  0
SPLINE
  5
49F
100
AcDbEntity
  8
0
100
AcDbSpline
 62
7
  6
CONTINUOUS
 70
0
 71
3
 72
15
 73
11
 74
0
 42
0.0000001
 43
0.0000001
 44
0.0000000001
 40
0.0
 40
0.0
 40
0.0
 40
0.0
 40
0.0807430823
 40
0.1719814736
 40
0.2753170959
 40
0.3923289332
 40
0.524259795
 40
0.6713477093
 40
0.8316612697
 40
1.0
 40
1.0
 40
1.0
 40
1.0
 10
5.6882764435
 20
3.0838122492
 30
0.0
 10
5.6883627748
 20
3.083697967
 30
0.0
 10
5.6885324947
 20
3.0834436697
 30
0.0
 10
5.6887626711
 20
3.0830122064
 30
0.0
 10
5.688978886
 20
3.0825028169
 30
0.0
 10
5.6891758068
 20
3.0819091066
 30
0.0
 10
5.6893460812
 20
3.081226906
 30
0.0
 10
5.6894800568
 20
3.0804585342
 30
0.0
 10
5.689566779
 20
3.0796184673
 30
0.0
 10
5.6895867213
 20
3.0790352819
 30
0.0
 10
5.6895867213
 20
3.0787366758
 30
0.0
  0
SPLINE
  5
4A0
100
AcDbEntity
  8
0
100
AcDbSpline
 62
7
  6
CONTINUOUS
 70
0
 71
3
 72
13
 73
9
 74
0
 42
0.0000001
 43
0.0000001
 44
0.0000000001
 40
0.0
 40
0.0
 40
0.0
 40
0.0
 40
0.1249725334
 40
0.249979871
 40
0.3750386885
 40
0.5001352658
 40
0.749948443
 40
1.0
 40
1.0
 40
1.0
 40
1.0
 10
5.6837472088
 20
3.0787366758
 30
0.0
 10
5.6837472088
 20
3.0790372186
 30
0.0
 10
5.6838203616
 20
3.0796407069
 30
0.0
 10
5.6841325144
 20
3.0804940393
 30
0.0
 10
5.6846081961
 20
3.0812668695
 30
0.0
 10
5.6854048811
 20
3.0821733836
 30
0.0
 10
5.6866225846
 20
3.083080999
 30
0.0
 10
5.6877148723
 20
3.083597192
 30
0.0
 10
5.6882764435
 20
3.0838122492
 30
0.0
  0
SPLINE
  5
4A1
100
AcDbEntity
  8
0
100
AcDbSpline
 62
7
  6
CONTINUOUS
 70
0
 71
3
 72
15
 73
11
 74
0
 42
0.0000001
 43
0.0000001
 44
0.0000000001
 40
0.0
 40
0.0
 40
0.0
 40
0.0
 40
0.0764822183
 40
0.1648227265
 40
0.2665735418
 40
0.3832644222
 40
0.5160764572
 40
0.6651381527
 40
0.8283035198
 40
1.0
 40
1.0
 40
1.0
 40
1.0
 10
5.6805387936
 20
3.0838122492
 30
0.0
 10
5.6806041335
 20
3.0836964297
 30
0.0
 10
5.6807318935
 20
3.0834393834
 30
0.0
 10
5.6809032804
 20
3.0830083009
 30
0.0
 10
5.6810643367
 20
3.0824993584
 30
0.0
 10
5.6812110705
 20
3.0819061416
 30
0.0
 10
5.6813379714
 20
3.0812245051
 30
0.0
 10
5.6814378252
 20
3.080456812
 30
0.0
 10
5.6815024582
 20
3.0796175417
 30
0.0
 10
5.6815173151
 20
3.0790352033
 30
0.0
 10
5.6815173151
 20
3.0787366758
 30
0.0
  0
SPLINE
  5
4A2
100
AcDbEntity
  8
0
100
AcDbSpline
 62
7
  6
CONTINUOUS
 70
0
 71
3
 72
13
 73
9
 74
0
 42
0.0000001
 43
0.0000001
 44
0.0000000001
 40
0.0
 40
0.0
 40
0.0
 40
0.0
 40
0.1250157522
 40
0.2500566396
 40
0.3751341109
 40
0.5002338737
 40
0.7500151583
 40
1.0
 40
1.0
 40
1.0
 40
1.0
 10
5.676013039
 20
3.0787366758
 30
0.0
 10
5.676013039
 20
3.0790372153
 30
0.0
 10
5.6760861285
 20
3.0796406707
 30
0.0
 10
5.6763980245
 20
3.0804939897
 30
0.0
 10
5.6768733309
 20
3.0812668242
 30
0.0
 10
5.6776693607
 20
3.0821733075
 30
0.0
 10
5.6788860951
 20
3.0830809379
 30
0.0
 10
5.6799776276
 20
3.0835971819
 30
0.0
 10
5.6805387936
 20
3.0838122492
 30
0.0
  0
SPLINE
  5
4A3
100
AcDbEntity
  8
0
100
AcDbSpline
 62
7
  6
CONTINUOUS
 70
0
 71
3
 72
14
 73
10
 74
0
 42
0.0000001
 43
0.0000001
 44
0.0000000001
 40
0.0
 40
0.0
 40
0.0
 40
0.0
 40
0.0730538895
 40
0.1591261478
 40
0.2596774295
 40
0.3761669542
 40
0.5097087859
 40
0.6603365895
 40
1.0
 40
1.0
 40
1.0
 40
1.0
 10
5.6732799783
 20
3.0838122492
 30
0.0
 10
5.6733233489
 20
3.0836949211
 30
0.0
 10
5.6734075966
 20
3.0834355485
 30
0.0
 10
5.6735195498
 20
3.0830050372
 30
0.0
 10
5.6736248268
 20
3.0824966173
 30
0.0
 10
5.6737207881
 20
3.0819038806
 30
0.0
 10
5.6738038167
 20
3.0812227151
 30
0.0
 10
5.6738943839
 20
3.0801582328
 30
0.0
 10
5.6739211394
 20
3.0793182693
 30
0.0
 10
5.6739211394
 20
3.0787366758
 30
0.0
  0
SPLINE
  5
4A4
100
AcDbEntity
  8
0
100
AcDbSpline
 62
7
  6
CONTINUOUS
 70
0
 71
3
 72
13
 73
9
 74
0
 42
0.0000001
 43
0.0000001
 44
0.0000000001
 40
0.0
 40
0.0
 40
0.0
 40
0.0
 40
0.1253816368
 40
0.2507067112
 40
0.3759423897
 40
0.5010693871
 40
0.7505807358
 40
1.0
 40
1.0
 40
1.0
 40
1.0
 10
5.6687836227
 20
3.0787366758
 30
0.0
 10
5.6687836227
 20
3.079037188
 30
0.0
 10
5.6688561776
 20
3.0796403662
 30
0.0
 10
5.6691659059
 20
3.0804935708
 30
0.0
 10
5.6696380419
 20
3.0812664405
 30
0.0
 10
5.6704285368
 20
3.0821726617
 30
0.0
 10
5.6716370824
 20
3.0830804184
 30
0.0
 10
5.6727222349
 20
3.083597096
 30
0.0
 10
5.6732799783
 20
3.0838122492
 30
0.0
  0
LINE
  5
4A5
100
AcDbEntity
  8
0
100
AcDbLine
 62
7
  6
CONTINUOUS
 10
5.6665415687
 20
3.0838122492
 11
5.6668416974
 21
3.0787366758
  0
SPLINE
  5
4A6
100
AcDbEntity
  8
0
100
AcDbSpline
 62
7
  6
CONTINUOUS
 70
0
 71
3
 72
13
 73
9
 74
0
 42
0.0000001
 43
0.0000001
 44
0.0000000001
 40
0.0
 40
0.0
 40
0.0
 40
0.0
 40
0.1260717489
 40
0.2519336083
 40
0.377469076
 40
0.5026487463
 40
0.7516512771
 40
1.0
 40
1.0
 40
1.0
 40
1.0
 10
5.6621003626
 20
3.0787366758
 30
0.0
 10
5.6621003626
 20
3.0790371373
 30
0.0
 10
5.6621719179
 20
3.0796397995
 30
0.0
 10
5.662477585
 20
3.0804927869
 30
0.0
 10
5.6629437735
 20
3.0812657179
 30
0.0
 10
5.6637238885
 20
3.0821714375
 30
0.0
 10
5.6649170621
 20
3.0830794239
 30
0.0
 10
5.6659902439
 20
3.0835969311
 30
0.0
 10
5.6665415687
 20
3.0838122492
 30
0.0
  0
SPLINE
  5
4A7
100
AcDbEntity
  8
0
100
AcDbSpline
 62
7
  6
CONTINUOUS
 70
0
 71
3
 72
13
 73
9
 74
0
 42
0.0000001
 43
0.0000001
 44
0.0000000001
 40
0.0
 40
0.0
 40
0.0
 40
0.0
 40
0.1270888726
 40
0.2537436826
 40
0.3797242888
 40
0.5049847134
 40
0.7532381468
 40
1.0
 40
1.0
 40
1.0
 40
1.0
 10
5.6560015337
 20
3.0787366758
 30
0.0
 10
5.6560015337
 20
3.0790370643
 30
0.0
 10
5.6560716358
 20
3.0796389823
 30
0.0
 10
5.6563713811
 20
3.0804916462
 30
0.0
 10
5.6568288793
 20
3.0812646554
 30
0.0
 10
5.6575938346
 20
3.0821696186
 30
0.0
 10
5.6587645217
 20
3.0830779226
 30
0.0
 10
5.6598202058
 20
3.0835966811
 30
0.0
 10
5.6603621555
 20
3.0838122492
 30
0.0
  0
SPLINE
  5
4A8
100
AcDbEntity
  8
0
100
AcDbSpline
 62
7
  6
CONTINUOUS
 70
0
 71
3
 72
13
 73
9
 74
0
 42
0.0000001
 43
0.0000001
 44
0.0000000001
 40
0.0
 40
0.0
 40
0.0
 40
0.0
 40
0.1284367113
 40
0.2561455677
 40
0.3827220604
 40
0.5080952678
 40
0.7553577183
 40
1.0
 40
1.0
 40
1.0
 40
1.0
 10
5.650522064
 20
3.0787366758
 30
0.0
 10
5.650522064
 20
3.0790369707
 30
0.0
 10
5.6505902755
 20
3.0796379316
 30
0.0
 10
5.6508822863
 20
3.0804901615
 30
0.0
 10
5.6513284022
 20
3.0812632529
 30
0.0
 10
5.652073515
 20
3.0821671818
 30
0.0
 10
5.6532147017
 20
3.0830758662
 30
0.0
 10
5.6542474519
 20
3.0835963364
 30
0.0
 10
5.6547771282
 20
3.0838122492
 30
0.0
  0
SPLINE
  5
4A9
100
AcDbEntity
  8
0
100
AcDbSpline
 62
7
  6
CONTINUOUS
 70
0
 71
3
 72
13
 73
9
 74
0
 42
0.0000001
 43
0.0000001
 44
0.0000000001
 40
0.0
 40
0.0
 40
0.0
 40
0.0
 40
0.130119394
 40
0.2591492818
 40
0.3864792466
 40
0.5120025724
 40
0.7580309007
 40
1.0
 40
1.0
 40
1.0
 40
1.0
 10
5.6456933341
 20
3.0787366758
 30
0.0
 10
5.6456933341
 20
3.0790368585
 30
0.0
 10
5.6457592386
 20
3.0796366694
 30
0.0
 10
5.6460417649
 20
3.0804883504
 30
0.0
 10
5.6464738745
 20
3.0812615115
 30
0.0
 10
5.6471945921
 20
3.0821640982
 30
0.0
 10
5.6482993974
 20
3.0830731875
 30
0.0
 10
5.6493038919
 20
3.0835958834
 30
0.0
 10
5.6498184721
 20
3.0838122492
 30
0.0
  0
SPLINE
  5
4AA
100
AcDbEntity
  8
0
100
AcDbSpline
 62
7
  6
CONTINUOUS
 70
0
 71
3
 72
13
 73
9
 74
0
 42
0.0000001
 43
0.0000001
 44
0.0000000001
 40
0.0
 40
0.0
 40
0.0
 40
0.0
 40
0.1321407306
 40
0.2627648659
 40
0.3910138396
 40
0.5167313285
 40
0.7612823159
 40
1.0
 40
1.0
 40
1.0
 40
1.0
 10
5.6415429984
 20
3.0787366758
 30
0.0
 10
5.6415429984
 20
3.0790367304
 30
0.0
 10
5.6416062034
 20
3.0796352226
 30
0.0
 10
5.6418775723
 20
3.0804862368
 30
0.0
 10
5.6422931373
 20
3.0812594353
 30
0.0
 10
5.642985072
 20
3.0821603351
 30
0.0
 10
5.6440467809
 20
3.0830697985
 30
0.0
 10
5.6450178314
 20
3.0835953034
 30
0.0
 10
5.6455145855
 20
3.0838122492
 30
0.0
  0
SPLINE
  5
4AB
100
AcDbEntity
  8
0
100
AcDbSpline
 62
7
  6
CONTINUOUS
 70
0
 71
3
 72
13
 73
9
 74
0
 42
0.0000001
 43
0.0000001
 44
0.0000000001
 40
0.0
 40
0.0
 40
0.0
 40
0.0
 40
0.1345031315
 40
0.2670003891
 40
0.3963424493
 40
0.5223062459
 40
0.765138922
 40
1.0
 40
1.0
 40
1.0
 40
1.0
 10
5.6380948255
 20
3.0787366758
 30
0.0
 10
5.6380948255
 20
3.0790365892
 30
0.0
 10
5.6381549663
 20
3.0796336222
 30
0.0
 10
5.6384135951
 20
3.0804838509
 30
0.0
 10
5.6388101812
 20
3.0812570331
 30
0.0
 10
5.6394691478
 20
3.082155859
 30
0.0
 10
5.6404812472
 20
3.083065587
 30
0.0
 10
5.6414138103
 20
3.0835945709
 30
0.0
 10
5.6418901166
 20
3.0838122492
 30
0.0
  0
SPLINE
  5
4AC
100
AcDbEntity
  8
0
100
AcDbSpline
 62
7
  6
CONTINUOUS
 70
0
 71
3
 72
14
 73
10
 74
0
 42
0.0000001
 43
0.0000001
 44
0.0000000001
 40
0.0
 40
0.0
 40
0.0
 40
0.0
 40
0.1371436059
 40
0.2717353215
 40
0.4022933874
 40
0.5285075155
 40
0.6507728455
 40
0.7697326634
 40
1.0
 40
1.0
 40
1.0
 40
1.0
 10
5.6353685633
 20
3.0787366758
 30
0.0
 10
5.6353685633
 20
3.0790364383
 30
0.0
 10
5.6354253009
 20
3.0796319008
 30
0.0
 10
5.6356697252
 20
3.0804812389
 30
0.0
 10
5.6360449649
 20
3.0812542911
 30
0.0
 10
5.6365190593
 20
3.0819372607
 30
0.0
 10
5.6370650123
 20
3.0825294995
 30
0.0
 10
5.6378523011
 20
3.083197336
 30
0.0
 10
5.6385124637
 20
3.0835936521
 30
0.0
 10
5.6389658227
 20
3.0838122492
 30
0.0
  0
SPLINE
  5
4AD
100
AcDbEntity
  8
0
100
AcDbSpline
 62
7
  6
CONTINUOUS
 70
0
 71
3
 72
103
 73
99
 74
0
 42
0.0000001
 43
0.0000001
 44
0.0000000001
 40
0.0
 40
0.0
 40
0.0
 40
0.0
 40
0.0000032426
 40
0.0000127556
 40
0.0000285353
 40
0.0000505777
 40
0.0001134358
 40
0.0002012991
 40
0.0003141368
 40
0.0004519183
 40
0.0006146128
 40
0.0008021896
 40
0.001251867
 40
0.0018006736
 40
0.0024481333
 40
0.0031936914
 40
0.0040367928
 40
0.0049768826
 40
0.007145492
 40
0.0096924558
 40
0.0126096836
 40
0.0158887632
 40
0.019520387
 40
0.0234950818
 40
0.0278028003
 40
0.0373736792
 40
0.0481454222
 40
0.0600304378
 40
0.072942374
 40
0.0867975373
 40
0.1015174325
 40
0.117028866
 40
0.1332640856
 40
0.150161346
 40
0.1676636104
 40
0.1857206896
 40
0.2042865509
 40
0.2427821356
 40
0.2626433967
 40
0.2828733721
 40
0.3034451245
 40
0.3243353256
 40
0.3455217549
 40
0.3669832195
 40
0.3886984391
 40
0.4106427926
 40
0.4327864516
 40
0.4550931551
 40
0.4775160508
 40
0.5
 40
0.5224839493
 40
0.5449068455
 40
0.5672135502
 40
0.5893572081
 40
0.6113015646
 40
0.6330167815
 40
0.6544782489
 40
0.6756646805
 40
0.6965548733
 40
0.7171266315
 40
0.7373566177
 40
0.7572178695
 40
0.7957134496
 40
0.8142793221
 40
0.8323363946
 40
0.8498386486
 40
0.8667359109
 40
0.8829711367
 40
0.8984825722
 40
0.9132024617
 40
0.927057622
 40
0.9399695712
 40
0.951854585
 40
0.9626263034
 40
0.972197195
 40
0.9765049263
 40
0.9804796246
 40
0.9841112444
 40
0.9873903234
 40
0.9903075616
 40
0.9928545344
 40
0.9950231326
 40
0.9959632057
 40
0.9968062868
 40
0.9975518249
 40
0.998199269
 40
0.9987480683
 40
0.9991977487
 40
0.9993853303
 40
0.9995480311
 40
0.9996858202
 40
0.9997986664
 40
0.9998865386
 40
0.9999494056
 40
0.9999714525
 40
0.9999872364
 40
0.9999967535
 40
1.0
 40
1.0
 40
1.0
 40
1.0
 10
5.1261489938
 20
2.7351366758
 30
0.0
 10
5.1261490933
 20
2.735136459
 30
0.0
 10
5.1261499573
 20
2.7351359463
 30
0.0
 10
5.1261513391
 20
2.7351344101
 30
0.0
 10
5.1261540038
 20
2.7351321277
 30
0.0
 10
5.1261594205
 20
2.7351270963
 30
0.0
 10
5.1261688618
 20
2.7351185695
 30
0.0
 10
5.1261831882
 20
2.73510551
 30
0.0
 10
5.1262016292
 20
2.7350887709
 30
0.0
 10
5.1262241428
 20
2.7350683314
 30
0.0
 10
5.1262507407
 20
2.7350442085
 30
0.0
 10
5.1262943477
 20
2.7350046831
 30
0.0
 10
5.1263590333
 20
2.7349461136
 30
0.0
 10
5.1264488491
 20
2.7348648886
 30
0.0
 10
5.1265548507
 20
2.7347691067
 30
0.0
 10
5.1266769492
 20
2.7346588436
 30
0.0
 10
5.1268150517
 20
2.7345341793
 30
0.0
 10
5.1270309012
 20
2.7343393934
 30
0.0
 10
5.1273398548
 20
2.7340606659
 30
0.0
 10
5.1277570418
 20
2.7336847517
 30
0.0
 10
5.1282353293
 20
2.7332545972
 30
0.0
 10
5.1287735013
 20
2.7327716912
 30
0.0
 10
5.1293702123
 20
2.7322375314
 30
0.0
 10
5.1300240237
 20
2.7316536923
 30
0.0
 10
5.1310049292
 20
2.7307801086
 30
0.0
 10
5.1323622079
 20
2.7295772253
 30
0.0
 10
5.1341426146
 20
2.7280112813
 30
0.0
 10
5.1361148913
 20
2.7262913203
 30
0.0
 10
5.1382673546
 20
2.7244328678
 30
0.0
 10
5.140589009
 20
2.722451292
 30
0.0
 10
5.143069741
 20
2.7203615927
 30
0.0
 10
5.1457005306
 20
2.7181783625
 30
0.0
 10
5.1484733819
 20
2.7159156414
 30
0.0
 10
5.151381847
 20
2.7135876723
 30
0.0
 10
5.1544205879
 20
2.7112082933
 30
0.0
 10
5.1575855721
 20
2.7087914106
 30
0.0
 10
5.1620231363
 20
2.7054969894
 30
0.0
 10
5.1666470572
 20
2.7022312618
 30
0.0
 10
5.1714689835
 20
2.6990401263
 30
0.0
 10
5.1752472614
 20
2.696663473
 30
0.0
 10
5.17915355
 20
2.6943509629
 30
0.0
 10
5.1831914103
 20
2.6921264716
 30
0.0
 10
5.187365021
 20
2.6900183444
 30
0.0
 10
5.1916775656
 20
2.688058654
 30
0.0
 10
5.1961310212
 20
2.6862862233
 30
0.0
 10
5.2007222023
 20
2.6847417101
 30
0.0
 10
5.2054427048
 20
2.6834717208
 30
0.0
 10
5.2102748034
 20
2.6825235491
 30
0.0
 10
5.2151894846
 20
2.6819328827
 30
0.0
 10
5.2201489935
 20
2.6817354852
 30
0.0
 10
5.2251085024
 20
2.6819328838
 30
0.0
 10
5.2300231835
 20
2.6825235505
 30
0.0
 10
5.2348552838
 20
2.6834717151
 30
0.0
 10
5.2395757832
 20
2.6847417173
 30
0.0
 10
5.2441669659
 20
2.6862862232
 30
0.0
 10
5.2486204293
 20
2.6880586369
 30
0.0
 10
5.252932958
 20
2.6900183633
 30
0.0
 10
5.2571065713
 20
2.6921264827
 30
0.0
 10
5.2611444497
 20
2.6943509419
 30
0.0
 10
5.2650507274
 20
2.6966634727
 30
0.0
 10
5.2688289893
 20
2.6990401517
 30
0.0
 10
5.2736509342
 20
2.7022312582
 30
0.0
 10
5.27827486
 20
2.7054969799
 30
0.0
 10
5.282712408
 20
2.7087914227
 30
0.0
 10
5.2858773977
 20
2.7112082973
 30
0.0
 10
5.2889161446
 20
2.7135876671
 30
0.0
 10
5.2918246077
 20
2.7159156384
 30
0.0
 10
5.2945974562
 20
2.718178364
 30
0.0
 10
5.2972282456
 20
2.7203615948
 30
0.0
 10
5.299708979
 20
2.7224512916
 30
0.0
 10
5.3020306357
 20
2.7244328652
 30
0.0
 10
5.3041830949
 20
2.7262913235
 30
0.0
 10
5.3061553694
 20
2.7280112854
 30
0.0
 10
5.3079357845
 20
2.7295772183
 30
0.0
 10
5.3092930604
 20
2.7307801049
 30
0.0
 10
5.3102739631
 20
2.731653695
 30
0.0
 10
5.3109277744
 20
2.7322375355
 30
0.0
 10
5.3115244864
 20
2.7327716941
 30
0.0
 10
5.3120626594
 20
2.7332545996
 30
0.0
 10
5.3125409458
 20
2.7336847573
 30
0.0
 10
5.312958131
 20
2.7340606745
 30
0.0
 10
5.3132670845
 20
2.7343394001
 30
0.0
 10
5.3134829356
 20
2.7345341789
 30
0.0
 10
5.3136210385
 20
2.7346588365
 30
0.0
 10
5.3137431374
 20
2.7347690929
 30
0.0
 10
5.3138491393
 20
2.7348648697
 30
0.0
 10
5.3139389553
 20
2.7349460924
 30
0.0
 10
5.3140036401
 20
2.7350046629
 30
0.0
 10
5.3140472464
 20
2.7350441907
 30
0.0
 10
5.314073844
 20
2.7350683158
 30
0.0
 10
5.3140963575
 20
2.735088758
 30
0.0
 10
5.3141147984
 20
2.7351055
 30
0.0
 10
5.3141291249
 20
2.7351185622
 30
0.0
 10
5.3141385662
 20
2.7351270914
 30
0.0
 10
5.3141439831
 20
2.7351321244
 30
0.0
 10
5.3141466478
 20
2.7351344082
 30
0.0
 10
5.3141480303
 20
2.735135945
 30
0.0
 10
5.3141488942
 20
2.7351364587
 30
0.0
 10
5.3141489938
 20
2.7351366758
 30
0.0
  0
SPLINE
  5
4AE
100
AcDbEntity
  8
0
100
AcDbSpline
 62
7
  6
CONTINUOUS
 70
0
 71
3
 72
104
 73
100
 74
0
 42
0.0000001
 43
0.0000001
 44
0.0000000001
 40
0.0
 40
0.0
 40
0.0
 40
0.0
 40
0.0000033135
 40
0.000013046
 40
0.0000291924
 40
0.0000517479
 40
0.0001160654
 40
0.000205958
 40
0.0003213852
 40
0.0004623063
 40
0.0006286808
 40
0.0008204683
 40
0.0012801113
 40
0.0018408672
 40
0.0025023585
 40
0.0032642081
 40
0.0041259654
 40
0.0050868137
 40
0.0073020633
 40
0.0099023575
 40
0.0128792316
 40
0.0162238063
 40
0.0199262524
 40
0.0239762406
 40
0.0283626305
 40
0.0380978715
 40
0.0490402964
 40
0.0610975565
 40
0.0741776974
 40
0.0881938991
 40
0.1030656277
 40
0.1187164008
 40
0.1350760708
 40
0.1696769824
 40
0.1878084733
 40
0.2064287584
 40
0.2254972433
 40
0.2449762555
 40
0.2850232934
 40
0.3055373104
 40
0.3263398317
 40
0.347406068
 40
0.3687131665
 40
0.3902345478
 40
0.4119432065
 40
0.4228595537
 40
0.4338116952
 40
0.4558022871
 40
0.4668331594
 40
0.4778806735
 40
0.5000009407
 40
0.5221211949
 40
0.533168711
 40
0.5441995884
 40
0.566190181
 40
0.5880567863
 40
0.6097654478
 40
0.6312868438
 40
0.652593917
 40
0.6736601628
 40
0.6944626973
 40
0.7149767013
 40
0.7550237399
 40
0.7745027799
 40
0.7935712294
 40
0.8121914867
 40
0.8303230334
 40
0.8649239065
 40
0.8812835982
 40
0.8969343836
 40
0.9118060954
 40
0.92582229
 40
0.9389024557
 40
0.9509597108
 40
0.9619021097
 40
0.9716373596
 40
0.9760237651
 40
0.9800737551
 40
0.9837761903
 40
0.9871207706
 40
0.9900976741
 40
0.9926979784
 40
0.9949131905
 40
0.9958740122
 40
0.9967357453
 40
0.9974975776
 40
0.9981590593
 40
0.9987198133
 40
0.9991794626
 40
0.9993712562
 40
0.9995376385
 40
0.9996785686
 40
0.9997940053
 40
0.9998839078
 40
0.9999482351
 40
0.9999707951
 40
0.999986946
 40
0.9999966827
 40
1.0
 40
1.0
 40
1.0
 40
1.0
 10
4.5421489938
 20
4.8371366758
 30
0.0
 10
4.5421492479
 20
4.8371366137
 30
0.0
 10
4.5421499924
 20
4.8371358064
 30
0.0
 10
4.5421519505
 20
4.8371346559
 30
0.0
 10
4.5421549991
 20
4.8371323033
 30
0.0
 10
4.5421616161
 20
4.8371275982
 30
0.0
 10
4.5421728888
 20
4.83711935
 30
0.0
 10
4.5421901219
 20
4.8371068588
 30
0.0
 10
4.542212225
 20
4.8370907676
 30
0.0
 10
4.542239209
 20
4.8370711257
 30
0.0
 10
4.5422710562
 20
4.8370479184
 30
0.0
 10
4.5423232287
 20
4.837009874
 30
0.0
 10
4.5424005316
 20
4.836953442
 30
0.0
 10
4.5425077823
 20
4.8368751355
 30
0.0
 10
4.5426343219
 20
4.8367827832
 30
0.0
 10
4.5427800989
 20
4.8366764759
 30
0.0
 10
4.5429450334
 20
4.8365563242
 30
0.0
 10
4.5432028026
 20
4.8363687162
 30
0.0
 10
4.5435717182
 20
4.8361005537
 30
0.0
 10
4.5440696198
 20
4.8357391165
 30
0.0
 10
4.5446400329
 20
4.8353257836
 30
0.0
 10
4.5452813763
 20
4.8348620304
 30
0.0
 10
4.5459919869
 20
4.8343494712
 30
0.0
 10
4.5467700658
 20
4.8337898389
 30
0.0
 10
4.5479360496
 20
4.8329537674
 30
0.0
 10
4.5495469027
 20
4.8318042271
 30
0.0
 10
4.5516563881
 20
4.8303107856
 30
0.0
 10
4.5539886732
 20
4.8286750263
 30
0.0
 10
4.5565283849
 20
4.826912419
 30
0.0
 10
4.5592612901
 20
4.8250385125
 30
0.0
 10
4.5621746658
 20
4.8230690199
 30
0.0
 10
4.565256427
 20
4.8210183801
 30
0.0
 10
4.5696588305
 20
4.8181408489
 30
0.0
 10
4.5742680369
 20
4.8152219086
 30
0.0
 10
4.5790799045
 20
4.8122916835
 30
0.0
 10
4.5828743689
 20
4.8100493635
 30
0.0
 10
4.5867952594
 20
4.8078127106
 30
0.0
 10
4.5922383411
 20
4.8048322334
 30
0.0
 10
4.5978686438
 20
4.8019566194
 30
0.0
 10
4.6036966231
 20
4.7992523749
 30
0.0
 10
4.6082214966
 20
4.7973047178
 30
0.0
 10
4.6128649834
 20
4.7954801589
 30
0.0
 10
4.6176259065
 20
4.793807699
 30
0.0
 10
4.622499498
 20
4.7923148981
 30
0.0
 10
4.6266412766
 20
4.7912480858
 30
0.0
 10
4.6300034258
 20
4.7905154963
 30
0.0
 10
4.6334054882
 20
4.7898674181
 30
0.0
 10
4.6368417007
 20
4.7893556843
 30
0.0
 10
4.6403025059
 20
4.7889913765
 30
0.0
 10
4.6437828589
 20
4.7887292981
 30
0.0
 10
4.648148992
 20
4.7885972755
 30
0.0
 10
4.6525151309
 20
4.7887292817
 30
0.0
 10
4.6559954746
 20
4.7889913946
 30
0.0
 10
4.6594563045
 20
4.7893557144
 30
0.0
 10
4.6637452349
 20
4.7899942029
 30
0.0
 10
4.6688192674
 20
4.7910322156
 30
0.0
 10
4.6737984404
 20
4.7923149471
 30
0.0
 10
4.6786721026
 20
4.7938076579
 30
0.0
 10
4.6834329934
 20
4.7954801801
 30
0.0
 10
4.6880764871
 20
4.7973047252
 30
0.0
 10
4.6926013714
 20
4.7992523585
 30
0.0
 10
4.6984293393
 20
4.8019566289
 30
0.0
 10
4.7040596401
 20
4.8048322469
 30
0.0
 10
4.7095027385
 20
4.8078126929
 30
0.0
 10
4.7134236162
 20
4.8100493632
 30
0.0
 10
4.7172180646
 20
4.8122917085
 30
0.0
 10
4.7220299624
 20
4.8152218825
 30
0.0
 10
4.7266391472
 20
4.8181408632
 30
0.0
 10
4.7310415601
 20
4.8210183791
 30
0.0
 10
4.734123326
 20
4.8230690145
 30
0.0
 10
4.7370366961
 20
4.8250385136
 30
0.0
 10
4.7397695994
 20
4.8269124232
 30
0.0
 10
4.7423093178
 20
4.8286750224
 30
0.0
 10
4.7446416017
 20
4.8303107827
 30
0.0
 10
4.7467510805
 20
4.8318042304
 30
0.0
 10
4.7483619343
 20
4.8329537695
 30
0.0
 10
4.7495279231
 20
4.8337898377
 30
0.0
 10
4.7503060028
 20
4.8343494697
 30
0.0
 10
4.7510166112
 20
4.8348620314
 30
0.0
 10
4.7516579562
 20
4.8353257857
 30
0.0
 10
4.7522283762
 20
4.8357391152
 30
0.0
 10
4.7527262802
 20
4.8361005493
 30
0.0
 10
4.7530951886
 20
4.8363687145
 30
0.0
 10
4.7533529481
 20
4.8365563241
 30
0.0
 10
4.7535178755
 20
4.8366764762
 30
0.0
 10
4.7536636474
 20
4.8367827838
 30
0.0
 10
4.7537901841
 20
4.8368751363
 30
0.0
 10
4.7538974341
 20
4.8369534429
 30
0.0
 10
4.7539747383
 20
4.8370098745
 30
0.0
 10
4.7540269131
 20
4.8370479185
 30
0.0
 10
4.7540587627
 20
4.8370711256
 30
0.0
 10
4.7540857494
 20
4.8370907674
 30
0.0
 10
4.7541078554
 20
4.8371068584
 30
0.0
 10
4.7541250913
 20
4.8371193497
 30
0.0
 10
4.7541363665
 20
4.8371275977
 30
0.0
 10
4.7541429852
 20
4.8371323029
 30
0.0
 10
4.7541460352
 20
4.8371346554
 30
0.0
 10
4.754147994
 20
4.8371358066
 30
0.0
 10
4.7541487394
 20
4.8371366135
 30
0.0
 10
4.7541489938
 20
4.8371366758
 30
0.0
  0
SPLINE
  5
4AF
100
AcDbEntity
  8
0
100
AcDbSpline
 62
7
  6
CONTINUOUS
 70
0
 71
3
 72
13
 73
9
 74
0
 42
0.0000001
 43
0.0000001
 44
0.0000000001
 40
0.0
 40
0.0
 40
0.0
 40
0.0
 40
0.2360461232
 40
0.4794158443
 40
0.6053170892
 40
0.734331713
 40
0.8662464282
 40
1.0
 40
1.0
 40
1.0
 40
1.0
 10
4.748298024
 20
7.3392127993
 30
0.0
 10
4.7487807553
 20
7.3389958879
 30
0.0
 10
4.7497255216
 20
7.3384687914
 30
0.0
 10
4.7507525155
 20
7.3375586739
 30
0.0
 10
4.7514204476
 20
7.33665836
 30
0.0
 10
4.7518216723
 20
7.3358845822
 30
0.0
 10
4.7520830668
 20
7.3350339063
 30
0.0
 10
4.7521438236
 20
7.3344365572
 30
0.0
 10
4.7521438236
 20
7.3341366758
 30
0.0
  0
SPLINE
  5
4B0
100
AcDbEntity
  8
0
100
AcDbSpline
 62
7
  6
CONTINUOUS
 70
0
 71
3
 72
13
 73
9
 74
0
 42
0.0000001
 43
0.0000001
 44
0.0000000001
 40
0.0
 40
0.0
 40
0.0
 40
0.0
 40
0.2404005284
 40
0.4857206847
 40
0.6113465824
 40
0.7391258728
 40
0.8689207471
 40
1.0
 40
1.0
 40
1.0
 40
1.0
 10
4.7444066839
 20
7.3392127993
 30
0.0
 10
4.7449127558
 20
7.3389966921
 30
0.0
 10
4.7459013755
 20
7.338473467
 30
0.0
 10
4.7469849196
 20
7.3375637358
 30
0.0
 10
4.7476904612
 20
7.3366610966
 30
0.0
 10
4.7481132913
 20
7.3358873143
 30
0.0
 10
4.7483891892
 20
7.3350357453
 30
0.0
 10
4.7484534369
 20
7.3344367195
 30
0.0
 10
4.7484534369
 20
7.3341366758
 30
0.0
  0
SPLINE
  5
4B1
100
AcDbEntity
  8
0
100
AcDbSpline
 62
7
  6
CONTINUOUS
 70
0
 71
3
 72
13
 73
9
 74
0
 42
0.0000001
 43
0.0000001
 44
0.0000000001
 40
0.0
 40
0.0
 40
0.0
 40
0.0
 40
0.2438970385
 40
0.4908172871
 40
0.6162382547
 40
0.7430288021
 40
0.8711036084
 40
1.0
 40
1.0
 40
1.0
 40
1.0
 10
4.7397178418
 20
7.3392127993
 30
0.0
 10
4.7402433811
 20
7.338997295
 30
0.0
 10
4.7412684536
 20
7.3384770318
 30
0.0
 10
4.7423989722
 20
7.3375677859
 30
0.0
 10
4.7431359254
 20
7.3366633545
 30
0.0
 10
4.7435767718
 20
7.3358896317
 30
0.0
 10
4.7438648271
 20
7.3350373412
 30
0.0
 10
4.7439320205
 20
7.3344368608
 30
0.0
 10
4.7439320205
 20
7.3341366758
 30
0.0
  0
SPLINE
  5
4B2
100
AcDbEntity
  8
0
100
AcDbSpline
 62
7
  6
CONTINUOUS
 70
0
 71
3
 72
13
 73
9
 74
0
 42
0.0000001
 43
0.0000001
 44
0.0000000001
 40
0.0
 40
0.0
 40
0.0
 40
0.0
 40
0.2465803351
 40
0.494748871
 40
0.6200226424
 40
0.7460567524
 40
0.8728007649
 40
1.0
 40
1.0
 40
1.0
 40
1.0
 10
4.7342703451
 20
7.3392127993
 30
0.0
 10
4.7348113061
 20
7.3389977337
 30
0.0
 10
4.7358651908
 20
7.3384796564
 30
0.0
 10
4.7370327952
 20
7.3375708817
 30
0.0
 10
4.737794649
 20
7.3366651231
 30
0.0
 10
4.7382497608
 20
7.3358914884
 30
0.0
 10
4.7385474847
 20
7.3350386446
 30
0.0
 10
4.7386170347
 20
7.3344369768
 30
0.0
 10
4.7386170347
 20
7.3341366758
 30
0.0
  0
SPLINE
  5
4B3
100
AcDbEntity
  8
0
100
AcDbSpline
 62
7
  6
CONTINUOUS
 70
0
 71
3
 72
13
 73
9
 74
0
 42
0.0000001
 43
0.0000001
 44
0.0000000001
 40
0.0
 40
0.0
 40
0.0
 40
0.0
 40
0.2484881294
 40
0.4975548686
 40
0.6227294304
 40
0.7482271335
 40
0.8740192859
 40
1.0
 40
1.0
 40
1.0
 40
1.0
 10
4.7281093268
 20
7.3392127993
 30
0.0
 10
4.7286615262
 20
7.3389980336
 30
0.0
 10
4.7297363768
 20
7.3384814651
 30
0.0
 10
4.7309309366
 20
7.3375730751
 30
0.0
 10
4.7317109417
 20
7.3366663992
 30
0.0
 10
4.7321764438
 20
7.3358928515
 30
0.0
 10
4.732481234
 20
7.335039616
 30
0.0
 10
4.7325525146
 20
7.3344370634
 30
0.0
 10
4.7325525146
 20
7.3341366758
 30
0.0
  0
SPLINE
  5
4B4
100
AcDbEntity
  8
0
100
AcDbSpline
 62
7
  6
CONTINUOUS
 70
0
 71
3
 72
13
 73
9
 74
0
 42
0.0000001
 43
0.0000001
 44
0.0000000001
 40
0.0
 40
0.0
 40
0.0
 40
0.0
 40
0.3423336484
 40
0.6279707286
 40
0.744423494
 40
0.8443096601
 40
0.9290342806
 40
1.0
 40
1.0
 40
1.0
 40
1.0
 10
4.727756948
 20
7.3341366758
 30
0.0
 10
4.727756948
 20
7.3347180463
 30
0.0
 10
4.7277756725
 20
7.3357845977
 30
0.0
 10
4.7278440204
 20
7.3370473469
 30
0.0
 10
4.7279194204
 20
7.3378965622
 30
0.0
 10
4.7279772402
 20
7.3384046291
 30
0.0
 10
4.7280387055
 20
7.3388343517
 30
0.0
 10
4.728085247
 20
7.3390947114
 30
0.0
 10
4.7281093268
 20
7.3392127993
 30
0.0
  0
SPLINE
  5
4B5
100
AcDbEntity
  8
0
100
AcDbSpline
 62
7
  6
CONTINUOUS
 70
0
 71
3
 72
13
 73
9
 74
0
 42
0.0000001
 43
0.0000001
 44
0.0000000001
 40
0.0
 40
0.0
 40
0.0
 40
0.0
 40
0.2496488112
 40
0.4992663351
 40
0.6243827897
 40
0.7495547748
 40
0.8747655201
 40
1.0
 40
1.0
 40
1.0
 40
1.0
 10
4.7212858312
 20
7.3392127993
 30
0.0
 10
4.7218449852
 20
7.3389982114
 30
0.0
 10
4.7229327984
 20
7.3384825426
 30
0.0
 10
4.724144009
 20
7.3375744059
 30
0.0
 10
4.7249352475
 20
7.3366671831
 30
0.0
 10
4.7254071764
 20
7.3358936987
 30
0.0
 10
4.725716348
 20
7.335040226
 30
0.0
 10
4.7257887053
 20
7.3344371179
 30
0.0
 10
4.7257887053
 20
7.3341366758
 30
0.0
  0
SPLINE
  5
4B6
100
AcDbEntity
  8
0
100
AcDbSpline
 62
7
  6
CONTINUOUS
 70
0
 71
3
 72
14
 73
10
 74
0
 42
0.0000001
 43
0.0000001
 44
0.0000000001
 40
0.0
 40
0.0
 40
0.0
 40
0.0
 40
0.3380809467
 40
0.4883043118
 40
0.6217170939
 40
0.7383294937
 40
0.8392528343
 40
0.9259718418
 40
1.0
 40
1.0
 40
1.0
 40
1.0
 10
4.720524673
 20
7.3341366758
 30
0.0
 10
4.720524673
 20
7.3347184046
 30
0.0
 10
4.7205563779
 20
7.3355592558
 30
0.0
 10
4.720663643
 20
7.3366238673
 30
0.0
 10
4.7207621666
 20
7.3373057279
 30
0.0
 10
4.7208761561
 20
7.337898976
 30
0.0
 10
4.7210013194
 20
7.3384075985
 30
0.0
 10
4.7211345093
 20
7.3388379806
 30
0.0
 10
4.7212344855
 20
7.3390962277
 30
0.0
 10
4.7212858312
 20
7.3392127993
 30
0.0
  0
SPLINE
  5
4B7
100
AcDbEntity
  8
0
100
AcDbSpline
 62
7
  6
CONTINUOUS
 70
0
 71
3
 72
13
 73
9
 74
0
 42
0.0000001
 43
0.0000001
 44
0.0000000001
 40
0.0
 40
0.0
 40
0.0
 40
0.0
 40
0.2500802026
 40
0.4999032679
 40
0.6249985629
 40
0.7500495235
 40
0.8750436591
 40
1.0
 40
1.0
 40
1.0
 40
1.0
 10
4.7138563916
 20
7.3392127993
 30
0.0
 10
4.7144181539
 20
7.3389982766
 30
0.0
 10
4.7155108265
 20
7.3384829389
 30
0.0
 10
4.7167282761
 20
7.3375749
 30
0.0
 10
4.7175237276
 20
7.3366674762
 30
0.0
 10
4.7179980663
 20
7.3358940179
 30
0.0
 10
4.7183088828
 20
7.3350404572
 30
0.0
 10
4.7183816452
 20
7.334437139
 30
0.0
 10
4.7183816452
 20
7.3341366758
 30
0.0
  0
SPLINE
  5
4B8
100
AcDbEntity
  8
0
100
AcDbSpline
 62
7
  6
CONTINUOUS
 70
0
 71
3
 72
15
 73
11
 74
0
 42
0.0000001
 43
0.0000001
 44
0.0000000001
 40
0.0
 40
0.0
 40
0.0
 40
0.0
 40
0.1698427574
 40
0.3314948156
 40
0.4795759922
 40
0.6120015934
 40
0.7289102038
 40
0.8314967543
 40
0.921324745
 40
1.0
 40
1.0
 40
1.0
 40
1.0
 10
4.7126927602
 20
7.3341366758
 30
0.0
 10
4.7126927602
 20
7.3344351798
 30
0.0
 10
4.71271038
 20
7.3350179557
 30
0.0
 10
4.7127870691
 20
7.3358578381
 30
0.0
 10
4.7129056844
 20
7.33662637
 30
0.0
 10
4.7130566151
 20
7.3373088617
 30
0.0
 10
4.7132313239
 20
7.3379027232
 30
0.0
 10
4.7134232586
 20
7.3384119635
 30
0.0
 10
4.7136276467
 20
7.3388429591
 30
0.0
 10
4.7137791597
 20
7.3390981041
 30
0.0
 10
4.7138563916
 20
7.3392127993
 30
0.0
  0
SPLINE
  5
4B9
100
AcDbEntity
  8
0
100
AcDbSpline
 62
7
  6
CONTINUOUS
 70
0
 71
3
 72
13
 73
9
 74
0
 42
0.0000001
 43
0.0000001
 44
0.0000000001
 40
0.0
 40
0.0
 40
0.0
 40
0.0
 40
0.2497891253
 40
0.4994734545
 40
0.624583001
 40
0.7497156438
 40
0.8748559852
 40
1.0
 40
1.0
 40
1.0
 40
1.0
 10
4.7058825615
 20
7.3392127993
 30
0.0
 10
4.7064425624
 20
7.3389982326
 30
0.0
 10
4.7075319536
 20
7.3384826717
 30
0.0
 10
4.7087451904
 20
7.3375745666
 30
0.0
 10
4.7095377969
 20
7.3366672782
 30
0.0
 10
4.7100105083
 20
7.335893802
 30
0.0
 10
4.7103202138
 20
7.3350403007
 30
0.0
 10
4.7103927025
 20
7.3344371246
 30
0.0
 10
4.7103927025
 20
7.3341366758
 30
0.0
  0
SPLINE
  5
4BA
100
AcDbEntity
  8
0
100
AcDbSpline
 62
7
  6
CONTINUOUS
 70
0
 71
3
 72
14
 73
10
 74
0
 42
0.0000001
 43
0.0000001
 44
0.0000000001
 40
0.0
 40
0.0
 40
0.0
 40
0.0
 40
0.1654287626
 40
0.3233447141
 40
0.4688669633
 40
0.6001959356
 40
0.7176065096
 40
0.8223540423
 40
1.0
 40
1.0
 40
1.0
 40
1.0
 10
4.7043260976
 20
7.3341366758
 30
0.0
 10
4.7043260976
 20
7.3344352896
 30
0.0
 10
4.7043497465
 20
7.3350192484
 30
0.0
 10
4.704452612
 20
7.3358602231
 30
0.0
 10
4.7046117105
 20
7.3366296724
 30
0.0
 10
4.7048141124
 20
7.3373128131
 30
0.0
 10
4.705048535
 20
7.3379073637
 30
0.0
 10
4.7053741495
 20
7.3385518851
 30
0.0
 10
4.7056679558
 20
7.3389745312
 30
0.0
 10
4.7058825615
 20
7.3392127993
 30
0.0
  0
SPLINE
  5
4BB
100
AcDbEntity
  8
0
100
AcDbSpline
 62
7
  6
CONTINUOUS
 70
0
 71
3
 72
13
 73
9
 74
0
 42
0.0000001
 43
0.0000001
 44
0.0000000001
 40
0.0
 40
0.0
 40
0.0
 40
0.0
 40
0.2487709433
 40
0.4979715864
 40
0.6231318318
 40
0.7485501248
 40
0.8742007711
 40
1.0
 40
1.0
 40
1.0
 40
1.0
 10
4.6974304045
 20
7.3392127993
 30
0.0
 10
4.6979842902
 20
7.3389980772
 30
0.0
 10
4.6990622845
 20
7.3384817293
 30
0.0
 10
4.7002608836
 20
7.3375733996
 30
0.0
 10
4.7010436123
 20
7.3366665897
 30
0.0
 10
4.7015106729
 20
7.3358930566
 30
0.0
 10
4.7018165249
 20
7.3350397632
 30
0.0
 10
4.7018880661
 20
7.3344370766
 30
0.0
 10
4.7018880661
 20
7.3341366758
 30
0.0
  0
SPLINE
  5
4BC
100
AcDbEntity
  8
0
100
AcDbSpline
 62
7
  6
CONTINUOUS
 70
0
 71
3
 72
11
 73
7
 74
0
 42
0.0000001
 43
0.0000001
 44
0.0000000001
 40
0.0
 40
0.0
 40
0.0
 40
0.0
 40
0.3142361271
 40
0.5871099678
 40
0.8122463237
 40
1.0
 40
1.0
 40
1.0
 40
1.0
 10
4.6954940036
 20
7.3341366758
 30
0.0
 10
4.6954940036
 20
7.3347208937
 30
0.0
 10
4.6956011831
 20
7.3358159779
 30
0.0
 10
4.6960442163
 20
7.3372699771
 30
0.0
 10
4.6966599822
 20
7.338396559
 30
0.0
 10
4.6971699665
 20
7.3389803797
 30
0.0
 10
4.6974304045
 20
7.3392127993
 30
0.0
  0
SPLINE
  5
4BD
100
AcDbEntity
  8
0
100
AcDbSpline
 62
7
  6
CONTINUOUS
 70
0
 71
3
 72
13
 73
9
 74
0
 42
0.0000001
 43
0.0000001
 44
0.0000000001
 40
0.0
 40
0.0
 40
0.0
 40
0.0
 40
0.2470099594
 40
0.4953799926
 40
0.6206310242
 40
0.746544231
 40
0.8730743016
 40
1.0
 40
1.0
 40
1.0
 40
1.0
 10
4.6885699475
 20
7.3392127993
 30
0.0
 10
4.6891134188
 20
7.3389978021
 30
0.0
 10
4.690171989
 20
7.3384800678
 30
0.0
 10
4.6913456198
 20
7.3375713763
 30
0.0
 10
4.6921115279
 20
7.3366654092
 30
0.0
 10
4.6925689612
 20
7.3358917922
 30
0.0
 10
4.692868262
 20
7.3350388601
 30
0.0
 10
4.6929381977
 20
7.334436996
 30
0.0
 10
4.6929381977
 20
7.3341366758
 30
0.0
  0
SPLINE
  5
4BE
100
AcDbEntity
  8
0
100
AcDbSpline
 62
7
  6
CONTINUOUS
 70
0
 71
3
 72
11
 73
7
 74
0
 42
0.0000001
 43
0.0000001
 44
0.0000000001
 40
0.0
 40
0.0
 40
0.0
 40
0.0
 40
0.3049348268
 40
0.5739595302
 40
0.8023800071
 40
1.0
 40
1.0
 40
1.0
 40
1.0
 10
4.6862696527
 20
7.3341366758
 30
0.0
 10
4.6862696527
 20
7.3347221003
 30
0.0
 10
4.686399381
 20
7.3358289622
 30
0.0
 10
4.6869321286
 20
7.3372885637
 30
0.0
 10
4.6876693321
 20
7.3384143316
 30
0.0
 10
4.6882666103
 20
7.3389849195
 30
0.0
 10
4.6885699475
 20
7.3392127993
 30
0.0
  0
SPLINE
  5
4BF
100
AcDbEntity
  8
0
100
AcDbSpline
 62
7
  6
CONTINUOUS
 70
0
 71
3
 72
13
 73
9
 74
0
 42
0.0000001
 43
0.0000001
 44
0.0000000001
 40
0.0
 40
0.0
 40
0.0
 40
0.0
 40
0.2444797584
 40
0.4916695947
 40
0.6170578441
 40
0.7436839342
 40
0.8714705326
 40
1.0
 40
1.0
 40
1.0
 40
1.0
 10
4.6793745999
 20
7.3392127993
 30
0.0
 10
4.6799034513
 20
7.338997392
 30
0.0
 10
4.6809347164
 20
7.3384776099
 30
0.0
 10
4.6820732095
 20
7.3375684592
 30
0.0
 10
4.6828155097
 20
7.3366637359
 30
0.0
 10
4.6832594205
 20
7.335890029
 30
0.0
 10
4.6835495495
 20
7.3350376183
 30
0.0
 10
4.6836172473
 20
7.3344368854
 30
0.0
 10
4.6836172473
 20
7.3341366758
 30
0.0
  0
SPLINE
  5
4C0
100
AcDbEntity
  8
0
100
AcDbSpline
 62
7
  6
CONTINUOUS
 70
0
 71
3
 72
11
 73
7
 74
0
 42
0.0000001
 43
0.0000001
 44
0.0000000001
 40
0.0
 40
0.0
 40
0.0
 40
0.0
 40
0.2958723833
 40
0.5613274747
 40
0.7930826384
 40
1.0
 40
1.0
 40
1.0
 40
1.0
 10
4.6767294694
 20
7.3341366758
 30
0.0
 10
4.6767294694
 20
7.3347234321
 30
0.0
 10
4.6768817393
 20
7.3358430495
 30
0.0
 10
4.6775015345
 20
7.3373068118
 30
0.0
 10
4.6783536359
 20
7.3384295221
 30
0.0
 10
4.6790310677
 20
7.3389883677
 30
0.0
 10
4.6793745999
 20
7.3392127993
 30
0.0
  0
SPLINE
  5
4C1
100
AcDbEntity
  8
0
100
AcDbSpline
 62
7
  6
CONTINUOUS
 70
0
 71
3
 72
13
 73
9
 74
0
 42
0.0000001
 43
0.0000001
 44
0.0000000001
 40
0.0
 40
0.0
 40
0.0
 40
0.0
 40
0.2411442973
 40
0.4868022999
 40
0.6123833814
 40
0.7399520858
 40
0.8693824037
 40
1.0
 40
1.0
 40
1.0
 40
1.0
 10
4.6699205458
 20
7.3392127993
 30
0.0
 10
4.6704307021
 20
7.3389968235
 30
0.0
 10
4.6714269784
 20
7.3384742393
 30
0.0
 10
4.6725203928
 20
7.3375645986
 30
0.0
 10
4.6732325222
 20
7.3366615724
 30
0.0
 10
4.6736591328
 20
7.3358877978
 30
0.0
 10
4.6739375769
 20
7.3350360755
 30
0.0
 10
4.67400244
 20
7.3344367487
 30
0.0
 10
4.67400244
 20
7.3341366758
 30
0.0
  0
SPLINE
  5
4C2
100
AcDbEntity
  8
0
100
AcDbSpline
 62
7
  6
CONTINUOUS
 70
0
 71
3
 72
14
 73
10
 74
0
 42
0.0000001
 43
0.0000001
 44
0.0000000001
 40
0.0
 40
0.0
 40
0.0
 40
0.0
 40
0.1459304852
 40
0.2876484807
 40
0.4225851508
 40
0.5500442704
 40
0.6705267427
 40
0.7850240314
 40
1.0
 40
1.0
 40
1.0
 40
1.0
 10
4.6669524948
 20
7.3341366758
 30
0.0
 10
4.6669524948
 20
7.3344359451
 30
0.0
 10
4.6669985113
 20
7.3350268853
 30
0.0
 10
4.6671977318
 20
7.3358735224
 30
0.0
 10
4.6675049781
 20
7.3366463313
 30
0.0
 10
4.6678947419
 20
7.3373306572
 30
0.0
 10
4.6683449481
 20
7.3379247073
 30
0.0
 10
4.6689887518
 20
7.3385879793
 30
0.0
 10
4.6695395523
 20
7.3389909746
 30
0.0
 10
4.6699205458
 20
7.3392127993
 30
0.0
  0
SPLINE
  5
4C3
100
AcDbEntity
  8
0
100
AcDbSpline
 62
7
  6
CONTINUOUS
 70
0
 71
3
 72
13
 73
9
 74
0
 42
0.0000001
 43
0.0000001
 44
0.0000000001
 40
0.0
 40
0.0
 40
0.0
 40
0.0
 40
0.2369599858
 40
0.480735141
 40
0.6065767842
 40
0.7353318291
 40
0.8668037005
 40
1.0
 40
1.0
 40
1.0
 40
1.0
 10
4.6602861129
 20
7.3392127993
 30
0.0
 10
4.6607736648
 20
7.3389960619
 30
0.0
 10
4.6617275033
 20
7.3384697948
 30
0.0
 10
4.6627661967
 20
7.3375597375
 30
0.0
 10
4.6634418905
 20
7.3366589273
 30
0.0
 10
4.6638475774
 20
7.3358851419
 30
0.0
 10
4.6641119607
 20
7.3350342794
 30
0.0
 10
4.6641734349
 20
7.3344365901
 30
0.0
 10
4.6641734349
 20
7.3341366758
 30
0.0
  0
SPLINE
  5
4C4
100
AcDbEntity
  8
0
100
AcDbSpline
 62
7
  6
CONTINUOUS
 70
0
 71
3
 72
14
 73
10
 74
0
 42
0.0000001
 43
0.0000001
 44
0.0000000001
 40
0.0
 40
0.0
 40
0.0
 40
0.0
 40
0.1416886164
 40
0.2799587068
 40
0.4127621175
 40
0.5395933849
 40
0.6609139968
 40
0.7775610608
 40
1.0
 40
1.0
 40
1.0
 40
1.0
 10
4.6570197318
 20
7.3341366758
 30
0.0
 10
4.6570197318
 20
7.3344361357
 30
0.0
 10
4.6570706707
 20
7.3350290822
 30
0.0
 10
4.6572908177
 20
7.3358770995
 30
0.0
 10
4.6576298748
 20
7.3366503794
 30
0.0
 10
4.6580594661
 20
7.337334466
 30
0.0
 10
4.6585551858
 20
7.3379279139
 30
0.0
 10
4.6592672989
 20
7.3385936025
 30
0.0
 10
4.6598705589
 20
7.3389929504
 30
0.0
 10
4.6602861129
 20
7.3392127993
 30
0.0
  0
SPLINE
  5
4C5
100
AcDbEntity
  8
0
100
AcDbSpline
 62
7
  6
CONTINUOUS
 70
0
 71
3
 72
14
 73
10
 74
0
 42
0.0000001
 43
0.0000001
 44
0.0000000001
 40
0.0
 40
0.0
 40
0.0
 40
0.0
 40
0.2317727601
 40
0.3511940643
 40
0.4736695279
 40
0.5997963691
 40
0.729936237
 40
0.8637945132
 40
1.0
 40
1.0
 40
1.0
 40
1.0
 10
4.6505511231
 20
7.3392127993
 30
0.0
 10
4.6510123589
 20
7.3389950578
 30
0.0
 10
4.651684382
 20
7.3385999865
 30
0.0
 10
4.652486822
 20
7.3379317592
 30
0.0
 10
4.6530425049
 20
7.3373392832
 30
0.0
 10
4.6535246858
 20
7.3366557923
 30
0.0
 10
4.6539059631
 20
7.3358821274
 30
0.0
 10
4.6541540896
 20
7.3350322844
 30
0.0
 10
4.6542116662
 20
7.3344364153
 30
0.0
 10
4.6542116662
 20
7.3341366758
 30
0.0
  0
SPLINE
  5
4C6
100
AcDbEntity
  8
0
100
AcDbSpline
 62
7
  6
CONTINUOUS
 70
0
 71
3
 72
14
 73
10
 74
0
 42
0.0000001
 43
0.0000001
 44
0.0000000001
 40
0.0
 40
0.0
 40
0.0
 40
0.0
 40
0.1378966921
 40
0.2731101466
 40
0.404060117
 40
0.5303915319
 40
0.6525027556
 40
0.7710694517
 40
1.0
 40
1.0
 40
1.0
 40
1.0
 10
4.6470134741
 20
7.3341366758
 30
0.0
 10
4.6470134741
 20
7.3344363247
 30
0.0
 10
4.6470689638
 20
7.3350312499
 30
0.0
 10
4.647308326
 20
7.3358805267
 30
0.0
 10
4.6476764199
 20
7.3366541028
 30
0.0
 10
4.6481422123
 20
7.3373378121
 30
0.0
 10
4.6486792222
 20
7.3379306087
 30
0.0
 10
4.6494534984
 20
7.3385981156
 30
0.0
 10
4.6501041366
 20
7.3389944543
 30
0.0
 10
4.6505511231
 20
7.3392127993
 30
0.0
  0
SPLINE
  5
4C7
100
AcDbEntity
  8
0
100
AcDbSpline
 62
7
  6
CONTINUOUS
 70
0
 71
3
 72
14
 73
10
 74
0
 42
0.0000001
 43
0.0000001
 44
0.0000000001
 40
0.0
 40
0.0
 40
0.0
 40
0.0
 40
0.2257555857
 40
0.343377747
 40
0.465095123
 40
0.5916654628
 40
0.7235215516
 40
0.8602367316
 40
1.0
 40
1.0
 40
1.0
 40
1.0
 10
4.6407962314
 20
7.3392127993
 30
0.0
 10
4.6412276637
 20
7.3389937415
 30
0.0
 10
4.6418548939
 20
7.3385959507
 30
0.0
 10
4.6425984121
 20
7.337929302
 30
0.0
 10
4.6431150054
 20
7.3373361724
 30
0.0
 10
4.6435628905
 20
7.3366522578
 30
0.0
 10
4.6439166063
 20
7.3358788112
 30
0.0
 10
4.6441464391
 20
7.3350301568
 30
0.0
 10
4.6441996678
 20
7.334436229
 30
0.0
 10
4.6441996678
 20
7.3341366758
 30
0.0
  0
SPLINE
  5
4C8
100
AcDbEntity
  8
0
100
AcDbSpline
 62
7
  6
CONTINUOUS
 70
0
 71
3
 72
14
 73
10
 74
0
 42
0.0000001
 43
0.0000001
 44
0.0000000001
 40
0.0
 40
0.0
 40
0.0
 40
0.0
 40
0.1345849662
 40
0.2671495831
 40
0.3965229773
 40
0.522464195
 40
0.6452950074
 40
0.7655339238
 40
1.0
 40
1.0
 40
1.0
 40
1.0
 10
4.6370166242
 20
7.3341366758
 30
0.0
 10
4.6370166242
 20
7.3344365059
 30
0.0
 10
4.6370762385
 20
7.3350333174
 30
0.0
 10
4.6373328912
 20
7.335883704
 30
0.0
 10
4.6377269552
 20
7.3366574263
 30
0.0
 10
4.6382250037
 20
7.3373406793
 30
0.0
 10
4.6387987574
 20
7.3379328323
 30
0.0
 10
4.6396284798
 20
7.3386017026
 30
0.0
 10
4.6403211829
 20
7.3389956017
 30
0.0
 10
4.6407962314
 20
7.3392127993
 30
0.0
  0
SPLINE
  5
4C9
100
AcDbEntity
  8
0
100
AcDbSpline
 62
7
  6
CONTINUOUS
 70
0
 71
3
 72
14
 73
10
 74
0
 42
0.0000001
 43
0.0000001
 44
0.0000000001
 40
0.0
 40
0.0
 40
0.0
 40
0.0
 40
0.2187703995
 40
0.334352943
 40
0.4552521181
 40
0.58238513
 40
0.7162371549
 40
0.8562110054
 40
1.0
 40
1.0
 40
1.0
 40
1.0
 10
4.631102258
 20
7.3392127993
 30
0.0
 10
4.6315006394
 20
7.338992015
 30
0.0
 10
4.632077884
 20
7.3385908982
 30
0.0
 10
4.6327560399
 20
7.3379263514
 30
0.0
 10
4.6332291552
 20
7.3373325874
 30
0.0
 10
4.6336389546
 20
7.3366483581
 30
0.0
 10
4.6339621862
 20
7.3358752943
 30
0.0
 10
4.6341719074
 20
7.3350279652
 30
0.0
 10
4.6342203898
 20
7.3344360384
 30
0.0
 10
4.6342203898
 20
7.3341366758
 30
0.0
  0
SPLINE
  5
4CA
100
AcDbEntity
  8
0
100
AcDbSpline
 62
7
  6
CONTINUOUS
 70
0
 71
3
 72
13
 73
9
 74
0
 42
0.0000001
 43
0.0000001
 44
0.0000000001
 40
0.0
 40
0.0
 40
0.0
 40
0.0
 40
0.131825494
 40
0.2622103471
 40
0.3903315715
 40
0.516031575
 40
0.7608064073
 40
1.0
 40
1.0
 40
1.0
 40
1.0
 10
4.6271120069
 20
7.3341366758
 30
0.0
 10
4.6271120069
 20
7.3344366734
 30
0.0
 10
4.6271752683
 20
7.3350352203
 30
0.0
 10
4.6274470785
 20
7.335886541
 30
0.0
 10
4.6278638315
 20
7.33666033
 30
0.0
 10
4.6285587872
 20
7.3375623346
 30
0.0
 10
4.6296264495
 20
7.3384721977
 30
0.0
 10
4.6306027515
 20
7.3389964754
 30
0.0
 10
4.631102258
 20
7.3392127993
 30
0.0
  0
SPLINE
  5
4CB
100
AcDbEntity
  8
0
100
AcDbSpline
 62
7
  6
CONTINUOUS
 70
0
 71
3
 72
13
 73
9
 74
0
 42
0.0000001
 43
0.0000001
 44
0.0000000001
 40
0.0
 40
0.0
 40
0.0
 40
0.0
 40
0.2109120814
 40
0.4439618195
 40
0.5718482484
 40
0.70803012
 40
0.8516979733
 40
1.0
 40
1.0
 40
1.0
 40
1.0
 10
4.6215495179
 20
7.3392127993
 30
0.0
 10
4.6219118399
 20
7.3389897418
 30
0.0
 10
4.6226261083
 20
7.3384362204
 30
0.0
 10
4.6233586769
 20
7.3375295488
 30
0.0
 10
4.6238349197
 20
7.3366442334
 30
0.0
 10
4.624125124
 20
7.3358716706
 30
0.0
 10
4.6243131147
 20
7.3350257857
 30
0.0
 10
4.6243565114
 20
7.3344358494
 30
0.0
 10
4.6243565114
 20
7.3341366758
 30
0.0
  0
SPLINE
  5
4CC
100
AcDbEntity
  8
0
100
AcDbSpline
 62
7
  6
CONTINUOUS
 70
0
 71
3
 72
13
 73
9
 74
0
 42
0.0000001
 43
0.0000001
 44
0.0000000001
 40
0.0
 40
0.0
 40
0.0
 40
0.0
 40
0.1294965101
 40
0.2580430982
 40
0.3851035794
 40
0.5105791086
 40
0.7570589063
 40
1.0
 40
1.0
 40
1.0
 40
1.0
 10
4.6173816825
 20
7.3341366758
 30
0.0
 10
4.6173816825
 20
7.3344368215
 30
0.0
 10
4.6174480572
 20
7.3350368943
 30
0.0
 10
4.6177327407
 20
7.3358889875
 30
0.0
 10
4.6181685992
 20
7.3366627322
 30
0.0
 10
4.6188968516
 20
7.3375666804
 30
0.0
 10
4.6200143807
 20
7.3384760738
 30
0.0
 10
4.6210293692
 20
7.3389971339
 30
0.0
 10
4.6215495179
 20
7.3392127993
 30
0.0
  0
SPLINE
  5
4CD
100
AcDbEntity
  8
0
100
AcDbSpline
 62
7
  6
CONTINUOUS
 70
0
 71
3
 72
13
 73
9
 74
0
 42
0.0000001
 43
0.0000001
 44
0.0000000001
 40
0.0
 40
0.0
 40
0.0
 40
0.0
 40
0.0984035354
 40
0.2024588357
 40
0.313455557
 40
0.4327550826
 40
0.6997908264
 40
1.0
 40
1.0
 40
1.0
 40
1.0
 10
4.6122171565
 20
7.3392127993
 30
0.0
 10
4.6123746153
 20
7.3391027527
 30
0.0
 10
4.6126862
 20
7.3388580591
 30
0.0
 10
4.6131231933
 20
7.3384279409
 30
0.0
 10
4.613534017
 20
7.3379187796
 30
0.0
 10
4.6140523619
 20
7.3370954562
 30
0.0
 10
4.6145491154
 20
7.3358355216
 30
0.0
 10
4.6146897554
 20
7.3347227427
 30
0.0
 10
4.6146897554
 20
7.3341366758
 30
0.0
  0
SPLINE
  5
4CE
100
AcDbEntity
  8
0
100
AcDbSpline
 62
7
  6
CONTINUOUS
 70
0
 71
3
 72
13
 73
9
 74
0
 42
0.0000001
 43
0.0000001
 44
0.0000000001
 40
0.0
 40
0.0
 40
0.0
 40
0.0
 40
0.127655203
 40
0.2547560148
 40
0.3809921654
 40
0.5063044304
 40
0.754137365
 40
1.0
 40
1.0
 40
1.0
 40
1.0
 10
4.6079062675
 20
7.3341366758
 30
0.0
 10
4.6079062675
 20
7.3344369455
 30
0.0
 10
4.6079751788
 20
7.3350382896
 30
0.0
 10
4.6082702865
 20
7.3358909856
 30
0.0
 10
4.6087215439
 20
7.3366646474
 30
0.0
 10
4.6094766672
 20
7.3375700551
 30
0.0
 10
4.6106342601
 20
7.3384789638
 30
0.0
 10
4.6116803633
 20
7.3389976184
 30
0.0
 10
4.6122171565
 20
7.3392127993
 30
0.0
  0
SPLINE
  5
4CF
100
AcDbEntity
  8
0
100
AcDbSpline
 62
7
  6
CONTINUOUS
 70
0
 71
3
 72
11
 73
7
 74
0
 42
0.0000001
 43
0.0000001
 44
0.0000000001
 40
0.0
 40
0.0
 40
0.0
 40
0.0
 40
0.1926579816
 40
0.4193937034
 40
0.6903474268
 40
1.0
 40
1.0
 40
1.0
 40
1.0
 10
4.603182493
 20
7.3392127993
 30
0.0
 10
4.6034643922
 20
7.3389827668
 30
0.0
 10
4.6040182608
 20
7.3384056057
 30
0.0
 10
4.6046944987
 20
7.3372791035
 30
0.0
 10
4.6051819423
 20
7.3358221973
 30
0.0
 10
4.6053002116
 20
7.3347214691
 30
0.0
 10
4.6053002116
 20
7.3341366758
 30
0.0
  0
SPLINE
  5
4D0
100
AcDbEntity
  8
0
100
AcDbSpline
 62
7
  6
CONTINUOUS
 70
0
 71
3
 72
13
 73
9
 74
0
 42
0.0000001
 43
0.0000001
 44
0.0000000001
 40
0.0
 40
0.0
 40
0.0
 40
0.0
 40
0.1262946398
 40
0.2523315601
 40
0.3779667966
 40
0.5031663864
 40
0.7520016779
 40
1.0
 40
1.0
 40
1.0
 40
1.0
 10
4.5987642665
 20
7.3341366758
 30
0.0
 10
4.5987642665
 20
7.3344370412
 30
0.0
 10
4.5988350984
 20
7.3350393635
 30
0.0
 10
4.5991380589
 20
7.3358924987
 30
0.0
 10
4.5996008732
 20
7.3366660705
 30
0.0
 10
4.6003761817
 20
7.3375725128
 30
0.0
 10
4.601563773
 20
7.3384810053
 30
0.0
 10
4.6026332013
 20
7.3389979576
 30
0.0
 10
4.603182493
 20
7.3392127993
 30
0.0
  0
SPLINE
  5
4D1
100
AcDbEntity
  8
0
100
AcDbSpline
 62
7
  6
CONTINUOUS
 70
0
 71
3
 72
13
 73
9
 74
0
 42
0.0000001
 43
0.0000001
 44
0.0000000001
 40
0.0
 40
0.0
 40
0.0
 40
0.0
 40
0.1825588478
 40
0.2885076665
 40
0.406252803
 40
0.5370625477
 40
0.6812731653
 40
1.0
 40
1.0
 40
1.0
 40
1.0
 10
4.5945203801
 20
7.3392127993
 30
0.0
 10
4.5947579413
 20
7.3389775812
 30
0.0
 10
4.5950871772
 20
7.3385573807
 30
0.0
 10
4.5954544154
 20
7.3379097003
 30
0.0
 10
4.5957176289
 20
7.3373149936
 30
0.0
 10
4.5959449245
 20
7.3366314544
 30
0.0
 10
4.5961909169
 20
7.3355712133
 30
0.0
 10
4.5962656731
 20
7.3347203419
 30
0.0
 10
4.5962656731
 20
7.3341366758
 30
0.0
  0
SPLINE
  5
4D2
100
AcDbEntity
  8
0
100
AcDbSpline
 62
7
  6
CONTINUOUS
 70
0
 71
3
 72
13
 73
9
 74
0
 42
0.0000001
 43
0.0000001
 44
0.0000000001
 40
0.0
 40
0.0
 40
0.0
 40
0.0
 40
0.1254080955
 40
0.2507538407
 40
0.3760012956
 40
0.5011310742
 40
0.7506205078
 40
1.0
 40
1.0
 40
1.0
 40
1.0
 10
4.5900314215
 20
7.3341366758
 30
0.0
 10
4.5900314215
 20
7.3344371055
 30
0.0
 10
4.5901035275
 20
7.3350400837
 30
0.0
 10
4.590411677
 20
7.3358935015
 30
0.0
 10
4.5908821075
 20
7.3366670011
 30
0.0
 10
4.5916707266
 20
7.3375740976
 30
0.0
 10
4.5928780566
 20
7.3384822942
 30
0.0
 10
4.5939628479
 20
7.3389981705
 30
0.0
 10
4.5945203801
 20
7.3392127993
 30
0.0
  0
SPLINE
  5
4D3
100
AcDbEntity
  8
0
100
AcDbSpline
 62
7
  6
CONTINUOUS
 70
0
 71
3
 72
14
 73
10
 74
0
 42
0.0000001
 43
0.0000001
 44
0.0000000001
 40
0.0
 40
0.0
 40
0.0
 40
0.0
 40
0.172792884
 40
0.2764068608
 40
0.3935527644
 40
0.5254603236
 40
0.6723362075
 40
0.8322314237
 40
1.0
 40
1.0
 40
1.0
 40
1.0
 10
4.5863025843
 20
7.3392127993
 30
0.0
 10
4.586492616
 20
7.3389710531
 30
0.0
 10
4.5867489474
 20
7.338546149
 30
0.0
 10
4.5870314076
 20
7.3379050086
 30
0.0
 10
4.5872356927
 20
7.3373107024
 30
0.0
 10
4.5874120976
 20
7.3366279153
 30
0.0
 10
4.5875507492
 20
7.3358589378
 30
0.0
 10
4.5876403901
 20
7.3350185506
 30
0.0
 10
4.5876609917
 20
7.33443523
 30
0.0
 10
4.5876609917
 20
7.3341366758
 30
0.0
  0
SPLINE
  5
4D4
100
AcDbEntity
  8
0
100
AcDbSpline
 62
7
  6
CONTINUOUS
 70
0
 71
3
 72
13
 73
9
 74
0
 42
0.0000001
 43
0.0000001
 44
0.0000000001
 40
0.0
 40
0.0
 40
0.0
 40
0.0
 40
0.1249905105
 40
0.2500112645
 40
0.3750771012
 40
0.5001749772
 40
0.7499727786
 40
1.0
 40
1.0
 40
1.0
 40
1.0
 10
4.5817800848
 20
7.3341366758
 30
0.0
 10
4.5817800848
 20
7.3344371364
 30
0.0
 10
4.5818527974
 20
7.3350404286
 30
0.0
 10
4.5821634114
 20
7.3358939785
 30
0.0
 10
4.5826374535
 20
7.3366674402
 30
0.0
 10
4.5834323865
 20
7.3375748394
 30
0.0
 10
4.5846490685
 20
7.3384828903
 30
0.0
 10
4.5857411431
 20
7.3389982686
 30
0.0
 10
4.5863025843
 20
7.3392127993
 30
0.0
  0
SPLINE
  5
4D5
100
AcDbEntity
  8
0
100
AcDbSpline
 62
7
  6
CONTINUOUS
 70
0
 71
3
 72
15
 73
11
 74
0
 42
0.0000001
 43
0.0000001
 44
0.0000000001
 40
0.0
 40
0.0
 40
0.0
 40
0.0
 40
0.0761596418
 40
0.164290619
 40
0.2659593828
 40
0.3826931112
 40
0.5156449626
 40
0.6648854307
 40
0.8282024539
 40
1.0
 40
1.0
 40
1.0
 40
1.0
 10
4.5785971905
 20
7.3392127993
 30
0.0
 10
4.5786614574
 20
7.3390971458
 30
0.0
 10
4.5787870835
 20
7.3388403456
 30
0.0
 10
4.5789554306
 20
7.3384096267
 30
0.0
 10
4.5791135685
 20
7.3379006874
 30
0.0
 10
4.5792575498
 20
7.3373071399
 30
0.0
 10
4.579381952
 20
7.3366249915
 30
0.0
 10
4.5794797242
 20
7.3358568579
 30
0.0
 10
4.5795429374
 20
7.3350174319
 30
0.0
 10
4.5795574578
 20
7.3344351351
 30
0.0
 10
4.5795574578
 20
7.3341366758
 30
0.0
  0
SPLINE
  5
4D6
100
AcDbEntity
  8
0
100
AcDbSpline
 62
7
  6
CONTINUOUS
 70
0
 71
3
 72
13
 73
9
 74
0
 42
0.0000001
 43
0.0000001
 44
0.0000000001
 40
0.0
 40
0.0
 40
0.0
 40
0.0
 40
0.1250393257
 40
0.2500980517
 40
0.3751850849
 40
0.5002866581
 40
0.7500484037
 40
1.0
 40
1.0
 40
1.0
 40
1.0
 10
4.5740786194
 20
7.3341366758
 30
0.0
 10
4.5740786194
 20
7.3344371328
 30
0.0
 10
4.5741512608
 20
7.3350403881
 30
0.0
 10
4.5744615861
 20
7.3358939226
 30
0.0
 10
4.5749352052
 20
7.3366673888
 30
0.0
 10
4.5757293986
 20
7.3375747528
 30
0.0
 10
4.5769449855
 20
7.338482821
 30
0.0
 10
4.5780362071
 20
7.3389982572
 30
0.0
 10
4.5785971905
 20
7.3392127993
 30
0.0
  0
SPLINE
  5
4D7
100
AcDbEntity
  8
0
100
AcDbSpline
 62
7
  6
CONTINUOUS
 70
0
 71
3
 72
14
 73
10
 74
0
 42
0.0000001
 43
0.0000001
 44
0.0000000001
 40
0.0
 40
0.0
 40
0.0
 40
0.0
 40
0.0722286606
 40
0.1577696474
 40
0.2580765283
 40
0.3745898774
 40
0.5083814745
 40
0.6594095489
 40
1.0
 40
1.0
 40
1.0
 40
1.0
 10
4.5714680384
 20
7.3392127993
 30
0.0
 10
4.5715056968
 20
7.3390953687
 30
0.0
 10
4.5715787258
 20
7.3388358841
 30
0.0
 10
4.5716755244
 20
7.3384058631
 30
0.0
 10
4.5717665292
 20
7.3378975521
 30
0.0
 10
4.5718494373
 20
7.3373045709
 30
0.0
 10
4.5719211085
 20
7.3366229741
 30
0.0
 10
4.5719992002
 20
7.3355579051
 30
0.0
 10
4.5720222098
 20
7.3347181901
 30
0.0
 10
4.5720222098
 20
7.3341366758
 30
0.0
  0
SPLINE
  5
4D8
100
AcDbEntity
  8
0
100
AcDbSpline
 62
7
  6
CONTINUOUS
 70
0
 71
3
 72
13
 73
9
 74
0
 42
0.0000001
 43
0.0000001
 44
0.0000000001
 40
0.0
 40
0.0
 40
0.0
 40
0.0
 40
0.1255548458
 40
0.2510148882
 40
0.3763263264
 40
0.5014674652
 40
0.7508485673
 40
1.0
 40
1.0
 40
1.0
 40
1.0
 10
4.5669908325
 20
7.3341366758
 30
0.0
 10
4.5669908325
 20
7.3344370948
 30
0.0
 10
4.5670627263
 20
7.3350399634
 30
0.0
 10
4.5673700128
 20
7.3358933346
 30
0.0
 10
4.5678391779
 20
7.3366668469
 30
0.0
 10
4.5686255848
 20
7.3375738362
 30
0.0
 10
4.5698296367
 20
7.3384820831
 30
0.0
 10
4.5709118756
 20
7.3389981357
 30
0.0
 10
4.5714680384
 20
7.3392127993
 30
0.0
  0
LINE
  5
4D9
100
AcDbEntity
  8
0
100
AcDbLine
 62
7
  6
CONTINUOUS
 10
4.5649741937
 20
7.3392127993
 11
4.5651176778
 21
7.3341366758
  0
SPLINE
  5
4DA
100
AcDbEntity
  8
0
100
AcDbSpline
 62
7
  6
CONTINUOUS
 70
0
 71
3
 72
13
 73
9
 74
0
 42
0.0000001
 43
0.0000001
 44
0.0000000001
 40
0.0
 40
0.0
 40
0.0
 40
0.0
 40
0.1265401981
 40
0.2527688513
 40
0.3785120248
 40
0.5037314534
 40
0.7523856932
 40
1.0
 40
1.0
 40
1.0
 40
1.0
 10
4.5605754468
 20
7.3341366758
 30
0.0
 10
4.5605754468
 20
7.3344370236
 30
0.0
 10
4.5606459291
 20
7.3350391669
 30
0.0
 10
4.5609474625
 20
7.3358922233
 30
0.0
 10
4.5614081793
 20
7.3366658132
 30
0.0
 10
4.5621798233
 20
7.3375720715
 30
0.0
 10
4.5633619745
 20
7.3384806426
 30
0.0
 10
4.5644271709
 20
7.3389978975
 30
0.0
 10
4.5649741937
 20
7.3392127993
 30
0.0
  0
SPLINE
  5
4DB
100
AcDbEntity
  8
0
100
AcDbSpline
 62
7
  6
CONTINUOUS
 70
0
 71
3
 72
13
 73
9
 74
0
 42
0.0000001
 43
0.0000001
 44
0.0000000001
 40
0.0
 40
0.0
 40
0.0
 40
0.0
 40
0.1280008783
 40
0.255372592
 40
0.3817625278
 40
0.5071044944
 40
0.7546830865
 40
1.0
 40
1.0
 40
1.0
 40
1.0
 10
4.5548856144
 20
7.3341366758
 30
0.0
 10
4.5548856144
 20
7.3344369217
 30
0.0
 10
4.5549540441
 20
7.3350380226
 30
0.0
 10
4.5552471774
 20
7.3358906062
 30
0.0
 10
4.5556955231
 20
7.3366642869
 30
0.0
 10
4.5564455634
 20
7.3375694258
 30
0.0
 10
4.5575955893
 20
7.3384784325
 30
0.0
 10
4.5586358129
 20
7.3389975297
 30
0.0
 10
4.5591694582
 20
7.3392127993
 30
0.0
  0
SPLINE
  5
4DC
100
AcDbEntity
  8
0
100
AcDbSpline
 62
7
  6
CONTINUOUS
 70
0
 71
3
 72
13
 73
9
 74
0
 42
0.0000001
 43
0.0000001
 44
0.0000000001
 40
0.0
 40
0.0
 40
0.0
 40
0.0
 40
0.1299438001
 40
0.2588426138
 40
0.3861052539
 40
0.5116223293
 40
0.757774079
 40
1.0
 40
1.0
 40
1.0
 40
1.0
 10
4.5499684758
 20
7.3341366758
 30
0.0
 10
4.5499684758
 20
7.3344367923
 30
0.0
 10
4.5500342446
 20
7.3350365651
 30
0.0
 10
4.5503164296
 20
7.3358885107
 30
0.0
 10
4.5507485875
 20
7.336662269
 30
0.0
 10
4.5514703868
 20
7.3375658524
 30
0.0
 10
4.5525782713
 20
7.3384753489
 30
0.0
 10
4.5535857748
 20
7.3389970115
 30
0.0
 10
4.5541019247
 20
7.3392127993
 30
0.0
  0
SPLINE
  5
4DD
100
AcDbEntity
  8
0
100
AcDbSpline
 62
7
  6
CONTINUOUS
 70
0
 71
3
 72
13
 73
9
 74
0
 42
0.0000001
 43
0.0000001
 44
0.0000000001
 40
0.0
 40
0.0
 40
0.0
 40
0.0
 40
0.1323756801
 40
0.2631963203
 40
0.3915710534
 40
0.517327046
 40
0.7617003136
 40
1.0
 40
1.0
 40
1.0
 40
1.0
 10
4.54586477
 20
7.3341366758
 30
0.0
 10
4.54586477
 20
7.3344366397
 30
0.0
 10
4.5459273104
 20
7.3350348391
 30
0.0
 10
4.5461961272
 20
7.3358859761
 30
0.0
 10
4.5466084238
 20
7.3366597661
 30
0.0
 10
4.5472956203
 20
7.3375612958
 30
0.0
 10
4.5483516244
 20
7.3384712445
 30
0.0
 10
4.5493188857
 20
7.3389963119
 30
0.0
 10
4.549813578
 20
7.3392127993
 30
0.0
  0
SPLINE
  5
4DE
100
AcDbEntity
  8
0
100
AcDbSpline
 62
7
  6
CONTINUOUS
 70
0
 71
3
 72
14
 73
10
 74
0
 42
0.0000001
 43
0.0000001
 44
0.0000000001
 40
0.0
 40
0.0
 40
0.0
 40
0.0
 40
0.1352381756
 40
0.2683236795
 40
0.3980048936
 40
0.5240196975
 40
0.646706545
 40
0.7666160531
 40
1.0
 40
1.0
 40
1.0
 40
1.0
 10
4.5426084964
 20
7.3341366758
 30
0.0
 10
4.5426084964
 20
7.3344364689
 30
0.0
 10
4.5426672847
 20
7.335032896
 30
0.0
 10
4.5429204847
 20
7.3358830634
 30
0.0
 10
4.5433093755
 20
7.3366567659
 30
0.0
 10
4.5438010076
 20
7.3373401182
 30
0.0
 10
4.5443674548
 20
7.3379324032
 30
0.0
 10
4.5451861432
 20
7.3386010197
 30
0.0
 10
4.5458704864
 20
7.3389953864
 30
0.0
 10
4.5463399474
 20
7.3392127993
 30
0.0
  0
SPLINE
  5
4DF
100
AcDbEntity
  8
0
100
AcDbSpline
 62
7
  6
CONTINUOUS
 70
0
 71
3
 72
11
 73
7
 74
0
 42
0.0000001
 43
0.0000001
 44
0.0000000001
 40
0.0
 40
0.0
 40
0.0
 40
0.0
 40
0.2382881304
 40
0.4852154727
 40
0.7401098332
 40
1.0
 40
1.0
 40
1.0
 40
1.0
 10
4.6481489938
 20
7.0379571459
 30
0.0
 10
4.6479807095
 20
7.0381719872
 30
0.0
 10
4.6476681357
 20
7.0386341731
 30
0.0
 10
4.6473045333
 20
7.0394038326
 30
0.0
 10
4.6470682195
 20
7.040248044
 30
0.0
 10
4.6470134741
 20
7.0408390321
 30
0.0
 10
4.6470134741
 20
7.0411366758
 30
0.0
  0
SPLINE
  5
4E0
100
AcDbEntity
  8
0
100
AcDbSpline
 62
7
  6
CONTINUOUS
 70
0
 71
3
 72
14
 73
10
 74
0
 42
0.0000001
 43
0.0000001
 44
0.0000000001
 40
0.0
 40
0.0
 40
0.0
 40
0.0
 40
0.2132912888
 40
0.3273119695
 40
0.4476156795
 40
0.5752240438
 40
0.7106422969
 40
0.8531289085
 40
1.0
 40
1.0
 40
1.0
 40
1.0
 10
4.5410600222
 20
7.0360605523
 30
0.0
 10
4.5406866428
 20
7.0362828647
 30
0.0
 10
4.5401474559
 20
7.0366867091
 30
0.0
 10
4.5395186786
 20
7.0373493833
 30
0.0
 10
4.5390785076
 20
7.0379435469
 30
0.0
 10
4.5386975126
 20
7.0386279001
 30
0.0
 10
4.5383972516
 20
7.0394005874
 30
0.0
 10
4.5382026109
 20
7.0402469238
 30
0.0
 10
4.5381576676
 20
7.0408374463
 30
0.0
 10
4.5381576676
 20
7.0411366758
 30
0.0
  0
SPLINE
  5
4E1
100
AcDbEntity
  8
0
100
AcDbSpline
 62
7
  6
CONTINUOUS
 70
0
 71
3
 72
14
 73
10
 74
0
 42
0.0000001
 43
0.0000001
 44
0.0000000001
 40
0.0
 40
0.0
 40
0.0
 40
0.0
 40
0.2209558619
 40
0.3371707824
 40
0.4583188191
 40
0.5852704409
 40
0.7184977426
 40
0.857458681
 40
1.0
 40
1.0
 40
1.0
 40
1.0
 10
4.5419449631
 20
7.0360605523
 30
0.0
 10
4.5415363979
 20
7.0362807715
 30
0.0
 10
4.5409437137
 20
7.0366808287
 30
0.0
 10
4.5402454224
 20
7.0373460661
 30
0.0
 10
4.5397588989
 20
7.0379396464
 30
0.0
 10
4.5393373621
 20
7.0386237968
 30
0.0
 10
4.5390047496
 20
7.0393969931
 30
0.0
 10
4.538788852
 20
7.04024473
 30
0.0
 10
4.5387389154
 20
7.0408372562
 30
0.0
 10
4.5387389154
 20
7.0411366758
 30
0.0
  0
SPLINE
  5
4E2
100
AcDbEntity
  8
0
100
AcDbSpline
 62
7
  6
CONTINUOUS
 70
0
 71
3
 72
14
 73
10
 74
0
 42
0.0000001
 43
0.0000001
 44
0.0000000001
 40
0.0
 40
0.0
 40
0.0
 40
0.0
 40
0.2276508301
 40
0.3458355216
 40
0.4677863446
 40
0.594212766
 40
0.7255278578
 40
0.861348164
 40
1.0
 40
1.0
 40
1.0
 40
1.0
 10
4.5437098121
 20
7.0360605523
 30
0.0
 10
4.5432691391
 20
7.0362791796
 30
0.0
 10
4.542627994
 20
7.0366760991
 30
0.0
 10
4.5418662011
 20
7.037343267
 30
0.0
 10
4.5413374744
 20
7.0379362011
 30
0.0
 10
4.5408789486
 20
7.038619998
 30
0.0
 10
4.5405166927
 20
7.0393935257
 30
0.0
 10
4.5402812034
 20
7.0402425502
 30
0.0
 10
4.5402266336
 20
7.0408370663
 30
0.0
 10
4.5402266336
 20
7.0411366758
 30
0.0
  0
SPLINE
  5
4E3
100
AcDbEntity
  8
0
100
AcDbSpline
 62
7
  6
CONTINUOUS
 70
0
 71
3
 72
14
 73
10
 74
0
 42
0.0000001
 43
0.0000001
 44
0.0000000001
 40
0.0
 40
0.0
 40
0.0
 40
0.0
 40
0.2333839578
 40
0.3532934693
 40
0.4759803187
 40
0.6019951325
 40
0.731676388
 40
0.8647619223
 40
1.0
 40
1.0
 40
1.0
 40
1.0
 10
4.5463399474
 20
7.0360605523
 30
0.0
 10
4.5458704864
 20
7.0362779653
 30
0.0
 10
4.5451861432
 20
7.036672332
 30
0.0
 10
4.5443674547
 20
7.0373409485
 30
0.0
 10
4.5438010075
 20
7.0379332336
 30
0.0
 10
4.5433093754
 20
7.0386165859
 30
0.0
 10
4.5429204846
 20
7.0393902886
 30
0.0
 10
4.5426672846
 20
7.0402404561
 30
0.0
 10
4.5426084964
 20
7.0408368829
 30
0.0
 10
4.5426084964
 20
7.0411366758
 30
0.0
  0
SPLINE
  5
4E4
100
AcDbEntity
  8
0
100
AcDbSpline
 62
7
  6
CONTINUOUS
 70
0
 71
3
 72
13
 73
9
 74
0
 42
0.0000001
 43
0.0000001
 44
0.0000000001
 40
0.0
 40
0.0
 40
0.0
 40
0.0
 40
0.2382997025
 40
0.4826729752
 40
0.6084289728
 40
0.7368037496
 40
0.867624422
 40
1.0
 40
1.0
 40
1.0
 40
1.0
 10
4.549813578
 20
7.0360605523
 30
0.0
 10
4.5493188857
 20
7.0362770398
 30
0.0
 10
4.5483516243
 20
7.0368021072
 30
0.0
 10
4.5472956202
 20
7.0377120559
 30
0.0
 10
4.5466084236
 20
7.0386135857
 30
0.0
 10
4.5461961271
 20
7.039387376
 30
0.0
 10
4.5459273103
 20
7.040238513
 30
0.0
 10
4.54586477
 20
7.0408367122
 30
0.0
 10
4.54586477
 20
7.0411366758
 30
0.0
  0
SPLINE
  5
4E5
100
AcDbEntity
  8
0
100
AcDbSpline
 62
7
  6
CONTINUOUS
 70
0
 71
3
 72
13
 73
9
 74
0
 42
0.0000001
 43
0.0000001
 44
0.0000000001
 40
0.0
 40
0.0
 40
0.0
 40
0.0
 40
0.2422259373
 40
0.4883776918
 40
0.6138947721
 40
0.7411574552
 40
0.8700563002
 40
1.0
 40
1.0
 40
1.0
 40
1.0
 10
4.5541019247
 20
7.0360605523
 30
0.0
 10
4.5535857747
 20
7.0362763402
 30
0.0
 10
4.5525782713
 20
7.0367980028
 30
0.0
 10
4.5514703867
 20
7.0377074994
 30
0.0
 10
4.5507485873
 20
7.0386110828
 30
0.0
 10
4.5503164294
 20
7.0393848414
 30
0.0
 10
4.5500342445
 20
7.0402367869
 30
0.0
 10
4.5499684758
 20
7.0408365596
 30
0.0
 10
4.5499684758
 20
7.0411366758
 30
0.0
  0
SPLINE
  5
4E6
100
AcDbEntity
  8
0
100
AcDbSpline
 62
7
  6
CONTINUOUS
 70
0
 71
3
 72
13
 73
9
 74
0
 42
0.0000001
 43
0.0000001
 44
0.0000000001
 40
0.0
 40
0.0
 40
0.0
 40
0.0
 40
0.24531693
 40
0.4928955267
 40
0.6182374981
 40
0.7446274762
 40
0.8719992207
 40
1.0
 40
1.0
 40
1.0
 40
1.0
 10
4.5591694582
 20
7.0360605523
 30
0.0
 10
4.5586358129
 20
7.036275822
 30
0.0
 10
4.5575955893
 20
7.0367949191
 30
0.0
 10
4.5564455633
 20
7.037703926
 30
0.0
 10
4.5556955229
 20
7.038609065
 30
0.0
 10
4.5552471772
 20
7.0393827459
 30
0.0
 10
4.554954044
 20
7.0402353294
 30
0.0
 10
4.5548856144
 20
7.0408364302
 30
0.0
 10
4.5548856144
 20
7.0411366758
 30
0.0
  0
SPLINE
  5
4E7
100
AcDbEntity
  8
0
100
AcDbSpline
 62
7
  6
CONTINUOUS
 70
0
 71
3
 72
13
 73
9
 74
0
 42
0.0000001
 43
0.0000001
 44
0.0000000001
 40
0.0
 40
0.0
 40
0.0
 40
0.0
 40
0.2476143234
 40
0.4962685678
 40
0.621488001
 40
0.7472312163
 40
0.8734598998
 40
1.0
 40
1.0
 40
1.0
 40
1.0
 10
4.5649741937
 20
7.0360605523
 30
0.0
 10
4.5644271709
 20
7.0362754542
 30
0.0
 10
4.5633619744
 20
7.0367927091
 30
0.0
 10
4.5621798232
 20
7.0377012802
 30
0.0
 10
4.5614081792
 20
7.0386075387
 30
0.0
 10
4.5609474623
 20
7.0393811288
 30
0.0
 10
4.560645929
 20
7.0402341851
 30
0.0
 10
4.5605754468
 20
7.0408363283
 30
0.0
 10
4.5605754468
 20
7.0411366758
 30
0.0
  0
LINE
  5
4E8
100
AcDbEntity
  8
0
100
AcDbLine
 62
7
  6
CONTINUOUS
 10
4.5651176778
 20
7.0411366758
 11
4.5649741937
 21
7.0360605523
  0
SPLINE
  5
4E9
100
AcDbEntity
  8
0
100
AcDbSpline
 62
7
  6
CONTINUOUS
 70
0
 71
3
 72
13
 73
9
 74
0
 42
0.0000001
 43
0.0000001
 44
0.0000000001
 40
0.0
 40
0.0
 40
0.0
 40
0.0
 40
0.2491514494
 40
0.498532556
 40
0.6236736993
 40
0.748985179
 40
0.8744452515
 40
1.0
 40
1.0
 40
1.0
 40
1.0
 10
4.5714680384
 20
7.0360605523
 30
0.0
 10
4.5709118756
 20
7.036275216
 30
0.0
 10
4.5698296366
 20
7.0367912686
 30
0.0
 10
4.5686255847
 20
7.0376995156
 30
0.0
 10
4.5678391777
 20
7.038606505
 30
0.0
 10
4.5673700126
 20
7.0393800175
 30
0.0
 10
4.5670627262
 20
7.0402333887
 30
0.0
 10
4.5669908325
 20
7.0408362571
 30
0.0
 10
4.5669908325
 20
7.0411366758
 30
0.0
  0
SPLINE
  5
4EA
100
AcDbEntity
  8
0
100
AcDbSpline
 62
7
  6
CONTINUOUS
 70
0
 71
3
 72
14
 73
10
 74
0
 42
0.0000001
 43
0.0000001
 44
0.0000000001
 40
0.0
 40
0.0
 40
0.0
 40
0.0
 40
0.3405905222
 40
0.4916185235
 40
0.6254101421
 40
0.7419234843
 40
0.8422303623
 40
0.9277713397
 40
1.0
 40
1.0
 40
1.0
 40
1.0
 10
4.5720222098
 20
7.0411366758
 30
0.0
 10
4.5720222098
 20
7.0405551614
 30
0.0
 10
4.5719992002
 20
7.0397154465
 30
0.0
 10
4.5719211085
 20
7.0386503774
 30
0.0
 10
4.5718494373
 20
7.0379687807
 30
0.0
 10
4.5717665292
 20
7.0373757994
 30
0.0
 10
4.5716755244
 20
7.0368674885
 30
0.0
 10
4.5715787258
 20
7.0364374675
 30
0.0
 10
4.5715056968
 20
7.0361779829
 30
0.0
 10
4.5714680384
 20
7.0360605523
 30
0.0
  0
SPLINE
  5
4EB
100
AcDbEntity
  8
0
100
AcDbSpline
 62
7
  6
CONTINUOUS
 70
0
 71
3
 72
13
 73
9
 74
0
 42
0.0000001
 43
0.0000001
 44
0.0000000001
 40
0.0
 40
0.0
 40
0.0
 40
0.0
 40
0.2499516131
 40
0.4997133631
 40
0.6248149408
 40
0.7499020154
 40
0.8749607712
 40
1.0
 40
1.0
 40
1.0
 40
1.0
 10
4.5785971905
 20
7.0360605523
 30
0.0
 10
4.5780362071
 20
7.0362750944
 30
0.0
 10
4.5769449854
 20
7.0367905307
 30
0.0
 10
4.5757293985
 20
7.0376985989
 30
0.0
 10
4.574935205
 20
7.038605963
 30
0.0
 10
4.5744615859
 20
7.0393794295
 30
0.0
 10
4.5741512607
 20
7.0402329639
 30
0.0
 10
4.5740786194
 20
7.0408362191
 30
0.0
 10
4.5740786194
 20
7.0411366758
 30
0.0
  0
SPLINE
  5
4EC
100
AcDbEntity
  8
0
100
AcDbSpline
 62
7
  6
CONTINUOUS
 70
0
 71
3
 72
15
 73
11
 74
0
 42
0.0000001
 43
0.0000001
 44
0.0000000001
 40
0.0
 40
0.0
 40
0.0
 40
0.0
 40
0.171797665
 40
0.3351146393
 40
0.4843550354
 40
0.6173069084
 40
0.73404063
 40
0.835709391
 40
0.9238403585
 40
1.0
 40
1.0
 40
1.0
 40
1.0
 10
4.5795574578
 20
7.0411366758
 30
0.0
 10
4.5795574578
 20
7.0408382164
 30
0.0
 10
4.5795429374
 20
7.0402559195
 30
0.0
 10
4.5794797242
 20
7.0394164935
 30
0.0
 10
4.579381952
 20
7.03864836
 30
0.0
 10
4.5792575498
 20
7.0379662117
 30
0.0
 10
4.5791135685
 20
7.0373726641
 30
0.0
 10
4.5789554306
 20
7.0368637249
 30
0.0
 10
4.5787870835
 20
7.036433006
 30
0.0
 10
4.5786614574
 20
7.0361762058
 30
0.0
 10
4.5785971905
 20
7.0360605523
 30
0.0
  0
SPLINE
  5
4ED
100
AcDbEntity
  8
0
100
AcDbSpline
 62
7
  6
CONTINUOUS
 70
0
 71
3
 72
13
 73
9
 74
0
 42
0.0000001
 43
0.0000001
 44
0.0000000001
 40
0.0
 40
0.0
 40
0.0
 40
0.0
 40
0.2500272334
 40
0.4998250358
 40
0.6249229229
 40
0.749988796
 40
0.8750095746
 40
1.0
 40
1.0
 40
1.0
 40
1.0
 10
4.5863025843
 20
7.0360605523
 30
0.0
 10
4.5857411431
 20
7.036275083
 30
0.0
 10
4.5846490684
 20
7.0367904613
 30
0.0
 10
4.5834323864
 20
7.0376985124
 30
0.0
 10
4.5826374534
 20
7.0386059116
 30
0.0
 10
4.5821634112
 20
7.0393793735
 30
0.0
 10
4.5818527972
 20
7.0402329233
 30
0.0
 10
4.5817800848
 20
7.0408362155
 30
0.0
 10
4.5817800848
 20
7.0411366758
 30
0.0
  0
SPLINE
  5
4EE
100
AcDbEntity
  8
0
100
AcDbSpline
 62
7
  6
CONTINUOUS
 70
0
 71
3
 72
14
 73
10
 74
0
 42
0.0000001
 43
0.0000001
 44
0.0000000001
 40
0.0
 40
0.0
 40
0.0
 40
0.0
 40
0.1677686863
 40
0.3276638572
 40
0.474539672
 40
0.6064472534
 40
0.7235931509
 40
0.8272071256
 40
1.0
 40
1.0
 40
1.0
 40
1.0
 10
4.5876609917
 20
7.0411366758
 30
0.0
 10
4.5876609917
 20
7.0408381215
 30
0.0
 10
4.5876403901
 20
7.0402548008
 30
0.0
 10
4.5875507492
 20
7.0394144135
 30
0.0
 10
4.5874120976
 20
7.0386454362
 30
0.0
 10
4.5872356927
 20
7.0379626492
 30
0.0
 10
4.5870314076
 20
7.037368343
 30
0.0
 10
4.5867489474
 20
7.0367272026
 30
0.0
 10
4.586492616
 20
7.0363022985
 30
0.0
 10
4.5863025843
 20
7.0360605523
 30
0.0
  0
SPLINE
  5
4EF
100
AcDbEntity
  8
0
100
AcDbSpline
 62
7
  6
CONTINUOUS
 70
0
 71
3
 72
13
 73
9
 74
0
 42
0.0000001
 43
0.0000001
 44
0.0000000001
 40
0.0
 40
0.0
 40
0.0
 40
0.0
 40
0.249379509
 40
0.498868947
 40
0.6239987301
 40
0.7492462265
 40
0.8745920016
 40
1.0
 40
1.0
 40
1.0
 40
1.0
 10
4.5945203801
 20
7.0360605523
 30
0.0
 10
4.5939628478
 20
7.0362751812
 30
0.0
 10
4.5928780565
 20
7.0367910574
 30
0.0
 10
4.5916707264
 20
7.0376992542
 30
0.0
 10
4.5908821074
 20
7.0386063508
 30
0.0
 10
4.5904116768
 20
7.0393798506
 30
0.0
 10
4.5901035274
 20
7.0402332683
 30
0.0
 10
4.5900314215
 20
7.0408362464
 30
0.0
 10
4.5900314215
 20
7.0411366758
 30
0.0
  0
SPLINE
  5
4F0
100
AcDbEntity
  8
0
100
AcDbSpline
 62
7
  6
CONTINUOUS
 70
0
 71
3
 72
13
 73
9
 74
0
 42
0.0000001
 43
0.0000001
 44
0.0000000001
 40
0.0
 40
0.0
 40
0.0
 40
0.0
 40
0.3187269016
 40
0.4629374504
 40
0.5937472165
 40
0.7114923467
 40
0.8174411631
 40
1.0
 40
1.0
 40
1.0
 40
1.0
 10
4.5962656731
 20
7.0411366758
 30
0.0
 10
4.5962656731
 20
7.0405530096
 30
0.0
 10
4.5961909169
 20
7.0397021382
 30
0.0
 10
4.5959449244
 20
7.0386418971
 30
0.0
 10
4.5957176289
 20
7.037958358
 30
0.0
 10
4.5954544154
 20
7.0373636513
 30
0.0
 10
4.5950871772
 20
7.0367159709
 30
0.0
 10
4.5947579413
 20
7.0362957704
 30
0.0
 10
4.5945203801
 20
7.0360605523
 30
0.0
  0
SPLINE
  5
4F1
100
AcDbEntity
  8
0
100
AcDbSpline
 62
7
  6
CONTINUOUS
 70
0
 71
3
 72
13
 73
9
 74
0
 42
0.0000001
 43
0.0000001
 44
0.0000000001
 40
0.0
 40
0.0
 40
0.0
 40
0.0
 40
0.2479983387
 40
0.4968336347
 40
0.6220332292
 40
0.7476685075
 40
0.8737054579
 40
1.0
 40
1.0
 40
1.0
 40
1.0
 10
4.603182493
 20
7.0360605523
 30
0.0
 10
4.6026332013
 20
7.0362753941
 30
0.0
 10
4.6015637729
 20
7.0367923464
 30
0.0
 10
4.6003761816
 20
7.0377008389
 30
0.0
 10
4.5996008731
 20
7.0386072814
 30
0.0
 10
4.5991380587
 20
7.0393808534
 30
0.0
 10
4.5988350983
 20
7.0402339885
 30
0.0
 10
4.5987642665
 20
7.0408363107
 30
0.0
 10
4.5987642665
 20
7.0411366758
 30
0.0
  0
SPLINE
  5
4F2
100
AcDbEntity
  8
0
100
AcDbSpline
 62
7
  6
CONTINUOUS
 70
0
 71
3
 72
11
 73
7
 74
0
 42
0.0000001
 43
0.0000001
 44
0.0000000001
 40
0.0
 40
0.0
 40
0.0
 40
0.0
 40
0.3096526383
 40
0.5806063161
 40
0.8073420299
 40
1.0
 40
1.0
 40
1.0
 40
1.0
 10
4.6053002116
 20
7.0411366758
 30
0.0
 10
4.6053002116
 20
7.0405518825
 30
0.0
 10
4.6051819423
 20
7.0394511542
 30
0.0
 10
4.6046944986
 20
7.037994248
 30
0.0
 10
4.6040182607
 20
7.0368677459
 30
0.0
 10
4.6034643921
 20
7.0362905848
 30
0.0
 10
4.603182493
 20
7.0360605523
 30
0.0
  0
SPLINE
  5
4F3
100
AcDbEntity
  8
0
100
AcDbSpline
 62
7
  6
CONTINUOUS
 70
0
 71
3
 72
13
 73
9
 74
0
 42
0.0000001
 43
0.0000001
 44
0.0000000001
 40
0.0
 40
0.0
 40
0.0
 40
0.0
 40
0.2458626515
 40
0.4936955907
 40
0.6190078605
 40
0.7452440533
 40
0.8723448957
 40
1.0
 40
1.0
 40
1.0
 40
1.0
 10
4.6122171565
 20
7.0360605523
 30
0.0
 10
4.6116803633
 20
7.0362757333
 30
0.0
 10
4.61063426
 20
7.0367943879
 30
0.0
 10
4.6094766671
 20
7.0377032967
 30
0.0
 10
4.6087215437
 20
7.0386087044
 30
0.0
 10
4.6082702864
 20
7.0393823665
 30
0.0
 10
4.6079751787
 20
7.0402350624
 30
0.0
 10
4.6079062675
 20
7.0408364064
 30
0.0
 10
4.6079062675
 20
7.0411366758
 30
0.0
  0
SPLINE
  5
4F4
100
AcDbEntity
  8
0
100
AcDbSpline
 62
7
  6
CONTINUOUS
 70
0
 71
3
 72
13
 73
9
 74
0
 42
0.0000001
 43
0.0000001
 44
0.0000000001
 40
0.0
 40
0.0
 40
0.0
 40
0.0
 40
0.300209237
 40
0.5672449369
 40
0.6865444569
 40
0.7975411762
 40
0.9015964652
 40
1.0
 40
1.0
 40
1.0
 40
1.0
 10
4.6146897554
 20
7.0411366758
 30
0.0
 10
4.6146897554
 20
7.0405506088
 30
0.0
 10
4.6145491154
 20
7.0394378299
 30
0.0
 10
4.6140523618
 20
7.0381778953
 30
0.0
 10
4.613534017
 20
7.037354572
 30
0.0
 10
4.6131231933
 20
7.0368454108
 30
0.0
 10
4.6126862
 20
7.0364152926
 30
0.0
 10
4.6123746153
 20
7.036170599
 30
0.0
 10
4.6122171565
 20
7.0360605523
 30
0.0
  0
SPLINE
  5
4F5
100
AcDbEntity
  8
0
100
AcDbSpline
 62
7
  6
CONTINUOUS
 70
0
 71
3
 72
13
 73
9
 74
0
 42
0.0000001
 43
0.0000001
 44
0.0000000001
 40
0.0
 40
0.0
 40
0.0
 40
0.0
 40
0.24294111
 40
0.4894209126
 40
0.6148964466
 40
0.7419569706
 40
0.8705035899
 40
1.0
 40
1.0
 40
1.0
 40
1.0
 10
4.6215495179
 20
7.0360605523
 30
0.0
 10
4.6210293692
 20
7.0362762178
 30
0.0
 10
4.6200143806
 20
7.0367972779
 30
0.0
 10
4.6188968514
 20
7.0377066714
 30
0.0
 10
4.618168599
 20
7.0386106196
 30
0.0
 10
4.6177327406
 20
7.0393843646
 30
0.0
 10
4.6174480571
 20
7.0402364577
 30
0.0
 10
4.6173816825
 20
7.0408365304
 30
0.0
 10
4.6173816825
 20
7.0411366758
 30
0.0
  0
SPLINE
  5
4F6
100
AcDbEntity
  8
0
100
AcDbSpline
 62
7
  6
CONTINUOUS
 70
0
 71
3
 72
13
 73
9
 74
0
 42
0.0000001
 43
0.0000001
 44
0.0000000001
 40
0.0
 40
0.0
 40
0.0
 40
0.0
 40
0.14830213
 40
0.2919699419
 40
0.4281517498
 40
0.5560381999
 40
0.789087931
 40
1.0
 40
1.0
 40
1.0
 40
1.0
 10
4.6243565114
 20
7.0411366758
 30
0.0
 10
4.6243565114
 20
7.0408375021
 30
0.0
 10
4.6243131146
 20
7.0402475656
 30
0.0
 10
4.6241251239
 20
7.0394016807
 30
0.0
 10
4.6238349196
 20
7.0386291181
 30
0.0
 10
4.6233586769
 20
7.0377438028
 30
0.0
 10
4.6226261083
 20
7.0368371312
 30
0.0
 10
4.6219118399
 20
7.0362836099
 30
0.0
 10
4.6215495179
 20
7.0360605523
 30
0.0
  0
SPLINE
  5
4F7
100
AcDbEntity
  8
0
100
AcDbSpline
 62
7
  6
CONTINUOUS
 70
0
 71
3
 72
13
 73
9
 74
0
 42
0.0000001
 43
0.0000001
 44
0.0000000001
 40
0.0
 40
0.0
 40
0.0
 40
0.0
 40
0.2391936088
 40
0.4839684461
 40
0.6096684546
 40
0.7377897226
 40
0.8681746077
 40
1.0
 40
1.0
 40
1.0
 40
1.0
 10
4.631102258
 20
7.0360605523
 30
0.0
 10
4.6306027515
 20
7.0362768763
 30
0.0
 10
4.6296264494
 20
7.0368011539
 30
0.0
 10
4.6285587871
 20
7.0377110171
 30
0.0
 10
4.6278638313
 20
7.0386130219
 30
0.0
 10
4.6274470784
 20
7.0393868111
 30
0.0
 10
4.6271752682
 20
7.0402381317
 30
0.0
 10
4.6271120069
 20
7.0408366785
 30
0.0
 10
4.6271120069
 20
7.0411366758
 30
0.0
  0
SPLINE
  5
4F8
100
AcDbEntity
  8
0
100
AcDbSpline
 62
7
  6
CONTINUOUS
 70
0
 71
3
 72
14
 73
10
 74
0
 42
0.0000001
 43
0.0000001
 44
0.0000000001
 40
0.0
 40
0.0
 40
0.0
 40
0.0
 40
0.1437890949
 40
0.2837629055
 40
0.4176148682
 40
0.5447479013
 40
0.6656470712
 40
0.7812296132
 40
1.0
 40
1.0
 40
1.0
 40
1.0
 10
4.6342203898
 20
7.0411366758
 30
0.0
 10
4.6342203898
 20
7.0408373131
 30
0.0
 10
4.6341719074
 20
7.0402453861
 30
0.0
 10
4.6339621861
 20
7.039398057
 30
0.0
 10
4.6336389545
 20
7.0386249934
 30
0.0
 10
4.6332291551
 20
7.0379407642
 30
0.0
 10
4.6327560399
 20
7.0373470002
 30
0.0
 10
4.6320778839
 20
7.0366824534
 30
0.0
 10
4.6315006393
 20
7.0362813367
 30
0.0
 10
4.631102258
 20
7.0360605523
 30
0.0
  0
SPLINE
  5
4F9
100
AcDbEntity
  8
0
100
AcDbSpline
 62
7
  6
CONTINUOUS
 70
0
 71
3
 72
14
 73
10
 74
0
 42
0.0000001
 43
0.0000001
 44
0.0000000001
 40
0.0
 40
0.0
 40
0.0
 40
0.0
 40
0.2344660921
 40
0.3547050117
 40
0.4775358261
 40
0.603477049
 40
0.7328504877
 40
0.8654151374
 40
1.0
 40
1.0
 40
1.0
 40
1.0
 10
4.6407962314
 20
7.0360605523
 30
0.0
 10
4.6403211829
 20
7.0362777499
 30
0.0
 10
4.6396284797
 20
7.036671649
 30
0.0
 10
4.6387987573
 20
7.0373405194
 30
0.0
 10
4.6382250036
 20
7.0379326725
 30
0.0
 10
4.6377269551
 20
7.0386159256
 30
0.0
 10
4.6373328911
 20
7.0393896481
 30
0.0
 10
4.6370762384
 20
7.0402400347
 30
0.0
 10
4.6370166242
 20
7.0408368459
 30
0.0
 10
4.6370166242
 20
7.0411366758
 30
0.0
  0
SPLINE
  5
4FA
100
AcDbEntity
  8
0
100
AcDbSpline
 62
7
  6
CONTINUOUS
 70
0
 71
3
 72
14
 73
10
 74
0
 42
0.0000001
 43
0.0000001
 44
0.0000000001
 40
0.0
 40
0.0
 40
0.0
 40
0.0
 40
0.139763366
 40
0.2764785075
 40
0.4083345354
 40
0.5349048964
 40
0.6566222675
 40
0.7742444273
 40
1.0
 40
1.0
 40
1.0
 40
1.0
 10
4.6441996678
 20
7.0411366758
 30
0.0
 10
4.6441996678
 20
7.0408371225
 30
0.0
 10
4.644146439
 20
7.0402431945
 30
0.0
 10
4.6439166062
 20
7.0393945401
 30
0.0
 10
4.6435628904
 20
7.0386210937
 30
0.0
 10
4.6431150053
 20
7.0379371792
 30
0.0
 10
4.642598412
 20
7.0373440496
 30
0.0
 10
4.6418548939
 20
7.0366774009
 30
0.0
 10
4.6412276637
 20
7.0362796101
 30
0.0
 10
4.6407962314
 20
7.0360605523
 30
0.0
  0
SPLINE
  5
4FB
100
AcDbEntity
  8
0
100
AcDbSpline
 62
7
  6
CONTINUOUS
 70
0
 71
3
 72
14
 73
10
 74
0
 42
0.0000001
 43
0.0000001
 44
0.0000000001
 40
0.0
 40
0.0
 40
0.0
 40
0.0
 40
0.1446209052
 40
0.2852713829
 40
0.419542822
 40
0.5468003031
 40
0.6675360183
 40
0.7826969593
 40
1.0
 40
1.0
 40
1.0
 40
1.0
 10
4.7579589414
 20
7.0411366758
 30
0.0
 10
4.7579589414
 20
7.0408373501
 30
0.0
 10
4.7579114211
 20
7.0402458126
 30
0.0
 10
4.7577057926
 20
7.0393987535
 30
0.0
 10
4.7573887863
 20
7.038625785
 30
0.0
 10
4.7569867843
 20
7.0379415123
 30
0.0
 10
4.7565225815
 20
7.0373476327
 30
0.0
 10
4.7558577976
 20
7.0366835673
 30
0.0
 10
4.7552908302
 20
7.0362817298
 30
0.0
 10
4.7548992147
 20
7.0360605523
 30
0.0
  0
SPLINE
  5
4FC
100
AcDbEntity
  8
0
100
AcDbSpline
 62
7
  6
CONTINUOUS
 70
0
 71
3
 72
14
 73
10
 74
0
 42
0.0000001
 43
0.0000001
 44
0.0000000001
 40
0.0
 40
0.0
 40
0.0
 40
0.0
 40
0.2315339212
 40
0.3508757838
 40
0.4733053949
 40
0.5994303496
 40
0.729628236
 40
0.8636142813
 40
1.0
 40
1.0
 40
1.0
 40
1.0
 10
5.7616455103
 20
2.7876611025
 30
0.0
 10
5.7611857596
 20
2.7878794326
 30
0.0
 10
5.7605160087
 20
2.7882751885
 30
0.0
 10
5.7597160881
 20
2.7889433425
 30
0.0
 10
5.7591617564
 20
2.7895354363
 30
0.0
 10
5.7586803016
 20
2.7902183037
 30
0.0
 10
5.7582991313
 20
2.7909913901
 30
0.0
 10
5.7580507552
 20
2.7918409808
 30
0.0
 10
5.7579930748
 20
2.7924368724
 30
0.0
 10
5.7579930748
 20
2.7927366758
 30
0.0
  0
SPLINE
  5
4FD
100
AcDbEntity
  8
0
100
AcDbSpline
 62
7
  6
CONTINUOUS
 70
0
 71
3
 72
10
 73
6
 74
0
 42
0.0000001
 43
0.0000001
 44
0.0000000001
 40
0.0
 40
0.0
 40
0.0
 40
0.0
 40
0.4873726218
 40
0.7398705687
 40
1.0
 40
1.0
 40
1.0
 40
1.0
 10
4.6505511231
 20
7.0360605523
 30
0.0
 10
4.6501010636
 20
7.0362803985
 30
0.0
 10
4.649446019
 20
7.0366800275
 30
0.0
 10
4.6486676152
 20
7.0373537091
 30
0.0
 10
4.6483138483
 20
7.0377466834
 30
0.0
 10
4.6481489938
 20
7.0379571459
 30
0.0
  0
SPLINE
  5
4FE
100
AcDbEntity
  8
0
100
AcDbSpline
 62
7
  6
CONTINUOUS
 70
0
 71
3
 72
14
 73
10
 74
0
 42
0.0000001
 43
0.0000001
 44
0.0000000001
 40
0.0
 40
0.0
 40
0.0
 40
0.0
 40
0.1362054095
 40
0.2700637114
 40
0.4002036077
 40
0.5263304456
 40
0.648805912
 40
0.7682272198
 40
1.0
 40
1.0
 40
1.0
 40
1.0
 10
4.6542116662
 20
7.0411366758
 30
0.0
 10
4.6542116662
 20
7.0408369365
 30
0.0
 10
4.6541540896
 20
7.0402410675
 30
0.0
 10
4.6539059632
 20
7.0393912245
 30
0.0
 10
4.6535246859
 20
7.0386175596
 30
0.0
 10
4.653042505
 20
7.0379340686
 30
0.0
 10
4.6524868221
 20
7.0373415925
 30
0.0
 10
4.6516843821
 20
7.0366733652
 30
0.0
 10
4.6510123589
 20
7.0362782938
 30
0.0
 10
4.6505511231
 20
7.0360605523
 30
0.0
  0
SPLINE
  5
4FF
100
AcDbEntity
  8
0
100
AcDbSpline
 62
7
  6
CONTINUOUS
 70
0
 71
3
 72
14
 73
10
 74
0
 42
0.0000001
 43
0.0000001
 44
0.0000000001
 40
0.0
 40
0.0
 40
0.0
 40
0.0
 40
0.2224389544
 40
0.3390860218
 40
0.4604066362
 40
0.5872379093
 40
0.7200413668
 40
0.8583114924
 40
1.0
 40
1.0
 40
1.0
 40
1.0
 10
4.6602861129
 20
7.0360605523
 30
0.0
 10
4.6598705589
 20
7.0362804012
 30
0.0
 10
4.6592672988
 20
7.0366797492
 30
0.0
 10
4.6585551858
 20
7.0373454378
 30
0.0
 10
4.658059466
 20
7.0379388857
 30
0.0
 10
4.6576298746
 20
7.0386229725
 30
0.0
 10
4.6572908176
 20
7.0393962525
 30
0.0
 10
4.6570706706
 20
7.0402442698
 30
0.0
 10
4.6570197318
 20
7.0408372162
 30
0.0
 10
4.6570197318
 20
7.0411366758
 30
0.0
  0
SPLINE
  5
500
100
AcDbEntity
  8
0
100
AcDbSpline
 62
7
  6
CONTINUOUS
 70
0
 71
3
 72
13
 73
9
 74
0
 42
0.0000001
 43
0.0000001
 44
0.0000000001
 40
0.0
 40
0.0
 40
0.0
 40
0.0
 40
0.1331963929
 40
0.2646682278
 40
0.393423214
 40
0.5192648785
 40
0.7630400279
 40
1.0
 40
1.0
 40
1.0
 40
1.0
 10
4.6641734349
 20
7.0411366758
 30
0.0
 10
4.6641734349
 20
7.0408367614
 30
0.0
 10
4.6641119606
 20
7.0402390719
 30
0.0
 10
4.6638475773
 20
7.0393882094
 30
0.0
 10
4.6634418904
 20
7.0386144242
 30
0.0
 10
4.6627661967
 20
7.0377136141
 30
0.0
 10
4.6617275032
 20
7.0368035568
 30
0.0
 10
4.6607736648
 20
7.0362772898
 30
0.0
 10
4.6602861129
 20
7.0360605523
 30
0.0
  0
SPLINE
  5
501
100
AcDbEntity
  8
0
100
AcDbSpline
 62
7
  6
CONTINUOUS
 70
0
 71
3
 72
14
 73
10
 74
0
 42
0.0000001
 43
0.0000001
 44
0.0000000001
 40
0.0
 40
0.0
 40
0.0
 40
0.0
 40
0.2149759833
 40
0.3294732757
 40
0.4499557506
 40
0.5774148763
 40
0.7123515946
 40
0.8540696266
 40
1.0
 40
1.0
 40
1.0
 40
1.0
 10
4.6699205458
 20
7.0360605523
 30
0.0
 10
4.6695395523
 20
7.0362823771
 30
0.0
 10
4.6689887517
 20
7.0366853724
 30
0.0
 10
4.6683449481
 20
7.0373486445
 30
0.0
 10
4.6678947418
 20
7.0379426945
 30
0.0
 10
4.667504978
 20
7.0386270206
 30
0.0
 10
4.6671977317
 20
7.0393998296
 30
0.0
 10
4.6669985112
 20
7.0402464667
 30
0.0
 10
4.6669524948
 20
7.0408374068
 30
0.0
 10
4.6669524948
 20
7.0411366758
 30
0.0
  0
SPLINE
  5
502
100
AcDbEntity
  8
0
100
AcDbSpline
 62
7
  6
CONTINUOUS
 70
0
 71
3
 72
13
 73
9
 74
0
 42
0.0000001
 43
0.0000001
 44
0.0000000001
 40
0.0
 40
0.0
 40
0.0
 40
0.0
 40
0.130617688
 40
0.2600479703
 40
0.3876166168
 40
0.5131977196
 40
0.7588557166
 40
1.0
 40
1.0
 40
1.0
 40
1.0
 10
4.67400244
 20
7.0411366758
 30
0.0
 10
4.67400244
 20
7.0408366028
 30
0.0
 10
4.6739375768
 20
7.0402372758
 30
0.0
 10
4.6736591327
 20
7.0393855535
 30
0.0
 10
4.6732325221
 20
7.0386117791
 30
0.0
 10
4.6725203928
 20
7.037708753
 30
0.0
 10
4.6714269783
 20
7.0367991123
 30
0.0
 10
4.6704307021
 20
7.0362765282
 30
0.0
 10
4.6699205458
 20
7.0360605523
 30
0.0
  0
SPLINE
  5
503
100
AcDbEntity
  8
0
100
AcDbSpline
 62
7
  6
CONTINUOUS
 70
0
 71
3
 72
11
 73
7
 74
0
 42
0.0000001
 43
0.0000001
 44
0.0000000001
 40
0.0
 40
0.0
 40
0.0
 40
0.0
 40
0.206917376
 40
0.4386725465
 40
0.7041276937
 40
1.0
 40
1.0
 40
1.0
 40
1.0
 10
4.6793745999
 20
7.0360605523
 30
0.0
 10
4.6790310677
 20
7.0362849839
 30
0.0
 10
4.6783536358
 20
7.0368438296
 30
0.0
 10
4.6775015344
 20
7.03796654
 30
0.0
 10
4.6768817393
 20
7.0394303024
 30
0.0
 10
4.6767294694
 20
7.0405499197
 30
0.0
 10
4.6767294694
 20
7.0411366758
 30
0.0
  0
SPLINE
  5
504
100
AcDbEntity
  8
0
100
AcDbSpline
 62
7
  6
CONTINUOUS
 70
0
 71
3
 72
13
 73
9
 74
0
 42
0.0000001
 43
0.0000001
 44
0.0000000001
 40
0.0
 40
0.0
 40
0.0
 40
0.0
 40
0.1285295577
 40
0.2563161212
 40
0.3829421541
 40
0.5083304248
 40
0.7555202557
 40
1.0
 40
1.0
 40
1.0
 40
1.0
 10
4.6836172473
 20
7.0411366758
 30
0.0
 10
4.6836172473
 20
7.040836466
 30
0.0
 10
4.6835495494
 20
7.0402357331
 30
0.0
 10
4.6832594204
 20
7.0393833223
 30
0.0
 10
4.6828155096
 20
7.0386096156
 30
0.0
 10
4.6820732094
 20
7.0377048924
 30
0.0
 10
4.6809347163
 20
7.0367957417
 30
0.0
 10
4.6799034512
 20
7.0362759596
 30
0.0
 10
4.6793745999
 20
7.0360605523
 30
0.0
  0
SPLINE
  5
505
100
AcDbEntity
  8
0
100
AcDbSpline
 62
7
  6
CONTINUOUS
 70
0
 71
3
 72
11
 73
7
 74
0
 42
0.0000001
 43
0.0000001
 44
0.0000000001
 40
0.0
 40
0.0
 40
0.0
 40
0.0
 40
0.1976200067
 40
0.4260404909
 40
0.6950652523
 40
1.0
 40
1.0
 40
1.0
 40
1.0
 10
4.6885699475
 20
7.0360605523
 30
0.0
 10
4.6882666103
 20
7.0362884321
 30
0.0
 10
4.6876693321
 20
7.0368590201
 30
0.0
 10
4.6869321285
 20
7.0379847881
 30
0.0
 10
4.686399381
 20
7.0394443896
 30
0.0
 10
4.6862696527
 20
7.0405512515
 30
0.0
 10
4.6862696527
 20
7.0411366758
 30
0.0
  0
SPLINE
  5
506
100
AcDbEntity
  8
0
100
AcDbSpline
 62
7
  6
CONTINUOUS
 70
0
 71
3
 72
13
 73
9
 74
0
 42
0.0000001
 43
0.0000001
 44
0.0000000001
 40
0.0
 40
0.0
 40
0.0
 40
0.0
 40
0.1269257876
 40
0.2534558238
 40
0.379368974
 40
0.504620027
 40
0.7529900548
 40
1.0
 40
1.0
 40
1.0
 40
1.0
 10
4.6929381977
 20
7.0411366758
 30
0.0
 10
4.6929381977
 20
7.0408363555
 30
0.0
 10
4.6928682619
 20
7.0402344913
 30
0.0
 10
4.692568961
 20
7.0393815592
 30
0.0
 10
4.6921115278
 20
7.0386079424
 30
0.0
 10
4.6913456197
 20
7.0377019753
 30
0.0
 10
4.690171989
 20
7.0367932838
 30
0.0
 10
4.6891134188
 20
7.0362755495
 30
0.0
 10
4.6885699475
 20
7.0360605523
 30
0.0
  0
SPLINE
  5
507
100
AcDbEntity
  8
0
100
AcDbSpline
 62
7
  6
CONTINUOUS
 70
0
 71
3
 72
11
 73
7
 74
0
 42
0.0000001
 43
0.0000001
 44
0.0000000001
 40
0.0
 40
0.0
 40
0.0
 40
0.0
 40
0.1877536895
 40
0.4128900532
 40
0.6857639542
 40
1.0
 40
1.0
 40
1.0
 40
1.0
 10
4.6974304045
 20
7.0360605523
 30
0.0
 10
4.6971699665
 20
7.036292972
 30
0.0
 10
4.6966599821
 20
7.0368767927
 30
0.0
 10
4.6960442162
 20
7.0380033748
 30
0.0
 10
4.6956011831
 20
7.0394573739
 30
0.0
 10
4.6954940036
 20
7.0405524581
 30
0.0
 10
4.6954940036
 20
7.0411366758
 30
0.0
  0
SPLINE
  5
508
100
AcDbEntity
  8
0
100
AcDbSpline
 62
7
  6
CONTINUOUS
 70
0
 71
3
 72
13
 73
9
 74
0
 42
0.0000001
 43
0.0000001
 44
0.0000000001
 40
0.0
 40
0.0
 40
0.0
 40
0.0
 40
0.1257993174
 40
0.2514499296
 40
0.3768681663
 40
0.5020284331
 40
0.751229071
 40
1.0
 40
1.0
 40
1.0
 40
1.0
 10
4.7018880661
 20
7.0411366758
 30
0.0
 10
4.7018880661
 20
7.0408362749
 30
0.0
 10
4.7018165248
 20
7.0402335881
 30
0.0
 10
4.7015106728
 20
7.0393802947
 30
0.0
 10
4.7010436122
 20
7.0386067618
 30
0.0
 10
4.7002608835
 20
7.037699952
 30
0.0
 10
4.6990622844
 20
7.0367916224
 30
0.0
 10
4.6979842901
 20
7.0362752744
 30
0.0
 10
4.6974304045
 20
7.0360605523
 30
0.0
  0
SPLINE
  5
509
100
AcDbEntity
  8
0
100
AcDbSpline
 62
7
  6
CONTINUOUS
 70
0
 71
3
 72
14
 73
10
 74
0
 42
0.0000001
 43
0.0000001
 44
0.0000000001
 40
0.0
 40
0.0
 40
0.0
 40
0.0
 40
0.1776459703
 40
0.2823935076
 40
0.3998040854
 40
0.5311330652
 40
0.6766553693
 40
0.8345713635
 40
1.0
 40
1.0
 40
1.0
 40
1.0
 10
4.7058825615
 20
7.0360605523
 30
0.0
 10
4.7056679558
 20
7.0362988204
 30
0.0
 10
4.7053741495
 20
7.0367214666
 30
0.0
 10
4.705048535
 20
7.037365988
 30
0.0
 10
4.7048141123
 20
7.0379605387
 30
0.0
 10
4.7046117105
 20
7.0386436794
 30
0.0
 10
4.7044526119
 20
7.039413129
 30
0.0
 10
4.7043497464
 20
7.0402541036
 30
0.0
 10
4.7043260976
 20
7.0408380623
 30
0.0
 10
4.7043260976
 20
7.0411366758
 30
0.0
  0
SPLINE
  5
50A
100
AcDbEntity
  8
0
100
AcDbSpline
 62
7
  6
CONTINUOUS
 70
0
 71
3
 72
13
 73
9
 74
0
 42
0.0000001
 43
0.0000001
 44
0.0000000001
 40
0.0
 40
0.0
 40
0.0
 40
0.0
 40
0.1251441029
 40
0.2502844105
 40
0.3754169972
 40
0.500526565
 40
0.750210889
 40
1.0
 40
1.0
 40
1.0
 40
1.0
 10
4.7103927025
 20
7.0411366758
 30
0.0
 10
4.7103927025
 20
7.0408362268
 30
0.0
 10
4.7103202137
 20
7.0402330506
 30
0.0
 10
4.7100105082
 20
7.0393795493
 30
0.0
 10
4.7095377968
 20
7.0386060733
 30
0.0
 10
4.7087451903
 20
7.037698785
 30
0.0
 10
4.7075319535
 20
7.0367906799
 30
0.0
 10
4.7064425624
 20
7.036275119
 30
0.0
 10
4.7058825615
 20
7.0360605523
 30
0.0
  0
SPLINE
  5
50B
100
AcDbEntity
  8
0
100
AcDbSpline
 62
7
  6
CONTINUOUS
 70
0
 71
3
 72
15
 73
11
 74
0
 42
0.0000001
 43
0.0000001
 44
0.0000000001
 40
0.0
 40
0.0
 40
0.0
 40
0.0
 40
0.0786752631
 40
0.1685032738
 40
0.2710898406
 40
0.3879984647
 40
0.5204240842
 40
0.6685053438
 40
0.8301574942
 40
1.0
 40
1.0
 40
1.0
 40
1.0
 10
4.7138563916
 20
7.0360605523
 30
0.0
 10
4.7137791597
 20
7.0361752476
 30
0.0
 10
4.7136276466
 20
7.0364303926
 30
0.0
 10
4.7134232585
 20
7.0368613883
 30
0.0
 10
4.7132313238
 20
7.0373706287
 30
0.0
 10
4.713056615
 20
7.0379644903
 30
0.0
 10
4.7129056843
 20
7.0386469822
 30
0.0
 10
4.712787069
 20
7.0394155144
 30
0.0
 10
4.7127103799
 20
7.0402553967
 30
0.0
 10
4.7126927602
 20
7.0408381723
 30
0.0
 10
4.7126927602
 20
7.0411366758
 30
0.0
  0
SPLINE
  5
50C
100
AcDbEntity
  8
0
100
AcDbSpline
 62
7
  6
CONTINUOUS
 70
0
 71
3
 72
13
 73
9
 74
0
 42
0.0000001
 43
0.0000001
 44
0.0000000001
 40
0.0
 40
0.0
 40
0.0
 40
0.0
 40
0.1249562427
 40
0.2499504045
 40
0.3750013929
 40
0.5000967092
 40
0.7499197841
 40
1.0
 40
1.0
 40
1.0
 40
1.0
 10
4.7183816452
 20
7.0411366758
 30
0.0
 10
4.7183816452
 20
7.0408362129
 30
0.0
 10
4.7183088829
 20
7.0402328948
 30
0.0
 10
4.7179980665
 20
7.0393793343
 30
0.0
 10
4.7175237278
 20
7.0386058757
 30
0.0
 10
4.7167282763
 20
7.0376984518
 30
0.0
 10
4.7155108266
 20
7.0367904128
 30
0.0
 10
4.7144181539
 20
7.0362750751
 30
0.0
 10
4.7138563916
 20
7.0360605523
 30
0.0
  0
SPLINE
  5
50D
100
AcDbEntity
  8
0
100
AcDbSpline
 62
7
  6
CONTINUOUS
 70
0
 71
3
 72
14
 73
10
 74
0
 42
0.0000001
 43
0.0000001
 44
0.0000000001
 40
0.0
 40
0.0
 40
0.0
 40
0.0
 40
0.0740281622
 40
0.1607471775
 40
0.2616705231
 40
0.3782829271
 40
0.5116957175
 40
0.66191914
 40
1.0
 40
1.0
 40
1.0
 40
1.0
 10
4.7212858312
 20
7.0360605523
 30
0.0
 10
4.7212344855
 20
7.036177124
 30
0.0
 10
4.7211345093
 20
7.0364353711
 30
0.0
 10
4.7210013194
 20
7.0368657532
 30
0.0
 10
4.7208761561
 20
7.0373743757
 30
0.0
 10
4.7207621666
 20
7.0379676239
 30
0.0
 10
4.7206636429
 20
7.0386494846
 30
0.0
 10
4.7205563779
 20
7.0397140961
 30
0.0
 10
4.720524673
 20
7.0405549472
 30
0.0
 10
4.720524673
 20
7.0411366758
 30
0.0
  0
SPLINE
  5
50E
100
AcDbEntity
  8
0
100
AcDbSpline
 62
7
  6
CONTINUOUS
 70
0
 71
3
 72
13
 73
9
 74
0
 42
0.0000001
 43
0.0000001
 44
0.0000000001
 40
0.0
 40
0.0
 40
0.0
 40
0.0
 40
0.125234568
 40
0.2504452796
 40
0.3756172085
 40
0.5007336845
 40
0.7503512031
 40
1.0
 40
1.0
 40
1.0
 40
1.0
 10
4.7257887053
 20
7.0411366758
 30
0.0
 10
4.7257887053
 20
7.0408362335
 30
0.0
 10
4.7257163479
 20
7.0402331254
 30
0.0
 10
4.7254071763
 20
7.0393796527
 30
0.0
 10
4.7249352474
 20
7.0386061685
 30
0.0
 10
4.724144009
 20
7.0376989457
 30
0.0
 10
4.7229327983
 20
7.036790809
 30
0.0
 10
4.7218449852
 20
7.0362751403
 30
0.0
 10
4.7212858312
 20
7.0360605523
 30
0.0
  0
SPLINE
  5
50F
100
AcDbEntity
  8
0
100
AcDbSpline
 62
7
  6
CONTINUOUS
 70
0
 71
3
 72
13
 73
9
 74
0
 42
0.0000001
 43
0.0000001
 44
0.0000000001
 40
0.0
 40
0.0
 40
0.0
 40
0.0
 40
0.0709657232
 40
0.1556903514
 40
0.2555765227
 40
0.3720292924
 40
0.6576664393
 40
1.0
 40
1.0
 40
1.0
 40
1.0
 10
4.7281093268
 20
7.0360605523
 30
0.0
 10
4.728085247
 20
7.0361786403
 30
0.0
 10
4.7280387055
 20
7.036439
 30
0.0
 10
4.7279772402
 20
7.0368687226
 30
0.0
 10
4.7279194204
 20
7.0373767896
 30
0.0
 10
4.7278440204
 20
7.038226005
 30
0.0
 10
4.7277756725
 20
7.0394887541
 30
0.0
 10
4.727756948
 20
7.0405553055
 30
0.0
 10
4.727756948
 20
7.0411366758
 30
0.0
  0
SPLINE
  5
510
100
AcDbEntity
  8
0
100
AcDbSpline
 62
7
  6
CONTINUOUS
 70
0
 71
3
 72
13
 73
9
 74
0
 42
0.0000001
 43
0.0000001
 44
0.0000000001
 40
0.0
 40
0.0
 40
0.0
 40
0.0
 40
0.1259808027
 40
0.2517729211
 40
0.3772705678
 40
0.502445151
 40
0.7515118848
 40
1.0
 40
1.0
 40
1.0
 40
1.0
 10
4.7325525146
 20
7.0411366758
 30
0.0
 10
4.7325525146
 20
7.040836288
 30
0.0
 10
4.7324812339
 20
7.0402337354
 30
0.0
 10
4.7321764436
 20
7.0393804999
 30
0.0
 10
4.7317109416
 20
7.0386069523
 30
0.0
 10
4.7309309365
 20
7.0377002765
 30
0.0
 10
4.7297363767
 20
7.0367918865
 30
0.0
 10
4.7286615261
 20
7.036275318
 30
0.0
 10
4.7281093268
 20
7.0360605523
 30
0.0
  0
SPLINE
  5
511
100
AcDbEntity
  8
0
100
AcDbSpline
 62
7
  6
CONTINUOUS
 70
0
 71
3
 72
10
 73
6
 74
0
 42
0.0000001
 43
0.0000001
 44
0.0000000001
 40
0.0
 40
0.0
 40
0.0
 40
0.0
 40
0.2607648123
 40
0.5133895998
 40
1.0
 40
1.0
 40
1.0
 40
1.0
 10
5.7641489938
 20
2.7896860849
 30
0.0
 10
5.7639807829
 20
2.7894595144
 30
0.0
 10
5.763616406
 20
2.7890371073
 30
0.0
 10
5.7628062988
 20
2.788316566
 30
0.0
 10
5.7621185442
 20
2.7878924688
 30
0.0
 10
5.7616455103
 20
2.7876611025
 30
0.0
  0
SPLINE
  5
512
100
AcDbEntity
  8
0
100
AcDbSpline
 62
7
  6
CONTINUOUS
 70
0
 71
3
 72
13
 73
9
 74
0
 42
0.0000001
 43
0.0000001
 44
0.0000000001
 40
0.0
 40
0.0
 40
0.0
 40
0.0
 40
0.1271993245
 40
0.2539433026
 40
0.3799773557
 40
0.5052511485
 40
0.7534196791
 40
1.0
 40
1.0
 40
1.0
 40
1.0
 10
4.7386170347
 20
7.0411366758
 30
0.0
 10
4.7386170347
 20
7.0408363747
 30
0.0
 10
4.7385474846
 20
7.0402347067
 30
0.0
 10
4.7382497607
 20
7.0393818629
 30
0.0
 10
4.7377946489
 20
7.0386082284
 30
0.0
 10
4.7370327951
 20
7.0377024698
 30
0.0
 10
4.7358651908
 20
7.0367936952
 30
0.0
 10
4.734811306
 20
7.0362756179
 30
0.0
 10
4.7342703451
 20
7.0360605523
 30
0.0
  0
SPLINE
  5
513
100
AcDbEntity
  8
0
100
AcDbSpline
 62
7
  6
CONTINUOUS
 70
0
 71
3
 72
13
 73
9
 74
0
 42
0.0000001
 43
0.0000001
 44
0.0000000001
 40
0.0
 40
0.0
 40
0.0
 40
0.0
 40
0.1288964821
 40
0.2569712534
 40
0.3837617435
 40
0.5091827324
 40
0.7561029755
 40
1.0
 40
1.0
 40
1.0
 40
1.0
 10
4.7439320205
 20
7.0411366758
 30
0.0
 10
4.7439320205
 20
7.0408364906
 30
0.0
 10
4.743864827
 20
7.0402360101
 30
0.0
 10
4.7435767717
 20
7.0393837197
 30
0.0
 10
4.7431359253
 20
7.038609997
 30
0.0
 10
4.7423989722
 20
7.0377055657
 30
0.0
 10
4.7412684536
 20
7.0367963198
 30
0.0
 10
4.740243381
 20
7.0362760566
 30
0.0
 10
4.7397178418
 20
7.0360605523
 30
0.0
  0
SPLINE
  5
514
100
AcDbEntity
  8
0
100
AcDbSpline
 62
7
  6
CONTINUOUS
 70
0
 71
3
 72
13
 73
9
 74
0
 42
0.0000001
 43
0.0000001
 44
0.0000000001
 40
0.0
 40
0.0
 40
0.0
 40
0.0
 40
0.1310793448
 40
0.2608741834
 40
0.3886534158
 40
0.5142793348
 40
0.7595994855
 40
1.0
 40
1.0
 40
1.0
 40
1.0
 10
4.7484534369
 20
7.0411366758
 30
0.0
 10
4.7484534369
 20
7.040836632
 30
0.0
 10
4.7483891891
 20
7.040237606
 30
0.0
 10
4.7481132912
 20
7.039386037
 30
0.0
 10
4.7476904611
 20
7.0386122549
 30
0.0
 10
4.7469849196
 20
7.0377096158
 30
0.0
 10
4.7459013754
 20
7.0367998846
 30
0.0
 10
4.7449127558
 20
7.0362766595
 30
0.0
 10
4.7444066839
 20
7.0360605523
 30
0.0
  0
SPLINE
  5
515
100
AcDbEntity
  8
0
100
AcDbSpline
 62
7
  6
CONTINUOUS
 70
0
 71
3
 72
13
 73
9
 74
0
 42
0.0000001
 43
0.0000001
 44
0.0000000001
 40
0.0
 40
0.0
 40
0.0
 40
0.0
 40
0.1337536655
 40
0.265668344
 40
0.3946829089
 40
0.5205841752
 40
0.7639538904
 40
1.0
 40
1.0
 40
1.0
 40
1.0
 10
4.7521438236
 20
7.0411366758
 30
0.0
 10
4.7521438236
 20
7.0408367942
 30
0.0
 10
4.7520830667
 20
7.040239445
 30
0.0
 10
4.7518216722
 20
7.0393887692
 30
0.0
 10
4.7514204475
 20
7.0386149915
 30
0.0
 10
4.7507525155
 20
7.0377146777
 30
0.0
 10
4.7497255216
 20
7.0368045603
 30
0.0
 10
4.7487807552
 20
7.0362774637
 30
0.0
 10
4.748298024
 20
7.0360605523
 30
0.0
  0
SPLINE
  5
516
100
AcDbEntity
  8
0
100
AcDbSpline
 62
7
  6
CONTINUOUS
 70
0
 71
3
 72
14
 73
10
 74
0
 42
0.0000001
 43
0.0000001
 44
0.0000000001
 40
0.0
 40
0.0
 40
0.0
 40
0.0
 40
0.1368577432
 40
0.2712381539
 40
0.4016892906
 40
0.5278937216
 40
0.6502278776
 40
0.7693196934
 40
1.0
 40
1.0
 40
1.0
 40
1.0
 10
4.7549726057
 20
7.0411366758
 30
0.0
 10
4.7549726057
 20
7.0408369719
 30
0.0
 10
4.7549158387
 20
7.0402414717
 30
0.0
 10
4.7546711084
 20
7.0393918473
 30
0.0
 10
4.7542949349
 20
7.0386182132
 30
0.0
 10
4.7538190951
 20
7.0379346344
 30
0.0
 10
4.7532706361
 20
7.0373420326
 30
0.0
 10
4.7524790951
 20
7.036674077
 30
0.0
 10
4.7518153427
 20
7.0362785221
 30
0.0
 10
4.7513596222
 20
7.0360605523
 30
0.0
  0
SPLINE
  5
517
100
AcDbEntity
  8
0
100
AcDbSpline
 62
7
  6
CONTINUOUS
 70
0
 71
3
 72
14
 73
10
 74
0
 42
0.0000001
 43
0.0000001
 44
0.0000000001
 40
0.0
 40
0.0
 40
0.0
 40
0.0
 40
0.1405085733
 40
0.2778248689
 40
0.4100460599
 40
0.5367156643
 40
0.6582782967
 40
0.7755231097
 40
1.0
 40
1.0
 40
1.0
 40
1.0
 10
4.7569163463
 20
7.0411366758
 30
0.0
 10
4.7569163463
 20
7.0408371593
 30
0.0
 10
4.7568640086
 20
7.0402436167
 30
0.0
 10
4.7566379412
 20
7.0393952096
 30
0.0
 10
4.7562899187
 20
7.0386218239
 30
0.0
 10
4.7558491343
 20
7.037937838
 30
0.0
 10
4.7553406409
 20
7.037344582
 30
0.0
 10
4.7546093146
 20
7.0366782956
 30
0.0
 10
4.7539913807
 20
7.0362799093
 30
0.0
 10
4.7535661127
 20
7.0360605523
 30
0.0
  0
ELLIPSE
  5
518
100
AcDbEntity
  8
0
100
AcDbEllipse
 62
7
  6
CONTINUOUS
 10
4.7466773283
 20
7.3341366758
 30
0.0
 11
0.0079550636
 21
-0.0
 31
0.0
 40
0.7542365883
 41
0.0
 42
0.8805635483
  0
ENDSEC
  0
SECTION
  2
OBJECTS
  0
DICTIONARY
  5
C
100
AcDbDictionary
280
0
281
1
  3
ACAD_GROUP
350
D
  3
ACAD_MLINESTYLE
350
17
  3
ACAD_LAYOUT
350
1A
  3
ACAD_PLOTSETTINGS
350
19
  3
ACAD_PLOTSTYLENAME
350
E
  0
DICTIONARY
  5
D
102
{ACAD_REACTORS
330
C
102
}
100
AcDbDictionary
280
0
281
1
  0
ACDBDICTIONARYWDFLT
  5
E
102
{ACAD_REACTORS
330
C
102
}
100
AcDbDictionary
281
1
  3
Normal
350
F
100
AcDbDictionaryWithDefault
340
F
  0
DICTIONARY
  5
17
102
{ACAD_REACTORS
330
C
102
}
100
AcDbDictionary
280
0
281
1
  3
Standard
350
18
  0
DICTIONARY
  5
19
102
{ACAD_REACTORS
330
C
102
}
100
AcDbDictionary
281
1
  0
DICTIONARY
  5
1A
102
{ACAD_REACTORS
330
C
102
}
100
AcDbDictionary
281
1
  3
Model
350
519
  3
Layout1
350
51A
  0
ACDBPLACEHOLDER
  5
F
102
{ACAD_REACTORS
330
E
102
}
  0
MLINESTYLE
  5
18
102
{ACAD_REACTORS
330
17
102
}
100
AcDbMlineStyle
  2
STANDARD
 70
0
  3

 62
256
 51
90.0
 52
90.0
 71
2
 49
0.5
 62
256
  6
BYLAYER
 49
-0.5
 62
256
  6
BYLAYER
  0
LAYOUT
  5
519
102
{ACAD_REACTORS
330
1A
102
}
100
AcDbPlotSettings
  1

  2
none_device
  4
ANSI_A_(11.00_x_8.50_Inches)
  6

 40
0.0
 41
0.0
 42
0.0
 43
0.0
 44
279.4
 45
215.9
 46
0.0
 47
0.0
 48
0.0
 49
0.0
140
0.0
141
0.0
142
1.0
143
1.0
 70
1024
 72
0
 73
0
 74
0
  7

 75
0
147
1.0
148
0.0
149
0.0
100
AcDbLayout
  1
Model
 70
0
 71
0
 10
0.0
 20
0.0
 11
11.0
 21
8.5
 12
0.0
 22
0.0
 32
0.0
 14
0.0
 24
0.0
 34
0.0
 15
0.0
 25
0.0
 35
0.0
146
0.0
 13
0.0
 23
0.0
 33
0.0
 16
1.0
 26
0.0
 36
0.0
 17
0.0
 27
1.0
 37
0.0
 76
0
330
203
345
0
346
0
  0
LAYOUT
  5
51A
102
{ACAD_REACTORS
330
1A
102
}
100
AcDbPlotSettings
  1

  2
none_device
  4
ANSI_A_(11.00_x_8.50_Inches)
  6

 40
0.0
 41
0.0
 42
0.0
 43
0.0
 44
279.4
 45
215.9
 46
0.0
 47
0.0
 48
0.0
 49
0.0
140
0.0
141
0.0
142
1.0
143
1.0
 70
0
 72
0
 73
0
 74
0
  7

 75
0
147
1.0
148
0.0
149
0.0
100
AcDbLayout
  1
Layout1
 70
0
 71
1
 10
0.0
 20
0.0
 11
11.0
 21
8.5
 12
0.0
 22
0.0
 32
0.0
 14
0.0
 24
0.0
 34
0.0
 15
0.0
 25
0.0
 35
0.0
146
0.0
 13
0.0
 23
0.0
 33
0.0
 16
1.0
 26
0.0
 36
0.0
 17
0.0
 27
1.0
 37
0.0
 76
0
330
204
345
0
346
0
  0
ENDSEC
  0
EOF
