999
DXF file: 3230-5503_Top.dxf
999
Pro/ENGINEER 2023134 by Parametric Technology Corporation
  0
SECTION
  2
HEADER
  9
$ACADVER
  1
AC1032
  9
$DWGCODEPAGE
  3
ANSI_1252
  9
$EXTMAX
 10
11.0
 20
8.5
 30
0.0
  9
$EXTMIN
 10
0.0
 20
0.0
 30
0.0
  9
$LIMMIN
 10
0.0
 20
0.0
  9
$LIMMAX
 10
11.0
 20
8.5
  9
$VIEWCTR
 10
5.5
 20
4.25
  9
$VIEWSIZE
 40
8.5
  9
$CLAYER
  8
0
  9
$LTSCALE
 40
0.605
  9
$CELTYPE
  6
BYLAYER
  9
$DIMSCALE
 40
1.0
  9
$DIMASZ
 40
0.1
  9
$DIMEXO
 40
0.0625
  9
$DIMDLI
 40
0.418
  9
$DIMEXE
 40
0.125
  9
$DIMCEN
 40
0.099
  9
$DIMLFAC
 40
1.0
  9
$DIMBLK
  1
_FILLED
  9
$DIMALT
 70
1
  9
$DIMALTD
 70
2
  9
$DIMALTTD
 70
2
  9
$DIMALTF
 40
25.4
  9
$DIMTXT
 40
0.08
  9
$DIMTOL
 70
1
  9
$DIMLIM
 70
0
  9
$DIMTFAC
 40
1.0
  9
$DIMTP
 40
0.001
  9
$DIMTM
 40
0.001
  9
$DIMGAP
 40
0.09
  9
$DIMDSEP
 70
46
  9
$AUNITS
 70
0
  9
$PDMODE
 70
3
  9
$PDSIZE
 40
0.3125
  9
$HANDSEED
  5
3BB
  9
$TILEMODE
 70
1
  9
$MEASUREMENT
 70
0
  9
$INSUNITS
 70
1
  0
ENDSEC
  0
SECTION
  2
CLASSES
  0
CLASS
  1
ACDBDICTIONARYWDFLT
  2
AcDbDictionaryWithDefault
  3
AutoCAD 2000
 90
0
 91
1
280
0
281
0
  0
CLASS
  1
ACDBPLACEHOLDER
  2
AcDbPlaceHolder
  3
AutoCAD 2000
 90
0
 91
1
280
0
281
0
  0
CLASS
  1
LAYOUT
  2
AcDbLayout
  3
AutoCAD 2000
 90
0
 91
0
280
0
281
0
  0
ENDSEC
  0
SECTION
  2
TABLES
  0
TABLE
  2
VPORT
  5
8
100
AcDbSymbolTable
 70
2
  0
VPORT
  5
1F4
100
AcDbSymbolTableRecord
100
AcDbViewportTableRecord
  2
*ACTIVE
 70
0
 10
0.0
 20
0.0
 11
1.0
 21
1.0
 12
5.5
 22
4.25
 13
0.0
 23
0.0
 14
1.0
 24
1.0
 15
0.0
 25
0.0
 16
0.0
 26
0.0
 36
1.0
 17
0.0
 27
0.0
 37
0.0
 40
8.5
 41
1.2941176471
 42
50.0
 43
0.0
 44
0.0
 50
0.0
 51
0.0
 71
0
 72
100
 73
1
 74
1
 75
0
 76
0
 77
0
 78
0
  0
ENDTAB
  0
TABLE
  2
LTYPE
  5
5
100
AcDbSymbolTable
 70
6
  0
LTYPE
  5
14
100
AcDbSymbolTableRecord
100
AcDbLinetypeTableRecord
  2
BYBLOCK
 70
0
  3

 72
65
 73
0
 40
0.0
  0
LTYPE
  5
15
100
AcDbSymbolTableRecord
100
AcDbLinetypeTableRecord
  2
BYLAYER
 70
0
  3

 72
65
 73
0
 40
0.0
  0
LTYPE
  5
16
100
AcDbSymbolTableRecord
100
AcDbLinetypeTableRecord
  2
CONTINUOUS
 70
64
  3
Solid line
 72
65
 73
0
 40
0.0
  0
LTYPE
  5
1F5
100
AcDbSymbolTableRecord
100
AcDbLinetypeTableRecord
  2
CENTER
 70
64
  3
____ _ ____ _ ____ _ ____ _ ____ _ ____ _ ____
 72
65
 73
4
 40
0.6
 49
0.375
 74
0
 49
-0.075
 74
0
 49
0.075
 74
0
 49
-0.075
 74
0
  0
LTYPE
  5
1F6
100
AcDbSymbolTableRecord
100
AcDbLinetypeTableRecord
  2
HIDDEN
 70
64
  3
- - - - - - - - - - - - - - - - - - - -
 72
65
 73
2
 40
0.2
 49
0.1
 74
0
 49
-0.1
 74
0
  0
LTYPE
  5
1F7
100
AcDbSymbolTableRecord
100
AcDbLinetypeTableRecord
  2
PHANTOM
 70
64
  3
_____ _ _ _____ _ _ _____ _ _ _____
 72
65
 73
6
 40
0.8
 49
0.45
 74
0
 49
-0.05
 74
0
 49
0.1
 74
0
 49
-0.05
 74
0
 49
0.1
 74
0
 49
-0.05
 74
0
  0
LTYPE
  5
1F8
100
AcDbSymbolTableRecord
100
AcDbLinetypeTableRecord
  2
DOT
 70
64
  3
. . . . . . . . . . . . . . . . . . . .
 72
65
 73
2
 40
0.2
 49
0.1
 74
0
 49
-0.1
 74
0
  0
LTYPE
  5
1F9
100
AcDbSymbolTableRecord
100
AcDbLinetypeTableRecord
  2
DASHED
 70
64
  3
- - - - - - - - - - - - - - - - - - - -
 72
65
 73
2
 40
0.2
 49
0.1
 74
0
 49
-0.1
 74
0
  0
ENDTAB
  0
TABLE
  2
LAYER
  5
2
100
AcDbSymbolTable
 70
36
  0
LAYER
  5
10
100
AcDbSymbolTableRecord
100
AcDbLayerTableRecord
  2
0
 70
0
 62
7
  6
CONTINUOUS
370
-3
390
F
  0
LAYER
  5
1FA
100
AcDbSymbolTableRecord
100
AcDbLayerTableRecord
  2
DEFAULT_1
 70
0
 62
7
  6
CENTER
370
-3
390
F
  0
LAYER
  5
1FB
100
AcDbSymbolTableRecord
100
AcDbLayerTableRecord
  2
DEFAULT_2
 70
0
 62
8
  6
HIDDEN
370
-3
390
F
  0
LAYER
  5
1FC
100
AcDbSymbolTableRecord
100
AcDbLayerTableRecord
  2
DEFAULT_3
 70
0
 62
7
  6
PHANTOM
370
-3
390
F
  0
LAYER
  5
1FD
100
AcDbSymbolTableRecord
100
AcDbLayerTableRecord
  2
DEFAULT_COORDINATE_SYSTEM
 70
0
 62
7
  6
CONTINUOUS
370
-3
390
F
  0
LAYER
  5
1FE
100
AcDbSymbolTableRecord
100
AcDbLayerTableRecord
  2
DEFAULT_DATUM_AXES
 70
0
 62
7
  6
CONTINUOUS
370
-3
390
F
  0
LAYER
  5
1FF
100
AcDbSymbolTableRecord
100
AcDbLayerTableRecord
  2
DEFAULT_DATUM_CURVES
 70
0
 62
7
  6
CONTINUOUS
370
-3
390
F
  0
LAYER
  5
200
100
AcDbSymbolTableRecord
100
AcDbLayerTableRecord
  2
DEFAULT_DATUM_PLANES
 70
0
 62
7
  6
CONTINUOUS
370
-3
390
F
  0
ENDTAB
  0
TABLE
  2
STYLE
  5
3
100
AcDbSymbolTable
 70
1
  0
STYLE
  5
11
100
AcDbSymbolTableRecord
100
AcDbTextStyleTableRecord
  2
STANDARD
 70
0
 40
0.0
 41
0.8
 50
0.0
 71
0
 42
0.2
  3
txt
  4

  0
STYLE
  5
201
100
AcDbSymbolTableRecord
100
AcDbTextStyleTableRecord
  2
TEXTSTYLE_1
 70
0
 40
0.0
 41
0.8
 50
0.0
 71
0
 42
0.2
  3
gdt
  4

  0
ENDTAB
  0
TABLE
  2
VIEW
  5
6
100
AcDbSymbolTable
 70
0
  0
ENDTAB
  0
TABLE
  2
UCS
  5
7
100
AcDbSymbolTable
 70
0
  0
ENDTAB
  0
TABLE
  2
APPID
  5
9
100
AcDbSymbolTable
 70
1
  0
APPID
  5
202
100
AcDbSymbolTableRecord
100
AcDbRegAppTableRecord
  2
ACAD
 70
0
  0
ENDTAB
  0
TABLE
  2
BLOCK_RECORD
  5
1
100
AcDbSymbolTable
 70
0
  0
BLOCK_RECORD
  5
203
100
AcDbSymbolTableRecord
100
AcDbBlockTableRecord
  2
*Model_Space
  0
BLOCK_RECORD
  5
204
100
AcDbSymbolTableRecord
100
AcDbBlockTableRecord
  2
*Paper_Space
  0
BLOCK_RECORD
  5
205
100
AcDbSymbolTableRecord
100
AcDbBlockTableRecord
  2
_FILLED
  0
ENDTAB
  0
TABLE
  2
DIMSTYLE
  5
A
100
AcDbSymbolTable
 70
1
100
AcDbDimStyleTable
 71
0
  0
DIMSTYLE
105
206
100
AcDbSymbolTableRecord
100
AcDbDimStyleTableRecord
  2
STANDARD
 70
0
  3

  4

 40
1.0
 41
0.1
 42
0.0625
 43
0.38
 44
0.125
 45
0.0
 46
0.0
 47
0.001
 48
0.001
140
0.08
141
0.09
142
0.0
143
25.4
144
1.0
145
0.0
146
1.0
147
0.09
 71
1
 72
0
 73
1
 74
1
 75
0
 76
0
 77
0
 78
4
 79
1
170
1
171
2
172
0
173
0
174
0
175
0
176
0
177
0
178
0
270
2
179
3
271
3
272
3
273
2
274
2
275
0
280
0
281
0
282
0
283
1
284
4
285
0
286
0
287
3
288
0
340
11
278
46
341
205
342
205
343
205
344
205
  0
ENDTAB
  0
ENDSEC
  0
SECTION
  2
BLOCKS
  0
BLOCK
  5
20
100
AcDbEntity
  8
0
100
AcDbBlockBegin
  2
*Model_Space
 70
0
 10
0.0
 20
0.0
 30
0.0
  3
*Model_Space
  1

  0
ENDBLK
  5
21
100
AcDbEntity
  8
0
100
AcDbBlockEnd
  0
BLOCK
  5
1C
100
AcDbEntity
  8
0
100
AcDbBlockBegin
  2
*Paper_Space
 70
0
 10
0.0
 20
0.0
 30
0.0
  3
*Paper_Space
  1

  0
ENDBLK
  5
1D
100
AcDbEntity
  8
0
100
AcDbBlockEnd
  0
BLOCK
  5
207
100
AcDbEntity
  8
0
100
AcDbBlockBegin
  2
_FILLED
 70
64
 10
0.0
 20
0.0
  3
_FILLED
  1

  0
SOLID
  5
208
100
AcDbEntity
  8
0
  6
BYBLOCK
 62
0
100
AcDbTrace
 10
0.0
 20
0.0
 11
-1.0
 21
0.2
 12
-1.0
 22
-0.2
 13
-1.0
 23
-0.2
  0
ENDBLK
  5
209
100
AcDbEntity
  8
0
  6
BYBLOCK
 62
0
100
AcDbBlockEnd
  0
ENDSEC
  0
SECTION
  2
ENTITIES
  0
MTEXT
  5
20A
100
AcDbEntity
  8
0
100
AcDbMText
 62
2
  6
CONTINUOUS
  7
STANDARD
 71
2
 72
1
 10
5.4405048077
 20
3.1065144677
 30
0.0
 11
1.0
 21
0.0
 31
0.0
 73
2
 44
0.9
  1
SCALE 0.200
 40
0.08
 41
0.704
  0
LINE
  5
20B
100
AcDbEntity
  8
0
100
AcDbLine
 62
7
  6
CONTINUOUS
 10
0.0
 20
0.0
 11
0.0
 21
8.5
  0
LINE
  5
20C
100
AcDbEntity
  8
0
100
AcDbLine
 62
7
  6
CONTINUOUS
 10
0.0
 20
0.0
 11
11.0
 21
0.0
  0
LINE
  5
20D
100
AcDbEntity
  8
0
100
AcDbLine
 62
7
  6
CONTINUOUS
 10
0.0
 20
8.5
 11
11.0
 21
8.5
  0
LINE
  5
20E
100
AcDbEntity
  8
0
100
AcDbLine
 62
7
  6
CONTINUOUS
 10
11.0
 20
0.0
 11
11.0
 21
8.5
  0
LINE
  5
20F
100
AcDbEntity
  8
0
100
AcDbLine
 62
7
  6
CONTINUOUS
 10
5.5565048077
 20
3.6714924897
 11
5.3245048077
 21
3.6714924897
  0
LINE
  5
210
100
AcDbEntity
  8
0
100
AcDbLine
 62
7
  6
CONTINUOUS
 10
5.5605048077
 20
3.6754924897
 11
5.3205048077
 21
3.6754924897
  0
LINE
  5
211
100
AcDbEntity
  8
0
100
AcDbLine
 62
7
  6
CONTINUOUS
 10
5.3933818371
 20
3.729385562
 11
5.3977765042
 21
3.7304655704
  0
LINE
  5
212
100
AcDbEntity
  8
0
100
AcDbLine
 62
7
  6
CONTINUOUS
 10
5.5220777881
 20
3.7592290586
 11
5.5265001633
 21
3.760189326
  0
LINE
  5
213
100
AcDbEntity
  8
0
100
AcDbLine
 62
7
  6
CONTINUOUS
 10
5.3845392238
 20
3.734082111
 11
5.3890138889
 21
3.7347580469
  0
LINE
  5
214
100
AcDbEntity
  8
0
100
AcDbLine
 62
7
  6
CONTINUOUS
 10
5.5154156584
 20
3.7520999066
 11
5.5199070291
 21
3.752654078
  0
LINE
  5
215
100
AcDbEntity
  8
0
100
AcDbLine
 62
7
  6
CONTINUOUS
 10
5.3761602895
 20
3.7395632461
 11
5.3806778796
 21
3.7398295092
  0
LINE
  5
216
100
AcDbEntity
  8
0
100
AcDbLine
 62
7
  6
CONTINUOUS
 10
5.5081328869
 20
3.7456060618
 11
5.5126560416
 21
3.7457495459
  0
LINE
  5
217
100
AcDbEntity
  8
0
100
AcDbLine
 62
7
  6
CONTINUOUS
 10
5.4580048077
 20
3.718780862
 11
5.4230048077
 21
3.718780862
  0
LINE
  5
218
100
AcDbEntity
  8
0
100
AcDbLine
 62
7
  6
CONTINUOUS
 10
5.4170048077
 20
3.724780862
 11
5.4640048077
 21
3.724780862
  0
LINE
  5
219
100
AcDbEntity
  8
0
100
AcDbLine
 62
7
  6
CONTINUOUS
 10
5.3683144542
 20
3.7457835556
 11
5.3728375408
 21
3.74563794
  0
LINE
  5
21A
100
AcDbEntity
  8
0
100
AcDbLine
 62
7
  6
CONTINUOUS
 10
5.5002898118
 20
3.7398013263
 11
5.5048072759
 21
3.7395329344
  0
LINE
  5
21B
100
AcDbEntity
  8
0
100
AcDbLine
 62
7
  6
CONTINUOUS
 10
5.3610667212
 20
3.7526915038
 11
5.3655578303
 21
3.752135216
  0
LINE
  5
21C
100
AcDbEntity
  8
0
100
AcDbLine
 62
7
  6
CONTINUOUS
 10
5.4919514136
 20
3.7347337928
 11
5.4964257596
 21
3.7340557484
  0
LINE
  5
21D
100
AcDbEntity
  8
0
100
AcDbLine
 62
7
  6
CONTINUOUS
 10
5.3544771386
 20
3.7602298579
 11
5.3588990609
 21
3.7592675067
  0
LINE
  5
21E
100
AcDbEntity
  8
0
100
AcDbLine
 62
7
  6
CONTINUOUS
 10
5.4831867765
 20
3.7304454461
 11
5.4875809341
 21
3.7293633669
  0
LINE
  5
21F
100
AcDbEntity
  8
0
100
AcDbLine
 62
7
  6
CONTINUOUS
 10
5.3486003015
 20
3.7683361621
 11
5.352916401
 21
3.7669757207
  0
LINE
  5
220
100
AcDbEntity
  8
0
100
AcDbLine
 62
7
  6
CONTINUOUS
 10
5.4740685162
 20
3.7269718155
 11
5.4783460795
 21
3.7254946666
  0
LINE
  5
221
100
AcDbEntity
  8
0
100
AcDbLine
 62
7
  6
CONTINUOUS
 10
5.3434848999
 20
3.7769432551
 11
5.3476594175
 21
3.7751959947
  0
LINE
  5
222
100
AcDbEntity
  8
0
100
AcDbLine
 62
7
  6
CONTINUOUS
 10
5.4646721781
 20
3.7243416802
 11
5.4687977072
 21
3.7224817
  0
LINE
  5
223
100
AcDbEntity
  8
0
100
AcDbLine
 62
7
  6
CONTINUOUS
 10
5.3391733153
 20
3.7859798263
 11
5.3431716649
 21
3.7838602233
  0
LINE
  5
224
100
AcDbEntity
  8
0
100
AcDbLine
 62
7
  6
CONTINUOUS
 10
5.3357012695
 20
3.7953710073
 11
5.3394903244
 21
3.7928966226
  0
LINE
  5
225
100
AcDbEntity
  8
0
100
AcDbLine
 62
7
  6
CONTINUOUS
 10
5.355835472
 20
3.8945281666
 11
5.3514616555
 21
3.8933665961
  0
LINE
  5
226
100
AcDbEntity
  8
0
100
AcDbLine
 62
7
  6
CONTINUOUS
 10
5.4921254374
 20
3.9259163888
 11
5.4876859646
 21
3.925038552
  0
LINE
  5
227
100
AcDbEntity
  8
0
100
AcDbLine
 62
7
  6
CONTINUOUS
 10
5.3621644927
 20
3.9019546245
 11
5.3577031756
 21
3.9011955685
  0
LINE
  5
228
100
AcDbEntity
  8
0
100
AcDbLine
 62
7
  6
CONTINUOUS
 10
5.5007439422
 20
3.9208202376
 11
5.4962430401
 21
3.9203497099
  0
LINE
  5
229
100
AcDbEntity
  8
0
100
AcDbLine
 62
7
  6
CONTINUOUS
 10
5.3691425687
 20
3.9087748324
 11
5.3646307132
 21
3.9084245798
  0
LINE
  5
22A
100
AcDbEntity
  8
0
100
AcDbLine
 62
7
  6
CONTINUOUS
 10
5.5088633614
 20
3.9149615334
 11
5.5043383202
 21
3.9149022133
  0
LINE
  5
22B
100
AcDbEntity
  8
0
100
AcDbLine
 62
7
  6
CONTINUOUS
 10
5.376711886
 20
3.9149322845
 11
5.3721868733
 21
3.9149937371
  0
LINE
  5
22C
100
AcDbEntity
  8
0
100
AcDbLine
 62
7
  6
CONTINUOUS
 10
5.5164164249
 20
3.9083888161
 11
5.511904735
 21
3.9087411949
  0
LINE
  5
22D
100
AcDbEntity
  8
0
100
AcDbLine
 62
7
  6
CONTINUOUS
 10
5.3848097323
 20
3.9203759658
 11
5.3803090524
 21
3.9208486144
  0
LINE
  5
22E
100
AcDbEntity
  8
0
100
AcDbLine
 62
7
  6
CONTINUOUS
 10
5.5233405552
 20
3.9011565411
 11
5.5188795963
 21
3.9019176994
  0
LINE
  5
22F
100
AcDbEntity
  8
0
100
AcDbLine
 62
7
  6
CONTINUOUS
 10
5.3933690164
 20
3.925060775
 11
5.3889299577
 21
3.9259407037
  0
LINE
  5
230
100
AcDbEntity
  8
0
100
AcDbLine
 62
7
  6
CONTINUOUS
 10
5.5295783853
 20
3.8933246283
 11
5.5252051167
 21
3.8944882598
  0
LINE
  5
231
100
AcDbEntity
  8
0
100
AcDbLine
 62
7
  6
CONTINUOUS
 10
5.4023188239
 20
3.928947898
 11
5.3979781644
 21
3.9302278166
  0
LINE
  5
232
100
AcDbEntity
  8
0
100
AcDbLine
 62
7
  6
CONTINUOUS
 10
5.5350782343
 20
3.8849579657
 11
5.5308288888
 21
3.8865144296
  0
LINE
  5
233
100
AcDbEntity
  8
0
100
AcDbLine
 62
7
  6
CONTINUOUS
 10
5.3330975287
 20
3.8050389914
 11
5.3366458963
 21
3.8022303255
  0
LINE
  5
234
100
AcDbEntity
  8
0
100
AcDbLine
 62
7
  6
CONTINUOUS
 10
5.331383665
 20
3.8149036786
 11
5.3346619468
 21
3.8117840015
  0
LINE
  5
235
100
AcDbEntity
  8
0
100
AcDbLine
 62
7
  6
CONTINUOUS
 10
5.4170048077
 20
3.998780862
 11
5.3305048077
 21
3.998780862
  0
LINE
  5
236
100
AcDbEntity
  8
0
100
AcDbLine
 62
7
  6
CONTINUOUS
 10
5.4640048077
 20
3.998780862
 11
5.5505048077
 21
3.998780862
  0
LINE
  5
237
100
AcDbEntity
  8
0
100
AcDbLine
 62
7
  6
CONTINUOUS
 10
5.3480048077
 20
4.006780862
 11
5.3205048077
 21
4.006780862
  0
LINE
  5
238
100
AcDbEntity
  8
0
100
AcDbLine
 62
7
  6
CONTINUOUS
 10
5.5330048077
 20
4.006780862
 11
5.5605048077
 21
4.006780862
  0
LINE
  5
239
100
AcDbEntity
  8
0
100
AcDbLine
 62
7
  6
CONTINUOUS
 10
5.5525048077
 20
4.010780862
 11
5.5330048077
 21
4.010780862
  0
LINE
  5
23A
100
AcDbEntity
  8
0
100
AcDbLine
 62
7
  6
CONTINUOUS
 10
5.3480048077
 20
4.010780862
 11
5.3285048077
 21
4.010780862
  0
LINE
  5
23B
100
AcDbEntity
  8
0
100
AcDbLine
 62
7
  6
CONTINUOUS
 10
5.4115850051
 20
3.9320051299
 11
5.4073787075
 21
3.9336744341
  0
LINE
  5
23C
100
AcDbEntity
  8
0
100
AcDbLine
 62
7
  6
CONTINUOUS
 10
5.5397945355
 20
3.8761258717
 11
5.5357043194
 21
3.8780622726
  0
LINE
  5
23D
100
AcDbEntity
  8
0
100
AcDbLine
 62
7
  6
CONTINUOUS
 10
5.5436882141
 20
3.8669015208
 11
5.5397910151
 21
3.8692018156
  0
LINE
  5
23E
100
AcDbEntity
  8
0
100
AcDbLine
 62
7
  6
CONTINUOUS
 10
5.3305738779
 20
3.8248833392
 11
5.3335549131
 21
3.8214784977
  0
LINE
  5
23F
100
AcDbEntity
  8
0
100
AcDbLine
 62
7
  6
CONTINUOUS
 10
5.4172123672
 20
3.7232378447
 11
5.4162882242
 21
3.7243530804
  0
LINE
  5
240
100
AcDbEntity
  8
0
100
AcDbLine
 62
7
  6
CONTINUOUS
 10
5.3480048077
 20
4.035780862
 11
5.4170048077
 21
4.035780862
  0
LINE
  5
241
100
AcDbEntity
  8
0
100
AcDbLine
 62
7
  6
CONTINUOUS
 10
5.4640048077
 20
4.035780862
 11
5.5330048077
 21
4.035780862
  0
LINE
  5
242
100
AcDbEntity
  8
0
100
AcDbLine
 62
7
  6
CONTINUOUS
 10
5.5259624251
 20
4.0686013748
 11
5.4640048077
 21
4.0686013748
  0
LINE
  5
243
100
AcDbEntity
  8
0
100
AcDbLine
 62
7
  6
CONTINUOUS
 10
5.4170048077
 20
4.0686013748
 11
5.3550471903
 21
4.0686013748
  0
LINE
  5
244
100
AcDbEntity
  8
0
100
AcDbLine
 62
7
  6
CONTINUOUS
 10
5.5241384847
 20
4.069780862
 11
5.4640048077
 21
4.069780862
  0
LINE
  5
245
100
AcDbEntity
  8
0
100
AcDbLine
 62
7
  6
CONTINUOUS
 10
5.4170048077
 20
4.069780862
 11
5.3568711307
 21
4.069780862
  0
LINE
  5
246
100
AcDbEntity
  8
0
100
AcDbLine
 62
7
  6
CONTINUOUS
 10
5.5605048077
 20
4.070780862
 11
5.5525048077
 21
4.070780862
  0
LINE
  5
247
100
AcDbEntity
  8
0
100
AcDbLine
 62
7
  6
CONTINUOUS
 10
5.3285048077
 20
4.070780862
 11
5.3205048077
 21
4.070780862
  0
LINE
  5
248
100
AcDbEntity
  8
0
100
AcDbLine
 62
7
  6
CONTINUOUS
 10
5.3672548077
 20
4.071380862
 11
5.4170048077
 21
4.071380862
  0
LINE
  5
249
100
AcDbEntity
  8
0
100
AcDbLine
 62
7
  6
CONTINUOUS
 10
5.4640048077
 20
4.071380862
 11
5.5137548077
 21
4.071380862
  0
LINE
  5
24A
100
AcDbEntity
  8
0
100
AcDbLine
 62
7
  6
CONTINUOUS
 10
5.5467270107
 20
3.8573613375
 11
5.5430551173
 21
3.860006468
  0
LINE
  5
24B
100
AcDbEntity
  8
0
100
AcDbLine
 62
7
  6
CONTINUOUS
 10
5.3306748766
 20
3.8348952911
 11
5.3333339671
 21
3.8312334946
  0
LINE
  5
24C
100
AcDbEntity
  8
0
100
AcDbLine
 62
7
  6
CONTINUOUS
 10
5.4068931265
 20
3.7269876433
 11
5.4094517957
 21
3.7232549862
  0
LINE
  5
24D
100
AcDbEntity
  8
0
100
AcDbLine
 62
7
  6
CONTINUOUS
 10
5.5488857486
 20
3.8475843629
 11
5.5454695827
 21
3.850552414
  0
LINE
  5
24E
100
AcDbEntity
  8
0
100
AcDbLine
 62
7
  6
CONTINUOUS
 10
5.5501465425
 20
3.8376515999
 11
5.5470144073
 21
3.8409179811
  0
LINE
  5
24F
100
AcDbEntity
  8
0
100
AcDbLine
 62
7
  6
CONTINUOUS
 10
5.3316858243
 20
3.8448565846
 11
5.3340009394
 21
3.8409681712
  0
LINE
  5
250
100
AcDbEntity
  8
0
100
AcDbLine
 62
7
  6
CONTINUOUS
 10
5.3977765042
 20
3.7304655704
 11
5.3999851706
 21
3.7265157212
  0
LINE
  5
251
100
AcDbEntity
  8
0
100
AcDbLine
 62
7
  6
CONTINUOUS
 10
5.3229043293
 20
4.9994814919
 11
5.3188913866
 21
4.9973776851
  0
LINE
  5
252
100
AcDbEntity
  8
0
100
AcDbLine
 62
7
  6
CONTINUOUS
 10
5.4738970761
 20
5.0730041298
 11
5.4697691283
 21
5.0711360398
  0
LINE
  5
253
100
AcDbEntity
  8
0
100
AcDbLine
 62
7
  6
CONTINUOUS
 10
5.327377685
 20
5.0082181186
 11
5.3232171378
 21
5.0064238055
  0
LINE
  5
254
100
AcDbEntity
  8
0
100
AcDbLine
 62
7
  6
CONTINUOUS
 10
5.4834980428
 20
5.0701117509
 11
5.4792406454
 21
5.0685611766
  0
LINE
  5
255
100
AcDbEntity
  8
0
100
AcDbLine
 62
7
  6
CONTINUOUS
 10
5.3324989182
 20
5.016591441
 11
5.3282145939
 21
5.0151168975
  0
LINE
  5
256
100
AcDbEntity
  8
0
100
AcDbLine
 62
7
  6
CONTINUOUS
 10
5.5504989466
 20
3.8276453422
 11
5.5476767921
 21
3.8311829912
  0
LINE
  5
257
100
AcDbEntity
  8
0
100
AcDbLine
 62
7
  6
CONTINUOUS
 10
5.4694732503
 20
3.9319914903
 11
5.466748206
 21
3.9356044738
  0
LINE
  5
258
100
AcDbEntity
  8
0
100
AcDbLine
 62
7
  6
CONTINUOUS
 10
5.3335983452
 20
3.8546846895
 11
5.3355503039
 21
3.850601875
  0
LINE
  5
259
100
AcDbEntity
  8
0
100
AcDbLine
 62
7
  6
CONTINUOUS
 10
5.3890138889
 20
3.7347580469
 11
5.3908542537
 21
3.7306237303
  0
LINE
  5
25A
100
AcDbEntity
  8
0
100
AcDbLine
 62
7
  6
CONTINUOUS
 10
5.3119434779
 20
4.9619277545
 11
5.3087403804
 21
4.9587230893
  0
LINE
  5
25B
100
AcDbEntity
  8
0
100
AcDbLine
 62
7
  6
CONTINUOUS
 10
5.3136083062
 20
4.9716008049
 11
5.3101720354
 21
4.968647543
  0
LINE
  5
25C
100
AcDbEntity
  8
0
100
AcDbLine
 62
7
  6
CONTINUOUS
 10
5.3159998691
 20
4.9811202578
 11
5.3123501045
 21
4.9784353125
  0
LINE
  5
25D
100
AcDbEntity
  8
0
100
AcDbLine
 62
7
  6
CONTINUOUS
 10
5.3191044701
 20
4.9904315954
 11
5.3152621139
 21
4.9880303434
  0
LINE
  5
25E
100
AcDbEntity
  8
0
100
AcDbLine
 62
7
  6
CONTINUOUS
 10
5.4640048077
 20
5.0751074237
 11
5.4641048723
 21
5.0751621756
  0
LINE
  5
25F
100
AcDbEntity
  8
0
100
AcDbLine
 62
7
  6
CONTINUOUS
 10
5.5499400413
 20
3.8176484924
 11
5.5474512492
 21
3.8214280996
  0
LINE
  5
260
100
AcDbEntity
  8
0
100
AcDbLine
 62
7
  6
CONTINUOUS
 10
5.4787379898
 20
3.9289298922
 11
5.4763527556
 21
3.9327756918
  0
LINE
  5
261
100
AcDbEntity
  8
0
100
AcDbLine
 62
7
  6
CONTINUOUS
 10
5.3363965939
 20
3.8642981793
 11
5.3379692242
 21
3.8600547902
  0
LINE
  5
262
100
AcDbEntity
  8
0
100
AcDbLine
 62
7
  6
CONTINUOUS
 10
5.3806778796
 20
3.7398295092
 11
5.3821346953
 21
3.7355449784
  0
LINE
  5
263
100
AcDbEntity
  8
0
100
AcDbLine
 62
7
  6
CONTINUOUS
 10
5.3949088939
 20
5.069188509
 11
5.3925802874
 21
5.0653016974
  0
LINE
  5
264
100
AcDbEntity
  8
0
100
AcDbLine
 62
7
  6
CONTINUOUS
 10
5.311383632
 20
4.9325434843
 11
5.3089842603
 21
4.9286999536
  0
LINE
  5
265
100
AcDbEntity
  8
0
100
AcDbLine
 62
7
  6
CONTINUOUS
 10
5.4044474954
 20
5.072280353
 11
5.4018316257
 21
5.0685807668
  0
LINE
  5
266
100
AcDbEntity
  8
0
100
AcDbLine
 62
7
  6
CONTINUOUS
 10
5.3108279465
 20
4.9423430134
 11
5.3081447874
 21
4.9386919355
  0
LINE
  5
267
100
AcDbEntity
  8
0
100
AcDbLine
 62
7
  6
CONTINUOUS
 10
5.4113044449
 20
5.0711508356
 11
5.4141925966
 21
5.0746420091
  0
LINE
  5
268
100
AcDbEntity
  8
0
100
AcDbLine
 62
7
  6
CONTINUOUS
 10
5.3110149188
 20
4.9521565041
 11
5.3080633386
 21
4.9487187886
  0
LINE
  5
269
100
AcDbEntity
  8
0
100
AcDbLine
 62
7
  6
CONTINUOUS
 10
5.548474457
 20
3.807743875
 11
5.5463396473
 21
3.8117341261
  0
LINE
  5
26A
100
AcDbEntity
  8
0
100
AcDbLine
 62
7
  6
CONTINUOUS
 10
5.4876859646
 20
3.925038552
 11
5.4856603024
 21
3.929085305
  0
LINE
  5
26B
100
AcDbEntity
  8
0
100
AcDbLine
 62
7
  6
CONTINUOUS
 10
5.3400573868
 20
3.8736174055
 11
5.3412376593
 21
3.8692485986
  0
LINE
  5
26C
100
AcDbEntity
  8
0
100
AcDbLine
 62
7
  6
CONTINUOUS
 10
5.3728375408
 20
3.74563794
 11
5.3738987375
 21
3.7412386926
  0
LINE
  5
26D
100
AcDbEntity
  8
0
100
AcDbLine
 62
7
  6
CONTINUOUS
 10
5.368070581
 20
5.0557291959
 11
5.3666768265
 21
5.0514179129
  0
LINE
  5
26E
100
AcDbEntity
  8
0
100
AcDbLine
 62
7
  6
CONTINUOUS
 10
5.3174536782
 20
4.903787558
 11
5.3159812312
 21
4.8995025128
  0
LINE
  5
26F
100
AcDbEntity
  8
0
100
AcDbLine
 62
7
  6
CONTINUOUS
 10
5.3766682046
 20
5.0608891653
 11
5.3749524105
 21
5.0566956271
  0
LINE
  5
270
100
AcDbEntity
  8
0
100
AcDbLine
 62
7
  6
CONTINUOUS
 10
5.3147060114
 20
4.9132103965
 11
5.3129137342
 21
4.9090489718
  0
LINE
  5
271
100
AcDbEntity
  8
0
100
AcDbLine
 62
7
  6
CONTINUOUS
 10
5.3856314197
 20
5.065384184
 11
5.3836034122
 21
5.0613324068
  0
LINE
  5
272
100
AcDbEntity
  8
0
100
AcDbLine
 62
7
  6
CONTINUOUS
 10
5.3126787927
 20
4.9228140386
 11
5.3105769497
 21
4.9188000669
  0
LINE
  5
273
100
AcDbEntity
  8
0
100
AcDbLine
 62
7
  6
CONTINUOUS
 10
5.4023167934
 20
4.8179032612
 11
5.4065120376
 21
4.8196148801
  0
LINE
  5
274
100
AcDbEntity
  8
0
100
AcDbLine
 62
7
  6
CONTINUOUS
 10
5.5511334209
 20
4.8770804826
 11
5.5553592964
 21
4.8787150129
  0
LINE
  5
275
100
AcDbEntity
  8
0
100
AcDbLine
 62
7
  6
CONTINUOUS
 10
5.3928313222
 20
4.8211544538
 11
5.3971439905
 21
4.822543916
  0
LINE
  5
276
100
AcDbEntity
  8
0
100
AcDbLine
 62
7
  6
CONTINUOUS
 10
5.5456969535
 20
4.8689083116
 11
5.5500343358
 21
4.8702185894
  0
LINE
  5
277
100
AcDbEntity
  8
0
100
AcDbLine
 62
7
  6
CONTINUOUS
 10
5.4170048077
 20
4.412780862
 11
5.4640048077
 21
4.412780862
  0
LINE
  5
278
100
AcDbEntity
  8
0
100
AcDbLine
 62
7
  6
CONTINUOUS
 10
5.4230048077
 20
4.418780862
 11
5.4580048077
 21
4.418780862
  0
LINE
  5
279
100
AcDbEntity
  8
0
100
AcDbLine
 62
7
  6
CONTINUOUS
 10
5.5461143364
 20
3.7980135506
 11
5.5443511959
 21
3.8021813861
  0
LINE
  5
27A
100
AcDbEntity
  8
0
100
AcDbLine
 62
7
  6
CONTINUOUS
 10
5.4962430401
 20
3.9203497099
 11
5.4945937327
 21
3.9245638886
  0
LINE
  5
27B
100
AcDbEntity
  8
0
100
AcDbLine
 62
7
  6
CONTINUOUS
 10
5.3445503939
 20
3.8825651577
 11
5.3453285299
 21
3.8781071289
  0
LINE
  5
27C
100
AcDbEntity
  8
0
100
AcDbLine
 62
7
  6
CONTINUOUS
 10
5.3655578303
 20
3.752135216
 11
5.3662146159
 21
3.7476577
  0
LINE
  5
27D
100
AcDbEntity
  8
0
100
AcDbLine
 62
7
  6
CONTINUOUS
 10
5.3498383903
 20
3.8910673031
 11
5.3502079429
 21
3.8865569874
  0
LINE
  5
27E
100
AcDbEntity
  8
0
100
AcDbLine
 62
7
  6
CONTINUOUS
 10
5.3588990609
 20
3.7592675067
 11
5.3591459939
 21
3.7547488188
  0
LINE
  5
27F
100
AcDbEntity
  8
0
100
AcDbLine
 62
7
  6
CONTINUOUS
 10
5.3449514962
 20
5.0365730984
 11
5.344564158
 21
5.0320587123
  0
LINE
  5
280
100
AcDbEntity
  8
0
100
AcDbLine
 62
7
  6
CONTINUOUS
 10
5.3298419424
 20
4.8771364855
 11
5.3293720247
 21
4.8726299469
  0
LINE
  5
281
100
AcDbEntity
  8
0
100
AcDbLine
 62
7
  6
CONTINUOUS
 10
5.3521666861
 20
5.043536248
 11
5.351439067
 21
5.0390640804
  0
LINE
  5
282
100
AcDbEntity
  8
0
100
AcDbLine
 62
7
  6
CONTINUOUS
 10
5.3250433767
 20
4.8856988055
 11
5.3242340082
 21
4.8812407078
  0
LINE
  5
283
100
AcDbEntity
  8
0
100
AcDbLine
 62
7
  6
CONTINUOUS
 10
5.3598877872
 20
5.0499338268
 11
5.3588240545
 21
5.0455294897
  0
LINE
  5
284
100
AcDbEntity
  8
0
100
AcDbLine
 62
7
  6
CONTINUOUS
 10
5.3209060572
 20
4.8945994877
 11
5.3197618731
 21
4.8902153623
  0
LINE
  5
285
100
AcDbEntity
  8
0
100
AcDbLine
 62
7
  6
CONTINUOUS
 10
5.5683196879
 20
4.9227493428
 11
5.5716425307
 21
4.925829672
  0
LINE
  5
286
100
AcDbEntity
  8
0
100
AcDbLine
 62
7
  6
CONTINUOUS
 10
5.5662876086
 20
4.913146728
 11
5.5698338792
 21
4.9159669545
  0
LINE
  5
287
100
AcDbEntity
  8
0
100
AcDbLine
 62
7
  6
CONTINUOUS
 10
5.5635351728
 20
4.9037252815
 11
5.5672845618
 21
4.9062692539
  0
LINE
  5
288
100
AcDbEntity
  8
0
100
AcDbLine
 62
7
  6
CONTINUOUS
 10
5.5600781438
 20
4.8945389598
 11
5.5640091783
 21
4.8967921087
  0
LINE
  5
289
100
AcDbEntity
  8
0
100
AcDbLine
 62
7
  6
CONTINUOUS
 10
5.4120209669
 20
4.815378695
 11
5.4160747608
 21
4.8174026682
  0
LINE
  5
28A
100
AcDbEntity
  8
0
100
AcDbLine
 62
7
  6
CONTINUOUS
 10
5.5559363197
 20
4.8856403728
 11
5.5600264869
 21
4.8875897945
  0
LINE
  5
28B
100
AcDbEntity
  8
0
100
AcDbLine
 62
7
  6
CONTINUOUS
 10
5.5428792331
 20
3.7885381357
 11
5.5415023697
 21
3.7928490246
  0
LINE
  5
28C
100
AcDbEntity
  8
0
100
AcDbLine
 62
7
  6
CONTINUOUS
 10
5.5043383202
 20
3.9149022133
 11
5.5030790322
 21
3.9192489028
  0
LINE
  5
28D
100
AcDbEntity
  8
0
100
AcDbLine
 62
7
  6
CONTINUOUS
 10
5.3322010016
 20
5.0211126088
 11
5.3324989182
 21
5.016591441
  0
LINE
  5
28E
100
AcDbEntity
  8
0
100
AcDbLine
 62
7
  6
CONTINUOUS
 10
5.3413092572
 20
4.8612208584
 11
5.3415243554
 21
4.8566949944
  0
LINE
  5
28F
100
AcDbEntity
  8
0
100
AcDbLine
 62
7
  6
CONTINUOUS
 10
5.3205048077
 20
3.6754924897
 11
5.3205048077
 21
4.006780862
  0
LINE
  5
290
100
AcDbEntity
  8
0
100
AcDbLine
 62
7
  6
CONTINUOUS
 10
5.3205048077
 20
4.070780862
 11
5.3205048077
 21
4.578780862
  0
LINE
  5
291
100
AcDbEntity
  8
0
100
AcDbLine
 62
7
  6
CONTINUOUS
 10
5.3205048077
 20
4.642780862
 11
5.3205048077
 21
4.8886003493
  0
LINE
  5
292
100
AcDbEntity
  8
0
100
AcDbLine
 62
7
  6
CONTINUOUS
 10
5.3285048077
 20
4.642780862
 11
5.3285048077
 21
4.582780862
  0
LINE
  5
293
100
AcDbEntity
  8
0
100
AcDbLine
 62
7
  6
CONTINUOUS
 10
5.3285048077
 20
4.070780862
 11
5.3285048077
 21
4.010780862
  0
LINE
  5
294
100
AcDbEntity
  8
0
100
AcDbLine
 62
7
  6
CONTINUOUS
 10
5.3305048077
 20
3.998780862
 11
5.3305048077
 21
3.8287861829
  0
LINE
  5
295
100
AcDbEntity
  8
0
100
AcDbLine
 62
7
  6
CONTINUOUS
 10
5.3480048077
 20
4.035780862
 11
5.3480048077
 21
3.998780862
  0
LINE
  5
296
100
AcDbEntity
  8
0
100
AcDbLine
 62
7
  6
CONTINUOUS
 10
5.3672548077
 20
4.071380862
 11
5.3672548077
 21
4.069780862
  0
LINE
  5
297
100
AcDbEntity
  8
0
100
AcDbLine
 62
7
  6
CONTINUOUS
 10
5.3558775645
 20
3.8990534008
 11
5.355835472
 21
3.8945281666
  0
LINE
  5
298
100
AcDbEntity
  8
0
100
AcDbLine
 62
7
  6
CONTINUOUS
 10
5.338283539
 20
5.0290842558
 11
5.3382386997
 21
5.0245535051
  0
LINE
  5
299
100
AcDbEntity
  8
0
100
AcDbLine
 62
7
  6
CONTINUOUS
 10
5.3352742728
 20
4.8689615639
 11
5.3351464972
 21
4.8644323933
  0
LINE
  5
29A
100
AcDbEntity
  8
0
100
AcDbLine
 62
7
  6
CONTINUOUS
 10
5.3306991807
 20
3.8348618223
 11
5.3307002246
 21
3.8348944809
  0
LINE
  5
29B
100
AcDbEntity
  8
0
100
AcDbLine
 62
7
  6
CONTINUOUS
 10
5.330723391
 20
3.8356192398
 11
5.3307292309
 21
3.835801941
  0
LINE
  5
29C
100
AcDbEntity
  8
0
100
AcDbLine
 62
7
  6
CONTINUOUS
 10
5.3306254023
 20
3.8348636023
 11
5.3306266993
 21
3.8348962637
  0
LINE
  5
29D
100
AcDbEntity
  8
0
100
AcDbLine
 62
7
  6
CONTINUOUS
 10
5.3306572712
 20
3.8356210213
 11
5.3306655184
 21
3.835803701
  0
LINE
  5
29E
100
AcDbEntity
  8
0
100
AcDbLine
 62
7
  6
CONTINUOUS
 10
5.5690747998
 20
4.9618626815
 11
5.5713280149
 21
4.9657936781
  0
LINE
  5
29F
100
AcDbEntity
  8
0
100
AcDbLine
 62
7
  6
CONTINUOUS
 10
5.4813287793
 20
4.8187266937
 11
5.4838037496
 21
4.8225219847
  0
LINE
  5
2A0
100
AcDbEntity
  8
0
100
AcDbLine
 62
7
  6
CONTINUOUS
 10
5.5699984132
 20
4.9520909624
 11
5.5725424487
 21
4.9558403085
  0
LINE
  5
2A1
100
AcDbEntity
  8
0
100
AcDbLine
 62
7
  6
CONTINUOUS
 10
5.4716793279
 20
4.8160004314
 11
5.4744342213
 21
4.8195976909
  0
LINE
  5
2A2
100
AcDbEntity
  8
0
100
AcDbLine
 62
7
  6
CONTINUOUS
 10
5.5701804184
 20
4.9422773784
 11
5.5730007046
 21
4.9458236015
  0
LINE
  5
2A3
100
AcDbEntity
  8
0
100
AcDbLine
 62
7
  6
CONTINUOUS
 10
5.4648703796
 20
4.8173903194
 11
5.4637739297
 21
4.8161632752
  0
LINE
  5
2A4
100
AcDbEntity
  8
0
100
AcDbLine
 62
7
  6
CONTINUOUS
 10
5.569619773
 20
4.9324781318
 11
5.5727001582
 21
4.9358009228
  0
LINE
  5
2A5
100
AcDbEntity
  8
0
100
AcDbLine
 62
7
  6
CONTINUOUS
 10
5.3205048077
 20
4.554780862
 11
5.5605048077
 21
4.554780862
  0
LINE
  5
2A6
100
AcDbEntity
  8
0
100
AcDbLine
 62
7
  6
CONTINUOUS
 10
5.5565048077
 20
4.558780862
 11
5.3245048077
 21
4.558780862
  0
LINE
  5
2A7
100
AcDbEntity
  8
0
100
AcDbLine
 62
7
  6
CONTINUOUS
 10
5.5387959503
 20
3.7793961346
 11
5.5378167713
 21
3.7838143611
  0
LINE
  5
2A8
100
AcDbEntity
  8
0
100
AcDbLine
 62
7
  6
CONTINUOUS
 10
5.511904735
 20
3.9087411949
 11
5.5110458998
 21
3.9131843828
  0
LINE
  5
2A9
100
AcDbEntity
  8
0
100
AcDbLine
 62
7
  6
CONTINUOUS
 10
5.3479123332
 20
4.8539587001
 11
5.3484690734
 21
4.8494620621
  0
LINE
  5
2AA
100
AcDbEntity
  8
0
100
AcDbLine
 62
7
  6
CONTINUOUS
 10
5.5188795963
 20
3.9019176994
 11
5.5184283292
 21
3.9064205734
  0
LINE
  5
2AB
100
AcDbEntity
  8
0
100
AcDbLine
 62
7
  6
CONTINUOUS
 10
5.4080048077
 20
5.0670346962
 11
5.4080048077
 21
4.8225270277
  0
LINE
  5
2AC
100
AcDbEntity
  8
0
100
AcDbLine
 62
7
  6
CONTINUOUS
 10
5.4080048077
 20
3.9275723089
 11
5.4080048077
 21
3.729989415
  0
LINE
  5
2AD
100
AcDbEntity
  8
0
100
AcDbLine
 62
7
  6
CONTINUOUS
 10
5.4140048077
 20
5.0744150115
 11
5.4140048077
 21
4.8163691846
  0
LINE
  5
2AE
100
AcDbEntity
  8
0
100
AcDbLine
 62
7
  6
CONTINUOUS
 10
5.4140048077
 20
3.9352102676
 11
5.4140048077
 21
3.7233249046
  0
LINE
  5
2AF
100
AcDbEntity
  8
0
100
AcDbLine
 62
7
  6
CONTINUOUS
 10
5.4170048077
 20
5.564780862
 11
5.4170048077
 21
4.817780862
  0
LINE
  5
2B0
100
AcDbEntity
  8
0
100
AcDbLine
 62
7
  6
CONTINUOUS
 10
5.4170048077
 20
4.412780862
 11
5.4170048077
 21
3.724780862
  0
LINE
  5
2B1
100
AcDbEntity
  8
0
100
AcDbLine
 62
7
  6
CONTINUOUS
 10
5.4230048077
 20
5.570780862
 11
5.4230048077
 21
4.811780862
  0
LINE
  5
2B2
100
AcDbEntity
  8
0
100
AcDbLine
 62
7
  6
CONTINUOUS
 10
5.4230048077
 20
4.418780862
 11
5.4230048077
 21
3.718780862
  0
LINE
  5
2B3
100
AcDbEntity
  8
0
100
AcDbLine
 62
7
  6
CONTINUOUS
 10
5.352916401
 20
3.7669757207
 11
5.3527514356
 21
3.7624532984
  0
LINE
  5
2B4
100
AcDbEntity
  8
0
100
AcDbLine
 62
7
  6
CONTINUOUS
 10
5.3626178817
 20
3.9064572854
 11
5.3621644927
 21
3.9019546245
  0
LINE
  5
2B5
100
AcDbEntity
  8
0
100
AcDbLine
 62
7
  6
CONTINUOUS
 10
5.5086602976
 20
4.8311539321
 11
5.5102172631
 21
4.8354089963
  0
LINE
  5
2B6
100
AcDbEntity
  8
0
100
AcDbLine
 62
7
  6
CONTINUOUS
 10
5.5650281234
 20
4.9810572355
 11
5.5666627248
 21
4.9852830835
  0
LINE
  5
2B7
100
AcDbEntity
  8
0
100
AcDbLine
 62
7
  6
CONTINUOUS
 10
5.4998723636
 20
4.8263252023
 11
5.5017466499
 21
4.8304503403
  0
LINE
  5
2B8
100
AcDbEntity
  8
0
100
AcDbLine
 62
7
  6
CONTINUOUS
 10
5.5674148677
 20
4.9715365733
 11
5.5693643584
 21
4.9756267077
  0
LINE
  5
2B9
100
AcDbEntity
  8
0
100
AcDbLine
 62
7
  6
CONTINUOUS
 10
5.4907444322
 20
4.8221748665
 11
5.4929253055
 21
4.8261464536
  0
LINE
  5
2BA
100
AcDbEntity
  8
0
100
AcDbLine
 62
7
  6
CONTINUOUS
 10
5.3205048077
 20
4.578780862
 11
5.5605048077
 21
4.578780862
  0
LINE
  5
2BB
100
AcDbEntity
  8
0
100
AcDbLine
 62
7
  6
CONTINUOUS
 10
5.5525048077
 20
4.582780862
 11
5.3285048077
 21
4.582780862
  0
LINE
  5
2BC
100
AcDbEntity
  8
0
100
AcDbLine
 62
7
  6
CONTINUOUS
 10
5.3707370032
 20
4.8354442949
 11
5.3722918147
 21
4.8311884432
  0
LINE
  5
2BD
100
AcDbEntity
  8
0
100
AcDbLine
 62
7
  6
CONTINUOUS
 10
5.3177963148
 20
4.9947696183
 11
5.3191044701
 21
4.9904315954
  0
LINE
  5
2BE
100
AcDbEntity
  8
0
100
AcDbLine
 62
7
  6
CONTINUOUS
 10
5.3626684602
 20
4.8410334068
 11
5.3638969807
 21
4.8366721627
  0
LINE
  5
2BF
100
AcDbEntity
  8
0
100
AcDbLine
 62
7
  6
CONTINUOUS
 10
5.3219279727
 20
5.0039060191
 11
5.3229043293
 21
4.9994814919
  0
LINE
  5
2C0
100
AcDbEntity
  8
0
100
AcDbLine
 62
7
  6
CONTINUOUS
 10
5.355045685
 20
4.847216679
 11
5.3559408788
 21
4.8427750193
  0
LINE
  5
2C1
100
AcDbEntity
  8
0
100
AcDbLine
 62
7
  6
CONTINUOUS
 10
5.3267387187
 20
5.0127038109
 11
5.327377685
 21
5.0082181186
  0
LINE
  5
2C2
100
AcDbEntity
  8
0
100
AcDbLine
 62
7
  6
CONTINUOUS
 10
5.5338983181
 20
3.7706632896
 11
5.5333249363
 21
3.7751522483
  0
LINE
  5
2C3
100
AcDbEntity
  8
0
100
AcDbLine
 62
7
  6
CONTINUOUS
 10
5.5503440968
 20
3.8358035301
 11
5.5503523659
 21
3.8356203398
  0
LINE
  5
2C4
100
AcDbEntity
  8
0
100
AcDbLine
 62
7
  6
CONTINUOUS
 10
5.5282269139
 20
3.762411953
 11
5.5280640796
 21
3.7669344525
  0
LINE
  5
2C5
100
AcDbEntity
  8
0
100
AcDbLine
 62
7
  6
CONTINUOUS
 10
5.4580048077
 20
3.718780862
 11
5.4580048077
 21
4.418780862
  0
LINE
  5
2C6
100
AcDbEntity
  8
0
100
AcDbLine
 62
7
  6
CONTINUOUS
 10
5.4580048077
 20
4.811780862
 11
5.4580048077
 21
5.570780862
  0
LINE
  5
2C7
100
AcDbEntity
  8
0
100
AcDbLine
 62
7
  6
CONTINUOUS
 10
5.4640048077
 20
3.724780862
 11
5.4640048077
 21
4.412780862
  0
LINE
  5
2C8
100
AcDbEntity
  8
0
100
AcDbLine
 62
7
  6
CONTINUOUS
 10
5.4640048077
 20
4.817780862
 11
5.4640048077
 21
5.564780862
  0
LINE
  5
2C9
100
AcDbEntity
  8
0
100
AcDbLine
 62
7
  6
CONTINUOUS
 10
5.4670048077
 20
3.7232900224
 11
5.4670048077
 21
3.93526426
  0
LINE
  5
2CA
100
AcDbEntity
  8
0
100
AcDbLine
 62
7
  6
CONTINUOUS
 10
5.4670048077
 20
4.8163232948
 11
5.4670048077
 21
5.074480973
  0
LINE
  5
2CB
100
AcDbEntity
  8
0
100
AcDbLine
 62
7
  6
CONTINUOUS
 10
5.4730048077
 20
3.729989415
 11
5.4730048077
 21
3.9275723089
  0
LINE
  5
2CC
100
AcDbEntity
  8
0
100
AcDbLine
 62
7
  6
CONTINUOUS
 10
5.4730048077
 20
4.8225270277
 11
5.4730048077
 21
5.0670346962
  0
LINE
  5
2CD
100
AcDbEntity
  8
0
100
AcDbLine
 62
7
  6
CONTINUOUS
 10
5.5137548077
 20
4.071380862
 11
5.5137548077
 21
4.069780862
  0
LINE
  5
2CE
100
AcDbEntity
  8
0
100
AcDbLine
 62
7
  6
CONTINUOUS
 10
5.5324922851
 20
4.8494154908
 11
5.5330513011
 21
4.8539118464
  0
LINE
  5
2CF
100
AcDbEntity
  8
0
100
AcDbLine
 62
7
  6
CONTINUOUS
 10
5.3476594175
 20
3.7751959947
 11
5.3470839204
 21
3.7707073067
  0
LINE
  5
2D0
100
AcDbEntity
  8
0
100
AcDbLine
 62
7
  6
CONTINUOUS
 10
5.5536640244
 20
5.0081608517
 11
5.554305261
 21
5.01264622
  0
LINE
  5
2D1
100
AcDbEntity
  8
0
100
AcDbLine
 62
7
  6
CONTINUOUS
 10
5.3700034977
 20
3.9132176151
 11
5.3691425687
 21
3.9087748324
  0
LINE
  5
2D2
100
AcDbEntity
  8
0
100
AcDbLine
 62
7
  6
CONTINUOUS
 10
5.525017096
 20
4.8427322308
 11
5.5259145377
 21
4.8471734368
  0
LINE
  5
2D3
100
AcDbEntity
  8
0
100
AcDbLine
 62
7
  6
CONTINUOUS
 10
5.5581329575
 20
4.999421962
 11
5.5591115534
 21
5.0038459944
  0
LINE
  5
2D4
100
AcDbEntity
  8
0
100
AcDbLine
 62
7
  6
CONTINUOUS
 10
5.5170579061
 20
4.8366334019
 11
5.5182886339
 21
4.8409940236
  0
LINE
  5
2D5
100
AcDbEntity
  8
0
100
AcDbLine
 62
7
  6
CONTINUOUS
 10
5.5619282356
 20
4.9903701434
 11
5.5632385865
 21
4.9947075035
  0
LINE
  5
2D6
100
AcDbEntity
  8
0
100
AcDbLine
 62
7
  6
CONTINUOUS
 10
5.5605048077
 20
4.642780862
 11
5.5525048077
 21
4.642780862
  0
LINE
  5
2D7
100
AcDbEntity
  8
0
100
AcDbLine
 62
7
  6
CONTINUOUS
 10
5.3285048077
 20
4.642780862
 11
5.3205048077
 21
4.642780862
  0
LINE
  5
2D8
100
AcDbEntity
  8
0
100
AcDbLine
 62
7
  6
CONTINUOUS
 10
5.3971439905
 20
4.822543916
 11
5.3996170396
 21
4.8187473727
  0
LINE
  5
2D9
100
AcDbEntity
  8
0
100
AcDbLine
 62
7
  6
CONTINUOUS
 10
5.3096922527
 20
4.965859891
 11
5.3119434779
 21
4.9619277545
  0
LINE
  5
2DA
100
AcDbEntity
  8
0
100
AcDbLine
 62
7
  6
CONTINUOUS
 10
5.3880242703
 20
4.8261730012
 11
5.3902031331
 21
4.8222003107
  0
LINE
  5
2DB
100
AcDbEntity
  8
0
100
AcDbLine
 62
7
  6
CONTINUOUS
 10
5.311660886
 20
4.9756919254
 11
5.3136083062
 21
4.9716008049
  0
LINE
  5
2DC
100
AcDbEntity
  8
0
100
AcDbLine
 62
7
  6
CONTINUOUS
 10
5.3792051054
 20
4.8304813522
 11
5.3810773036
 21
4.8263552661
  0
LINE
  5
2DD
100
AcDbEntity
  8
0
100
AcDbLine
 62
7
  6
CONTINUOUS
 10
5.3143674067
 20
4.9853469325
 11
5.3159998691
 21
4.9811202578
  0
LINE
  5
2DE
100
AcDbEntity
  8
0
100
AcDbLine
 62
7
  6
CONTINUOUS
 10
5.5516010576
 20
4.8725737068
 11
5.5511334209
 21
4.8770804826
  0
LINE
  5
2DF
100
AcDbEntity
  8
0
100
AcDbLine
 62
7
  6
CONTINUOUS
 10
5.5364896204
 20
5.0320101412
 11
5.5361045671
 21
5.0365247227
  0
LINE
  5
2E0
100
AcDbEntity
  8
0
100
AcDbLine
 62
7
  6
CONTINUOUS
 10
5.550384959
 20
3.8348444654
 11
5.5503863025
 21
3.8348103341
  0
LINE
  5
2E1
100
AcDbEntity
  8
0
100
AcDbLine
 62
7
  6
CONTINUOUS
 10
5.5502804285
 20
3.8358017701
 11
5.5502862864
 21
3.835618558
  0
LINE
  5
2E2
100
AcDbEntity
  8
0
100
AcDbLine
 62
7
  6
CONTINUOUS
 10
5.5503110932
 20
3.8348426866
 11
5.5503121844
 21
3.8348085586
  0
LINE
  5
2E3
100
AcDbEntity
  8
0
100
AcDbLine
 62
7
  6
CONTINUOUS
 10
5.5458224367
 20
4.864379077
 11
5.5456969535
 21
4.8689083116
  0
LINE
  5
2E4
100
AcDbEntity
  8
0
100
AcDbLine
 62
7
  6
CONTINUOUS
 10
5.5428112791
 20
5.0245017333
 11
5.5427687331
 21
5.0290325062
  0
LINE
  5
2E5
100
AcDbEntity
  8
0
100
AcDbLine
 62
7
  6
CONTINUOUS
 10
5.5252051167
 20
3.8944882598
 11
5.5251651566
 21
3.8990135133
  0
LINE
  5
2E6
100
AcDbEntity
  8
0
100
AcDbLine
 62
7
  6
CONTINUOUS
 10
5.5330048077
 20
4.035780862
 11
5.5330048077
 21
3.998780862
  0
LINE
  5
2E7
100
AcDbEntity
  8
0
100
AcDbLine
 62
7
  6
CONTINUOUS
 10
5.5505048077
 20
3.998780862
 11
5.5505048077
 21
3.8287861885
  0
LINE
  5
2E8
100
AcDbEntity
  8
0
100
AcDbLine
 62
7
  6
CONTINUOUS
 10
5.5525048077
 20
4.642780862
 11
5.5525048077
 21
4.582780862
  0
LINE
  5
2E9
100
AcDbEntity
  8
0
100
AcDbLine
 62
7
  6
CONTINUOUS
 10
5.5525048077
 20
4.070780862
 11
5.5525048077
 21
4.010780862
  0
LINE
  5
2EA
100
AcDbEntity
  8
0
100
AcDbLine
 62
7
  6
CONTINUOUS
 10
5.5605048077
 20
3.6754924897
 11
5.5605048077
 21
4.006780862
  0
LINE
  5
2EB
100
AcDbEntity
  8
0
100
AcDbLine
 62
7
  6
CONTINUOUS
 10
5.5605048077
 20
4.070780862
 11
5.5605048077
 21
4.578780862
  0
LINE
  5
2EC
100
AcDbEntity
  8
0
100
AcDbLine
 62
7
  6
CONTINUOUS
 10
5.5605048077
 20
4.642780862
 11
5.5605048077
 21
4.8886003493
  0
LINE
  5
2ED
100
AcDbEntity
  8
0
100
AcDbLine
 62
7
  6
CONTINUOUS
 10
5.539440663
 20
4.8566449072
 11
5.539658052
 21
4.8611706618
  0
LINE
  5
2EE
100
AcDbEntity
  8
0
100
AcDbLine
 62
7
  6
CONTINUOUS
 10
5.5218287257
 20
3.7547104876
 11
5.5220777881
 21
3.7592290586
  0
LINE
  5
2EF
100
AcDbEntity
  8
0
100
AcDbLine
 62
7
  6
CONTINUOUS
 10
5.54854703
 20
5.0165367651
 11
5.5488472349
 21
5.0210577816
  0
LINE
  5
2F0
100
AcDbEntity
  8
0
100
AcDbLine
 62
7
  6
CONTINUOUS
 10
5.3431716649
 20
3.7838602233
 11
5.342190404
 21
3.7794424587
  0
LINE
  5
2F1
100
AcDbEntity
  8
0
100
AcDbLine
 62
7
  6
CONTINUOUS
 10
5.3779732222
 20
3.9192783802
 11
5.376711886
 21
3.9149322845
  0
LINE
  5
2F2
100
AcDbEntity
  8
0
100
AcDbLine
 62
7
  6
CONTINUOUS
 10
5.3093575094
 20
4.9258960492
 11
5.3126787927
 21
4.9228140386
  0
LINE
  5
2F3
100
AcDbEntity
  8
0
100
AcDbLine
 62
7
  6
CONTINUOUS
 10
5.308304929
 20
4.935867834
 11
5.311383632
 21
4.9325434843
  0
LINE
  5
2F4
100
AcDbEntity
  8
0
100
AcDbLine
 62
7
  6
CONTINUOUS
 10
5.417265102
 20
4.8160691918
 11
5.4160747608
 21
4.8174026682
  0
LINE
  5
2F5
100
AcDbEntity
  8
0
100
AcDbLine
 62
7
  6
CONTINUOUS
 10
5.3080094555
 20
4.9458906636
 11
5.3108279465
 21
4.9423430134
  0
LINE
  5
2F6
100
AcDbEntity
  8
0
100
AcDbLine
 62
7
  6
CONTINUOUS
 10
5.4065120376
 20
4.8196148801
 11
5.4092651098
 21
4.8160162268
  0
LINE
  5
2F7
100
AcDbEntity
  8
0
100
AcDbLine
 62
7
  6
CONTINUOUS
 10
5.3084727813
 20
4.9559071373
 11
5.3110149188
 21
4.9521565041
  0
LINE
  5
2F8
100
AcDbEntity
  8
0
100
AcDbLine
 62
7
  6
CONTINUOUS
 10
5.5308288888
 20
3.8865144296
 11
5.5312005669
 21
3.8910245706
  0
LINE
  5
2F9
100
AcDbEntity
  8
0
100
AcDbLine
 62
7
  6
CONTINUOUS
 10
5.5147567629
 20
3.7476227006
 11
5.5154156584
 21
3.7520999066
  0
LINE
  5
2FA
100
AcDbEntity
  8
0
100
AcDbLine
 62
7
  6
CONTINUOUS
 10
5.3394903244
 20
3.7928966226
 11
5.3381114297
 21
3.7885863829
  0
LINE
  5
2FB
100
AcDbEntity
  8
0
100
AcDbLine
 62
7
  6
CONTINUOUS
 10
5.3864610254
 20
3.9245893668
 11
5.3848097323
 21
3.9203759658
  0
LINE
  5
2FC
100
AcDbEntity
  8
0
100
AcDbLine
 62
7
  6
CONTINUOUS
 10
5.4580048077
 20
4.811780862
 11
5.4230048077
 21
4.811780862
  0
LINE
  5
2FD
100
AcDbEntity
  8
0
100
AcDbLine
 62
7
  6
CONTINUOUS
 10
5.4170048077
 20
4.817780862
 11
5.4640048077
 21
4.817780862
  0
LINE
  5
2FE
100
AcDbEntity
  8
0
100
AcDbLine
 62
7
  6
CONTINUOUS
 10
5.3309375543
 20
4.8702740369
 11
5.3352742728
 21
4.8689615639
  0
LINE
  5
2FF
100
AcDbEntity
  8
0
100
AcDbLine
 62
7
  6
CONTINUOUS
 10
5.4838037496
 20
4.8225219847
 11
5.4881157141
 21
4.8211303399
  0
LINE
  5
300
100
AcDbEntity
  8
0
100
AcDbLine
 62
7
  6
CONTINUOUS
 10
5.3256168947
 20
4.8787731544
 11
5.3298419424
 21
4.8771364855
  0
LINE
  5
301
100
AcDbEntity
  8
0
100
AcDbLine
 62
7
  6
CONTINUOUS
 10
5.4744342213
 20
4.8195976909
 11
5.4786285985
 21
4.8178839488
  0
LINE
  5
302
100
AcDbEntity
  8
0
100
AcDbLine
 62
7
  6
CONTINUOUS
 10
5.3209541968
 20
4.8876502972
 11
5.3250433767
 21
4.8856988055
  0
LINE
  5
303
100
AcDbEntity
  8
0
100
AcDbLine
 62
7
  6
CONTINUOUS
 10
5.4648703796
 20
4.8173903194
 11
5.4689231485
 21
4.8153642946
  0
LINE
  5
304
100
AcDbEntity
  8
0
100
AcDbLine
 62
7
  6
CONTINUOUS
 10
5.3169761636
 20
4.896854626
 11
5.3209060572
 21
4.8945994877
  0
LINE
  5
305
100
AcDbEntity
  8
0
100
AcDbLine
 62
7
  6
CONTINUOUS
 10
5.3137055774
 20
4.9063334278
 11
5.3174536782
 21
4.903787558
  0
LINE
  5
306
100
AcDbEntity
  8
0
100
AcDbLine
 62
7
  6
CONTINUOUS
 10
5.3111611687
 20
4.9160324175
 11
5.3147060114
 21
4.9132103965
  0
LINE
  5
307
100
AcDbEntity
  8
0
100
AcDbLine
 62
7
  6
CONTINUOUS
 10
5.5143867533
 20
5.0513805315
 11
5.5129951811
 21
5.0556925194
  0
LINE
  5
308
100
AcDbEntity
  8
0
100
AcDbLine
 62
7
  6
CONTINUOUS
 10
5.5612201087
 20
4.8901542558
 11
5.5600781438
 21
4.8945389598
  0
LINE
  5
309
100
AcDbEntity
  8
0
100
AcDbLine
 62
7
  6
CONTINUOUS
 10
5.5222365439
 20
5.0454881344
 11
5.5211750405
 21
5.0498930094
  0
LINE
  5
30A
100
AcDbEntity
  8
0
100
AcDbLine
 62
7
  6
CONTINUOUS
 10
5.5567434317
 20
4.881181866
 11
5.5559363197
 21
4.8856403728
  0
LINE
  5
30B
100
AcDbEntity
  8
0
100
AcDbLine
 62
7
  6
CONTINUOUS
 10
5.529618258
 20
5.0390189881
 11
5.5288929026
 21
5.0434915234
  0
LINE
  5
30C
100
AcDbEntity
  8
0
100
AcDbLine
 62
7
  6
CONTINUOUS
 10
5.5357043194
 20
3.8780622726
 11
5.5364845561
 21
3.8825199343
  0
LINE
  5
30D
100
AcDbEntity
  8
0
100
AcDbLine
 62
7
  6
CONTINUOUS
 10
5.5070696172
 20
3.7412073149
 11
5.5081328869
 21
3.7456060618
  0
LINE
  5
30E
100
AcDbEntity
  8
0
100
AcDbLine
 62
7
  6
CONTINUOUS
 10
5.3366458963
 20
3.8022303255
 11
5.334880792
 21
3.7980633214
  0
LINE
  5
30F
100
AcDbEntity
  8
0
100
AcDbLine
 62
7
  6
CONTINUOUS
 10
5.3953965853
 20
3.9291065729
 11
5.3933690164
 21
3.925060775
  0
LINE
  5
310
100
AcDbEntity
  8
0
100
AcDbLine
 62
7
  6
CONTINUOUS
 10
5.3836188765
 20
4.8251136533
 11
5.3880242703
 21
4.8261730012
  0
LINE
  5
311
100
AcDbEntity
  8
0
100
AcDbLine
 62
7
  6
CONTINUOUS
 10
5.539658052
 20
4.8611706618
 11
5.5440821009
 21
4.8621491832
  0
LINE
  5
312
100
AcDbEntity
  8
0
100
AcDbLine
 62
7
  6
CONTINUOUS
 10
5.3747322157
 20
4.8297581853
 11
5.3792051054
 21
4.8304813522
  0
LINE
  5
313
100
AcDbEntity
  8
0
100
AcDbLine
 62
7
  6
CONTINUOUS
 10
5.5330513011
 20
4.8539118464
 11
5.5375366802
 21
4.8545530075
  0
LINE
  5
314
100
AcDbEntity
  8
0
100
AcDbLine
 62
7
  6
CONTINUOUS
 10
5.3662222337
 20
4.8350614507
 11
5.3707370032
 21
4.8354442949
  0
LINE
  5
315
100
AcDbEntity
  8
0
100
AcDbLine
 62
7
  6
CONTINUOUS
 10
5.5259145377
 20
4.8471734368
 11
5.5304355592
 21
4.8474735656
  0
LINE
  5
316
100
AcDbEntity
  8
0
100
AcDbLine
 62
7
  6
CONTINUOUS
 10
5.3581376671
 20
4.8409930777
 11
5.3626684602
 21
4.8410334068
  0
LINE
  5
317
100
AcDbEntity
  8
0
100
AcDbLine
 62
7
  6
CONTINUOUS
 10
5.5182886339
 20
4.8409940236
 11
5.522819406
 21
4.8409514013
  0
LINE
  5
318
100
AcDbEntity
  8
0
100
AcDbLine
 62
7
  6
CONTINUOUS
 10
5.350524816
 20
4.8475190961
 11
5.355045685
 21
4.847216679
  0
LINE
  5
319
100
AcDbEntity
  8
0
100
AcDbLine
 62
7
  6
CONTINUOUS
 10
5.5102172631
 20
4.8354089963
 11
5.5147318381
 21
4.835023867
  0
LINE
  5
31A
100
AcDbEntity
  8
0
100
AcDbLine
 62
7
  6
CONTINUOUS
 10
5.3434272792
 20
4.8546021313
 11
5.3479123332
 21
4.8539587001
  0
LINE
  5
31B
100
AcDbEntity
  8
0
100
AcDbLine
 62
7
  6
CONTINUOUS
 10
5.5017466499
 20
4.8304503403
 11
5.506219173
 21
4.8297249095
  0
LINE
  5
31C
100
AcDbEntity
  8
0
100
AcDbLine
 62
7
  6
CONTINUOUS
 10
5.3368857041
 20
4.862201619
 11
5.3413092572
 21
4.8612208584
  0
LINE
  5
31D
100
AcDbEntity
  8
0
100
AcDbLine
 62
7
  6
CONTINUOUS
 10
5.4929253055
 20
4.8261464536
 11
5.4973301626
 21
4.8250848761
  0
LINE
  5
31E
100
AcDbEntity
  8
0
100
AcDbLine
 62
7
  6
CONTINUOUS
 10
5.4884903229
 20
5.0652774252
 11
5.486163684
 21
5.0691654149
  0
LINE
  5
31F
100
AcDbEntity
  8
0
100
AcDbLine
 62
7
  6
CONTINUOUS
 10
5.570419499
 20
4.9187343078
 11
5.5683196879
 21
4.9227493428
  0
LINE
  5
320
100
AcDbEntity
  8
0
100
AcDbLine
 62
7
  6
CONTINUOUS
 10
5.497465188
 20
5.0613035915
 11
5.4954392315
 21
5.0653563946
  0
LINE
  5
321
100
AcDbEntity
  8
0
100
AcDbLine
 62
7
  6
CONTINUOUS
 10
5.5680777793
 20
4.9089843967
 11
5.5662876086
 21
4.913146728
  0
LINE
  5
322
100
AcDbEntity
  8
0
100
AcDbLine
 62
7
  6
CONTINUOUS
 10
5.5061138417
 20
5.0566624337
 11
5.5044001703
 21
5.0608568398
  0
LINE
  5
323
100
AcDbEntity
  8
0
100
AcDbLine
 62
7
  6
CONTINUOUS
 10
5.5650054508
 20
4.8994394916
 11
5.5635351728
 21
4.9037252815
  0
LINE
  5
324
100
AcDbEntity
  8
0
100
AcDbLine
 62
7
  6
CONTINUOUS
 10
5.5397910151
 20
3.8692018156
 11
5.5409733461
 21
3.8735700658
  0
LINE
  5
325
100
AcDbEntity
  8
0
100
AcDbLine
 62
7
  6
CONTINUOUS
 10
5.3346619468
 20
3.8117840015
 11
5.3325252569
 21
3.8077947568
  0
LINE
  5
326
100
AcDbEntity
  8
0
100
AcDbLine
 62
7
  6
CONTINUOUS
 10
5.4047058701
 20
3.9327925732
 11
5.4023188239
 21
3.928947898
  0
LINE
  5
327
100
AcDbEntity
  8
0
100
AcDbLine
 62
7
  6
CONTINUOUS
 10
5.5722762749
 20
4.9586563955
 11
5.5690747998
 21
4.9618626815
  0
LINE
  5
328
100
AcDbEntity
  8
0
100
AcDbLine
 62
7
  6
CONTINUOUS
 10
5.572948253
 20
4.9486517535
 11
5.5699984132
 21
4.9520909624
  0
LINE
  5
329
100
AcDbEntity
  8
0
100
AcDbLine
 62
7
  6
CONTINUOUS
 10
5.4697691283
 20
5.0711360398
 11
5.466882744
 21
5.0746286747
  0
LINE
  5
32A
100
AcDbEntity
  8
0
100
AcDbLine
 62
7
  6
CONTINUOUS
 10
5.5728617292
 20
4.9386249429
 11
5.5701804184
 21
4.9422773784
  0
LINE
  5
32B
100
AcDbEntity
  8
0
100
AcDbLine
 62
7
  6
CONTINUOUS
 10
5.4792406454
 20
5.0685611766
 11
5.4766266487
 21
5.0722620865
  0
LINE
  5
32C
100
AcDbEntity
  8
0
100
AcDbLine
 62
7
  6
CONTINUOUS
 10
5.572017199
 20
4.9286333872
 11
5.569619773
 21
4.9324781318
  0
LINE
  5
32D
100
AcDbEntity
  8
0
100
AcDbLine
 62
7
  6
CONTINUOUS
 10
5.4988309772
 20
3.7355174825
 11
5.5002898118
 21
3.7398013263
  0
LINE
  5
32E
100
AcDbEntity
  8
0
100
AcDbLine
 62
7
  6
CONTINUOUS
 10
5.5430551173
 20
3.860006468
 11
5.544629747
 21
3.8642491155
  0
LINE
  5
32F
100
AcDbEntity
  8
0
100
AcDbLine
 62
7
  6
CONTINUOUS
 10
5.3335549131
 20
3.8214784977
 11
5.3310643403
 21
3.8177000637
  0
LINE
  5
330
100
AcDbEntity
  8
0
100
AcDbLine
 62
7
  6
CONTINUOUS
 10
5.4115850051
 20
3.9320051299
 11
5.4143117518
 21
3.9356168288
  0
LINE
  5
331
100
AcDbEntity
  8
0
100
AcDbLine
 62
7
  6
CONTINUOUS
 10
5.5578236629
 20
5.006364433
 11
5.5536640244
 21
5.0081608517
  0
LINE
  5
332
100
AcDbEntity
  8
0
100
AcDbLine
 62
7
  6
CONTINUOUS
 10
5.4113044449
 20
5.0711508356
 11
5.4071774432
 21
5.0730210147
  0
LINE
  5
333
100
AcDbEntity
  8
0
100
AcDbLine
 62
7
  6
CONTINUOUS
 10
5.5621448349
 20
4.9973161243
 11
5.5581329575
 21
4.999421962
  0
LINE
  5
334
100
AcDbEntity
  8
0
100
AcDbLine
 62
7
  6
CONTINUOUS
 10
5.565769376
 20
4.9879669469
 11
5.5619282356
 21
4.9903701434
  0
LINE
  5
335
100
AcDbEntity
  8
0
100
AcDbLine
 62
7
  6
CONTINUOUS
 10
5.5686765285
 20
4.9783704433
 11
5.5650281234
 21
4.9810572355
  0
LINE
  5
336
100
AcDbEntity
  8
0
100
AcDbLine
 62
7
  6
CONTINUOUS
 10
5.5708496433
 20
4.9685815726
 11
5.5674148677
 21
4.9715365733
  0
LINE
  5
337
100
AcDbEntity
  8
0
100
AcDbLine
 62
7
  6
CONTINUOUS
 10
5.4901091007
 20
3.7306003439
 11
5.4919514136
 21
3.7347337928
  0
LINE
  5
338
100
AcDbEntity
  8
0
100
AcDbLine
 62
7
  6
CONTINUOUS
 10
5.5454695827
 20
3.850552414
 11
5.5474234652
 21
3.8546343081
  0
LINE
  5
339
100
AcDbEntity
  8
0
100
AcDbLine
 62
7
  6
CONTINUOUS
 10
5.4809762489
 20
3.7264966381
 11
5.4831867765
 21
3.7304454461
  0
LINE
  5
33A
100
AcDbEntity
  8
0
100
AcDbLine
 62
7
  6
CONTINUOUS
 10
5.3333339671
 20
3.8312334946
 11
5.3305101459
 21
3.8276971758
  0
LINE
  5
33B
100
AcDbEntity
  8
0
100
AcDbLine
 62
7
  6
CONTINUOUS
 10
5.3340009394
 20
3.8409681712
 11
5.3308672653
 21
3.8377032664
  0
LINE
  5
33C
100
AcDbEntity
  8
0
100
AcDbLine
 62
7
  6
CONTINUOUS
 10
5.4928527878
 20
5.0665016037
 11
5.4884903229
 21
5.0652774252
  0
LINE
  5
33D
100
AcDbEntity
  8
0
100
AcDbLine
 62
7
  6
CONTINUOUS
 10
5.3382386997
 20
5.0245535051
 11
5.3338551347
 21
5.023407176
  0
LINE
  5
33E
100
AcDbEntity
  8
0
100
AcDbLine
 62
7
  6
CONTINUOUS
 10
5.5019077366
 20
5.0621943634
 11
5.497465188
 21
5.0613035915
  0
LINE
  5
33F
100
AcDbEntity
  8
0
100
AcDbLine
 62
7
  6
CONTINUOUS
 10
5.344564158
 20
5.0320587123
 11
5.3401064568
 21
5.0312471625
  0
LINE
  5
340
100
AcDbEntity
  8
0
100
AcDbLine
 62
7
  6
CONTINUOUS
 10
5.5106110316
 20
5.0572146975
 11
5.5061138417
 21
5.0566624337
  0
LINE
  5
341
100
AcDbEntity
  8
0
100
AcDbLine
 62
7
  6
CONTINUOUS
 10
5.351439067
 20
5.0390640804
 11
5.3469327589
 21
5.0385919577
  0
LINE
  5
342
100
AcDbEntity
  8
0
100
AcDbLine
 62
7
  6
CONTINUOUS
 10
5.5189128292
 20
5.0515911244
 11
5.5143867533
 21
5.0513805315
  0
LINE
  5
343
100
AcDbEntity
  8
0
100
AcDbLine
 62
7
  6
CONTINUOUS
 10
5.3588240545
 20
5.0455294897
 11
5.354294947
 21
5.045399498
  0
LINE
  5
344
100
AcDbEntity
  8
0
100
AcDbLine
 62
7
  6
CONTINUOUS
 10
5.526765585
 20
5.0453558503
 11
5.5222365439
 21
5.0454881344
  0
LINE
  5
345
100
AcDbEntity
  8
0
100
AcDbLine
 62
7
  6
CONTINUOUS
 10
5.3666768265
 20
5.0514179129
 11
5.3621508578
 21
5.0516307966
  0
LINE
  5
346
100
AcDbEntity
  8
0
100
AcDbLine
 62
7
  6
CONTINUOUS
 10
5.5341243265
 20
5.0385445846
 11
5.529618258
 21
5.0390189881
  0
LINE
  5
347
100
AcDbEntity
  8
0
100
AcDbLine
 62
7
  6
CONTINUOUS
 10
5.3749524105
 20
5.0566956271
 11
5.3704555006
 21
5.057250167
  0
LINE
  5
348
100
AcDbEntity
  8
0
100
AcDbLine
 62
7
  6
CONTINUOUS
 10
5.5409469103
 20
5.0311963353
 11
5.5364896204
 21
5.0320101412
  0
LINE
  5
349
100
AcDbEntity
  8
0
100
AcDbLine
 62
7
  6
CONTINUOUS
 10
5.3836034122
 20
5.0613324068
 11
5.379161315
 21
5.0622254272
  0
LINE
  5
34A
100
AcDbEntity
  8
0
100
AcDbLine
 62
7
  6
CONTINUOUS
 10
5.5471942634
 20
5.0233531856
 11
5.5428112791
 21
5.0245017333
  0
LINE
  5
34B
100
AcDbEntity
  8
0
100
AcDbLine
 62
7
  6
CONTINUOUS
 10
5.3925802874
 20
5.0653016974
 11
5.3882184427
 21
5.0665280838
  0
LINE
  5
34C
100
AcDbEntity
  8
0
100
AcDbLine
 62
7
  6
CONTINUOUS
 10
5.5528306073
 20
5.0150600533
 11
5.54854703
 21
5.0165367651
  0
LINE
  5
34D
100
AcDbEntity
  8
0
100
AcDbLine
 62
7
  6
CONTINUOUS
 10
5.4018316257
 20
5.0685807668
 11
5.3975750138
 21
5.0701334957
  0
LINE
  5
34E
100
AcDbEntity
  8
0
100
AcDbLine
 62
7
  6
CONTINUOUS
 10
5.5470144073
 20
3.8409179811
 11
5.5493313545
 21
3.844805303
  0
LINE
  5
34F
100
AcDbEntity
  8
0
100
AcDbLine
 62
7
  6
CONTINUOUS
 10
5.4715080884
 20
3.7232403646
 11
5.4740685162
 21
3.7269718155
  0
LINE
  5
350
100
AcDbEntity
  8
0
100
AcDbLine
 62
7
  6
CONTINUOUS
 10
5.3355503039
 20
3.850601875
 11
5.3321327398
 21
3.8476354341
  0
LINE
  5
351
100
AcDbEntity
  8
0
100
AcDbLine
 62
7
  6
CONTINUOUS
 10
5.5476767921
 20
3.8311829912
 11
5.5503376079
 21
3.8348435343
  0
LINE
  5
352
100
AcDbEntity
  8
0
100
AcDbLine
 62
7
  6
CONTINUOUS
 10
5.4646721781
 20
3.7243416802
 11
5.4638218411
 21
3.7233164957
  0
LINE
  5
353
100
AcDbEntity
  8
0
100
AcDbLine
 62
7
  6
CONTINUOUS
 10
5.3379692242
 20
3.8600547902
 11
5.3342960847
 21
3.8574113904
  0
LINE
  5
354
100
AcDbEntity
  8
0
100
AcDbLine
 62
7
  6
CONTINUOUS
 10
5.3412376593
 20
3.8692485986
 11
5.3373393766
 21
3.8669501406
  0
LINE
  5
355
100
AcDbEntity
  8
0
100
AcDbLine
 62
7
  6
CONTINUOUS
 10
5.5474512492
 20
3.8214280996
 11
5.5504338886
 21
3.8248315359
  0
LINE
  5
356
100
AcDbEntity
  8
0
100
AcDbLine
 62
7
  6
CONTINUOUS
 10
5.5463396473
 20
3.8117341261
 11
5.5496193988
 21
3.814852258
  0
LINE
  5
357
100
AcDbEntity
  8
0
100
AcDbLine
 62
7
  6
CONTINUOUS
 10
5.3453285299
 20
3.8781071289
 11
5.3412374017
 21
3.8761726556
  0
LINE
  5
358
100
AcDbEntity
  8
0
100
AcDbLine
 62
7
  6
CONTINUOUS
 10
5.4694732503
 20
3.9319914903
 11
5.4736803341
 21
3.9336588122
  0
LINE
  5
359
100
AcDbEntity
  8
0
100
AcDbLine
 62
7
  6
CONTINUOUS
 10
5.3502079429
 20
3.8865569874
 11
5.3459578645
 21
3.8850025261
  0
LINE
  5
35A
100
AcDbEntity
  8
0
100
AcDbLine
 62
7
  6
CONTINUOUS
 10
5.5443511959
 20
3.8021813861
 11
5.5479008867
 21
3.8049883795
  0
LINE
  5
35B
100
AcDbEntity
  8
0
100
AcDbLine
 62
7
  6
CONTINUOUS
 10
5.483079252
 20
3.9302077652
 11
5.4787379898
 21
3.9289298922
  0
LINE
  5
35C
100
AcDbEntity
  8
0
100
AcDbLine
 62
7
  6
CONTINUOUS
 10
5.5415023697
 20
3.7928490246
 11
5.5452925902
 21
3.7953216235
  0
LINE
  5
35D
100
AcDbEntity
  8
0
100
AcDbLine
 62
7
  6
CONTINUOUS
 10
5.5378167713
 20
3.7838143611
 11
5.5418161193
 21
3.7859320797
  0
LINE
  5
35E
100
AcDbEntity
  8
0
100
AcDbLine
 62
7
  6
CONTINUOUS
 10
5.4121618191
 20
3.7224950445
 11
5.4162882242
 21
3.7243530804
  0
LINE
  5
35F
100
AcDbEntity
  8
0
100
AcDbLine
 62
7
  6
CONTINUOUS
 10
5.5333249363
 20
3.7751522483
 11
5.5375002768
 21
3.7768975413
  0
LINE
  5
360
100
AcDbEntity
  8
0
100
AcDbLine
 62
7
  6
CONTINUOUS
 10
5.4026148676
 20
3.7255125103
 11
5.4068931265
 21
3.7269876433
  0
LINE
  5
361
100
AcDbEntity
  8
0
100
AcDbLine
 62
7
  6
CONTINUOUS
 10
5.5280640796
 20
3.7669344525
 11
5.5323808198
 21
3.7682928599
  0
LINE
  5
362
100
AcDbEntity
  8
0
100
AcDbLine
 62
7
  6
CONTINUOUS
 10
5.4170048077
 20
5.564780862
 11
5.4640048077
 21
5.564780862
  0
LINE
  5
363
100
AcDbEntity
  8
0
100
AcDbLine
 62
7
  6
CONTINUOUS
 10
5.4230048077
 20
5.570780862
 11
5.4580048077
 21
5.570780862
  0
ARC
  5
364
100
AcDbEntity
  8
0
100
AcDbCircle
 62
7
  6
CONTINUOUS
 10
5.3969045014
 20
3.8287856524
 40
0.1536000002
100
AcDbArc
 50
2.2606412483
 51
2.5503129983
  0
ARC
  5
365
100
AcDbEntity
  8
0
100
AcDbCircle
 62
7
  6
CONTINUOUS
 10
5.3971348987
 20
3.8287963243
 40
0.1533693558
100
AcDbArc
 50
2.6186660604
 51
3.3112401438
  0
ARC
  5
366
100
AcDbEntity
  8
0
100
AcDbCircle
 62
7
  6
CONTINUOUS
 10
5.3977108556
 20
3.8288332841
 40
0.1527922257
100
AcDbArc
 50
3.3098786082
 51
6.0114031568
  0
ARC
  5
367
100
AcDbEntity
  8
0
100
AcDbCircle
 62
7
  6
CONTINUOUS
 10
5.3980459624
 20
3.828867827
 40
0.1524553441
100
AcDbArc
 50
6.011681834
 51
7.0682846863
  0
ARC
  5
368
100
AcDbEntity
  8
0
100
AcDbCircle
 62
7
  6
CONTINUOUS
 10
5.4280048077
 20
4.035780862
 40
0.08
100
AcDbArc
 50
155.779056891
 51
180.0
  0
ARC
  5
369
100
AcDbEntity
  8
0
100
AcDbCircle
 62
7
  6
CONTINUOUS
 10
5.4230048077
 20
4.412780862
 40
0.006
100
AcDbArc
 50
90.0
 51
180.0
  0
ARC
  5
36A
100
AcDbEntity
  8
0
100
AcDbCircle
 62
7
  6
CONTINUOUS
 10
5.4230048077
 20
3.724780862
 40
0.006
100
AcDbArc
 50
180.0
 51
270.0
  0
ARC
  5
36B
100
AcDbEntity
  8
0
100
AcDbCircle
 62
7
  6
CONTINUOUS
 10
5.3245048077
 20
3.6754924897
 40
0.004
100
AcDbArc
 50
180.0
 51
270.0
  0
ARC
  5
36C
100
AcDbEntity
  8
0
100
AcDbCircle
 62
7
  6
CONTINUOUS
 10
5.3245048077
 20
4.554780862
 40
0.004
100
AcDbArc
 50
90.0
 51
180.0
  0
ARC
  5
36D
100
AcDbEntity
  8
0
100
AcDbCircle
 62
7
  6
CONTINUOUS
 10
5.3568711307
 20
4.067780862
 40
0.002
100
AcDbArc
 50
90.0
 51
155.7790568905
  0
ARC
  5
36E
100
AcDbEntity
  8
0
100
AcDbCircle
 62
7
  6
CONTINUOUS
 10
5.4230048077
 20
4.817780862
 40
0.006
100
AcDbArc
 50
180.0
 51
270.0
  0
ARC
  5
36F
100
AcDbEntity
  8
0
100
AcDbCircle
 62
7
  6
CONTINUOUS
 10
5.4230048077
 20
5.564780862
 40
0.006
100
AcDbArc
 50
90.0
 51
180.0
  0
ARC
  5
370
100
AcDbEntity
  8
0
100
AcDbCircle
 62
7
  6
CONTINUOUS
 10
5.4405048077
 20
3.828780862
 40
0.11
100
AcDbArc
 50
338.5605290018
 51
342.2780001204
  0
ARC
  5
371
100
AcDbEntity
  8
0
100
AcDbCircle
 62
7
  6
CONTINUOUS
 10
5.4405048077
 20
3.828780862
 40
0.11
100
AcDbArc
 50
102.3355619635
 51
114.2095305015
  0
ARC
  5
372
100
AcDbEntity
  8
0
100
AcDbCircle
 62
7
  6
CONTINUOUS
 10
5.4405048077
 20
3.828780862
 40
0.11
100
AcDbArc
 50
114.2310065651
 51
159.6818943387
  0
ARC
  5
373
100
AcDbEntity
  8
0
100
AcDbCircle
 62
7
  6
CONTINUOUS
 10
5.4405048077
 20
3.828780862
 40
0.11
100
AcDbArc
 50
159.6964694985
 51
180.5480088059
  0
ARC
  5
374
100
AcDbEntity
  8
0
100
AcDbCircle
 62
7
  6
CONTINUOUS
 10
5.4405048077
 20
3.828780862
 40
0.11
100
AcDbArc
 50
180.5644694985
 51
190.9800391723
  0
ARC
  5
375
100
AcDbEntity
  8
0
100
AcDbCircle
 62
7
  6
CONTINUOUS
 10
5.4405048077
 20
3.828780862
 40
0.11
100
AcDbArc
 50
190.9984694985
 51
201.4130771484
  0
ARC
  5
376
100
AcDbEntity
  8
0
100
AcDbCircle
 62
7
  6
CONTINUOUS
 10
5.4405048077
 20
3.828780862
 40
0.11
100
AcDbArc
 50
201.4324694985
 51
208.1155305015
  0
ARC
  5
377
100
AcDbEntity
  8
0
100
AcDbCircle
 62
7
  6
CONTINUOUS
 10
5.4405048077
 20
3.828780862
 40
0.11
100
AcDbArc
 50
208.129656937
 51
239.4175305015
  0
ARC
  5
378
100
AcDbEntity
  8
0
100
AcDbCircle
 62
7
  6
CONTINUOUS
 10
5.4405048077
 20
3.828780862
 40
0.11
100
AcDbArc
 50
239.4355786033
 51
249.8515305015
  0
ARC
  5
379
100
AcDbEntity
  8
0
100
AcDbCircle
 62
7
  6
CONTINUOUS
 10
5.4405048077
 20
3.828780862
 40
0.11
100
AcDbArc
 50
249.8708822775
 51
258.3402053348
  0
ARC
  5
37A
100
AcDbEntity
  8
0
100
AcDbCircle
 62
7
  6
CONTINUOUS
 10
5.4405048077
 20
3.828780862
 40
0.11
100
AcDbArc
 50
281.6597946652
 51
290.1014784339
  0
ARC
  5
37B
100
AcDbEntity
  8
0
100
AcDbCircle
 62
7
  6
CONTINUOUS
 10
5.4405048077
 20
3.828780862
 40
0.11
100
AcDbArc
 50
290.1214694985
 51
300.5367547846
  0
ARC
  5
37C
100
AcDbEntity
  8
0
100
AcDbCircle
 62
7
  6
CONTINUOUS
 10
5.4405048077
 20
3.828780862
 40
0.11
100
AcDbArc
 50
300.5554694985
 51
331.8425831166
  0
ARC
  5
37D
100
AcDbEntity
  8
0
100
AcDbCircle
 62
7
  6
CONTINUOUS
 10
5.4405048077
 20
3.828780862
 40
0.11
100
AcDbArc
 50
331.8574694985
 51
338.5405305015
  0
ARC
  5
37E
100
AcDbEntity
  8
0
100
AcDbCircle
 62
7
  6
CONTINUOUS
 10
5.4405048077
 20
3.828780862
 40
0.11
100
AcDbArc
 50
342.2914694985
 51
348.9745305015
  0
ARC
  5
37F
100
AcDbEntity
  8
0
100
AcDbCircle
 62
7
  6
CONTINUOUS
 10
5.4405048077
 20
3.828780862
 40
0.11
100
AcDbArc
 50
348.9935963734
 51
359.4085305015
  0
ARC
  5
380
100
AcDbEntity
  8
0
100
AcDbCircle
 62
7
  6
CONTINUOUS
 10
5.4405048077
 20
3.828780862
 40
0.11
100
AcDbArc
 50
359.4256341201
 51
20.2765305015
  0
ARC
  5
381
100
AcDbEntity
  8
0
100
AcDbCircle
 62
7
  6
CONTINUOUS
 10
5.4405048077
 20
3.828780862
 40
0.11
100
AcDbArc
 50
20.2918190702
 51
30.7105305015
  0
ARC
  5
382
100
AcDbEntity
  8
0
100
AcDbCircle
 62
7
  6
CONTINUOUS
 10
5.4405048077
 20
3.828780862
 40
0.11
100
AcDbArc
 50
30.7246057832
 51
77.6635305015
  0
ARC
  5
383
100
AcDbEntity
  8
0
100
AcDbCircle
 62
7
  6
CONTINUOUS
 10
5.4405048077
 20
3.828780862
 40
0.104
100
AcDbArc
 50
108.2099568643
 51
251.7900431357
  0
ARC
  5
384
100
AcDbEntity
  8
0
100
AcDbCircle
 62
7
  6
CONTINUOUS
 10
5.4405048077
 20
3.828780862
 40
0.104
100
AcDbArc
 50
288.2099568643
 51
71.7900431357
  0
ARC
  5
385
100
AcDbEntity
  8
0
100
AcDbCircle
 62
7
  6
CONTINUOUS
 10
5.4580048077
 20
3.724780862
 40
0.006
100
AcDbArc
 50
270.0
 51
360.0
  0
ARC
  5
386
100
AcDbEntity
  8
0
100
AcDbCircle
 62
7
  6
CONTINUOUS
 10
5.4530048077
 20
4.035780862
 40
0.08
100
AcDbArc
 50
0.0
 51
24.220943109
  0
ARC
  5
387
100
AcDbEntity
  8
0
100
AcDbCircle
 62
7
  6
CONTINUOUS
 10
5.4840895216
 20
3.828785878
 40
0.1535844219
100
AcDbArc
 50
177.4492578617
 51
177.7198745955
  0
ARC
  5
388
100
AcDbEntity
  8
0
100
AcDbCircle
 62
7
  6
CONTINUOUS
 10
5.4838730682
 20
3.8287959298
 40
0.1533677352
100
AcDbArc
 50
176.6692284334
 51
177.3810948241
  0
ARC
  5
389
100
AcDbEntity
  8
0
100
AcDbCircle
 62
7
  6
CONTINUOUS
 10
5.4834123558
 20
3.8288238875
 40
0.1529061767
100
AcDbArc
 50
173.9701413769
 51
176.6696567221
  0
ARC
  5
38A
100
AcDbEntity
  8
0
100
AcDbCircle
 62
7
  6
CONTINUOUS
 10
5.482989258
 20
3.8288649991
 40
0.1524811011
100
AcDbArc
 50
172.9124011435
 51
173.9688033396
  0
ARC
  5
38B
100
AcDbEntity
  8
0
100
AcDbCircle
 62
7
  6
CONTINUOUS
 10
5.4580048077
 20
4.412780862
 40
0.006
100
AcDbArc
 50
0.0
 51
90.0
  0
ARC
  5
38C
100
AcDbEntity
  8
0
100
AcDbCircle
 62
7
  6
CONTINUOUS
 10
5.5565048077
 20
3.6754924897
 40
0.004
100
AcDbArc
 50
270.0
 51
360.0
  0
ARC
  5
38D
100
AcDbEntity
  8
0
100
AcDbCircle
 62
7
  6
CONTINUOUS
 10
5.5241384847
 20
4.067780862
 40
0.002
100
AcDbArc
 50
24.2209431095
 51
90.0
  0
ARC
  5
38E
100
AcDbEntity
  8
0
100
AcDbCircle
 62
7
  6
CONTINUOUS
 10
5.5565048077
 20
4.554780862
 40
0.004
100
AcDbArc
 50
0.0
 51
90.0
  0
ARC
  5
38F
100
AcDbEntity
  8
0
100
AcDbCircle
 62
7
  6
CONTINUOUS
 10
5.4405048077
 20
4.944780862
 40
0.2957951323
100
AcDbArc
 50
293.9512005614
 51
85.4422603831
  0
ARC
  5
390
100
AcDbEntity
  8
0
100
AcDbCircle
 62
7
  6
CONTINUOUS
 10
5.4405048077
 20
4.944780862
 40
0.2957951323
100
AcDbArc
 50
94.5577396171
 51
246.0487994403
  0
ARC
  5
391
100
AcDbEntity
  8
0
100
AcDbCircle
 62
7
  6
CONTINUOUS
 10
5.4405048077
 20
4.944780862
 40
0.2914103661
100
AcDbArc
 50
294.3328754508
 51
85.373318753
  0
ARC
  5
392
100
AcDbEntity
  8
0
100
AcDbCircle
 62
7
  6
CONTINUOUS
 10
5.4405048077
 20
4.944780862
 40
0.2914103661
100
AcDbArc
 50
94.626681247
 51
245.6671245485
  0
ARC
  5
393
100
AcDbEntity
  8
0
100
AcDbCircle
 62
7
  6
CONTINUOUS
 10
5.4405048077
 20
4.944780862
 40
0.2119519222
100
AcDbArc
 50
304.5152506613
 51
83.6291156913
  0
ARC
  5
394
100
AcDbEntity
  8
0
100
AcDbCircle
 62
7
  6
CONTINUOUS
 10
5.4405048077
 20
4.944780862
 40
0.2119519222
100
AcDbArc
 50
96.3708843088
 51
235.4847493387
  0
ARC
  5
395
100
AcDbEntity
  8
0
100
AcDbCircle
 62
7
  6
CONTINUOUS
 10
5.4405048077
 20
4.944780862
 40
0.1923692405
100
AcDbArc
 50
308.6148249397
 51
82.9771001568
  0
ARC
  5
396
100
AcDbEntity
  8
0
100
AcDbCircle
 62
7
  6
CONTINUOUS
 10
5.4405048077
 20
4.944780862
 40
0.1923692405
100
AcDbArc
 50
97.0228998431
 51
231.3851750603
  0
ARC
  5
397
100
AcDbEntity
  8
0
100
AcDbCircle
 62
7
  6
CONTINUOUS
 10
5.4405048077
 20
4.944780862
 40
0.1864307806
100
AcDbArc
 50
97.2460784518
 51
229.9015809517
  0
ARC
  5
398
100
AcDbEntity
  8
0
100
AcDbCircle
 62
7
  6
CONTINUOUS
 10
5.4405048077
 20
4.944780862
 40
0.1864307806
100
AcDbArc
 50
310.0984189883
 51
82.753921641
  0
ARC
  5
399
100
AcDbEntity
  8
0
100
AcDbCircle
 62
7
  6
CONTINUOUS
 10
5.4405048077
 20
4.944780862
 40
0.1325
100
AcDbArc
 50
79.7638933919
 51
79.7806612744
  0
ARC
  5
39A
100
AcDbEntity
  8
0
100
AcDbCircle
 62
7
  6
CONTINUOUS
 10
5.4405048077
 20
4.944780862
 40
0.1325
100
AcDbArc
 50
100.23090711
 51
153.49809289
  0
ARC
  5
39B
100
AcDbEntity
  8
0
100
AcDbCircle
 62
7
  6
CONTINUOUS
 10
5.4405048077
 20
4.944780862
 40
0.1325
100
AcDbArc
 50
153.5113674762
 51
157.83509289
  0
ARC
  5
39C
100
AcDbEntity
  8
0
100
AcDbCircle
 62
7
  6
CONTINUOUS
 10
5.4405048077
 20
4.944780862
 40
0.1325
100
AcDbArc
 50
157.8481954574
 51
186.9542089456
  0
ARC
  5
39D
100
AcDbEntity
  8
0
100
AcDbCircle
 62
7
  6
CONTINUOUS
 10
5.4405048077
 20
4.944780862
 40
0.1325
100
AcDbArc
 50
186.97090711
 51
221.6519261152
  0
ARC
  5
39E
100
AcDbEntity
  8
0
100
AcDbCircle
 62
7
  6
CONTINUOUS
 10
5.4405048077
 20
4.944780862
 40
0.1325
100
AcDbArc
 50
221.66690711
 51
225.9927255379
  0
ARC
  5
39F
100
AcDbEntity
  8
0
100
AcDbCircle
 62
7
  6
CONTINUOUS
 10
5.4405048077
 20
4.944780862
 40
0.1325
100
AcDbArc
 50
226.00390711
 51
260.3186460769
  0
ARC
  5
3A0
100
AcDbEntity
  8
0
100
AcDbCircle
 62
7
  6
CONTINUOUS
 10
5.4405048077
 20
4.944780862
 40
0.1325
100
AcDbArc
 50
279.6813539231
 51
304.0534735396
  0
ARC
  5
3A1
100
AcDbEntity
  8
0
100
AcDbCircle
 62
7
  6
CONTINUOUS
 10
5.4405048077
 20
4.944780862
 40
0.1325
100
AcDbArc
 50
304.06990711
 51
318.30409289
  0
ARC
  5
3A2
100
AcDbEntity
  8
0
100
AcDbCircle
 62
7
  6
CONTINUOUS
 10
5.4405048077
 20
4.944780862
 40
0.1325
100
AcDbArc
 50
318.3203502017
 51
353.00009289
  0
ARC
  5
3A3
100
AcDbEntity
  8
0
100
AcDbCircle
 62
7
  6
CONTINUOUS
 10
5.4405048077
 20
4.944780862
 40
0.1325
100
AcDbArc
 50
353.0154180809
 51
22.1241221196
  0
ARC
  5
3A4
100
AcDbEntity
  8
0
100
AcDbCircle
 62
7
  6
CONTINUOUS
 10
5.4405048077
 20
4.944780862
 40
0.1325
100
AcDbArc
 50
22.13590711
 51
26.4582287151
  0
ARC
  5
3A5
100
AcDbEntity
  8
0
100
AcDbCircle
 62
7
  6
CONTINUOUS
 10
5.4405048077
 20
4.944780862
 40
0.1325
100
AcDbArc
 50
26.47290711
 51
61.15210667
  0
ARC
  5
3A6
100
AcDbEntity
  8
0
100
AcDbCircle
 62
7
  6
CONTINUOUS
 10
5.4405048077
 20
4.944780862
 40
0.1325
100
AcDbArc
 50
61.16890711
 51
79.74009289
  0
ARC
  5
3A7
100
AcDbEntity
  8
0
100
AcDbCircle
 62
7
  6
CONTINUOUS
 10
5.4405048077
 20
4.944780862
 40
0.1265
100
AcDbArc
 50
104.8872059168
 51
255.1127940832
  0
ARC
  5
3A8
100
AcDbEntity
  8
0
100
AcDbCircle
 62
7
  6
CONTINUOUS
 10
5.4405048077
 20
4.944780862
 40
0.1265
100
AcDbArc
 50
284.8872059167
 51
75.1127940833
  0
ARC
  5
3A9
100
AcDbEntity
  8
0
100
AcDbCircle
 62
7
  6
CONTINUOUS
 10
5.4405048077
 20
4.944780862
 40
0.0562
100
AcDbArc
 50
241.8663257563
 51
245.2779634009
  0
ARC
  5
3AA
100
AcDbEntity
  8
0
100
AcDbCircle
 62
7
  6
CONTINUOUS
 10
5.4405048077
 20
4.944780862
 40
0.0562
100
AcDbArc
 50
294.7220365991
 51
298.1336742437
  0
ARC
  5
3AB
100
AcDbEntity
  8
0
100
AcDbCircle
 62
7
  6
CONTINUOUS
 10
5.4405048077
 20
4.944780862
 40
0.0562
100
AcDbArc
 50
61.8663257563
 51
65.2779634009
  0
ARC
  5
3AC
100
AcDbEntity
  8
0
100
AcDbCircle
 62
7
  6
CONTINUOUS
 10
5.4405048077
 20
4.944780862
 40
0.0562
100
AcDbArc
 50
114.7220365991
 51
118.1336742437
  0
ARC
  5
3AD
100
AcDbEntity
  8
0
100
AcDbCircle
 62
7
  6
CONTINUOUS
 10
5.4580048077
 20
4.817780862
 40
0.006
100
AcDbArc
 50
270.0
 51
360.0
  0
ARC
  5
3AE
100
AcDbEntity
  8
0
100
AcDbCircle
 62
7
  6
CONTINUOUS
 10
5.4580048077
 20
5.564780862
 40
0.006
100
AcDbArc
 50
0.0
 51
90.0
  0
LINE
  5
3AF
100
AcDbEntity
  8
0
100
AcDbLine
 62
7
  6
CONTINUOUS
 10
5.4698069265
 20
5.0711080185
 11
5.4730048077
 21
5.0670346962
  0
LINE
  5
3B0
100
AcDbEntity
  8
0
100
AcDbLine
 62
7
  6
CONTINUOUS
 10
5.4080048077
 20
5.0670346962
 11
5.4112445332
 21
5.071177985
  0
LINE
  5
3B1
100
AcDbEntity
  8
0
100
AcDbLine
 62
7
  6
CONTINUOUS
 10
5.4696745567
 20
3.9320712706
 11
5.4730048077
 21
3.9275723089
  0
LINE
  5
3B2
100
AcDbEntity
  8
0
100
AcDbLine
 62
7
  6
CONTINUOUS
 10
5.4131884621
 20
4.8159616006
 11
5.4080048077
 21
4.8225270277
  0
LINE
  5
3B3
100
AcDbEntity
  8
0
100
AcDbLine
 62
7
  6
CONTINUOUS
 10
5.4132529069
 20
3.722986339
 11
5.4080048077
 21
3.729989415
  0
LINE
  5
3B4
100
AcDbEntity
  8
0
100
AcDbLine
 62
7
  6
CONTINUOUS
 10
5.4080048077
 20
3.9275723089
 11
5.4113542953
 21
3.932096689
  0
SPLINE
  5
3B5
100
AcDbEntity
  8
0
100
AcDbSpline
 62
7
  6
CONTINUOUS
 70
0
 71
3
 72
24
 73
20
 74
0
 42
0.0000001
 43
0.0000001
 44
0.0000000001
 40
0.0
 40
0.0
 40
0.0
 40
0.0
 40
0.1143602021
 40
0.1719917629
 40
0.230022154
 40
0.2885405103
 40
0.3476480455
 40
0.4074579061
 40
0.4680906747
 40
0.5296863036
 40
0.5923917587
 40
0.6563698406
 40
0.6888937583
 40
0.7217968672
 40
0.7887962926
 40
0.8574947957
 40
0.892507109
 40
0.9279473257
 40
1.0
 40
1.0
 40
1.0
 40
1.0
 10
5.3316733157
 20
3.8476791379
 30
0.0
 10
5.3323604082
 20
3.8532050812
 30
0.0
 10
5.3338512878
 20
3.8614691147
 30
0.0
 10
5.336763346
 20
3.8722886433
 30
0.0
 10
5.3394373223
 20
3.8803428633
 30
0.0
 10
5.3426110355
 20
3.8882908879
 30
0.0
 10
5.3463030196
 20
3.8961083443
 30
0.0
 10
5.3505341268
 20
3.9037661065
 30
0.0
 10
5.3553309689
 20
3.9112280012
 30
0.0
 10
5.3607193826
 20
3.9184524464
 30
0.0
 10
5.3667315464
 20
3.9253848085
 30
0.0
 10
5.3722558702
 20
3.9308363648
 30
0.0
 10
5.3770064217
 20
3.9349784193
 30
0.0
 10
5.3820442694
 20
3.9390059789
 30
0.0
 10
5.3887917416
 20
3.9437032653
 30
0.0
 10
5.396041998
 20
3.9477972728
 30
0.0
 10
5.4021758702
 20
3.9506820604
 30
0.0
 10
5.4086009984
 20
3.9533081167
 30
0.0
 10
5.4136014815
 20
3.9548998313
 30
0.0
 10
5.4169982596
 20
3.9557778945
 30
0.0
  0
LINE
  5
3B6
100
AcDbEntity
  8
0
100
AcDbLine
 62
7
  6
CONTINUOUS
 10
5.4730048077
 20
4.8225270277
 11
5.4677943914
 21
4.815928573
  0
SPLINE
  5
3B7
100
AcDbEntity
  8
0
100
AcDbSpline
 62
7
  6
CONTINUOUS
 70
0
 71
3
 72
24
 73
20
 74
0
 42
0.0000001
 43
0.0000001
 44
0.0000000001
 40
0.0
 40
0.0
 40
0.0
 40
0.0
 40
0.0720548296
 40
0.1074958584
 40
0.1425087879
 40
0.2112079428
 40
0.2782074141
 40
0.3111103554
 40
0.343634053
 40
0.407611404
 40
0.470316039
 40
0.5319107621
 40
0.5925426585
 40
0.6523517967
 40
0.7114586806
 40
0.7699767087
 40
0.8280069471
 40
0.8856386188
 40
1.0
 40
1.0
 40
1.0
 40
1.0
 10
5.4640113838
 20
3.9557778818
 30
0.0
 10
5.4674094593
 20
3.9548994586
 30
0.0
 10
5.4724118477
 20
3.9533070976
 30
0.0
 10
5.4788392568
 20
3.9506796615
 30
0.0
 10
5.4849751926
 20
3.9477933873
 30
0.0
 10
5.492227702
 20
3.9436972263
 30
0.0
 10
5.4989769923
 20
3.9389974054
 30
0.0
 10
5.5040160563
 20
3.9349677371
 30
0.0
 10
5.5087675721
 20
3.9308234774
 30
0.0
 10
5.514292898
 20
3.9253691451
 30
0.0
 10
5.5203057575
 20
3.9184332398
 30
0.0
 10
5.5256945071
 20
3.9112052231
 30
0.0
 10
5.5304913131
 20
3.9037397144
 30
0.0
 10
5.5347220108
 20
3.8960783123
 30
0.0
 10
5.5384133
 20
3.8882572341
 30
0.0
 10
5.5415859548
 20
3.8803055832
 30
0.0
 10
5.5442585899
 20
3.8722477715
 30
0.0
 10
5.5471684607
 20
3.8614234894
 30
0.0
 10
5.5486572076
 20
3.8531559753
 30
0.0
 10
5.549342677
 20
3.8476277873
 30
0.0
  0
LINE
  5
3B8
100
AcDbEntity
  8
0
100
AcDbLine
 62
7
  6
CONTINUOUS
 10
5.4730048077
 20
3.729989415
 11
5.467736427
 21
3.7229601744
  0
ENDSEC
  0
SECTION
  2
OBJECTS
  0
DICTIONARY
  5
C
100
AcDbDictionary
280
0
281
1
  3
ACAD_GROUP
350
D
  3
ACAD_MLINESTYLE
350
17
  3
ACAD_LAYOUT
350
1A
  3
ACAD_PLOTSETTINGS
350
19
  3
ACAD_PLOTSTYLENAME
350
E
  0
DICTIONARY
  5
D
102
{ACAD_REACTORS
330
C
102
}
100
AcDbDictionary
280
0
281
1
  0
ACDBDICTIONARYWDFLT
  5
E
102
{ACAD_REACTORS
330
C
102
}
100
AcDbDictionary
281
1
  3
Normal
350
F
100
AcDbDictionaryWithDefault
340
F
  0
DICTIONARY
  5
17
102
{ACAD_REACTORS
330
C
102
}
100
AcDbDictionary
280
0
281
1
  3
Standard
350
18
  0
DICTIONARY
  5
19
102
{ACAD_REACTORS
330
C
102
}
100
AcDbDictionary
281
1
  0
DICTIONARY
  5
1A
102
{ACAD_REACTORS
330
C
102
}
100
AcDbDictionary
281
1
  3
Model
350
3B9
  3
Layout1
350
3BA
  0
ACDBPLACEHOLDER
  5
F
102
{ACAD_REACTORS
330
E
102
}
  0
MLINESTYLE
  5
18
102
{ACAD_REACTORS
330
17
102
}
100
AcDbMlineStyle
  2
STANDARD
 70
0
  3

 62
256
 51
90.0
 52
90.0
 71
2
 49
0.5
 62
256
  6
BYLAYER
 49
-0.5
 62
256
  6
BYLAYER
  0
LAYOUT
  5
3B9
102
{ACAD_REACTORS
330
1A
102
}
100
AcDbPlotSettings
  1

  2
none_device
  4
ANSI_A_(11.00_x_8.50_Inches)
  6

 40
0.0
 41
0.0
 42
0.0
 43
0.0
 44
279.4
 45
215.9
 46
0.0
 47
0.0
 48
0.0
 49
0.0
140
0.0
141
0.0
142
1.0
143
1.0
 70
1024
 72
0
 73
0
 74
0
  7

 75
0
147
1.0
148
0.0
149
0.0
100
AcDbLayout
  1
Model
 70
0
 71
0
 10
0.0
 20
0.0
 11
11.0
 21
8.5
 12
0.0
 22
0.0
 32
0.0
 14
0.0
 24
0.0
 34
0.0
 15
0.0
 25
0.0
 35
0.0
146
0.0
 13
0.0
 23
0.0
 33
0.0
 16
1.0
 26
0.0
 36
0.0
 17
0.0
 27
1.0
 37
0.0
 76
0
330
203
345
0
346
0
  0
LAYOUT
  5
3BA
102
{ACAD_REACTORS
330
1A
102
}
100
AcDbPlotSettings
  1

  2
none_device
  4
ANSI_A_(11.00_x_8.50_Inches)
  6

 40
0.0
 41
0.0
 42
0.0
 43
0.0
 44
279.4
 45
215.9
 46
0.0
 47
0.0
 48
0.0
 49
0.0
140
0.0
141
0.0
142
1.0
143
1.0
 70
0
 72
0
 73
0
 74
0
  7

 75
0
147
1.0
148
0.0
149
0.0
100
AcDbLayout
  1
Layout1
 70
0
 71
1
 10
0.0
 20
0.0
 11
11.0
 21
8.5
 12
0.0
 22
0.0
 32
0.0
 14
0.0
 24
0.0
 34
0.0
 15
0.0
 25
0.0
 35
0.0
146
0.0
 13
0.0
 23
0.0
 33
0.0
 16
1.0
 26
0.0
 36
0.0
 17
0.0
 27
1.0
 37
0.0
 76
0
330
204
345
0
346
0
  0
ENDSEC
  0
EOF
