999
DXF file: 3230-5603_Right.dxf
999
Pro/ENGINEER 2023134 by Parametric Technology Corporation
  0
SECTION
  2
HEADER
  9
$ACADVER
  1
AC1032
  9
$DWGCODEPAGE
  3
ANSI_1252
  9
$EXTMAX
 10
11.0
 20
8.5
 30
0.0
  9
$EXTMIN
 10
0.0
 20
0.0
 30
0.0
  9
$LIMMIN
 10
0.0
 20
0.0
  9
$LIMMAX
 10
11.0
 20
8.5
  9
$VIEWCTR
 10
5.5
 20
4.25
  9
$VIEWSIZE
 40
8.5
  9
$CLAYER
  8
0
  9
$LTSCALE
 40
0.605
  9
$CELTYPE
  6
BYLAYER
  9
$DIMSCALE
 40
1.0
  9
$DIMASZ
 40
0.1
  9
$DIMEXO
 40
0.0625
  9
$DIMDLI
 40
0.418
  9
$DIMEXE
 40
0.125
  9
$DIMCEN
 40
0.099
  9
$DIMLFAC
 40
1.0
  9
$DIMBLK
  1
_FILLED
  9
$DIMALT
 70
1
  9
$DIMALTD
 70
2
  9
$DIMALTTD
 70
2
  9
$DIMALTF
 40
25.4
  9
$DIMTXT
 40
0.08
  9
$DIMTOL
 70
1
  9
$DIMLIM
 70
0
  9
$DIMTFAC
 40
1.0
  9
$DIMTP
 40
0.001
  9
$DIMTM
 40
0.001
  9
$DIMGAP
 40
0.09
  9
$DIMDSEP
 70
46
  9
$AUNITS
 70
0
  9
$PDMODE
 70
3
  9
$PDSIZE
 40
0.3125
  9
$HANDSEED
  5
4D7
  9
$TILEMODE
 70
1
  9
$MEASUREMENT
 70
0
  9
$INSUNITS
 70
1
  0
ENDSEC
  0
SECTION
  2
CLASSES
  0
CLASS
  1
ACDBDICTIONARYWDFLT
  2
AcDbDictionaryWithDefault
  3
AutoCAD 2000
 90
0
 91
1
280
0
281
0
  0
CLASS
  1
ACDBPLACEHOLDER
  2
AcDbPlaceHolder
  3
AutoCAD 2000
 90
0
 91
1
280
0
281
0
  0
CLASS
  1
LAYOUT
  2
AcDbLayout
  3
AutoCAD 2000
 90
0
 91
0
280
0
281
0
  0
ENDSEC
  0
SECTION
  2
TABLES
  0
TABLE
  2
VPORT
  5
8
100
AcDbSymbolTable
 70
2
  0
VPORT
  5
1F4
100
AcDbSymbolTableRecord
100
AcDbViewportTableRecord
  2
*ACTIVE
 70
0
 10
0.0
 20
0.0
 11
1.0
 21
1.0
 12
5.5
 22
4.25
 13
0.0
 23
0.0
 14
1.0
 24
1.0
 15
0.0
 25
0.0
 16
0.0
 26
0.0
 36
1.0
 17
0.0
 27
0.0
 37
0.0
 40
8.5
 41
1.2941176471
 42
50.0
 43
0.0
 44
0.0
 50
0.0
 51
0.0
 71
0
 72
100
 73
1
 74
1
 75
0
 76
0
 77
0
 78
0
  0
ENDTAB
  0
TABLE
  2
LTYPE
  5
5
100
AcDbSymbolTable
 70
6
  0
LTYPE
  5
14
100
AcDbSymbolTableRecord
100
AcDbLinetypeTableRecord
  2
BYBLOCK
 70
0
  3

 72
65
 73
0
 40
0.0
  0
LTYPE
  5
15
100
AcDbSymbolTableRecord
100
AcDbLinetypeTableRecord
  2
BYLAYER
 70
0
  3

 72
65
 73
0
 40
0.0
  0
LTYPE
  5
16
100
AcDbSymbolTableRecord
100
AcDbLinetypeTableRecord
  2
CONTINUOUS
 70
64
  3
Solid line
 72
65
 73
0
 40
0.0
  0
LTYPE
  5
1F5
100
AcDbSymbolTableRecord
100
AcDbLinetypeTableRecord
  2
CENTER
 70
64
  3
____ _ ____ _ ____ _ ____ _ ____ _ ____ _ ____
 72
65
 73
4
 40
0.6
 49
0.375
 74
0
 49
-0.075
 74
0
 49
0.075
 74
0
 49
-0.075
 74
0
  0
LTYPE
  5
1F6
100
AcDbSymbolTableRecord
100
AcDbLinetypeTableRecord
  2
HIDDEN
 70
64
  3
- - - - - - - - - - - - - - - - - - - -
 72
65
 73
2
 40
0.2
 49
0.1
 74
0
 49
-0.1
 74
0
  0
LTYPE
  5
1F7
100
AcDbSymbolTableRecord
100
AcDbLinetypeTableRecord
  2
PHANTOM
 70
64
  3
_____ _ _ _____ _ _ _____ _ _ _____
 72
65
 73
6
 40
0.8
 49
0.45
 74
0
 49
-0.05
 74
0
 49
0.1
 74
0
 49
-0.05
 74
0
 49
0.1
 74
0
 49
-0.05
 74
0
  0
LTYPE
  5
1F8
100
AcDbSymbolTableRecord
100
AcDbLinetypeTableRecord
  2
DOT
 70
64
  3
. . . . . . . . . . . . . . . . . . . .
 72
65
 73
2
 40
0.2
 49
0.1
 74
0
 49
-0.1
 74
0
  0
LTYPE
  5
1F9
100
AcDbSymbolTableRecord
100
AcDbLinetypeTableRecord
  2
DASHED
 70
64
  3
- - - - - - - - - - - - - - - - - - - -
 72
65
 73
2
 40
0.2
 49
0.1
 74
0
 49
-0.1
 74
0
  0
ENDTAB
  0
TABLE
  2
LAYER
  5
2
100
AcDbSymbolTable
 70
36
  0
LAYER
  5
10
100
AcDbSymbolTableRecord
100
AcDbLayerTableRecord
  2
0
 70
0
 62
7
  6
CONTINUOUS
370
-3
390
F
  0
LAYER
  5
1FA
100
AcDbSymbolTableRecord
100
AcDbLayerTableRecord
  2
DEFAULT_1
 70
0
 62
7
  6
CENTER
370
-3
390
F
  0
LAYER
  5
1FB
100
AcDbSymbolTableRecord
100
AcDbLayerTableRecord
  2
DEFAULT_2
 70
0
 62
8
  6
HIDDEN
370
-3
390
F
  0
LAYER
  5
1FC
100
AcDbSymbolTableRecord
100
AcDbLayerTableRecord
  2
DEFAULT_3
 70
0
 62
7
  6
PHANTOM
370
-3
390
F
  0
LAYER
  5
1FD
100
AcDbSymbolTableRecord
100
AcDbLayerTableRecord
  2
DEFAULT_COORDINATE_SYSTEM
 70
0
 62
7
  6
CONTINUOUS
370
-3
390
F
  0
LAYER
  5
1FE
100
AcDbSymbolTableRecord
100
AcDbLayerTableRecord
  2
DEFAULT_DATUM_AXES
 70
0
 62
7
  6
CONTINUOUS
370
-3
390
F
  0
LAYER
  5
1FF
100
AcDbSymbolTableRecord
100
AcDbLayerTableRecord
  2
DEFAULT_DATUM_CURVES
 70
0
 62
7
  6
CONTINUOUS
370
-3
390
F
  0
LAYER
  5
200
100
AcDbSymbolTableRecord
100
AcDbLayerTableRecord
  2
DEFAULT_DATUM_PLANES
 70
0
 62
7
  6
CONTINUOUS
370
-3
390
F
  0
ENDTAB
  0
TABLE
  2
STYLE
  5
3
100
AcDbSymbolTable
 70
1
  0
STYLE
  5
11
100
AcDbSymbolTableRecord
100
AcDbTextStyleTableRecord
  2
STANDARD
 70
0
 40
0.0
 41
0.8
 50
0.0
 71
0
 42
0.2
  3
txt
  4

  0
STYLE
  5
201
100
AcDbSymbolTableRecord
100
AcDbTextStyleTableRecord
  2
TEXTSTYLE_1
 70
0
 40
0.0
 41
0.8
 50
0.0
 71
0
 42
0.2
  3
gdt
  4

  0
ENDTAB
  0
TABLE
  2
VIEW
  5
6
100
AcDbSymbolTable
 70
0
  0
ENDTAB
  0
TABLE
  2
UCS
  5
7
100
AcDbSymbolTable
 70
0
  0
ENDTAB
  0
TABLE
  2
APPID
  5
9
100
AcDbSymbolTable
 70
1
  0
APPID
  5
202
100
AcDbSymbolTableRecord
100
AcDbRegAppTableRecord
  2
ACAD
 70
0
  0
ENDTAB
  0
TABLE
  2
BLOCK_RECORD
  5
1
100
AcDbSymbolTable
 70
0
  0
BLOCK_RECORD
  5
203
100
AcDbSymbolTableRecord
100
AcDbBlockTableRecord
  2
*Model_Space
  0
BLOCK_RECORD
  5
204
100
AcDbSymbolTableRecord
100
AcDbBlockTableRecord
  2
*Paper_Space
  0
BLOCK_RECORD
  5
205
100
AcDbSymbolTableRecord
100
AcDbBlockTableRecord
  2
_FILLED
  0
ENDTAB
  0
TABLE
  2
DIMSTYLE
  5
A
100
AcDbSymbolTable
 70
1
100
AcDbDimStyleTable
 71
0
  0
DIMSTYLE
105
206
100
AcDbSymbolTableRecord
100
AcDbDimStyleTableRecord
  2
STANDARD
 70
0
  3

  4

 40
1.0
 41
0.1
 42
0.0625
 43
0.38
 44
0.125
 45
0.0
 46
0.0
 47
0.001
 48
0.001
140
0.08
141
0.09
142
0.0
143
25.4
144
1.0
145
0.0
146
1.0
147
0.09
 71
1
 72
0
 73
1
 74
1
 75
0
 76
0
 77
0
 78
4
 79
1
170
1
171
2
172
0
173
0
174
0
175
0
176
0
177
0
178
0
270
2
179
3
271
3
272
3
273
2
274
2
275
0
280
0
281
0
282
0
283
1
284
4
285
0
286
0
287
3
288
0
340
11
278
46
341
205
342
205
343
205
344
205
  0
ENDTAB
  0
ENDSEC
  0
SECTION
  2
BLOCKS
  0
BLOCK
  5
20
100
AcDbEntity
  8
0
100
AcDbBlockBegin
  2
*Model_Space
 70
0
 10
0.0
 20
0.0
 30
0.0
  3
*Model_Space
  1

  0
ENDBLK
  5
21
100
AcDbEntity
  8
0
100
AcDbBlockEnd
  0
BLOCK
  5
1C
100
AcDbEntity
  8
0
100
AcDbBlockBegin
  2
*Paper_Space
 70
0
 10
0.0
 20
0.0
 30
0.0
  3
*Paper_Space
  1

  0
ENDBLK
  5
1D
100
AcDbEntity
  8
0
100
AcDbBlockEnd
  0
BLOCK
  5
207
100
AcDbEntity
  8
0
100
AcDbBlockBegin
  2
_FILLED
 70
64
 10
0.0
 20
0.0
  3
_FILLED
  1

  0
SOLID
  5
208
100
AcDbEntity
  8
0
  6
BYBLOCK
 62
0
100
AcDbTrace
 10
0.0
 20
0.0
 11
-1.0
 21
0.2
 12
-1.0
 22
-0.2
 13
-1.0
 23
-0.2
  0
ENDBLK
  5
209
100
AcDbEntity
  8
0
  6
BYBLOCK
 62
0
100
AcDbBlockEnd
  0
ENDSEC
  0
SECTION
  2
ENTITIES
  0
MTEXT
  5
20A
100
AcDbEntity
  8
0
100
AcDbMText
 62
2
  6
CONTINUOUS
  7
STANDARD
 71
2
 72
1
 10
5.5918098008
 20
1.5406471259
 30
0.0
 11
1.0
 21
0.0
 31
0.0
 73
2
 44
0.9
  1
SCALE 0.500
 40
0.08
 41
0.704
  0
LINE
  5
20B
100
AcDbEntity
  8
0
100
AcDbLine
 62
7
  6
CONTINUOUS
 10
0.0
 20
0.0
 11
0.0
 21
8.5
  0
LINE
  5
20C
100
AcDbEntity
  8
0
100
AcDbLine
 62
7
  6
CONTINUOUS
 10
0.0
 20
0.0
 11
11.0
 21
0.0
  0
LINE
  5
20D
100
AcDbEntity
  8
0
100
AcDbLine
 62
7
  6
CONTINUOUS
 10
0.0
 20
8.5
 11
11.0
 21
8.5
  0
LINE
  5
20E
100
AcDbEntity
  8
0
100
AcDbLine
 62
7
  6
CONTINUOUS
 10
11.0
 20
0.0
 11
11.0
 21
8.5
  0
LINE
  5
20F
100
AcDbEntity
  8
0
100
AcDbLine
 62
7
  6
CONTINUOUS
 10
5.758907967
 20
2.2231196534
 11
6.973907967
 21
2.2231196534
  0
LINE
  5
210
100
AcDbEntity
  8
0
100
AcDbLine
 62
7
  6
CONTINUOUS
 10
6.973907967
 20
2.3312380961
 11
5.758907967
 21
2.3312380961
  0
LINE
  5
211
100
AcDbEntity
  8
0
100
AcDbLine
 62
7
  6
CONTINUOUS
 10
6.9575574922
 20
2.3517169124
 11
5.7752584419
 21
2.3517169124
  0
LINE
  5
212
100
AcDbEntity
  8
0
100
AcDbLine
 62
7
  6
CONTINUOUS
 10
5.9030343703
 20
2.3879630175
 11
6.8297815637
 21
2.3879630175
  0
LINE
  5
213
100
AcDbEntity
  8
0
100
AcDbLine
 62
7
  6
CONTINUOUS
 10
5.963907967
 20
2.4731196534
 11
6.768907967
 21
2.4731196534
  0
LINE
  5
214
100
AcDbEntity
  8
0
100
AcDbLine
 62
7
  6
CONTINUOUS
 10
6.2322832386
 20
2.9588088092
 11
6.2408208974
 21
2.961096468
  0
LINE
  5
215
100
AcDbEntity
  8
0
100
AcDbLine
 62
7
  6
CONTINUOUS
 10
6.5839311524
 20
3.0530325837
 11
6.5924688112
 21
3.0553202425
  0
LINE
  5
216
100
AcDbEntity
  8
0
100
AcDbLine
 62
7
  6
CONTINUOUS
 10
6.2136358463
 20
2.9713349961
 11
6.2223403993
 21
2.9728698437
  0
LINE
  5
217
100
AcDbEntity
  8
0
100
AcDbLine
 62
7
  6
CONTINUOUS
 10
6.5721577767
 20
3.0345520856
 11
6.5808623297
 21
3.0360869332
  0
LINE
  5
218
100
AcDbEntity
  8
0
100
AcDbLine
 62
7
  6
CONTINUOUS
 10
6.1961511421
 20
2.9854387445
 11
6.2049563424
 21
2.9862090997
  0
LINE
  5
219
100
AcDbEntity
  8
0
100
AcDbLine
 62
7
  6
CONTINUOUS
 10
6.5588185207
 20
3.0171680288
 11
6.567623721
 21
3.017938384
  0
LINE
  5
21A
100
AcDbEntity
  8
0
100
AcDbLine
 62
7
  6
CONTINUOUS
 10
6.413907967
 20
2.9286196534
 11
6.318907967
 21
2.9286196534
  0
LINE
  5
21B
100
AcDbEntity
  8
0
100
AcDbLine
 62
7
  6
CONTINUOUS
 10
6.303907967
 20
2.9436196534
 11
6.428907967
 21
2.9436196534
  0
LINE
  5
21C
100
AcDbEntity
  8
0
100
AcDbLine
 62
7
  6
CONTINUOUS
 10
6.1799621951
 20
3.0010127162
 11
6.1888010299
 21
3.0010127162
  0
LINE
  5
21D
100
AcDbEntity
  8
0
100
AcDbLine
 62
7
  6
CONTINUOUS
 10
6.5440149042
 20
3.0010127162
 11
6.552853739
 21
3.0010127162
  0
LINE
  5
21E
100
AcDbEntity
  8
0
100
AcDbLine
 62
7
  6
CONTINUOUS
 10
6.165192213
 20
3.017938384
 11
6.1739974134
 21
3.0171680288
  0
LINE
  5
21F
100
AcDbEntity
  8
0
100
AcDbLine
 62
7
  6
CONTINUOUS
 10
6.5278595917
 20
2.9862090997
 11
6.536664792
 21
2.9854387445
  0
LINE
  5
220
100
AcDbEntity
  8
0
100
AcDbLine
 62
7
  6
CONTINUOUS
 10
4.241407967
 20
5.7981196534
 11
4.241407967
 21
5.4231196534
  0
LINE
  5
221
100
AcDbEntity
  8
0
100
AcDbLine
 62
7
  6
CONTINUOUS
 10
6.5005326955
 20
3.3984304976
 11
6.4919950367
 21
3.3961428388
  0
LINE
  5
222
100
AcDbEntity
  8
0
100
AcDbLine
 62
7
  6
CONTINUOUS
 10
6.1488847816
 20
3.304206723
 11
6.1403471228
 21
3.3019190643
  0
LINE
  5
223
100
AcDbEntity
  8
0
100
AcDbLine
 62
7
  6
CONTINUOUS
 10
6.5191800878
 20
3.3859043106
 11
6.5104755348
 21
3.3843694631
  0
LINE
  5
224
100
AcDbEntity
  8
0
100
AcDbLine
 62
7
  6
CONTINUOUS
 10
6.1606581573
 20
3.3226872211
 11
6.1519536043
 21
3.3211523736
  0
LINE
  5
225
100
AcDbEntity
  8
0
100
AcDbLine
 62
7
  6
CONTINUOUS
 10
6.536664792
 20
3.3718005623
 11
6.5278595917
 21
3.3710302071
  0
LINE
  5
226
100
AcDbEntity
  8
0
100
AcDbLine
 62
7
  6
CONTINUOUS
 10
6.1739974134
 20
3.340071278
 11
6.165192213
 21
3.3393009228
  0
LINE
  5
227
100
AcDbEntity
  8
0
100
AcDbLine
 62
7
  6
CONTINUOUS
 10
6.1519536043
 20
3.0360869332
 11
6.1606581573
 21
3.0345520856
  0
LINE
  5
228
100
AcDbEntity
  8
0
100
AcDbLine
 62
7
  6
CONTINUOUS
 10
6.5104755348
 20
2.9728698437
 11
6.5191800878
 21
2.9713349961
  0
LINE
  5
229
100
AcDbEntity
  8
0
100
AcDbLine
 62
7
  6
CONTINUOUS
 10
6.1403471228
 20
3.0553202425
 11
6.1488847816
 21
3.0530325837
  0
LINE
  5
22A
100
AcDbEntity
  8
0
100
AcDbLine
 62
7
  6
CONTINUOUS
 10
6.4919950367
 20
2.961096468
 11
6.5005326955
 21
2.9588088092
  0
LINE
  5
22B
100
AcDbEntity
  8
0
100
AcDbLine
 62
7
  6
CONTINUOUS
 10
4.491407967
 20
5.7981196534
 11
4.491407967
 21
5.4231196534
  0
LINE
  5
22C
100
AcDbEntity
  8
0
100
AcDbLine
 62
7
  6
CONTINUOUS
 10
6.552853739
 20
3.3562265905
 11
6.5440149042
 21
3.3562265905
  0
LINE
  5
22D
100
AcDbEntity
  8
0
100
AcDbLine
 62
7
  6
CONTINUOUS
 10
6.1888010299
 20
3.3562265905
 11
6.1799621951
 21
3.3562265905
  0
LINE
  5
22E
100
AcDbEntity
  8
0
100
AcDbLine
 62
7
  6
CONTINUOUS
 10
6.567623721
 20
3.3393009228
 11
6.5588185207
 21
3.340071278
  0
LINE
  5
22F
100
AcDbEntity
  8
0
100
AcDbLine
 62
7
  6
CONTINUOUS
 10
6.2049563424
 20
3.3710302071
 11
6.1961511421
 21
3.3718005623
  0
LINE
  5
230
100
AcDbEntity
  8
0
100
AcDbLine
 62
7
  6
CONTINUOUS
 10
6.5808623297
 20
3.3211523736
 11
6.5721577767
 21
3.3226872211
  0
LINE
  5
231
100
AcDbEntity
  8
0
100
AcDbLine
 62
7
  6
CONTINUOUS
 10
6.2223403993
 20
3.3843694631
 11
6.2136358463
 21
3.3859043106
  0
LINE
  5
232
100
AcDbEntity
  8
0
100
AcDbLine
 62
7
  6
CONTINUOUS
 10
6.1304611009
 20
3.0754919348
 11
6.1387668887
 21
3.0724688752
  0
LINE
  5
233
100
AcDbEntity
  8
0
100
AcDbLine
 62
7
  6
CONTINUOUS
 10
6.4725587452
 20
2.950978575
 11
6.480864533
 21
2.9479555155
  0
LINE
  5
234
100
AcDbEntity
  8
0
100
AcDbLine
 62
7
  6
CONTINUOUS
 10
6.122370777
 20
3.0964484912
 11
6.1303814818
 21
3.0927130382
  0
LINE
  5
235
100
AcDbEntity
  8
0
100
AcDbLine
 62
7
  6
CONTINUOUS
 10
6.4523145822
 20
2.9425931681
 11
6.4603252869
 21
2.9388577151
  0
LINE
  5
236
100
AcDbEntity
  8
0
100
AcDbLine
 62
7
  6
CONTINUOUS
 10
5.963907967
 20
3.6481196534
 11
6.303907967
 21
3.6481196534
  0
LINE
  5
237
100
AcDbEntity
  8
0
100
AcDbLine
 62
7
  6
CONTINUOUS
 10
6.428907967
 20
3.6481196534
 11
6.768907967
 21
3.6481196534
  0
LINE
  5
238
100
AcDbEntity
  8
0
100
AcDbLine
 62
7
  6
CONTINUOUS
 10
5.9639810616
 20
3.6631196534
 11
5.9641647204
 21
3.6631196534
  0
LINE
  5
239
100
AcDbEntity
  8
0
100
AcDbLine
 62
7
  6
CONTINUOUS
 10
5.964934014
 20
3.6631196534
 11
5.9654682737
 21
3.6631196534
  0
LINE
  5
23A
100
AcDbEntity
  8
0
100
AcDbLine
 62
7
  6
CONTINUOUS
 10
5.9669873785
 20
3.6631196534
 11
5.9678707748
 21
3.6631196534
  0
LINE
  5
23B
100
AcDbEntity
  8
0
100
AcDbLine
 62
7
  6
CONTINUOUS
 10
5.9701355272
 20
3.6631196534
 11
5.9713656386
 21
3.6631196534
  0
LINE
  5
23C
100
AcDbEntity
  8
0
100
AcDbLine
 62
7
  6
CONTINUOUS
 10
5.974369831
 20
3.6631196534
 11
5.975943286
 21
3.6631196534
  0
LINE
  5
23D
100
AcDbEntity
  8
0
100
AcDbLine
 62
7
  6
CONTINUOUS
 10
5.9796786841
 20
3.6631196534
 11
5.9815911699
 21
3.6631196534
  0
LINE
  5
23E
100
AcDbEntity
  8
0
100
AcDbLine
 62
7
  6
CONTINUOUS
 10
5.9860475354
 20
3.6631196534
 11
5.9882938099
 21
3.6631196534
  0
LINE
  5
23F
100
AcDbEntity
  8
0
100
AcDbLine
 62
7
  6
CONTINUOUS
 10
5.9934589281
 20
3.6631196534
 11
5.9960328346
 21
3.6631196534
  0
LINE
  5
240
100
AcDbEntity
  8
0
100
AcDbLine
 62
7
  6
CONTINUOUS
 10
6.0018925482
 20
3.6631196534
 11
6.0047870317
 21
3.6631196534
  0
LINE
  5
241
100
AcDbEntity
  8
0
100
AcDbLine
 62
7
  6
CONTINUOUS
 10
6.0113252797
 20
3.6631196534
 11
6.0145324067
 21
3.6631196534
  0
LINE
  5
242
100
AcDbEntity
  8
0
100
AcDbLine
 62
7
  6
CONTINUOUS
 10
6.0217312682
 20
3.6631196534
 11
6.0252422482
 21
3.6631196534
  0
LINE
  5
243
100
AcDbEntity
  8
0
100
AcDbLine
 62
7
  6
CONTINUOUS
 10
6.0330819916
 20
3.6631196534
 11
6.0368872011
 21
3.6631196534
  0
LINE
  5
244
100
AcDbEntity
  8
0
100
AcDbLine
 62
7
  6
CONTINUOUS
 10
6.0453463383
 20
3.6631196534
 11
6.0494353476
 21
3.6631196534
  0
LINE
  5
245
100
AcDbEntity
  8
0
100
AcDbLine
 62
7
  6
CONTINUOUS
 10
6.0584906926
 20
3.6631196534
 11
6.062852294
 21
3.6631196534
  0
LINE
  5
246
100
AcDbEntity
  8
0
100
AcDbLine
 62
7
  6
CONTINUOUS
 10
6.0724790268
 20
3.6631196534
 11
6.0771012654
 21
3.6631196534
  0
LINE
  5
247
100
AcDbEntity
  8
0
100
AcDbLine
 62
7
  6
CONTINUOUS
 10
6.0872729997
 20
3.6631196534
 11
6.0921432064
 21
3.6631196534
  0
LINE
  5
248
100
AcDbEntity
  8
0
100
AcDbLine
 62
7
  6
CONTINUOUS
 10
6.1028320622
 20
3.6631196534
 11
6.107936888
 21
3.6631196534
  0
LINE
  5
249
100
AcDbEntity
  8
0
100
AcDbLine
 62
7
  6
CONTINUOUS
 10
6.1191135679
 20
3.6631196534
 11
6.1244390208
 21
3.6631196534
  0
LINE
  5
24A
100
AcDbEntity
  8
0
100
AcDbLine
 62
7
  6
CONTINUOUS
 10
6.1360728904
 20
3.6631196534
 11
6.1416043738
 21
3.6631196534
  0
LINE
  5
24B
100
AcDbEntity
  8
0
100
AcDbLine
 62
7
  6
CONTINUOUS
 10
6.1536635453
 20
3.6631196534
 11
6.1593858977
 21
3.6631196534
  0
LINE
  5
24C
100
AcDbEntity
  8
0
100
AcDbLine
 62
7
  6
CONTINUOUS
 10
6.1718373179
 20
3.6631196534
 11
6.1777348548
 21
3.6631196534
  0
LINE
  5
24D
100
AcDbEntity
  8
0
100
AcDbLine
 62
7
  6
CONTINUOUS
 10
6.1905443951
 20
3.6631196534
 11
6.1966009517
 21
3.6631196534
  0
LINE
  5
24E
100
AcDbEntity
  8
0
100
AcDbLine
 62
7
  6
CONTINUOUS
 10
6.2097335022
 20
3.6631196534
 11
6.2159324779
 21
3.6631196534
  0
LINE
  5
24F
100
AcDbEntity
  8
0
100
AcDbLine
 62
7
  6
CONTINUOUS
 10
6.229352043
 20
3.6631196534
 11
6.2356764469
 21
3.6631196534
  0
LINE
  5
250
100
AcDbEntity
  8
0
100
AcDbLine
 62
7
  6
CONTINUOUS
 10
6.2493462447
 20
3.6631196534
 11
6.2557787419
 21
3.6631196534
  0
LINE
  5
251
100
AcDbEntity
  8
0
100
AcDbLine
 62
7
  6
CONTINUOUS
 10
6.2696613043
 20
3.6631196534
 11
6.276184264
 21
3.6631196534
  0
LINE
  5
252
100
AcDbEntity
  8
0
100
AcDbLine
 62
7
  6
CONTINUOUS
 10
6.2902415399
 20
3.6631196534
 11
6.2968370829
 21
3.6631196534
  0
LINE
  5
253
100
AcDbEntity
  8
0
100
AcDbLine
 62
7
  6
CONTINUOUS
 10
6.4369374176
 20
3.6631196534
 11
6.443530005
 21
3.6631196534
  0
LINE
  5
254
100
AcDbEntity
  8
0
100
AcDbLine
 62
7
  6
CONTINUOUS
 10
6.4575800566
 20
3.6631196534
 11
6.4640992299
 21
3.6631196534
  0
LINE
  5
255
100
AcDbEntity
  8
0
100
AcDbLine
 62
7
  6
CONTINUOUS
 10
6.4779727991
 20
3.6631196534
 11
6.4844006899
 21
3.6631196534
  0
LINE
  5
256
100
AcDbEntity
  8
0
100
AcDbLine
 62
7
  6
CONTINUOUS
 10
6.4980597502
 20
3.6631196534
 11
6.5043787401
 21
3.6631196534
  0
LINE
  5
257
100
AcDbEntity
  8
0
100
AcDbLine
 62
7
  6
CONTINUOUS
 10
6.5177858529
 20
3.6631196534
 11
6.5239786219
 21
3.6631196534
  0
LINE
  5
258
100
AcDbEntity
  8
0
100
AcDbLine
 62
7
  6
CONTINUOUS
 10
6.5370970394
 20
3.6631196534
 11
6.5431466135
 21
3.6631196534
  0
LINE
  5
259
100
AcDbEntity
  8
0
100
AcDbLine
 62
7
  6
CONTINUOUS
 10
6.555940379
 20
3.6631196534
 11
6.5618301768
 21
3.6631196534
  0
LINE
  5
25A
100
AcDbEntity
  8
0
100
AcDbLine
 62
7
  6
CONTINUOUS
 10
6.5742642234
 20
3.6631196534
 11
6.5799781014
 21
3.6631196534
  0
LINE
  5
25B
100
AcDbEntity
  8
0
100
AcDbLine
 62
7
  6
CONTINUOUS
 10
6.5920183482
 20
3.6631196534
 11
6.597540645
 21
3.6631196534
  0
LINE
  5
25C
100
AcDbEntity
  8
0
100
AcDbLine
 62
7
  6
CONTINUOUS
 10
6.6091540907
 20
3.6631196534
 11
6.6144696701
 21
3.6631196534
  0
LINE
  5
25D
100
AcDbEntity
  8
0
100
AcDbLine
 62
7
  6
CONTINUOUS
 10
6.6256244829
 20
3.6631196534
 11
6.6307187753
 21
3.6631196534
  0
LINE
  5
25E
100
AcDbEntity
  8
0
100
AcDbLine
 62
7
  6
CONTINUOUS
 10
6.6413843807
 20
3.6631196534
 11
6.646243423
 21
3.6631196534
  0
LINE
  5
25F
100
AcDbEntity
  8
0
100
AcDbLine
 62
7
  6
CONTINUOUS
 10
6.6563905872
 20
3.6631196534
 11
6.6610010611
 21
3.6631196534
  0
LINE
  5
260
100
AcDbEntity
  8
0
100
AcDbLine
 62
7
  6
CONTINUOUS
 10
6.6706019716
 20
3.6631196534
 11
6.67495124
 21
3.6631196534
  0
LINE
  5
261
100
AcDbEntity
  8
0
100
AcDbLine
 62
7
  6
CONTINUOUS
 10
6.6839795813
 20
3.6631196534
 11
6.6880557232
 21
3.6631196534
  0
LINE
  5
262
100
AcDbEntity
  8
0
100
AcDbLine
 62
7
  6
CONTINUOUS
 10
6.6964867493
 20
3.6631196534
 11
6.7002785924
 21
3.6631196534
  0
LINE
  5
263
100
AcDbEntity
  8
0
100
AcDbLine
 62
7
  6
CONTINUOUS
 10
6.7080891943
 20
3.6631196534
 11
6.7115863453
 21
3.6631196534
  0
LINE
  5
264
100
AcDbEntity
  8
0
100
AcDbLine
 62
7
  6
CONTINUOUS
 10
6.7187551148
 20
3.6631196534
 11
6.7219479883
 21
3.6631196534
  0
LINE
  5
265
100
AcDbEntity
  8
0
100
AcDbLine
 62
7
  6
CONTINUOUS
 10
6.7284552762
 20
3.6631196534
 11
6.7313351208
 21
3.6631196534
  0
LINE
  5
266
100
AcDbEntity
  8
0
100
AcDbLine
 62
7
  6
CONTINUOUS
 10
6.7371630912
 20
3.6631196534
 11
6.7397220133
 21
3.6631196534
  0
LINE
  5
267
100
AcDbEntity
  8
0
100
AcDbLine
 62
7
  6
CONTINUOUS
 10
6.7448546921
 20
3.6631196534
 11
6.747085678
 21
3.6631196534
  0
LINE
  5
268
100
AcDbEntity
  8
0
100
AcDbLine
 62
7
  6
CONTINUOUS
 10
6.7515089968
 20
3.6631196534
 11
6.7534059316
 21
3.6631196534
  0
LINE
  5
269
100
AcDbEntity
  8
0
100
AcDbLine
 62
7
  6
CONTINUOUS
 10
6.7571077664
 20
3.6631196534
 11
6.7586654506
 21
3.6631196534
  0
LINE
  5
26A
100
AcDbEntity
  8
0
100
AcDbLine
 62
7
  6
CONTINUOUS
 10
6.761635655
 20
3.6631196534
 11
6.7628498191
 21
3.6631196534
  0
LINE
  5
26B
100
AcDbEntity
  8
0
100
AcDbLine
 62
7
  6
CONTINUOUS
 10
6.765080252
 20
3.6631196534
 11
6.7659475681
 21
3.6631196534
  0
LINE
  5
26C
100
AcDbEntity
  8
0
100
AcDbLine
 62
7
  6
CONTINUOUS
 10
6.767432116
 20
3.6631196534
 11
6.7679502068
 21
3.6631196534
  0
LINE
  5
26D
100
AcDbEntity
  8
0
100
AcDbLine
 62
7
  6
CONTINUOUS
 10
6.7686848007
 20
3.6631196534
 11
6.7688522461
 21
3.6631196534
  0
LINE
  5
26E
100
AcDbEntity
  8
0
100
AcDbLine
 62
7
  6
CONTINUOUS
 10
6.5924688112
 20
3.3019190643
 11
6.5839311524
 21
3.304206723
  0
LINE
  5
26F
100
AcDbEntity
  8
0
100
AcDbLine
 62
7
  6
CONTINUOUS
 10
6.2408208974
 20
3.3961428388
 11
6.2322832386
 21
3.3984304976
  0
LINE
  5
270
100
AcDbEntity
  8
0
100
AcDbLine
 62
7
  6
CONTINUOUS
 10
6.1161377235
 20
3.1180304199
 11
6.123792379
 21
3.1136110025
  0
LINE
  5
271
100
AcDbEntity
  8
0
100
AcDbLine
 62
7
  6
CONTINUOUS
 10
6.4314166179
 20
2.9360040653
 11
6.4390712734
 21
2.9315846479
  0
LINE
  5
272
100
AcDbEntity
  8
0
100
AcDbLine
 62
7
  6
CONTINUOUS
 10
6.4172642482
 20
2.9261916663
 11
6.4138713689
 21
2.9285673859
  0
LINE
  5
273
100
AcDbEntity
  8
0
100
AcDbLine
 62
7
  6
CONTINUOUS
 10
6.1118093777
 20
3.1400734692
 11
6.1190497273
 21
3.1350037218
  0
LINE
  5
274
100
AcDbEntity
  8
0
100
AcDbLine
 62
7
  6
CONTINUOUS
 10
6.6023548332
 20
3.281747372
 11
6.5940490454
 21
3.2847704315
  0
LINE
  5
275
100
AcDbEntity
  8
0
100
AcDbLine
 62
7
  6
CONTINUOUS
 10
6.2602571889
 20
3.4062607317
 11
6.2519514011
 21
3.4092837913
  0
LINE
  5
276
100
AcDbEntity
  8
0
100
AcDbLine
 62
7
  6
CONTINUOUS
 10
6.6104451571
 20
3.2607908155
 11
6.6024344523
 21
3.2645262685
  0
LINE
  5
277
100
AcDbEntity
  8
0
100
AcDbLine
 62
7
  6
CONTINUOUS
 10
6.2805013519
 20
3.4146461386
 11
6.2724906471
 21
3.4183815916
  0
LINE
  5
278
100
AcDbEntity
  8
0
100
AcDbLine
 62
7
  6
CONTINUOUS
 10
6.395070176
 20
2.922719814
 11
6.3882992357
 21
2.9284013075
  0
LINE
  5
279
100
AcDbEntity
  8
0
100
AcDbLine
 62
7
  6
CONTINUOUS
 10
6.1094186809
 20
3.1624098782
 11
6.1161896212
 21
3.1567283847
  0
LINE
  5
27A
100
AcDbEntity
  8
0
100
AcDbLine
 62
7
  6
CONTINUOUS
 10
5.9639810616
 20
3.8986196534
 11
5.9641647204
 21
3.8986196534
  0
LINE
  5
27B
100
AcDbEntity
  8
0
100
AcDbLine
 62
7
  6
CONTINUOUS
 10
5.964934014
 20
3.8986196534
 11
5.9654682737
 21
3.8986196534
  0
LINE
  5
27C
100
AcDbEntity
  8
0
100
AcDbLine
 62
7
  6
CONTINUOUS
 10
5.9669873785
 20
3.8986196534
 11
5.9678707748
 21
3.8986196534
  0
LINE
  5
27D
100
AcDbEntity
  8
0
100
AcDbLine
 62
7
  6
CONTINUOUS
 10
5.9701355272
 20
3.8986196534
 11
5.9713656386
 21
3.8986196534
  0
LINE
  5
27E
100
AcDbEntity
  8
0
100
AcDbLine
 62
7
  6
CONTINUOUS
 10
5.974369831
 20
3.8986196534
 11
5.975943286
 21
3.8986196534
  0
LINE
  5
27F
100
AcDbEntity
  8
0
100
AcDbLine
 62
7
  6
CONTINUOUS
 10
5.9796786841
 20
3.8986196534
 11
5.9815911699
 21
3.8986196534
  0
LINE
  5
280
100
AcDbEntity
  8
0
100
AcDbLine
 62
7
  6
CONTINUOUS
 10
5.9860475354
 20
3.8986196534
 11
5.9882938099
 21
3.8986196534
  0
LINE
  5
281
100
AcDbEntity
  8
0
100
AcDbLine
 62
7
  6
CONTINUOUS
 10
5.9934589281
 20
3.8986196534
 11
5.9960328346
 21
3.8986196534
  0
LINE
  5
282
100
AcDbEntity
  8
0
100
AcDbLine
 62
7
  6
CONTINUOUS
 10
6.0018925482
 20
3.8986196534
 11
6.0047870317
 21
3.8986196534
  0
LINE
  5
283
100
AcDbEntity
  8
0
100
AcDbLine
 62
7
  6
CONTINUOUS
 10
6.0113252797
 20
3.8986196534
 11
6.0145324067
 21
3.8986196534
  0
LINE
  5
284
100
AcDbEntity
  8
0
100
AcDbLine
 62
7
  6
CONTINUOUS
 10
6.0217312682
 20
3.8986196534
 11
6.0252422482
 21
3.8986196534
  0
LINE
  5
285
100
AcDbEntity
  8
0
100
AcDbLine
 62
7
  6
CONTINUOUS
 10
6.0330819916
 20
3.8986196534
 11
6.0368872011
 21
3.8986196534
  0
LINE
  5
286
100
AcDbEntity
  8
0
100
AcDbLine
 62
7
  6
CONTINUOUS
 10
6.0453463383
 20
3.8986196534
 11
6.0494353476
 21
3.8986196534
  0
LINE
  5
287
100
AcDbEntity
  8
0
100
AcDbLine
 62
7
  6
CONTINUOUS
 10
6.0584906926
 20
3.8986196534
 11
6.062852294
 21
3.8986196534
  0
LINE
  5
288
100
AcDbEntity
  8
0
100
AcDbLine
 62
7
  6
CONTINUOUS
 10
6.0724790268
 20
3.8986196534
 11
6.0771012654
 21
3.8986196534
  0
LINE
  5
289
100
AcDbEntity
  8
0
100
AcDbLine
 62
7
  6
CONTINUOUS
 10
6.0872729997
 20
3.8986196534
 11
6.0921432064
 21
3.8986196534
  0
LINE
  5
28A
100
AcDbEntity
  8
0
100
AcDbLine
 62
7
  6
CONTINUOUS
 10
6.1028320622
 20
3.8986196534
 11
6.107936888
 21
3.8986196534
  0
LINE
  5
28B
100
AcDbEntity
  8
0
100
AcDbLine
 62
7
  6
CONTINUOUS
 10
6.1191135679
 20
3.8986196534
 11
6.1244390208
 21
3.8986196534
  0
LINE
  5
28C
100
AcDbEntity
  8
0
100
AcDbLine
 62
7
  6
CONTINUOUS
 10
6.1360728904
 20
3.8986196534
 11
6.1416043738
 21
3.8986196534
  0
LINE
  5
28D
100
AcDbEntity
  8
0
100
AcDbLine
 62
7
  6
CONTINUOUS
 10
6.1536635453
 20
3.8986196534
 11
6.1593858977
 21
3.8986196534
  0
LINE
  5
28E
100
AcDbEntity
  8
0
100
AcDbLine
 62
7
  6
CONTINUOUS
 10
6.1718373179
 20
3.8986196534
 11
6.1777348548
 21
3.8986196534
  0
LINE
  5
28F
100
AcDbEntity
  8
0
100
AcDbLine
 62
7
  6
CONTINUOUS
 10
6.1905443951
 20
3.8986196534
 11
6.1966009517
 21
3.8986196534
  0
LINE
  5
290
100
AcDbEntity
  8
0
100
AcDbLine
 62
7
  6
CONTINUOUS
 10
6.2097335022
 20
3.8986196534
 11
6.2159324779
 21
3.8986196534
  0
LINE
  5
291
100
AcDbEntity
  8
0
100
AcDbLine
 62
7
  6
CONTINUOUS
 10
6.229352043
 20
3.8986196534
 11
6.2356764469
 21
3.8986196534
  0
LINE
  5
292
100
AcDbEntity
  8
0
100
AcDbLine
 62
7
  6
CONTINUOUS
 10
6.2493462447
 20
3.8986196534
 11
6.2557787419
 21
3.8986196534
  0
LINE
  5
293
100
AcDbEntity
  8
0
100
AcDbLine
 62
7
  6
CONTINUOUS
 10
6.2696613043
 20
3.8986196534
 11
6.276184264
 21
3.8986196534
  0
LINE
  5
294
100
AcDbEntity
  8
0
100
AcDbLine
 62
7
  6
CONTINUOUS
 10
6.2902415399
 20
3.8986196534
 11
6.2968370829
 21
3.8986196534
  0
LINE
  5
295
100
AcDbEntity
  8
0
100
AcDbLine
 62
7
  6
CONTINUOUS
 10
6.4369374176
 20
3.8986196534
 11
6.443530005
 21
3.8986196534
  0
LINE
  5
296
100
AcDbEntity
  8
0
100
AcDbLine
 62
7
  6
CONTINUOUS
 10
6.4575800566
 20
3.8986196534
 11
6.4640992299
 21
3.8986196534
  0
LINE
  5
297
100
AcDbEntity
  8
0
100
AcDbLine
 62
7
  6
CONTINUOUS
 10
6.4779727991
 20
3.8986196534
 11
6.4844006899
 21
3.8986196534
  0
LINE
  5
298
100
AcDbEntity
  8
0
100
AcDbLine
 62
7
  6
CONTINUOUS
 10
6.4980597502
 20
3.8986196534
 11
6.5043787401
 21
3.8986196534
  0
LINE
  5
299
100
AcDbEntity
  8
0
100
AcDbLine
 62
7
  6
CONTINUOUS
 10
6.5177858529
 20
3.8986196534
 11
6.5239786219
 21
3.8986196534
  0
LINE
  5
29A
100
AcDbEntity
  8
0
100
AcDbLine
 62
7
  6
CONTINUOUS
 10
6.5370970394
 20
3.8986196534
 11
6.5431466135
 21
3.8986196534
  0
LINE
  5
29B
100
AcDbEntity
  8
0
100
AcDbLine
 62
7
  6
CONTINUOUS
 10
6.555940379
 20
3.8986196534
 11
6.5618301768
 21
3.8986196534
  0
LINE
  5
29C
100
AcDbEntity
  8
0
100
AcDbLine
 62
7
  6
CONTINUOUS
 10
6.5742642234
 20
3.8986196534
 11
6.5799781014
 21
3.8986196534
  0
LINE
  5
29D
100
AcDbEntity
  8
0
100
AcDbLine
 62
7
  6
CONTINUOUS
 10
6.5920183482
 20
3.8986196534
 11
6.597540645
 21
3.8986196534
  0
LINE
  5
29E
100
AcDbEntity
  8
0
100
AcDbLine
 62
7
  6
CONTINUOUS
 10
6.6091540907
 20
3.8986196534
 11
6.6144696701
 21
3.8986196534
  0
LINE
  5
29F
100
AcDbEntity
  8
0
100
AcDbLine
 62
7
  6
CONTINUOUS
 10
6.6256244829
 20
3.8986196534
 11
6.6307187753
 21
3.8986196534
  0
LINE
  5
2A0
100
AcDbEntity
  8
0
100
AcDbLine
 62
7
  6
CONTINUOUS
 10
6.6413843807
 20
3.8986196534
 11
6.646243423
 21
3.8986196534
  0
LINE
  5
2A1
100
AcDbEntity
  8
0
100
AcDbLine
 62
7
  6
CONTINUOUS
 10
6.6563905872
 20
3.8986196534
 11
6.6610010611
 21
3.8986196534
  0
LINE
  5
2A2
100
AcDbEntity
  8
0
100
AcDbLine
 62
7
  6
CONTINUOUS
 10
6.6706019716
 20
3.8986196534
 11
6.67495124
 21
3.8986196534
  0
LINE
  5
2A3
100
AcDbEntity
  8
0
100
AcDbLine
 62
7
  6
CONTINUOUS
 10
6.6839795813
 20
3.8986196534
 11
6.6880557232
 21
3.8986196534
  0
LINE
  5
2A4
100
AcDbEntity
  8
0
100
AcDbLine
 62
7
  6
CONTINUOUS
 10
6.6964867493
 20
3.8986196534
 11
6.7002785924
 21
3.8986196534
  0
LINE
  5
2A5
100
AcDbEntity
  8
0
100
AcDbLine
 62
7
  6
CONTINUOUS
 10
6.7080891943
 20
3.8986196534
 11
6.7115863453
 21
3.8986196534
  0
LINE
  5
2A6
100
AcDbEntity
  8
0
100
AcDbLine
 62
7
  6
CONTINUOUS
 10
6.7187551148
 20
3.8986196534
 11
6.7219479883
 21
3.8986196534
  0
LINE
  5
2A7
100
AcDbEntity
  8
0
100
AcDbLine
 62
7
  6
CONTINUOUS
 10
6.7284552762
 20
3.8986196534
 11
6.7313351208
 21
3.8986196534
  0
LINE
  5
2A8
100
AcDbEntity
  8
0
100
AcDbLine
 62
7
  6
CONTINUOUS
 10
6.7371630912
 20
3.8986196534
 11
6.7397220133
 21
3.8986196534
  0
LINE
  5
2A9
100
AcDbEntity
  8
0
100
AcDbLine
 62
7
  6
CONTINUOUS
 10
6.7448546921
 20
3.8986196534
 11
6.747085678
 21
3.8986196534
  0
LINE
  5
2AA
100
AcDbEntity
  8
0
100
AcDbLine
 62
7
  6
CONTINUOUS
 10
6.7515089968
 20
3.8986196534
 11
6.7534059316
 21
3.8986196534
  0
LINE
  5
2AB
100
AcDbEntity
  8
0
100
AcDbLine
 62
7
  6
CONTINUOUS
 10
6.7571077664
 20
3.8986196534
 11
6.7586654506
 21
3.8986196534
  0
LINE
  5
2AC
100
AcDbEntity
  8
0
100
AcDbLine
 62
7
  6
CONTINUOUS
 10
6.761635655
 20
3.8986196534
 11
6.7628498191
 21
3.8986196534
  0
LINE
  5
2AD
100
AcDbEntity
  8
0
100
AcDbLine
 62
7
  6
CONTINUOUS
 10
6.765080252
 20
3.8986196534
 11
6.7659475681
 21
3.8986196534
  0
LINE
  5
2AE
100
AcDbEntity
  8
0
100
AcDbLine
 62
7
  6
CONTINUOUS
 10
6.767432116
 20
3.8986196534
 11
6.7679502068
 21
3.8986196534
  0
LINE
  5
2AF
100
AcDbEntity
  8
0
100
AcDbLine
 62
7
  6
CONTINUOUS
 10
6.7686848007
 20
3.8986196534
 11
6.7688522461
 21
3.8986196534
  0
LINE
  5
2B0
100
AcDbEntity
  8
0
100
AcDbLine
 62
7
  6
CONTINUOUS
 10
6.753907967
 20
3.9136196534
 11
6.428907967
 21
3.9136196534
  0
LINE
  5
2B1
100
AcDbEntity
  8
0
100
AcDbLine
 62
7
  6
CONTINUOUS
 10
6.303907967
 20
3.9136196534
 11
5.978907967
 21
3.9136196534
  0
LINE
  5
2B2
100
AcDbEntity
  8
0
100
AcDbLine
 62
7
  6
CONTINUOUS
 10
6.6166782105
 20
3.2392088869
 11
6.6090235551
 21
3.2436283043
  0
LINE
  5
2B3
100
AcDbEntity
  8
0
100
AcDbLine
 62
7
  6
CONTINUOUS
 10
6.2937446607
 20
3.4256546588
 11
6.3013993161
 21
3.4212352414
  0
LINE
  5
2B4
100
AcDbEntity
  8
0
100
AcDbLine
 62
7
  6
CONTINUOUS
 10
6.6210065563
 20
3.2171658376
 11
6.6137662068
 21
3.2222355849
  0
LINE
  5
2B5
100
AcDbEntity
  8
0
100
AcDbLine
 62
7
  6
CONTINUOUS
 10
6.372657967
 20
2.9211955141
 11
6.366407967
 21
2.9274455141
  0
LINE
  5
2B6
100
AcDbEntity
  8
0
100
AcDbLine
 62
7
  6
CONTINUOUS
 10
6.1089838277
 20
3.1848696534
 11
6.1152338277
 21
3.1786196534
  0
LINE
  5
2B7
100
AcDbEntity
  8
0
100
AcDbLine
 62
7
  6
CONTINUOUS
 10
6.6233972532
 20
3.1948294286
 11
6.6166263129
 21
3.200510922
  0
LINE
  5
2B8
100
AcDbEntity
  8
0
100
AcDbLine
 62
7
  6
CONTINUOUS
 10
6.3501981918
 20
2.9216303672
 11
6.3445166984
 21
2.9284013075
  0
LINE
  5
2B9
100
AcDbEntity
  8
0
100
AcDbLine
 62
7
  6
CONTINUOUS
 10
6.1105081277
 20
3.2072818623
 11
6.1161896212
 21
3.200510922
  0
LINE
  5
2BA
100
AcDbEntity
  8
0
100
AcDbLine
 62
7
  6
CONTINUOUS
 10
6.3278617828
 20
2.9240210641
 11
6.3246418159
 21
2.9286196534
  0
LINE
  5
2BB
100
AcDbEntity
  8
0
100
AcDbLine
 62
7
  6
CONTINUOUS
 10
6.1139799799
 20
3.2294759345
 11
6.1190497273
 21
3.2222355849
  0
LINE
  5
2BC
100
AcDbEntity
  8
0
100
AcDbLine
 62
7
  6
CONTINUOUS
 10
6.303907967
 20
4.2636196534
 11
6.428907967
 21
4.2636196534
  0
LINE
  5
2BD
100
AcDbEntity
  8
0
100
AcDbLine
 62
7
  6
CONTINUOUS
 10
6.318907967
 20
4.2786196534
 11
6.413907967
 21
4.2786196534
  0
LINE
  5
2BE
100
AcDbEntity
  8
0
100
AcDbLine
 62
7
  6
CONTINUOUS
 10
6.6238321063
 20
3.1723696534
 11
6.6175821063
 21
3.1786196534
  0
LINE
  5
2BF
100
AcDbEntity
  8
0
100
AcDbLine
 62
7
  6
CONTINUOUS
 10
6.3058187335
 20
2.9283494099
 11
6.3013993161
 21
2.9360040653
  0
LINE
  5
2C0
100
AcDbEntity
  8
0
100
AcDbLine
 62
7
  6
CONTINUOUS
 10
6.1193729616
 20
3.2512829597
 11
6.123792379
 21
3.2436283043
  0
LINE
  5
2C1
100
AcDbEntity
  8
0
100
AcDbLine
 62
7
  6
CONTINUOUS
 10
6.6223078064
 20
3.1499574444
 11
6.6166263129
 21
3.1567283847
  0
LINE
  5
2C2
100
AcDbEntity
  8
0
100
AcDbLine
 62
7
  6
CONTINUOUS
 10
6.6188359541
 20
3.1277633722
 11
6.6137662068
 21
3.1350037218
  0
LINE
  5
2C3
100
AcDbEntity
  8
0
100
AcDbLine
 62
7
  6
CONTINUOUS
 10
6.1266460288
 20
3.2725369733
 11
6.1303814818
 21
3.2645262685
  0
LINE
  5
2C4
100
AcDbEntity
  8
0
100
AcDbLine
 62
7
  6
CONTINUOUS
 10
6.2805013519
 20
2.9425931681
 11
6.2842368049
 21
2.9345824634
  0
LINE
  5
2C5
100
AcDbEntity
  8
0
100
AcDbLine
 62
7
  6
CONTINUOUS
 10
5.758907967
 20
2.3312380961
 11
5.758907967
 21
2.2231196534
  0
LINE
  5
2C6
100
AcDbEntity
  8
0
100
AcDbLine
 62
7
  6
CONTINUOUS
 10
6.6134429725
 20
3.105956347
 11
6.6090235551
 21
3.1136110025
  0
LINE
  5
2C7
100
AcDbEntity
  8
0
100
AcDbLine
 62
7
  6
CONTINUOUS
 10
6.428907967
 20
3.4255803522
 11
6.4314166179
 21
3.4212352414
  0
LINE
  5
2C8
100
AcDbEntity
  8
0
100
AcDbLine
 62
7
  6
CONTINUOUS
 10
6.1357438291
 20
3.2930762193
 11
6.1387668887
 21
3.2847704315
  0
LINE
  5
2C9
100
AcDbEntity
  8
0
100
AcDbLine
 62
7
  6
CONTINUOUS
 10
6.2602571889
 20
2.950978575
 11
6.2632802484
 21
2.9426727872
  0
LINE
  5
2CA
100
AcDbEntity
  8
0
100
AcDbLine
 62
7
  6
CONTINUOUS
 10
6.1465971228
 20
3.3127443818
 11
6.1488847816
 21
3.304206723
  0
LINE
  5
2CB
100
AcDbEntity
  8
0
100
AcDbLine
 62
7
  6
CONTINUOUS
 10
6.2408208974
 20
2.961096468
 11
6.2431085562
 21
2.9525588092
  0
LINE
  5
2CC
100
AcDbEntity
  8
0
100
AcDbLine
 62
7
  6
CONTINUOUS
 10
5.963907967
 20
2.4731196534
 11
5.963907967
 21
3.6481196534
  0
LINE
  5
2CD
100
AcDbEntity
  8
0
100
AcDbLine
 62
7
  6
CONTINUOUS
 10
5.963963688
 20
3.8986196534
 11
5.963963688
 21
3.6631196534
  0
LINE
  5
2CE
100
AcDbEntity
  8
0
100
AcDbLine
 62
7
  6
CONTINUOUS
 10
5.9639810616
 20
3.8986196534
 11
5.9639810616
 21
3.6631196534
  0
LINE
  5
2CF
100
AcDbEntity
  8
0
100
AcDbLine
 62
7
  6
CONTINUOUS
 10
5.9641647204
 20
3.8986196534
 11
5.9641647204
 21
3.6631196534
  0
LINE
  5
2D0
100
AcDbEntity
  8
0
100
AcDbLine
 62
7
  6
CONTINUOUS
 10
5.964934014
 20
3.8986196534
 11
5.964934014
 21
3.6631196534
  0
LINE
  5
2D1
100
AcDbEntity
  8
0
100
AcDbLine
 62
7
  6
CONTINUOUS
 10
5.9654682737
 20
3.8986196534
 11
5.9654682737
 21
3.6631196534
  0
LINE
  5
2D2
100
AcDbEntity
  8
0
100
AcDbLine
 62
7
  6
CONTINUOUS
 10
5.9669873785
 20
3.8986196534
 11
5.9669873785
 21
3.6631196534
  0
LINE
  5
2D3
100
AcDbEntity
  8
0
100
AcDbLine
 62
7
  6
CONTINUOUS
 10
5.9678707748
 20
3.8986196534
 11
5.9678707748
 21
3.6631196534
  0
LINE
  5
2D4
100
AcDbEntity
  8
0
100
AcDbLine
 62
7
  6
CONTINUOUS
 10
5.9701355272
 20
3.8986196534
 11
5.9701355272
 21
3.6631196534
  0
LINE
  5
2D5
100
AcDbEntity
  8
0
100
AcDbLine
 62
7
  6
CONTINUOUS
 10
5.9713656386
 20
3.8986196534
 11
5.9713656386
 21
3.6631196534
  0
LINE
  5
2D6
100
AcDbEntity
  8
0
100
AcDbLine
 62
7
  6
CONTINUOUS
 10
5.974369831
 20
3.8986196534
 11
5.974369831
 21
3.6631196534
  0
LINE
  5
2D7
100
AcDbEntity
  8
0
100
AcDbLine
 62
7
  6
CONTINUOUS
 10
5.975943286
 20
3.8986196534
 11
5.975943286
 21
3.6631196534
  0
LINE
  5
2D8
100
AcDbEntity
  8
0
100
AcDbLine
 62
7
  6
CONTINUOUS
 10
5.9796786841
 20
3.8986196534
 11
5.9796786841
 21
3.6631196534
  0
LINE
  5
2D9
100
AcDbEntity
  8
0
100
AcDbLine
 62
7
  6
CONTINUOUS
 10
5.9815911699
 20
3.8986196534
 11
5.9815911699
 21
3.6631196534
  0
LINE
  5
2DA
100
AcDbEntity
  8
0
100
AcDbLine
 62
7
  6
CONTINUOUS
 10
5.9860475354
 20
3.8986196534
 11
5.9860475354
 21
3.6631196534
  0
LINE
  5
2DB
100
AcDbEntity
  8
0
100
AcDbLine
 62
7
  6
CONTINUOUS
 10
5.9882938099
 20
3.8986196534
 11
5.9882938099
 21
3.6631196534
  0
LINE
  5
2DC
100
AcDbEntity
  8
0
100
AcDbLine
 62
7
  6
CONTINUOUS
 10
5.9934589281
 20
3.8986196534
 11
5.9934589281
 21
3.6631196534
  0
LINE
  5
2DD
100
AcDbEntity
  8
0
100
AcDbLine
 62
7
  6
CONTINUOUS
 10
6.6061699053
 20
3.0847023335
 11
6.6024344523
 21
3.0927130382
  0
LINE
  5
2DE
100
AcDbEntity
  8
0
100
AcDbLine
 62
7
  6
CONTINUOUS
 10
6.4523145822
 20
3.4146461386
 11
6.4485791292
 21
3.4226568434
  0
LINE
  5
2DF
100
AcDbEntity
  8
0
100
AcDbLine
 62
7
  6
CONTINUOUS
 10
6.1591233098
 20
3.3313917741
 11
6.1606581573
 21
3.3226872211
  0
LINE
  5
2E0
100
AcDbEntity
  8
0
100
AcDbLine
 62
7
  6
CONTINUOUS
 10
6.2223403993
 20
2.9728698437
 11
6.2238752469
 21
2.9641652907
  0
LINE
  5
2E1
100
AcDbEntity
  8
0
100
AcDbLine
 62
7
  6
CONTINUOUS
 10
6.1732270581
 20
3.3488764783
 11
6.1739974134
 21
3.340071278
  0
LINE
  5
2E2
100
AcDbEntity
  8
0
100
AcDbLine
 62
7
  6
CONTINUOUS
 10
6.2049563424
 20
2.9862090997
 11
6.2057266976
 21
2.9774038994
  0
LINE
  5
2E3
100
AcDbEntity
  8
0
100
AcDbLine
 62
7
  6
CONTINUOUS
 10
5.9960328346
 20
3.8986196534
 11
5.9960328346
 21
3.6631196534
  0
LINE
  5
2E4
100
AcDbEntity
  8
0
100
AcDbLine
 62
7
  6
CONTINUOUS
 10
6.0018925482
 20
3.8986196534
 11
6.0018925482
 21
3.6631196534
  0
LINE
  5
2E5
100
AcDbEntity
  8
0
100
AcDbLine
 62
7
  6
CONTINUOUS
 10
6.0047870317
 20
3.8986196534
 11
6.0047870317
 21
3.6631196534
  0
LINE
  5
2E6
100
AcDbEntity
  8
0
100
AcDbLine
 62
7
  6
CONTINUOUS
 10
6.0113252797
 20
3.8986196534
 11
6.0113252797
 21
3.6631196534
  0
LINE
  5
2E7
100
AcDbEntity
  8
0
100
AcDbLine
 62
7
  6
CONTINUOUS
 10
6.0145324067
 20
3.8986196534
 11
6.0145324067
 21
3.6631196534
  0
LINE
  5
2E8
100
AcDbEntity
  8
0
100
AcDbLine
 62
7
  6
CONTINUOUS
 10
6.0217312682
 20
3.8986196534
 11
6.0217312682
 21
3.6631196534
  0
LINE
  5
2E9
100
AcDbEntity
  8
0
100
AcDbLine
 62
7
  6
CONTINUOUS
 10
6.0252422482
 20
3.8986196534
 11
6.0252422482
 21
3.6631196534
  0
LINE
  5
2EA
100
AcDbEntity
  8
0
100
AcDbLine
 62
7
  6
CONTINUOUS
 10
6.0330819916
 20
3.8986196534
 11
6.0330819916
 21
3.6631196534
  0
LINE
  5
2EB
100
AcDbEntity
  8
0
100
AcDbLine
 62
7
  6
CONTINUOUS
 10
6.0368872011
 20
3.8986196534
 11
6.0368872011
 21
3.6631196534
  0
LINE
  5
2EC
100
AcDbEntity
  8
0
100
AcDbLine
 62
7
  6
CONTINUOUS
 10
6.0453463383
 20
3.8986196534
 11
6.0453463383
 21
3.6631196534
  0
LINE
  5
2ED
100
AcDbEntity
  8
0
100
AcDbLine
 62
7
  6
CONTINUOUS
 10
6.0494353476
 20
3.8986196534
 11
6.0494353476
 21
3.6631196534
  0
LINE
  5
2EE
100
AcDbEntity
  8
0
100
AcDbLine
 62
7
  6
CONTINUOUS
 10
6.0584906926
 20
3.8986196534
 11
6.0584906926
 21
3.6631196534
  0
LINE
  5
2EF
100
AcDbEntity
  8
0
100
AcDbLine
 62
7
  6
CONTINUOUS
 10
6.062852294
 20
3.8986196534
 11
6.062852294
 21
3.6631196534
  0
LINE
  5
2F0
100
AcDbEntity
  8
0
100
AcDbLine
 62
7
  6
CONTINUOUS
 10
6.0724790268
 20
3.8986196534
 11
6.0724790268
 21
3.6631196534
  0
LINE
  5
2F1
100
AcDbEntity
  8
0
100
AcDbLine
 62
7
  6
CONTINUOUS
 10
6.0771012654
 20
3.8986196534
 11
6.0771012654
 21
3.6631196534
  0
LINE
  5
2F2
100
AcDbEntity
  8
0
100
AcDbLine
 62
7
  6
CONTINUOUS
 10
6.0868327909
 20
3.6503555918
 11
6.0868327909
 21
3.9113837149
  0
LINE
  5
2F3
100
AcDbEntity
  8
0
100
AcDbLine
 62
7
  6
CONTINUOUS
 10
6.0872729997
 20
3.8986196534
 11
6.0872729997
 21
3.6631196534
  0
LINE
  5
2F4
100
AcDbEntity
  8
0
100
AcDbLine
 62
7
  6
CONTINUOUS
 10
6.0921432064
 20
3.8986196534
 11
6.0921432064
 21
3.6631196534
  0
LINE
  5
2F5
100
AcDbEntity
  8
0
100
AcDbLine
 62
7
  6
CONTINUOUS
 10
6.1018477731
 20
3.6503555918
 11
6.1018477731
 21
3.9113837149
  0
LINE
  5
2F6
100
AcDbEntity
  8
0
100
AcDbLine
 62
7
  6
CONTINUOUS
 10
6.1028320622
 20
3.8986196534
 11
6.1028320622
 21
3.6631196534
  0
LINE
  5
2F7
100
AcDbEntity
  8
0
100
AcDbLine
 62
7
  6
CONTINUOUS
 10
6.107936888
 20
3.8986196534
 11
6.107936888
 21
3.6631196534
  0
LINE
  5
2F8
100
AcDbEntity
  8
0
100
AcDbLine
 62
7
  6
CONTINUOUS
 10
6.1175878965
 20
3.6503555918
 11
6.1175878965
 21
3.9113837149
  0
LINE
  5
2F9
100
AcDbEntity
  8
0
100
AcDbLine
 62
7
  6
CONTINUOUS
 10
6.1191135679
 20
3.8986196534
 11
6.1191135679
 21
3.6631196534
  0
LINE
  5
2FA
100
AcDbEntity
  8
0
100
AcDbLine
 62
7
  6
CONTINUOUS
 10
6.1244390208
 20
3.8986196534
 11
6.1244390208
 21
3.6631196534
  0
LINE
  5
2FB
100
AcDbEntity
  8
0
100
AcDbLine
 62
7
  6
CONTINUOUS
 10
6.1340100184
 20
3.6503555918
 11
6.1340100184
 21
3.9113837149
  0
LINE
  5
2FC
100
AcDbEntity
  8
0
100
AcDbLine
 62
7
  6
CONTINUOUS
 10
6.1360728904
 20
3.8986196534
 11
6.1360728904
 21
3.6631196534
  0
LINE
  5
2FD
100
AcDbEntity
  8
0
100
AcDbLine
 62
7
  6
CONTINUOUS
 10
6.1416043738
 20
3.8986196534
 11
6.1416043738
 21
3.6631196534
  0
LINE
  5
2FE
100
AcDbEntity
  8
0
100
AcDbLine
 62
7
  6
CONTINUOUS
 10
6.1510691268
 20
3.6503555918
 11
6.1510691268
 21
3.9113837149
  0
LINE
  5
2FF
100
AcDbEntity
  8
0
100
AcDbLine
 62
7
  6
CONTINUOUS
 10
6.1536635453
 20
3.8986196534
 11
6.1536635453
 21
3.6631196534
  0
LINE
  5
300
100
AcDbEntity
  8
0
100
AcDbLine
 62
7
  6
CONTINUOUS
 10
6.1593858977
 20
3.8986196534
 11
6.1593858977
 21
3.6631196534
  0
LINE
  5
301
100
AcDbEntity
  8
0
100
AcDbLine
 62
7
  6
CONTINUOUS
 10
6.1687184641
 20
3.6503555918
 11
6.1687184641
 21
3.9113837149
  0
LINE
  5
302
100
AcDbEntity
  8
0
100
AcDbLine
 62
7
  6
CONTINUOUS
 10
6.1718373179
 20
3.8986196534
 11
6.1718373179
 21
3.6631196534
  0
LINE
  5
303
100
AcDbEntity
  8
0
100
AcDbLine
 62
7
  6
CONTINUOUS
 10
6.5970721049
 20
3.0641630874
 11
6.5940490454
 21
3.0724688752
  0
LINE
  5
304
100
AcDbEntity
  8
0
100
AcDbLine
 62
7
  6
CONTINUOUS
 10
6.4725587452
 20
3.4062607317
 11
6.4695356856
 21
3.4145665195
  0
LINE
  5
305
100
AcDbEntity
  8
0
100
AcDbLine
 62
7
  6
CONTINUOUS
 10
6.5862188112
 20
3.0444949249
 11
6.5839311524
 21
3.0530325837
  0
LINE
  5
306
100
AcDbEntity
  8
0
100
AcDbLine
 62
7
  6
CONTINUOUS
 10
6.4919950367
 20
3.3961428388
 11
6.4897073779
 21
3.4046804976
  0
LINE
  5
307
100
AcDbEntity
  8
0
100
AcDbLine
 62
7
  6
CONTINUOUS
 10
6.1777348548
 20
3.8986196534
 11
6.1777348548
 21
3.6631196534
  0
LINE
  5
308
100
AcDbEntity
  8
0
100
AcDbLine
 62
7
  6
CONTINUOUS
 10
6.1869096546
 20
3.6503555918
 11
6.1869096546
 21
3.9113837149
  0
LINE
  5
309
100
AcDbEntity
  8
0
100
AcDbLine
 62
7
  6
CONTINUOUS
 10
6.1888010299
 20
3.3650654253
 11
6.1888010299
 21
3.3562265905
  0
LINE
  5
30A
100
AcDbEntity
  8
0
100
AcDbLine
 62
7
  6
CONTINUOUS
 10
6.1888010299
 20
3.0010127162
 11
6.1888010299
 21
2.9921738814
  0
LINE
  5
30B
100
AcDbEntity
  8
0
100
AcDbLine
 62
7
  6
CONTINUOUS
 10
6.1905443951
 20
3.8986196534
 11
6.1905443951
 21
3.6631196534
  0
LINE
  5
30C
100
AcDbEntity
  8
0
100
AcDbLine
 62
7
  6
CONTINUOUS
 10
6.1966009517
 20
3.8986196534
 11
6.1966009517
 21
3.6631196534
  0
LINE
  5
30D
100
AcDbEntity
  8
0
100
AcDbLine
 62
7
  6
CONTINUOUS
 10
6.2055928375
 20
3.6503555918
 11
6.2055928375
 21
3.9113837149
  0
LINE
  5
30E
100
AcDbEntity
  8
0
100
AcDbLine
 62
7
  6
CONTINUOUS
 10
6.2097335022
 20
3.8986196534
 11
6.2097335022
 21
3.6631196534
  0
LINE
  5
30F
100
AcDbEntity
  8
0
100
AcDbLine
 62
7
  6
CONTINUOUS
 10
6.2159324779
 20
3.8986196534
 11
6.2159324779
 21
3.6631196534
  0
LINE
  5
310
100
AcDbEntity
  8
0
100
AcDbLine
 62
7
  6
CONTINUOUS
 10
6.2247168034
 20
3.6503555918
 11
6.2247168034
 21
3.9113837149
  0
LINE
  5
311
100
AcDbEntity
  8
0
100
AcDbLine
 62
7
  6
CONTINUOUS
 10
6.229352043
 20
3.8986196534
 11
6.229352043
 21
3.6631196534
  0
LINE
  5
312
100
AcDbEntity
  8
0
100
AcDbLine
 62
7
  6
CONTINUOUS
 10
6.2356764469
 20
3.8986196534
 11
6.2356764469
 21
3.6631196534
  0
LINE
  5
313
100
AcDbEntity
  8
0
100
AcDbLine
 62
7
  6
CONTINUOUS
 10
6.241407967
 20
3.9136196534
 11
6.241407967
 21
5.7981196534
  0
LINE
  5
314
100
AcDbEntity
  8
0
100
AcDbLine
 62
7
  6
CONTINUOUS
 10
6.244229135
 20
3.6503555918
 11
6.244229135
 21
3.9113837149
  0
LINE
  5
315
100
AcDbEntity
  8
0
100
AcDbLine
 62
7
  6
CONTINUOUS
 10
6.2493462447
 20
3.8986196534
 11
6.2493462447
 21
3.6631196534
  0
LINE
  5
316
100
AcDbEntity
  8
0
100
AcDbLine
 62
7
  6
CONTINUOUS
 10
6.2557787419
 20
3.8986196534
 11
6.2557787419
 21
3.6631196534
  0
LINE
  5
317
100
AcDbEntity
  8
0
100
AcDbLine
 62
7
  6
CONTINUOUS
 10
6.2640763503
 20
3.6503555918
 11
6.2640763503
 21
3.9113837149
  0
LINE
  5
318
100
AcDbEntity
  8
0
100
AcDbLine
 62
7
  6
CONTINUOUS
 10
6.2696613043
 20
3.8986196534
 11
6.2696613043
 21
3.6631196534
  0
LINE
  5
319
100
AcDbEntity
  8
0
100
AcDbLine
 62
7
  6
CONTINUOUS
 10
6.276184264
 20
3.8986196534
 11
6.276184264
 21
3.6631196534
  0
LINE
  5
31A
100
AcDbEntity
  8
0
100
AcDbLine
 62
7
  6
CONTINUOUS
 10
6.2842040494
 20
3.6503555918
 11
6.2842040494
 21
3.9113837149
  0
LINE
  5
31B
100
AcDbEntity
  8
0
100
AcDbLine
 62
7
  6
CONTINUOUS
 10
6.2902415399
 20
3.8986196534
 11
6.2902415399
 21
3.6631196534
  0
LINE
  5
31C
100
AcDbEntity
  8
0
100
AcDbLine
 62
7
  6
CONTINUOUS
 10
6.2968370829
 20
3.8986196534
 11
6.2968370829
 21
3.6631196534
  0
LINE
  5
31D
100
AcDbEntity
  8
0
100
AcDbLine
 62
7
  6
CONTINUOUS
 10
6.300157967
 20
2.9352873721
 11
6.300157967
 21
3.4219519347
  0
LINE
  5
31E
100
AcDbEntity
  8
0
100
AcDbLine
 62
7
  6
CONTINUOUS
 10
6.303907967
 20
2.9436196534
 11
6.303907967
 21
4.2636196534
  0
LINE
  5
31F
100
AcDbEntity
  8
0
100
AcDbLine
 62
7
  6
CONTINUOUS
 10
6.318907967
 20
2.9286196534
 11
6.318907967
 21
4.2786196534
  0
LINE
  5
320
100
AcDbEntity
  8
0
100
AcDbLine
 62
7
  6
CONTINUOUS
 10
6.2057266976
 20
3.3798354074
 11
6.2049563424
 21
3.3710302071
  0
LINE
  5
321
100
AcDbEntity
  8
0
100
AcDbLine
 62
7
  6
CONTINUOUS
 10
6.1739974134
 20
3.0171680288
 11
6.1732270581
 21
3.0083628284
  0
LINE
  5
322
100
AcDbEntity
  8
0
100
AcDbLine
 62
7
  6
CONTINUOUS
 10
6.5736926243
 20
3.0258475326
 11
6.5721577767
 21
3.0345520856
  0
LINE
  5
323
100
AcDbEntity
  8
0
100
AcDbLine
 62
7
  6
CONTINUOUS
 10
6.5104755348
 20
3.3843694631
 11
6.5089406872
 21
3.3930740161
  0
LINE
  5
324
100
AcDbEntity
  8
0
100
AcDbLine
 62
7
  6
CONTINUOUS
 10
6.5595888759
 20
3.0083628284
 11
6.5588185207
 21
3.0171680288
  0
LINE
  5
325
100
AcDbEntity
  8
0
100
AcDbLine
 62
7
  6
CONTINUOUS
 10
6.5278595917
 20
3.3710302071
 11
6.5270892364
 21
3.3798354074
  0
LINE
  5
326
100
AcDbEntity
  8
0
100
AcDbLine
 62
7
  6
CONTINUOUS
 10
6.413907967
 20
2.9286196534
 11
6.413907967
 21
4.2786196534
  0
LINE
  5
327
100
AcDbEntity
  8
0
100
AcDbLine
 62
7
  6
CONTINUOUS
 10
6.428907967
 20
2.9436196534
 11
6.428907967
 21
4.2636196534
  0
LINE
  5
328
100
AcDbEntity
  8
0
100
AcDbLine
 62
7
  6
CONTINUOUS
 10
6.432657967
 20
3.4219519347
 11
6.432657967
 21
2.9352873721
  0
LINE
  5
329
100
AcDbEntity
  8
0
100
AcDbLine
 62
7
  6
CONTINUOUS
 10
6.4369374176
 20
3.8986196534
 11
6.4369374176
 21
3.6631196534
  0
LINE
  5
32A
100
AcDbEntity
  8
0
100
AcDbLine
 62
7
  6
CONTINUOUS
 10
6.443530005
 20
3.8986196534
 11
6.443530005
 21
3.6631196534
  0
LINE
  5
32B
100
AcDbEntity
  8
0
100
AcDbLine
 62
7
  6
CONTINUOUS
 10
6.4486118846
 20
3.6503555918
 11
6.4486118846
 21
3.9113837149
  0
LINE
  5
32C
100
AcDbEntity
  8
0
100
AcDbLine
 62
7
  6
CONTINUOUS
 10
6.4575800566
 20
3.8986196534
 11
6.4575800566
 21
3.6631196534
  0
LINE
  5
32D
100
AcDbEntity
  8
0
100
AcDbLine
 62
7
  6
CONTINUOUS
 10
6.4640992299
 20
3.8986196534
 11
6.4640992299
 21
3.6631196534
  0
LINE
  5
32E
100
AcDbEntity
  8
0
100
AcDbLine
 62
7
  6
CONTINUOUS
 10
6.4687395838
 20
3.6503555918
 11
6.4687395838
 21
3.9113837149
  0
LINE
  5
32F
100
AcDbEntity
  8
0
100
AcDbLine
 62
7
  6
CONTINUOUS
 10
6.4779727991
 20
3.8986196534
 11
6.4779727991
 21
3.6631196534
  0
LINE
  5
330
100
AcDbEntity
  8
0
100
AcDbLine
 62
7
  6
CONTINUOUS
 10
6.4844006899
 20
3.8986196534
 11
6.4844006899
 21
3.6631196534
  0
LINE
  5
331
100
AcDbEntity
  8
0
100
AcDbLine
 62
7
  6
CONTINUOUS
 10
6.488586799
 20
3.6503555918
 11
6.488586799
 21
3.9113837149
  0
LINE
  5
332
100
AcDbEntity
  8
0
100
AcDbLine
 62
7
  6
CONTINUOUS
 10
6.491407967
 20
3.9136196534
 11
6.491407967
 21
5.7981196534
  0
LINE
  5
333
100
AcDbEntity
  8
0
100
AcDbLine
 62
7
  6
CONTINUOUS
 10
6.4980597502
 20
3.8986196534
 11
6.4980597502
 21
3.6631196534
  0
LINE
  5
334
100
AcDbEntity
  8
0
100
AcDbLine
 62
7
  6
CONTINUOUS
 10
6.5043787401
 20
3.8986196534
 11
6.5043787401
 21
3.6631196534
  0
LINE
  5
335
100
AcDbEntity
  8
0
100
AcDbLine
 62
7
  6
CONTINUOUS
 10
6.5080991306
 20
3.6503555918
 11
6.5080991306
 21
3.9113837149
  0
LINE
  5
336
100
AcDbEntity
  8
0
100
AcDbLine
 62
7
  6
CONTINUOUS
 10
6.5177858529
 20
3.8986196534
 11
6.5177858529
 21
3.6631196534
  0
LINE
  5
337
100
AcDbEntity
  8
0
100
AcDbLine
 62
7
  6
CONTINUOUS
 10
6.5239786219
 20
3.8986196534
 11
6.5239786219
 21
3.6631196534
  0
LINE
  5
338
100
AcDbEntity
  8
0
100
AcDbLine
 62
7
  6
CONTINUOUS
 10
6.5272230966
 20
3.6503555918
 11
6.5272230966
 21
3.9113837149
  0
LINE
  5
339
100
AcDbEntity
  8
0
100
AcDbLine
 62
7
  6
CONTINUOUS
 10
6.5370970394
 20
3.8986196534
 11
6.5370970394
 21
3.6631196534
  0
LINE
  5
33A
100
AcDbEntity
  8
0
100
AcDbLine
 62
7
  6
CONTINUOUS
 10
6.2238752469
 20
3.3930740161
 11
6.2223403993
 21
3.3843694631
  0
LINE
  5
33B
100
AcDbEntity
  8
0
100
AcDbLine
 62
7
  6
CONTINUOUS
 10
6.1606581573
 20
3.0345520856
 11
6.1591233098
 21
3.0258475326
  0
LINE
  5
33C
100
AcDbEntity
  8
0
100
AcDbLine
 62
7
  6
CONTINUOUS
 10
6.2431085562
 20
3.4046804976
 11
6.2408208974
 21
3.3961428388
  0
LINE
  5
33D
100
AcDbEntity
  8
0
100
AcDbLine
 62
7
  6
CONTINUOUS
 10
6.1488847816
 20
3.0530325837
 11
6.1465971228
 21
3.0444949249
  0
LINE
  5
33E
100
AcDbEntity
  8
0
100
AcDbLine
 62
7
  6
CONTINUOUS
 10
4.241407967
 20
5.4231196534
 11
4.491407967
 21
5.4231196534
  0
LINE
  5
33F
100
AcDbEntity
  8
0
100
AcDbLine
 62
7
  6
CONTINUOUS
 10
6.5431466135
 20
3.8986196534
 11
6.5431466135
 21
3.6631196534
  0
LINE
  5
340
100
AcDbEntity
  8
0
100
AcDbLine
 62
7
  6
CONTINUOUS
 10
6.5440149042
 20
2.9921738814
 11
6.5440149042
 21
3.0010127162
  0
LINE
  5
341
100
AcDbEntity
  8
0
100
AcDbLine
 62
7
  6
CONTINUOUS
 10
6.5440149042
 20
3.3562265905
 11
6.5440149042
 21
3.3650654253
  0
LINE
  5
342
100
AcDbEntity
  8
0
100
AcDbLine
 62
7
  6
CONTINUOUS
 10
6.5459062795
 20
3.6503555918
 11
6.5459062795
 21
3.9113837149
  0
LINE
  5
343
100
AcDbEntity
  8
0
100
AcDbLine
 62
7
  6
CONTINUOUS
 10
6.555940379
 20
3.8986196534
 11
6.555940379
 21
3.6631196534
  0
LINE
  5
344
100
AcDbEntity
  8
0
100
AcDbLine
 62
7
  6
CONTINUOUS
 10
6.5618301768
 20
3.8986196534
 11
6.5618301768
 21
3.6631196534
  0
LINE
  5
345
100
AcDbEntity
  8
0
100
AcDbLine
 62
7
  6
CONTINUOUS
 10
6.5640974699
 20
3.6503555918
 11
6.5640974699
 21
3.9113837149
  0
LINE
  5
346
100
AcDbEntity
  8
0
100
AcDbLine
 62
7
  6
CONTINUOUS
 10
6.5742642234
 20
3.8986196534
 11
6.5742642234
 21
3.6631196534
  0
LINE
  5
347
100
AcDbEntity
  8
0
100
AcDbLine
 62
7
  6
CONTINUOUS
 10
6.5799781014
 20
3.8986196534
 11
6.5799781014
 21
3.6631196534
  0
LINE
  5
348
100
AcDbEntity
  8
0
100
AcDbLine
 62
7
  6
CONTINUOUS
 10
6.5817468072
 20
3.6503555918
 11
6.5817468072
 21
3.9113837149
  0
LINE
  5
349
100
AcDbEntity
  8
0
100
AcDbLine
 62
7
  6
CONTINUOUS
 10
6.5920183482
 20
3.8986196534
 11
6.5920183482
 21
3.6631196534
  0
LINE
  5
34A
100
AcDbEntity
  8
0
100
AcDbLine
 62
7
  6
CONTINUOUS
 10
6.597540645
 20
3.8986196534
 11
6.597540645
 21
3.6631196534
  0
LINE
  5
34B
100
AcDbEntity
  8
0
100
AcDbLine
 62
7
  6
CONTINUOUS
 10
6.5988059157
 20
3.6503555918
 11
6.5988059157
 21
3.9113837149
  0
LINE
  5
34C
100
AcDbEntity
  8
0
100
AcDbLine
 62
7
  6
CONTINUOUS
 10
6.6091540907
 20
3.8986196534
 11
6.6091540907
 21
3.6631196534
  0
LINE
  5
34D
100
AcDbEntity
  8
0
100
AcDbLine
 62
7
  6
CONTINUOUS
 10
6.6144696701
 20
3.8986196534
 11
6.6144696701
 21
3.6631196534
  0
LINE
  5
34E
100
AcDbEntity
  8
0
100
AcDbLine
 62
7
  6
CONTINUOUS
 10
6.6152280376
 20
3.6503555918
 11
6.6152280376
 21
3.9113837149
  0
LINE
  5
34F
100
AcDbEntity
  8
0
100
AcDbLine
 62
7
  6
CONTINUOUS
 10
6.6256244829
 20
3.8986196534
 11
6.6256244829
 21
3.6631196534
  0
LINE
  5
350
100
AcDbEntity
  8
0
100
AcDbLine
 62
7
  6
CONTINUOUS
 10
6.6307187753
 20
3.8986196534
 11
6.6307187753
 21
3.6631196534
  0
LINE
  5
351
100
AcDbEntity
  8
0
100
AcDbLine
 62
7
  6
CONTINUOUS
 10
6.6309681609
 20
3.6503555918
 11
6.6309681609
 21
3.9113837149
  0
LINE
  5
352
100
AcDbEntity
  8
0
100
AcDbLine
 62
7
  6
CONTINUOUS
 10
6.6413843807
 20
3.8986196534
 11
6.6413843807
 21
3.6631196534
  0
LINE
  5
353
100
AcDbEntity
  8
0
100
AcDbLine
 62
7
  6
CONTINUOUS
 10
6.646243423
 20
3.8986196534
 11
6.646243423
 21
3.6631196534
  0
LINE
  5
354
100
AcDbEntity
  8
0
100
AcDbLine
 62
7
  6
CONTINUOUS
 10
6.6563905872
 20
3.8986196534
 11
6.6563905872
 21
3.6631196534
  0
LINE
  5
355
100
AcDbEntity
  8
0
100
AcDbLine
 62
7
  6
CONTINUOUS
 10
6.6610010611
 20
3.8986196534
 11
6.6610010611
 21
3.6631196534
  0
LINE
  5
356
100
AcDbEntity
  8
0
100
AcDbLine
 62
7
  6
CONTINUOUS
 10
6.6706019716
 20
3.8986196534
 11
6.6706019716
 21
3.6631196534
  0
LINE
  5
357
100
AcDbEntity
  8
0
100
AcDbLine
 62
7
  6
CONTINUOUS
 10
6.67495124
 20
3.8986196534
 11
6.67495124
 21
3.6631196534
  0
LINE
  5
358
100
AcDbEntity
  8
0
100
AcDbLine
 62
7
  6
CONTINUOUS
 10
6.6839795813
 20
3.8986196534
 11
6.6839795813
 21
3.6631196534
  0
LINE
  5
359
100
AcDbEntity
  8
0
100
AcDbLine
 62
7
  6
CONTINUOUS
 10
6.6880557232
 20
3.8986196534
 11
6.6880557232
 21
3.6631196534
  0
LINE
  5
35A
100
AcDbEntity
  8
0
100
AcDbLine
 62
7
  6
CONTINUOUS
 10
6.6964867493
 20
3.8986196534
 11
6.6964867493
 21
3.6631196534
  0
LINE
  5
35B
100
AcDbEntity
  8
0
100
AcDbLine
 62
7
  6
CONTINUOUS
 10
6.7002785924
 20
3.8986196534
 11
6.7002785924
 21
3.6631196534
  0
LINE
  5
35C
100
AcDbEntity
  8
0
100
AcDbLine
 62
7
  6
CONTINUOUS
 10
6.7080891943
 20
3.8986196534
 11
6.7080891943
 21
3.6631196534
  0
LINE
  5
35D
100
AcDbEntity
  8
0
100
AcDbLine
 62
7
  6
CONTINUOUS
 10
6.7115863453
 20
3.8986196534
 11
6.7115863453
 21
3.6631196534
  0
LINE
  5
35E
100
AcDbEntity
  8
0
100
AcDbLine
 62
7
  6
CONTINUOUS
 10
6.7187551148
 20
3.8986196534
 11
6.7187551148
 21
3.6631196534
  0
LINE
  5
35F
100
AcDbEntity
  8
0
100
AcDbLine
 62
7
  6
CONTINUOUS
 10
6.5270892364
 20
2.9774038994
 11
6.5278595917
 21
2.9862090997
  0
LINE
  5
360
100
AcDbEntity
  8
0
100
AcDbLine
 62
7
  6
CONTINUOUS
 10
6.5588185207
 20
3.340071278
 11
6.5595888759
 21
3.3488764783
  0
LINE
  5
361
100
AcDbEntity
  8
0
100
AcDbLine
 62
7
  6
CONTINUOUS
 10
6.2632802484
 20
3.4145665195
 11
6.2602571889
 21
3.4062607317
  0
LINE
  5
362
100
AcDbEntity
  8
0
100
AcDbLine
 62
7
  6
CONTINUOUS
 10
6.1387668887
 20
3.0724688752
 11
6.1357438291
 21
3.0641630874
  0
LINE
  5
363
100
AcDbEntity
  8
0
100
AcDbLine
 62
7
  6
CONTINUOUS
 10
6.2842368049
 20
3.4226568434
 11
6.2805013519
 21
3.4146461386
  0
LINE
  5
364
100
AcDbEntity
  8
0
100
AcDbLine
 62
7
  6
CONTINUOUS
 10
6.1303814818
 20
3.0927130382
 11
6.1266460288
 21
3.0847023335
  0
LINE
  5
365
100
AcDbEntity
  8
0
100
AcDbLine
 62
7
  6
CONTINUOUS
 10
6.7219479883
 20
3.8986196534
 11
6.7219479883
 21
3.6631196534
  0
LINE
  5
366
100
AcDbEntity
  8
0
100
AcDbLine
 62
7
  6
CONTINUOUS
 10
6.7284552762
 20
3.8986196534
 11
6.7284552762
 21
3.6631196534
  0
LINE
  5
367
100
AcDbEntity
  8
0
100
AcDbLine
 62
7
  6
CONTINUOUS
 10
6.7313351208
 20
3.8986196534
 11
6.7313351208
 21
3.6631196534
  0
LINE
  5
368
100
AcDbEntity
  8
0
100
AcDbLine
 62
7
  6
CONTINUOUS
 10
6.7371630912
 20
3.8986196534
 11
6.7371630912
 21
3.6631196534
  0
LINE
  5
369
100
AcDbEntity
  8
0
100
AcDbLine
 62
7
  6
CONTINUOUS
 10
6.7397220133
 20
3.8986196534
 11
6.7397220133
 21
3.6631196534
  0
LINE
  5
36A
100
AcDbEntity
  8
0
100
AcDbLine
 62
7
  6
CONTINUOUS
 10
6.7448546921
 20
3.8986196534
 11
6.7448546921
 21
3.6631196534
  0
LINE
  5
36B
100
AcDbEntity
  8
0
100
AcDbLine
 62
7
  6
CONTINUOUS
 10
6.747085678
 20
3.8986196534
 11
6.747085678
 21
3.6631196534
  0
LINE
  5
36C
100
AcDbEntity
  8
0
100
AcDbLine
 62
7
  6
CONTINUOUS
 10
6.7515089968
 20
3.8986196534
 11
6.7515089968
 21
3.6631196534
  0
LINE
  5
36D
100
AcDbEntity
  8
0
100
AcDbLine
 62
7
  6
CONTINUOUS
 10
6.7534059316
 20
3.8986196534
 11
6.7534059316
 21
3.6631196534
  0
LINE
  5
36E
100
AcDbEntity
  8
0
100
AcDbLine
 62
7
  6
CONTINUOUS
 10
6.7571077664
 20
3.8986196534
 11
6.7571077664
 21
3.6631196534
  0
LINE
  5
36F
100
AcDbEntity
  8
0
100
AcDbLine
 62
7
  6
CONTINUOUS
 10
6.7586654506
 20
3.8986196534
 11
6.7586654506
 21
3.6631196534
  0
LINE
  5
370
100
AcDbEntity
  8
0
100
AcDbLine
 62
7
  6
CONTINUOUS
 10
6.761635655
 20
3.8986196534
 11
6.761635655
 21
3.6631196534
  0
LINE
  5
371
100
AcDbEntity
  8
0
100
AcDbLine
 62
7
  6
CONTINUOUS
 10
6.7628498191
 20
3.8986196534
 11
6.7628498191
 21
3.6631196534
  0
LINE
  5
372
100
AcDbEntity
  8
0
100
AcDbLine
 62
7
  6
CONTINUOUS
 10
6.765080252
 20
3.8986196534
 11
6.765080252
 21
3.6631196534
  0
LINE
  5
373
100
AcDbEntity
  8
0
100
AcDbLine
 62
7
  6
CONTINUOUS
 10
6.7659475681
 20
3.8986196534
 11
6.7659475681
 21
3.6631196534
  0
LINE
  5
374
100
AcDbEntity
  8
0
100
AcDbLine
 62
7
  6
CONTINUOUS
 10
6.767432116
 20
3.8986196534
 11
6.767432116
 21
3.6631196534
  0
LINE
  5
375
100
AcDbEntity
  8
0
100
AcDbLine
 62
7
  6
CONTINUOUS
 10
6.7679502068
 20
3.8986196534
 11
6.7679502068
 21
3.6631196534
  0
LINE
  5
376
100
AcDbEntity
  8
0
100
AcDbLine
 62
7
  6
CONTINUOUS
 10
6.7686848007
 20
3.8986196534
 11
6.7686848007
 21
3.6631196534
  0
LINE
  5
377
100
AcDbEntity
  8
0
100
AcDbLine
 62
7
  6
CONTINUOUS
 10
6.7688522461
 20
3.8986196534
 11
6.7688522461
 21
3.6631196534
  0
LINE
  5
378
100
AcDbEntity
  8
0
100
AcDbLine
 62
7
  6
CONTINUOUS
 10
6.768907967
 20
2.4731196534
 11
6.768907967
 21
3.6481196534
  0
LINE
  5
379
100
AcDbEntity
  8
0
100
AcDbLine
 62
7
  6
CONTINUOUS
 10
6.5089406872
 20
2.9641652907
 11
6.5104755348
 21
2.9728698437
  0
LINE
  5
37A
100
AcDbEntity
  8
0
100
AcDbLine
 62
7
  6
CONTINUOUS
 10
6.5721577767
 20
3.3226872211
 11
6.5736926243
 21
3.3313917741
  0
LINE
  5
37B
100
AcDbEntity
  8
0
100
AcDbLine
 62
7
  6
CONTINUOUS
 10
6.4897073779
 20
2.9525588092
 11
6.4919950367
 21
2.961096468
  0
LINE
  5
37C
100
AcDbEntity
  8
0
100
AcDbLine
 62
7
  6
CONTINUOUS
 10
6.5839311524
 20
3.304206723
 11
6.5862188112
 21
3.3127443818
  0
LINE
  5
37D
100
AcDbEntity
  8
0
100
AcDbLine
 62
7
  6
CONTINUOUS
 10
6.123792379
 20
3.1136110025
 11
6.1193729616
 21
3.105956347
  0
LINE
  5
37E
100
AcDbEntity
  8
0
100
AcDbLine
 62
7
  6
CONTINUOUS
 10
6.3013993161
 20
3.4212352414
 11
6.303907967
 21
3.4255803522
  0
LINE
  5
37F
100
AcDbEntity
  8
0
100
AcDbLine
 62
7
  6
CONTINUOUS
 10
6.1190497273
 20
3.1350037218
 11
6.1139799799
 21
3.1277633722
  0
LINE
  5
380
100
AcDbEntity
  8
0
100
AcDbLine
 62
7
  6
CONTINUOUS
 10
4.491407967
 20
5.7981196534
 11
4.241407967
 21
5.7981196534
  0
LINE
  5
381
100
AcDbEntity
  8
0
100
AcDbLine
 62
7
  6
CONTINUOUS
 10
6.241407967
 20
5.7981196534
 11
6.491407967
 21
5.7981196534
  0
LINE
  5
382
100
AcDbEntity
  8
0
100
AcDbLine
 62
7
  6
CONTINUOUS
 10
6.973907967
 20
2.3312380961
 11
6.973907967
 21
2.2231196534
  0
LINE
  5
383
100
AcDbEntity
  8
0
100
AcDbLine
 62
7
  6
CONTINUOUS
 10
6.4695356856
 20
2.9426727872
 11
6.4725587452
 21
2.950978575
  0
LINE
  5
384
100
AcDbEntity
  8
0
100
AcDbLine
 62
7
  6
CONTINUOUS
 10
6.5940490454
 20
3.2847704315
 11
6.5970721049
 21
3.2930762193
  0
LINE
  5
385
100
AcDbEntity
  8
0
100
AcDbLine
 62
7
  6
CONTINUOUS
 10
6.4485791292
 20
2.9345824634
 11
6.4523145822
 21
2.9425931681
  0
LINE
  5
386
100
AcDbEntity
  8
0
100
AcDbLine
 62
7
  6
CONTINUOUS
 10
6.6024344523
 20
3.2645262685
 11
6.6061699053
 21
3.2725369733
  0
LINE
  5
387
100
AcDbEntity
  8
0
100
AcDbLine
 62
7
  6
CONTINUOUS
 10
6.1161896212
 20
3.1567283847
 11
6.1105081277
 21
3.1499574444
  0
LINE
  5
388
100
AcDbEntity
  8
0
100
AcDbLine
 62
7
  6
CONTINUOUS
 10
6.1152338277
 20
3.1786196534
 11
6.1089838277
 21
3.1723696534
  0
LINE
  5
389
100
AcDbEntity
  8
0
100
AcDbLine
 62
7
  6
CONTINUOUS
 10
6.1161896212
 20
3.200510922
 11
6.1094186809
 21
3.1948294286
  0
LINE
  5
38A
100
AcDbEntity
  8
0
100
AcDbLine
 62
7
  6
CONTINUOUS
 10
6.1190497273
 20
3.2222355849
 11
6.1118093777
 21
3.2171658376
  0
LINE
  5
38B
100
AcDbEntity
  8
0
100
AcDbLine
 62
7
  6
CONTINUOUS
 10
6.123792379
 20
3.2436283043
 11
6.1161377235
 21
3.2392088869
  0
LINE
  5
38C
100
AcDbEntity
  8
0
100
AcDbLine
 62
7
  6
CONTINUOUS
 10
6.4314166179
 20
3.4212352414
 11
6.4390712734
 21
3.4256546588
  0
LINE
  5
38D
100
AcDbEntity
  8
0
100
AcDbLine
 62
7
  6
CONTINUOUS
 10
6.4603252869
 20
3.4183815916
 11
6.4523145822
 21
3.4146461386
  0
LINE
  5
38E
100
AcDbEntity
  8
0
100
AcDbLine
 62
7
  6
CONTINUOUS
 10
6.1303814818
 20
3.2645262685
 11
6.122370777
 21
3.2607908155
  0
LINE
  5
38F
100
AcDbEntity
  8
0
100
AcDbLine
 62
7
  6
CONTINUOUS
 10
6.480864533
 20
3.4092837913
 11
6.4725587452
 21
3.4062607317
  0
LINE
  5
390
100
AcDbEntity
  8
0
100
AcDbLine
 62
7
  6
CONTINUOUS
 10
6.1387668887
 20
3.2847704315
 11
6.1304611009
 21
3.281747372
  0
LINE
  5
391
100
AcDbEntity
  8
0
100
AcDbLine
 62
7
  6
CONTINUOUS
 10
6.4314166179
 20
2.9360040653
 11
6.4269972005
 21
2.9283494099
  0
LINE
  5
392
100
AcDbEntity
  8
0
100
AcDbLine
 62
7
  6
CONTINUOUS
 10
6.6090235551
 20
3.2436283043
 11
6.6134429725
 21
3.2512829597
  0
LINE
  5
393
100
AcDbEntity
  8
0
100
AcDbLine
 62
7
  6
CONTINUOUS
 10
6.4081741182
 20
2.9286196534
 11
6.4049541513
 21
2.9240210641
  0
LINE
  5
394
100
AcDbEntity
  8
0
100
AcDbLine
 62
7
  6
CONTINUOUS
 10
6.6137662068
 20
3.2222355849
 11
6.6188359541
 21
3.2294759345
  0
LINE
  5
395
100
AcDbEntity
  8
0
100
AcDbLine
 62
7
  6
CONTINUOUS
 10
6.3882992357
 20
2.9284013075
 11
6.3826177422
 21
2.9216303672
  0
LINE
  5
396
100
AcDbEntity
  8
0
100
AcDbLine
 62
7
  6
CONTINUOUS
 10
6.6166263129
 20
3.200510922
 11
6.6223078064
 21
3.2072818623
  0
LINE
  5
397
100
AcDbEntity
  8
0
100
AcDbLine
 62
7
  6
CONTINUOUS
 10
6.366407967
 20
2.9274455141
 11
6.360157967
 21
2.9211955141
  0
LINE
  5
398
100
AcDbEntity
  8
0
100
AcDbLine
 62
7
  6
CONTINUOUS
 10
6.6175821063
 20
3.1786196534
 11
6.6238321063
 21
3.1848696534
  0
LINE
  5
399
100
AcDbEntity
  8
0
100
AcDbLine
 62
7
  6
CONTINUOUS
 10
6.3445166984
 20
2.9284013075
 11
6.3377457581
 21
2.922719814
  0
LINE
  5
39A
100
AcDbEntity
  8
0
100
AcDbLine
 62
7
  6
CONTINUOUS
 10
6.6166263129
 20
3.1567283847
 11
6.6233972532
 21
3.1624098782
  0
LINE
  5
39B
100
AcDbEntity
  8
0
100
AcDbLine
 62
7
  6
CONTINUOUS
 10
6.3189445651
 20
2.9285673859
 11
6.3155516859
 21
2.9261916663
  0
LINE
  5
39C
100
AcDbEntity
  8
0
100
AcDbLine
 62
7
  6
CONTINUOUS
 10
6.6137662068
 20
3.1350037218
 11
6.6210065563
 21
3.1400734692
  0
LINE
  5
39D
100
AcDbEntity
  8
0
100
AcDbLine
 62
7
  6
CONTINUOUS
 10
6.2937446607
 20
2.9315846479
 11
6.3013993161
 21
2.9360040653
  0
LINE
  5
39E
100
AcDbEntity
  8
0
100
AcDbLine
 62
7
  6
CONTINUOUS
 10
6.6090235551
 20
3.1136110025
 11
6.6166782105
 21
3.1180304199
  0
LINE
  5
39F
100
AcDbEntity
  8
0
100
AcDbLine
 62
7
  6
CONTINUOUS
 10
6.2724906471
 20
2.9388577151
 11
6.2805013519
 21
2.9425931681
  0
LINE
  5
3A0
100
AcDbEntity
  8
0
100
AcDbLine
 62
7
  6
CONTINUOUS
 10
6.6024344523
 20
3.0927130382
 11
6.6104451571
 21
3.0964484912
  0
LINE
  5
3A1
100
AcDbEntity
  8
0
100
AcDbLine
 62
7
  6
CONTINUOUS
 10
6.2519514011
 20
2.9479555155
 11
6.2602571889
 21
2.950978575
  0
LINE
  5
3A2
100
AcDbEntity
  8
0
100
AcDbLine
 62
7
  6
CONTINUOUS
 10
6.5940490454
 20
3.0724688752
 11
6.6023548332
 21
3.0754919348
  0
ARC
  5
3A3
100
AcDbEntity
  8
0
100
AcDbCircle
 62
7
  6
CONTINUOUS
 10
5.4985009912
 20
3.5706940711
 40
1.25
100
AcDbArc
 50
282.7916252431
 51
288.8823949698
  0
ARC
  5
3A4
100
AcDbEntity
  8
0
100
AcDbCircle
 62
7
  6
CONTINUOUS
 10
5.873907967
 20
2.4731196534
 40
0.09
100
AcDbArc
 50
288.8823949698
 51
360.0
  0
ARC
  5
3A5
100
AcDbEntity
  8
0
100
AcDbCircle
 62
7
  6
CONTINUOUS
 10
5.779907967
 20
2.3312380961
 40
0.021
100
AcDbArc
 50
102.7916252431
 51
180.0
  0
ARC
  5
3A6
100
AcDbEntity
  8
0
100
AcDbCircle
 62
7
  6
CONTINUOUS
 10
5.978907967
 20
3.8986196534
 40
0.015
100
AcDbArc
 50
90.0
 51
121.6862229406
  0
ARC
  5
3A7
100
AcDbEntity
  8
0
100
AcDbCircle
 62
7
  6
CONTINUOUS
 10
5.978907967
 20
3.6631196534
 40
0.015
100
AcDbArc
 50
238.3137770589
 51
270.0
  0
ARC
  5
3A8
100
AcDbEntity
  8
0
100
AcDbCircle
 62
7
  6
CONTINUOUS
 10
5.9788447258
 20
3.8987627701
 40
0.0148485255
100
AcDbArc
 50
140.8960898001
 51
142.5065484965
  0
ARC
  5
3A9
100
AcDbEntity
  8
0
100
AcDbCircle
 62
7
  6
CONTINUOUS
 10
5.9788424664
 20
3.6629747521
 40
0.0148456465
100
AcDbArc
 50
217.4894277765
 51
219.1036161884
  0
ARC
  5
3AA
100
AcDbEntity
  8
0
100
AcDbCircle
 62
7
  6
CONTINUOUS
 10
5.9787924315
 20
3.6629325756
 40
0.0147802175
100
AcDbArc
 50
219.0990769114
 51
225.8381917922
  0
ARC
  5
3AB
100
AcDbEntity
  8
0
100
AcDbCircle
 62
7
  6
CONTINUOUS
 10
5.9787898115
 20
3.8988091686
 40
0.0147766436
100
AcDbArc
 50
131.5927618927
 51
140.8978994422
  0
ARC
  5
3AC
100
AcDbEntity
  8
0
100
AcDbCircle
 62
7
  6
CONTINUOUS
 10
5.366407967
 20
5.7981196534
 40
1.125
100
AcDbArc
 50
0.0
 51
180.0
  0
ARC
  5
3AD
100
AcDbEntity
  8
0
100
AcDbCircle
 62
7
  6
CONTINUOUS
 10
5.366407967
 20
5.7981196534
 40
0.875
100
AcDbArc
 50
0.0
 51
180.0
  0
ARC
  5
3AE
100
AcDbEntity
  8
0
100
AcDbCircle
 62
7
  6
CONTINUOUS
 10
6.318907967
 20
2.9436196534
 40
0.015
100
AcDbArc
 50
180.0
 51
270.0
  0
ARC
  5
3AF
100
AcDbEntity
  8
0
100
AcDbCircle
 62
7
  6
CONTINUOUS
 10
6.413907967
 20
2.9436196534
 40
0.015
100
AcDbArc
 50
270.0
 51
360.0
  0
ARC
  5
3B0
100
AcDbEntity
  8
0
100
AcDbCircle
 62
7
  6
CONTINUOUS
 10
6.366407967
 20
3.1786196534
 40
0.2575
100
AcDbArc
 50
106.3908108425
 51
108.6091891575
  0
ARC
  5
3B1
100
AcDbEntity
  8
0
100
AcDbCircle
 62
7
  6
CONTINUOUS
 10
6.366407967
 20
3.1786196534
 40
0.2575
100
AcDbArc
 50
111.3908108425
 51
113.6091891575
  0
ARC
  5
3B2
100
AcDbEntity
  8
0
100
AcDbCircle
 62
7
  6
CONTINUOUS
 10
6.366407967
 20
3.1786196534
 40
0.2575
100
AcDbArc
 50
116.3908108425
 51
118.6091891575
  0
ARC
  5
3B3
100
AcDbEntity
  8
0
100
AcDbCircle
 62
7
  6
CONTINUOUS
 10
6.366407967
 20
3.1786196534
 40
0.2575
100
AcDbArc
 50
121.3908108425
 51
123.6091891575
  0
ARC
  5
3B4
100
AcDbEntity
  8
0
100
AcDbCircle
 62
7
  6
CONTINUOUS
 10
6.366407967
 20
3.1786196534
 40
0.2575
100
AcDbArc
 50
126.3908108425
 51
128.6091891575
  0
ARC
  5
3B5
100
AcDbEntity
  8
0
100
AcDbCircle
 62
7
  6
CONTINUOUS
 10
6.366407967
 20
3.1786196534
 40
0.2575
100
AcDbArc
 50
131.3908108425
 51
133.6091891575
  0
ARC
  5
3B6
100
AcDbEntity
  8
0
100
AcDbCircle
 62
7
  6
CONTINUOUS
 10
6.366407967
 20
3.1786196534
 40
0.2575
100
AcDbArc
 50
136.3908108425
 51
138.6091891575
  0
ARC
  5
3B7
100
AcDbEntity
  8
0
100
AcDbCircle
 62
7
  6
CONTINUOUS
 10
6.366407967
 20
3.1786196534
 40
0.2575
100
AcDbArc
 50
141.3908108425
 51
143.6091891575
  0
ARC
  5
3B8
100
AcDbEntity
  8
0
100
AcDbCircle
 62
7
  6
CONTINUOUS
 10
6.366407967
 20
3.1786196534
 40
0.2575
100
AcDbArc
 50
146.3908108425
 51
148.6091891575
  0
ARC
  5
3B9
100
AcDbEntity
  8
0
100
AcDbCircle
 62
7
  6
CONTINUOUS
 10
6.366407967
 20
3.1786196534
 40
0.2575
100
AcDbArc
 50
151.3908108425
 51
153.6091891575
  0
ARC
  5
3BA
100
AcDbEntity
  8
0
100
AcDbCircle
 62
7
  6
CONTINUOUS
 10
6.366407967
 20
3.1786196534
 40
0.2575
100
AcDbArc
 50
156.3908108425
 51
158.6091891575
  0
ARC
  5
3BB
100
AcDbEntity
  8
0
100
AcDbCircle
 62
7
  6
CONTINUOUS
 10
6.366407967
 20
3.1786196534
 40
0.2575
100
AcDbArc
 50
161.3908108425
 51
163.6091891575
  0
ARC
  5
3BC
100
AcDbEntity
  8
0
100
AcDbCircle
 62
7
  6
CONTINUOUS
 10
6.366407967
 20
3.1786196534
 40
0.2575
100
AcDbArc
 50
166.3908108425
 51
168.6091891575
  0
ARC
  5
3BD
100
AcDbEntity
  8
0
100
AcDbCircle
 62
7
  6
CONTINUOUS
 10
6.366407967
 20
3.1786196534
 40
0.2575
100
AcDbArc
 50
171.3908108425
 51
173.6091891575
  0
ARC
  5
3BE
100
AcDbEntity
  8
0
100
AcDbCircle
 62
7
  6
CONTINUOUS
 10
6.366407967
 20
3.1786196534
 40
0.2575
100
AcDbArc
 50
176.3908108425
 51
178.6091891575
  0
ARC
  5
3BF
100
AcDbEntity
  8
0
100
AcDbCircle
 62
7
  6
CONTINUOUS
 10
6.366407967
 20
3.1786196534
 40
0.2575
100
AcDbArc
 50
181.3908108425
 51
183.6091891575
  0
ARC
  5
3C0
100
AcDbEntity
  8
0
100
AcDbCircle
 62
7
  6
CONTINUOUS
 10
6.366407967
 20
3.1786196534
 40
0.2575
100
AcDbArc
 50
186.3908108425
 51
188.6091891575
  0
ARC
  5
3C1
100
AcDbEntity
  8
0
100
AcDbCircle
 62
7
  6
CONTINUOUS
 10
6.366407967
 20
3.1786196534
 40
0.2575
100
AcDbArc
 50
191.3908108425
 51
193.6091891575
  0
ARC
  5
3C2
100
AcDbEntity
  8
0
100
AcDbCircle
 62
7
  6
CONTINUOUS
 10
6.366407967
 20
3.1786196534
 40
0.2575
100
AcDbArc
 50
196.3908108425
 51
198.6091891575
  0
ARC
  5
3C3
100
AcDbEntity
  8
0
100
AcDbCircle
 62
7
  6
CONTINUOUS
 10
6.366407967
 20
3.1786196534
 40
0.2575
100
AcDbArc
 50
201.3908108425
 51
203.6091891575
  0
ARC
  5
3C4
100
AcDbEntity
  8
0
100
AcDbCircle
 62
7
  6
CONTINUOUS
 10
6.366407967
 20
3.1786196534
 40
0.2575
100
AcDbArc
 50
206.3908108425
 51
208.6091891575
  0
ARC
  5
3C5
100
AcDbEntity
  8
0
100
AcDbCircle
 62
7
  6
CONTINUOUS
 10
6.366407967
 20
3.1786196534
 40
0.2575
100
AcDbArc
 50
211.3908108425
 51
213.6091891575
  0
ARC
  5
3C6
100
AcDbEntity
  8
0
100
AcDbCircle
 62
7
  6
CONTINUOUS
 10
6.366407967
 20
3.1786196534
 40
0.2575
100
AcDbArc
 50
216.3908108425
 51
218.6091891575
  0
ARC
  5
3C7
100
AcDbEntity
  8
0
100
AcDbCircle
 62
7
  6
CONTINUOUS
 10
6.366407967
 20
3.1786196534
 40
0.2575
100
AcDbArc
 50
221.3908108425
 51
223.6091891575
  0
ARC
  5
3C8
100
AcDbEntity
  8
0
100
AcDbCircle
 62
7
  6
CONTINUOUS
 10
6.366407967
 20
3.1786196534
 40
0.2575
100
AcDbArc
 50
226.3908108425
 51
228.6091891575
  0
ARC
  5
3C9
100
AcDbEntity
  8
0
100
AcDbCircle
 62
7
  6
CONTINUOUS
 10
6.366407967
 20
3.1786196534
 40
0.2575
100
AcDbArc
 50
231.3908108425
 51
233.6091891575
  0
ARC
  5
3CA
100
AcDbEntity
  8
0
100
AcDbCircle
 62
7
  6
CONTINUOUS
 10
6.366407967
 20
3.1786196534
 40
0.2575
100
AcDbArc
 50
236.3908108425
 51
238.6091891575
  0
ARC
  5
3CB
100
AcDbEntity
  8
0
100
AcDbCircle
 62
7
  6
CONTINUOUS
 10
6.366407967
 20
3.1786196534
 40
0.2575
100
AcDbArc
 50
241.3908108425
 51
243.6091891575
  0
ARC
  5
3CC
100
AcDbEntity
  8
0
100
AcDbCircle
 62
7
  6
CONTINUOUS
 10
6.366407967
 20
3.1786196534
 40
0.2575
100
AcDbArc
 50
246.3908108425
 51
248.6091891575
  0
ARC
  5
3CD
100
AcDbEntity
  8
0
100
AcDbCircle
 62
7
  6
CONTINUOUS
 10
6.366407967
 20
3.1786196534
 40
0.2575
100
AcDbArc
 50
251.3908108425
 51
253.6091891575
  0
ARC
  5
3CE
100
AcDbEntity
  8
0
100
AcDbCircle
 62
7
  6
CONTINUOUS
 10
6.366407967
 20
3.1786196534
 40
0.2575
100
AcDbArc
 50
256.3908108425
 51
258.6091891575
  0
ARC
  5
3CF
100
AcDbEntity
  8
0
100
AcDbCircle
 62
7
  6
CONTINUOUS
 10
6.366407967
 20
3.1786196534
 40
0.2575
100
AcDbArc
 50
261.3908108425
 51
263.6091891575
  0
ARC
  5
3D0
100
AcDbEntity
  8
0
100
AcDbCircle
 62
7
  6
CONTINUOUS
 10
6.366407967
 20
3.1786196534
 40
0.2575
100
AcDbArc
 50
266.3908108425
 51
268.6091891575
  0
ARC
  5
3D1
100
AcDbEntity
  8
0
100
AcDbCircle
 62
7
  6
CONTINUOUS
 10
6.366407967
 20
3.1786196534
 40
0.2575
100
AcDbArc
 50
271.3908108425
 51
273.6091891575
  0
ARC
  5
3D2
100
AcDbEntity
  8
0
100
AcDbCircle
 62
7
  6
CONTINUOUS
 10
6.366407967
 20
3.1786196534
 40
0.2575
100
AcDbArc
 50
276.3908108425
 51
278.6091891575
  0
ARC
  5
3D3
100
AcDbEntity
  8
0
100
AcDbCircle
 62
7
  6
CONTINUOUS
 10
6.366407967
 20
3.1786196534
 40
0.2575
100
AcDbArc
 50
281.3908108425
 51
283.6091891575
  0
ARC
  5
3D4
100
AcDbEntity
  8
0
100
AcDbCircle
 62
7
  6
CONTINUOUS
 10
6.366407967
 20
3.1786196534
 40
0.2575
100
AcDbArc
 50
286.3908108425
 51
288.6091891575
  0
ARC
  5
3D5
100
AcDbEntity
  8
0
100
AcDbCircle
 62
7
  6
CONTINUOUS
 10
6.366407967
 20
3.1786196534
 40
0.2575
100
AcDbArc
 50
291.3908108425
 51
293.6091891575
  0
ARC
  5
3D6
100
AcDbEntity
  8
0
100
AcDbCircle
 62
7
  6
CONTINUOUS
 10
6.366407967
 20
3.1786196534
 40
0.2575
100
AcDbArc
 50
296.3908108425
 51
298.6091891575
  0
ARC
  5
3D7
100
AcDbEntity
  8
0
100
AcDbCircle
 62
7
  6
CONTINUOUS
 10
6.366407967
 20
3.1786196534
 40
0.2575
100
AcDbArc
 50
301.3908108425
 51
303.6091891575
  0
ARC
  5
3D8
100
AcDbEntity
  8
0
100
AcDbCircle
 62
7
  6
CONTINUOUS
 10
6.366407967
 20
3.1786196534
 40
0.2575
100
AcDbArc
 50
306.3908108425
 51
308.6091891575
  0
ARC
  5
3D9
100
AcDbEntity
  8
0
100
AcDbCircle
 62
7
  6
CONTINUOUS
 10
6.366407967
 20
3.1786196534
 40
0.2575
100
AcDbArc
 50
311.3908108425
 51
313.6091891575
  0
ARC
  5
3DA
100
AcDbEntity
  8
0
100
AcDbCircle
 62
7
  6
CONTINUOUS
 10
6.366407967
 20
3.1786196534
 40
0.2575
100
AcDbArc
 50
316.3908108425
 51
318.6091891575
  0
ARC
  5
3DB
100
AcDbEntity
  8
0
100
AcDbCircle
 62
7
  6
CONTINUOUS
 10
6.366407967
 20
3.1786196534
 40
0.2575
100
AcDbArc
 50
321.3908108425
 51
323.6091891575
  0
ARC
  5
3DC
100
AcDbEntity
  8
0
100
AcDbCircle
 62
7
  6
CONTINUOUS
 10
6.366407967
 20
3.1786196534
 40
0.2575
100
AcDbArc
 50
326.3908108425
 51
328.6091891575
  0
ARC
  5
3DD
100
AcDbEntity
  8
0
100
AcDbCircle
 62
7
  6
CONTINUOUS
 10
6.366407967
 20
3.1786196534
 40
0.2575
100
AcDbArc
 50
331.3908108425
 51
333.6091891575
  0
ARC
  5
3DE
100
AcDbEntity
  8
0
100
AcDbCircle
 62
7
  6
CONTINUOUS
 10
6.366407967
 20
3.1786196534
 40
0.2575
100
AcDbArc
 50
336.3908108425
 51
338.6091891575
  0
ARC
  5
3DF
100
AcDbEntity
  8
0
100
AcDbCircle
 62
7
  6
CONTINUOUS
 10
6.366407967
 20
3.1786196534
 40
0.2575
100
AcDbArc
 50
341.3908108425
 51
343.6091891575
  0
ARC
  5
3E0
100
AcDbEntity
  8
0
100
AcDbCircle
 62
7
  6
CONTINUOUS
 10
6.366407967
 20
3.1786196534
 40
0.2575
100
AcDbArc
 50
346.3908108425
 51
348.6091891575
  0
ARC
  5
3E1
100
AcDbEntity
  8
0
100
AcDbCircle
 62
7
  6
CONTINUOUS
 10
6.366407967
 20
3.1786196534
 40
0.2575
100
AcDbArc
 50
351.3908108425
 51
353.6091891575
  0
ARC
  5
3E2
100
AcDbEntity
  8
0
100
AcDbCircle
 62
7
  6
CONTINUOUS
 10
6.366407967
 20
3.1786196534
 40
0.2575
100
AcDbArc
 50
356.3908108425
 51
358.6091891575
  0
ARC
  5
3E3
100
AcDbEntity
  8
0
100
AcDbCircle
 62
7
  6
CONTINUOUS
 10
6.366407967
 20
3.1786196534
 40
0.2575
100
AcDbArc
 50
1.3908108425
 51
3.6091891575
  0
ARC
  5
3E4
100
AcDbEntity
  8
0
100
AcDbCircle
 62
7
  6
CONTINUOUS
 10
6.366407967
 20
3.1786196534
 40
0.2575
100
AcDbArc
 50
6.3908108425
 51
8.6091891575
  0
ARC
  5
3E5
100
AcDbEntity
  8
0
100
AcDbCircle
 62
7
  6
CONTINUOUS
 10
6.366407967
 20
3.1786196534
 40
0.2575
100
AcDbArc
 50
11.3908108425
 51
13.6091891575
  0
ARC
  5
3E6
100
AcDbEntity
  8
0
100
AcDbCircle
 62
7
  6
CONTINUOUS
 10
6.366407967
 20
3.1786196534
 40
0.2575
100
AcDbArc
 50
16.3908108425
 51
18.6091891575
  0
ARC
  5
3E7
100
AcDbEntity
  8
0
100
AcDbCircle
 62
7
  6
CONTINUOUS
 10
6.366407967
 20
3.1786196534
 40
0.2575
100
AcDbArc
 50
21.3908108425
 51
23.6091891575
  0
ARC
  5
3E8
100
AcDbEntity
  8
0
100
AcDbCircle
 62
7
  6
CONTINUOUS
 10
6.366407967
 20
3.1786196534
 40
0.2575
100
AcDbArc
 50
26.3908108425
 51
28.6091891575
  0
ARC
  5
3E9
100
AcDbEntity
  8
0
100
AcDbCircle
 62
7
  6
CONTINUOUS
 10
6.366407967
 20
3.1786196534
 40
0.2575
100
AcDbArc
 50
31.3908108425
 51
33.6091891575
  0
ARC
  5
3EA
100
AcDbEntity
  8
0
100
AcDbCircle
 62
7
  6
CONTINUOUS
 10
6.366407967
 20
3.1786196534
 40
0.2575
100
AcDbArc
 50
36.3908108425
 51
38.6091891575
  0
ARC
  5
3EB
100
AcDbEntity
  8
0
100
AcDbCircle
 62
7
  6
CONTINUOUS
 10
6.366407967
 20
3.1786196534
 40
0.2575
100
AcDbArc
 50
41.3908108425
 51
43.6091891575
  0
ARC
  5
3EC
100
AcDbEntity
  8
0
100
AcDbCircle
 62
7
  6
CONTINUOUS
 10
6.366407967
 20
3.1786196534
 40
0.2575
100
AcDbArc
 50
46.3908108425
 51
48.6091891575
  0
ARC
  5
3ED
100
AcDbEntity
  8
0
100
AcDbCircle
 62
7
  6
CONTINUOUS
 10
6.366407967
 20
3.1786196534
 40
0.2575
100
AcDbArc
 50
51.3908108425
 51
53.6091891575
  0
ARC
  5
3EE
100
AcDbEntity
  8
0
100
AcDbCircle
 62
7
  6
CONTINUOUS
 10
6.366407967
 20
3.1786196534
 40
0.2575
100
AcDbArc
 50
56.3908108425
 51
58.6091891575
  0
ARC
  5
3EF
100
AcDbEntity
  8
0
100
AcDbCircle
 62
7
  6
CONTINUOUS
 10
6.366407967
 20
3.1786196534
 40
0.2575
100
AcDbArc
 50
61.3908108425
 51
63.6091891575
  0
ARC
  5
3F0
100
AcDbEntity
  8
0
100
AcDbCircle
 62
7
  6
CONTINUOUS
 10
6.366407967
 20
3.1786196534
 40
0.2575
100
AcDbArc
 50
66.3908108425
 51
68.6091891575
  0
ARC
  5
3F1
100
AcDbEntity
  8
0
100
AcDbCircle
 62
7
  6
CONTINUOUS
 10
6.366407967
 20
3.1786196534
 40
0.2575
100
AcDbArc
 50
71.3908108425
 51
73.6091891575
  0
ARC
  5
3F2
100
AcDbEntity
  8
0
100
AcDbCircle
 62
7
  6
CONTINUOUS
 10
6.366407967
 20
3.1786196534
 40
0.2425
100
AcDbArc
 50
285.8545289788
 51
74.1454710212
  0
ARC
  5
3F3
100
AcDbEntity
  8
0
100
AcDbCircle
 62
7
  6
CONTINUOUS
 10
6.366407967
 20
3.1786196534
 40
0.2425
100
AcDbArc
 50
105.8545289788
 51
254.1454710212
  0
ARC
  5
3F4
100
AcDbEntity
  8
0
100
AcDbCircle
 62
7
  6
CONTINUOUS
 10
6.753907967
 20
3.8986196534
 40
0.015
100
AcDbArc
 50
58.3137770594
 51
90.0
  0
ARC
  5
3F5
100
AcDbEntity
  8
0
100
AcDbCircle
 62
7
  6
CONTINUOUS
 10
6.753907967
 20
3.6631196534
 40
0.015
100
AcDbArc
 50
270.0
 51
301.6862229411
  0
ARC
  5
3F6
100
AcDbEntity
  8
0
100
AcDbCircle
 62
7
  6
CONTINUOUS
 10
6.858907967
 20
2.4731196534
 40
0.09
100
AcDbArc
 50
180.0
 51
251.1176050302
  0
ARC
  5
3F7
100
AcDbEntity
  8
0
100
AcDbCircle
 62
7
  6
CONTINUOUS
 10
6.952907967
 20
2.3312380961
 40
0.021
100
AcDbArc
 50
0.0
 51
77.2083747569
  0
ARC
  5
3F8
100
AcDbEntity
  8
0
100
AcDbCircle
 62
7
  6
CONTINUOUS
 10
7.2343149429
 20
3.5706940711
 40
1.25
100
AcDbArc
 50
251.1176050302
 51
257.2083747569
  0
ARC
  5
3F9
100
AcDbEntity
  8
0
100
AcDbCircle
 62
7
  6
CONTINUOUS
 10
6.318907967
 20
4.2636196534
 40
0.015
100
AcDbArc
 50
90.0
 51
180.0
  0
ARC
  5
3FA
100
AcDbEntity
  8
0
100
AcDbCircle
 62
7
  6
CONTINUOUS
 10
6.413907967
 20
4.2636196534
 40
0.015
100
AcDbArc
 50
0.0
 51
90.0
  0
LINE
  5
3FB
100
AcDbEntity
  8
0
100
AcDbLine
 62
7
  6
CONTINUOUS
 10
6.6459831432
 20
3.6503555918
 11
6.646243423
 21
3.6631196534
  0
SPLINE
  5
3FC
100
AcDbEntity
  8
0
100
AcDbSpline
 62
7
  6
CONTINUOUS
 70
0
 71
3
 72
15
 73
11
 74
0
 42
0.0000001
 43
0.0000001
 44
0.0000000001
 40
0.0
 40
0.0
 40
0.0
 40
0.0
 40
0.0758235867
 40
0.1661357471
 40
0.2714316568
 40
0.3919640602
 40
0.5273272122
 40
0.676050921
 40
0.8351443931
 40
1.0
 40
1.0
 40
1.0
 40
1.0
 10
6.6602318293
 20
3.6503555918
 30
0.0
 10
6.6602880211
 20
3.6506741783
 30
0.0
 10
6.6603952489
 20
3.6513750405
 30
0.0
 10
6.660534484
 20
3.6525248401
 30
0.0
 10
6.6606627369
 20
3.65386768
 30
0.0
 10
6.6607766478
 20
3.6554045982
 30
0.0
 10
6.6608721747
 20
3.657128366
 30
0.0
 10
6.6609449242
 20
3.6590178948
 30
0.0
 10
6.6609906935
 20
3.6610341272
 30
0.0
 10
6.6610010611
 20
3.6624162911
 30
0.0
 10
6.6610010611
 20
3.6631196534
 30
0.0
  0
SPLINE
  5
3FD
100
AcDbEntity
  8
0
100
AcDbSpline
 62
7
  6
CONTINUOUS
 70
0
 71
3
 72
15
 73
11
 74
0
 42
0.0000001
 43
0.0000001
 44
0.0000000001
 40
0.0
 40
0.0
 40
0.0
 40
0.0
 40
0.0770121679
 40
0.168055232
 40
0.2736941238
 40
0.3942344274
 40
0.5293170964
 40
0.6775233744
 40
0.835926752
 40
1.0
 40
1.0
 40
1.0
 40
1.0
 10
6.6736751646
 20
3.6503555918
 30
0.0
 10
6.6737678797
 20
3.6506724649
 30
0.0
 10
6.6739454284
 20
3.6513712273
 30
0.0
 10
6.6741767222
 20
3.6525219065
 30
0.0
 10
6.674389689
 20
3.6538654321
 30
0.0
 10
6.6745787821
 20
3.6554028775
 30
0.0
 10
6.6747373366
 20
3.6571271036
 30
0.0
 10
6.6748580751
 20
3.6590170591
 30
0.0
 10
6.6749340332
 20
3.6610337025
 30
0.0
 10
6.67495124
 20
3.6624162557
 30
0.0
 10
6.67495124
 20
3.6631196534
 30
0.0
  0
SPLINE
  5
3FE
100
AcDbEntity
  8
0
100
AcDbSpline
 62
7
  6
CONTINUOUS
 70
0
 71
3
 72
15
 73
11
 74
0
 42
0.0000001
 43
0.0000001
 44
0.0000000001
 40
0.0
 40
0.0
 40
0.0
 40
0.0
 40
0.0787071398
 40
0.1708044327
 40
0.2769446912
 40
0.3975037197
 40
0.5321871117
 40
0.6796494018
 40
0.8370570848
 40
1.0
 40
1.0
 40
1.0
 40
1.0
 10
6.686276302
 20
3.6503555918
 30
0.0
 10
6.6864046658
 20
3.6506702038
 30
0.0
 10
6.6866515618
 20
3.651365966
 30
0.0
 10
6.6869746826
 20
3.6525177597
 30
0.0
 10
6.687272052
 20
3.6538621924
 30
0.0
 10
6.6875359843
 20
3.6554003685
 30
0.0
 10
6.6877572523
 20
3.6571252472
 30
0.0
 10
6.6879257279
 20
3.6590158238
 30
0.0
 10
6.6880317127
 20
3.6610330726
 30
0.0
 10
6.6880557232
 20
3.6624162032
 30
0.0
 10
6.6880557232
 20
3.6631196534
 30
0.0
  0
SPLINE
  5
3FF
100
AcDbEntity
  8
0
100
AcDbSpline
 62
7
  6
CONTINUOUS
 70
0
 71
3
 72
15
 73
11
 74
0
 42
0.0000001
 43
0.0000001
 44
0.0000000001
 40
0.0
 40
0.0
 40
0.0
 40
0.0
 40
0.0808223392
 40
0.1742543229
 40
0.2810403411
 40
0.401635261
 40
0.5358218553
 40
0.6823458362
 40
0.8384918964
 40
1.0
 40
1.0
 40
1.0
 40
1.0
 10
6.6980007024
 20
3.6503555918
 30
0.0
 10
6.6981636899
 20
3.6506676483
 30
0.0
 10
6.6984786125
 20
3.651359689
 30
0.0
 10
6.6988931163
 20
3.652512649
 30
0.0
 10
6.69927439
 20
3.6538580981
 30
0.0
 10
6.6996126575
 20
3.6553971465
 30
0.0
 10
6.6998961881
 20
3.6571228355
 30
0.0
 10
6.7001120445
 20
3.6590142073
 30
0.0
 10
6.7002478277
 20
3.661032245
 30
0.0
 10
6.7002785924
 20
3.6624161342
 30
0.0
 10
6.7002785924
 20
3.6631196534
 30
0.0
  0
SPLINE
  5
400
100
AcDbEntity
  8
0
100
AcDbSpline
 62
7
  6
CONTINUOUS
 70
0
 71
3
 72
15
 73
11
 74
0
 42
0.0000001
 43
0.0000001
 44
0.0000000001
 40
0.0
 40
0.0
 40
0.0
 40
0.0
 40
0.0832629092
 40
0.1782602725
 40
0.2858188817
 40
0.4064728648
 40
0.5400887687
 40
0.6855169137
 40
0.840181059
 40
1.0
 40
1.0
 40
1.0
 40
1.0
 10
6.7088162302
 20
3.6503555918
 30
0.0
 10
6.709012766
 20
3.6506650169
 30
0.0
 10
6.7093941111
 20
3.6513528366
 30
0.0
 10
6.7098992665
 20
3.6525068483
 30
0.0
 10
6.7103637183
 20
3.653853311
 30
0.0
 10
6.710775636
 20
3.6553933032
 30
0.0
 10
6.7111208324
 20
3.6571199175
 30
0.0
 10
6.7113836048
 20
3.6590122336
 30
0.0
 10
6.7115488909
 20
3.6610312293
 30
0.0
 10
6.7115863453
 20
3.6624160496
 30
0.0
 10
6.7115863453
 20
3.6631196534
 30
0.0
  0
SPLINE
  5
401
100
AcDbEntity
  8
0
100
AcDbSpline
 62
7
  6
CONTINUOUS
 70
0
 71
3
 72
15
 73
11
 74
0
 42
0.0000001
 43
0.0000001
 44
0.0000000001
 40
0.0
 40
0.0
 40
0.0
 40
0.0
 40
0.0859348528
 40
0.1826758849
 40
0.2911137767
 40
0.4118546754
 40
0.5448497919
 40
0.6890623036
 40
0.8420717978
 40
1.0
 40
1.0
 40
1.0
 40
1.0
 10
6.7186932407
 20
3.6503555918
 30
0.0
 10
6.7189222583
 20
3.6506624678
 30
0.0
 10
6.7193682167
 20
3.6513457981
 30
0.0
 10
6.7199629528
 20
3.6525006262
 30
0.0
 10
6.7205095963
 20
3.653848004
 30
0.0
 10
6.7209942783
 20
3.655388943
 30
0.0
 10
6.7214003877
 20
3.6571165514
 30
0.0
 10
6.7217094987
 20
3.6590099313
 30
0.0
 10
6.7219039233
 20
3.6610300364
 30
0.0
 10
6.7219479883
 20
3.6624159498
 30
0.0
 10
6.7219479883
 20
3.6631196534
 30
0.0
  0
SPLINE
  5
402
100
AcDbEntity
  8
0
100
AcDbSpline
 62
7
  6
CONTINUOUS
 70
0
 71
3
 72
15
 73
11
 74
0
 42
0.0000001
 43
0.0000001
 44
0.0000000001
 40
0.0
 40
0.0
 40
0.0
 40
0.0
 40
0.0887517464
 40
0.1873633177
 40
0.2967656198
 40
0.4176239467
 40
0.5499699811
 40
0.6928837836
 40
0.8441125289
 40
1.0
 40
1.0
 40
1.0
 40
1.0
 10
6.7276046618
 20
3.6503555918
 30
0.0
 10
6.7278651251
 20
3.6506600977
 30
0.0
 10
6.7283737538
 20
3.651338878
 30
0.0
 10
6.7290566402
 20
3.6524942243
 30
0.0
 10
6.7296842081
 20
3.6538423479
 30
0.0
 10
6.7302405514
 20
3.6553841742
 30
0.0
 10
6.7307066565
 20
3.6571128003
 30
0.0
 10
6.7310614115
 20
3.6590073337
 30
0.0
 10
6.7312845397
 20
3.6610286809
 30
0.0
 10
6.7313351208
 20
3.6624158365
 30
0.0
 10
6.7313351208
 20
3.6631196534
 30
0.0
  0
SPLINE
  5
403
100
AcDbEntity
  8
0
100
AcDbSpline
 62
7
  6
CONTINUOUS
 70
0
 71
3
 72
15
 73
11
 74
0
 42
0.0000001
 43
0.0000001
 44
0.0000000001
 40
0.0
 40
0.0
 40
0.0
 40
0.0
 40
0.0916385267
 40
0.1921997788
 40
0.3026297632
 40
0.4236366236
 40
0.5553243675
 40
0.6968896814
 40
0.8462548198
 40
1.0
 40
1.0
 40
1.0
 40
1.0
 10
6.7355260679
 20
3.6503555918
 30
0.0
 10
6.7358169695
 20
3.6506579542
 30
0.0
 10
6.7363862431
 20
3.6513322892
 30
0.0
 10
6.7371554972
 20
3.6524878439
 30
0.0
 10
6.7378624335
 20
3.6538365017
 30
0.0
 10
6.7384891073
 20
3.6553791069
 30
0.0
 10
6.7390141184
 20
3.6571087322
 30
0.0
 10
6.7394137017
 20
3.6590044769
 30
0.0
 10
6.7396650263
 20
3.6610271779
 30
0.0
 10
6.7397220133
 20
3.6624157106
 30
0.0
 10
6.7397220133
 20
3.6631196534
 30
0.0
  0
SPLINE
  5
404
100
AcDbEntity
  8
0
100
AcDbSpline
 62
7
  6
CONTINUOUS
 70
0
 71
3
 72
14
 73
10
 74
0
 42
0.0000001
 43
0.0000001
 44
0.0000000001
 40
0.0
 40
0.0
 40
0.0
 40
0.0
 40
0.1968114124
 40
0.3083485774
 40
0.4295743498
 40
0.5606542035
 40
0.70089746
 40
0.8484042568
 40
1.0
 40
1.0
 40
1.0
 40
1.0
 10
6.7424357469
 20
3.6503555918
 30
0.0
 10
6.7431024645
 20
3.6509809184
 30
0.0
 10
6.7440180908
 20
3.6521039623
 30
0.0
 10
6.7450216711
 20
3.6538303013
 30
0.0
 10
6.7457174224
 20
3.6553739389
 30
0.0
 10
6.7462999786
 20
3.6571043891
 30
0.0
 10
6.7467434773
 20
3.6590014082
 30
0.0
 10
6.7470224092
 20
3.6610255422
 30
0.0
 10
6.747085678
 20
3.6624155737
 30
0.0
 10
6.747085678
 20
3.6631196534
 30
0.0
  0
SPLINE
  5
405
100
AcDbEntity
  8
0
100
AcDbSpline
 62
7
  6
CONTINUOUS
 70
0
 71
3
 72
15
 73
11
 74
0
 42
0.0000001
 43
0.0000001
 44
0.0000000001
 40
0.0
 40
0.0
 40
0.0
 40
0.0
 40
0.0973849658
 40
0.2019195934
 40
0.314511626
 40
0.4359019094
 40
0.5663047693
 40
0.7051361098
 40
0.85067508
 40
1.0
 40
1.0
 40
1.0
 40
1.0
 10
6.7483147599
 20
3.6503555918
 30
0.0
 10
6.7486635549
 20
3.6506543804
 30
0.0
 10
6.7493478423
 20
3.6513205613
 30
0.0
 10
6.750283206
 20
3.6524757264
 30
0.0
 10
6.7511430835
 20
3.6538247778
 30
0.0
 10
6.7519054972
 20
3.6553684931
 30
0.0
 10
6.7525443373
 20
3.6570999225
 30
0.0
 10
6.753030628
 20
3.6589981445
 30
0.0
 10
6.7533365272
 20
3.6610237994
 30
0.0
 10
6.7534059316
 20
3.6624154271
 30
0.0
 10
6.7534059316
 20
3.6631196534
 30
0.0
  0
SPLINE
  5
406
100
AcDbEntity
  8
0
100
AcDbSpline
 62
7
  6
CONTINUOUS
 70
0
 71
3
 72
14
 73
10
 74
0
 42
0.0000001
 43
0.0000001
 44
0.0000000001
 40
0.0
 40
0.0
 40
0.0
 40
0.0
 40
0.1001993746
 40
0.2067371927
 40
0.32047506
 40
0.4421455633
 40
0.5719989877
 40
0.7095488712
 40
1.0
 40
1.0
 40
1.0
 40
1.0
 10
6.7531469929
 20
3.6503555918
 30
0.0
 10
6.7535232204
 20
3.6506529256
 30
0.0
 10
6.7542617909
 20
3.651315507
 30
0.0
 10
6.7552763371
 20
3.6524701707
 30
0.0
 10
6.7562092617
 20
3.653819127
 30
0.0
 10
6.7570366182
 20
3.6553630732
 30
0.0
 10
6.7577300626
 20
3.6570955653
 30
0.0
 10
6.7584461941
 20
3.6596713435
 30
0.0
 10
6.7586654506
 20
3.6617296078
 30
0.0
 10
6.7586654506
 20
3.6631196534
 30
0.0
  0
SPLINE
  5
407
100
AcDbEntity
  8
0
100
AcDbSpline
 62
7
  6
CONTINUOUS
 70
0
 71
3
 72
13
 73
9
 74
0
 42
0.0000001
 43
0.0000001
 44
0.0000000001
 40
0.0
 40
0.0
 40
0.0
 40
0.0
 40
0.1029145213
 40
0.2114118711
 40
0.3262945943
 40
0.4482730116
 40
0.71349015
 40
1.0
 40
1.0
 40
1.0
 40
1.0
 10
6.7569192012
 20
3.6503555918
 30
0.0
 10
6.7573218127
 20
3.6506516641
 30
0.0
 10
6.7581124533
 20
3.6513109895
 30
0.0
 10
6.7592032676
 20
3.6524650067
 30
0.0
 10
6.7602066754
 20
3.6538137591
 30
0.0
 10
6.7614267399
 20
3.6559302935
 30
0.0
 10
6.7625415682
 20
3.6590388561
 30
0.0
 10
6.7628498191
 20
3.6617283563
 30
0.0
 10
6.7628498191
 20
3.6631196534
 30
0.0
  0
SPLINE
  5
408
100
AcDbEntity
  8
0
100
AcDbSpline
 62
7
  6
CONTINUOUS
 70
0
 71
3
 72
16
 73
12
 74
0
 42
0.0000001
 43
0.0000001
 44
0.0000000001
 40
0.0
 40
0.0
 40
0.0
 40
0.0
 40
0.1053429066
 40
0.2155626347
 40
0.3313923794
 40
0.4535075797
 40
0.5821926995
 40
0.7171271918
 40
0.7866260213
 40
0.8571638461
 40
1.0
 40
1.0
 40
1.0
 40
1.0
 10
6.7596210453
 20
3.6503555918
 30
0.0
 10
6.7600489505
 20
3.6506505728
 30
0.0
 10
6.7608893797
 20
3.6513069664
 30
0.0
 10
6.7620533691
 20
3.6524602997
 30
0.0
 10
6.7631243482
 20
3.6538085331
 30
0.0
 10
6.7640747192
 20
3.6553527105
 30
0.0
 10
6.7648716269
 20
3.6570859605
 30
0.0
 10
6.7653727814
 20
3.6586558765
 30
0.0
 10
6.7656656183
 20
3.6599812965
 30
0.0
 10
6.7658820541
 20
3.6613606655
 30
0.0
 10
6.7659475681
 20
3.6624149465
 30
0.0
 10
6.7659475681
 20
3.6631196534
 30
0.0
  0
SPLINE
  5
409
100
AcDbEntity
  8
0
100
AcDbSpline
 62
7
  6
CONTINUOUS
 70
0
 71
3
 72
15
 73
11
 74
0
 42
0.0000001
 43
0.0000001
 44
0.0000000001
 40
0.0
 40
0.0
 40
0.0
 40
0.0
 40
0.1077373949
 40
0.2197090671
 40
0.3365740003
 40
0.4589645355
 40
0.5871658453
 40
0.7209244413
 40
0.859178557
 40
1.0
 40
1.0
 40
1.0
 40
1.0
 10
6.7612451197
 20
3.6503555918
 30
0.0
 10
6.7616971799
 20
3.6506496298
 30
0.0
 10
6.762585053
 20
3.6513034137
 30
0.0
 10
6.7638188962
 20
3.6524559935
 30
0.0
 10
6.7649544776
 20
3.6538037138
 30
0.0
 10
6.7659624919
 20
3.655347733
 30
0.0
 10
6.766808065
 20
3.657081455
 30
0.0
 10
6.7674523806
 20
3.6589841742
 30
0.0
 10
6.7678580176
 20
3.6610161062
 30
0.0
 10
6.7679502068
 20
3.6624147784
 30
0.0
 10
6.7679502068
 20
3.6631196534
 30
0.0
  0
SPLINE
  5
40A
100
AcDbEntity
  8
0
100
AcDbSpline
 62
7
  6
CONTINUOUS
 70
0
 71
3
 72
16
 73
12
 74
0
 42
0.0000001
 43
0.0000001
 44
0.0000000001
 40
0.0
 40
0.0
 40
0.0
 40
0.0
 40
0.1099625112
 40
0.223572389
 40
0.3414114872
 40
0.4640624691
 40
0.5918022005
 40
0.7244341224
 40
0.7923641102
 40
0.8611192411
 40
1.0
 40
1.0
 40
1.0
 40
1.0
 10
6.7617869728
 20
3.6503555918
 30
0.0
 10
6.7622619976
 20
3.6506488153
 30
0.0
 10
6.7631948886
 20
3.651300283
 30
0.0
 10
6.7644950999
 20
3.6524521002
 30
0.0
 10
6.7656920801
 20
3.6537992269
 30
0.0
 10
6.7667549501
 20
3.6553430259
 30
0.0
 10
6.7676468222
 20
3.6570769151
 30
0.0
 10
6.7682092021
 20
3.658651588
 30
0.0
 10
6.7685370778
 20
3.6599798948
 30
0.0
 10
6.7687788106
 20
3.6613585925
 30
0.0
 10
6.7688522461
 20
3.6624146096
 30
0.0
 10
6.7688522461
 20
3.6631196534
 30
0.0
  0
SPLINE
  5
40B
100
AcDbEntity
  8
0
100
AcDbSpline
 62
7
  6
CONTINUOUS
 70
0
 71
3
 72
11
 73
7
 74
0
 42
0.0000001
 43
0.0000001
 44
0.0000000001
 40
0.0
 40
0.0
 40
0.0
 40
0.0
 40
0.2344360998
 40
0.4806417533
 40
0.7371827496
 40
1.0
 40
1.0
 40
1.0
 40
1.0
 10
5.9670629557
 20
3.6539394685
 30
0.0
 10
5.9665943389
 20
3.6545504099
 30
0.0
 10
5.9657298012
 20
3.6558800795
 30
0.0
 10
5.9647432036
 20
3.6581023426
 30
0.0
 10
5.9641092799
 20
3.6605471394
 30
0.0
 10
5.963963688
 20
3.6622564717
 30
0.0
 10
5.963963688
 20
3.6631196534
 30
0.0
  0
SPLINE
  5
40C
100
AcDbEntity
  8
0
100
AcDbSpline
 62
7
  6
CONTINUOUS
 70
0
 71
3
 72
16
 73
12
 74
0
 42
0.0000001
 43
0.0000001
 44
0.0000000001
 40
0.0
 40
0.0
 40
0.0
 40
0.0
 40
0.1427785733
 40
0.2131892502
 40
0.282464868
 40
0.4167037543
 40
0.5446159139
 40
0.6662286371
 40
0.7821101488
 40
0.8931078731
 40
1.0
 40
1.0
 40
1.0
 40
1.0
 10
5.9639810616
 20
3.6631196534
 30
0.0
 10
5.9639810616
 20
3.662395229
 30
0.0
 10
5.9640581263
 20
3.6613114827
 30
0.0
 10
5.9643111862
 20
3.6598999905
 30
0.0
 10
5.9646513467
 20
3.6585513933
 30
0.0
 10
5.9652286938
 20
3.6569660837
 30
0.0
 10
5.9661340596
 20
3.65523616
 30
0.0
 10
5.9671985942
 20
3.6537123452
 30
0.0
 10
5.9683834149
 20
3.6523941179
 30
0.0
 10
5.9696580013
 20
3.6512736539
 30
0.0
 10
5.9705674594
 20
3.6506404678
 30
0.0
 10
5.9710289612
 20
3.6503555918
 30
0.0
  0
SPLINE
  5
40D
100
AcDbEntity
  8
0
100
AcDbSpline
 62
7
  6
CONTINUOUS
 70
0
 71
3
 72
15
 73
11
 74
0
 42
0.0000001
 43
0.0000001
 44
0.0000000001
 40
0.0
 40
0.0
 40
0.0
 40
0.0
 40
0.1450516946
 40
0.2865598782
 40
0.4220660829
 40
0.550458281
 40
0.6717244332
 40
0.786465266
 40
0.8955996812
 40
1.0
 40
1.0
 40
1.0
 40
1.0
 10
5.964934014
 20
3.6631196534
 30
0.0
 10
5.964934014
 20
3.6623954359
 30
0.0
 10
5.9650297966
 20
3.6609628151
 30
0.0
 10
5.9654488543
 20
3.6588916462
 30
0.0
 10
5.9661067151
 20
3.6569713751
 30
0.0
 10
5.966958362
 20
3.6552415356
 30
0.0
 10
5.9679601195
 20
3.6537173653
 30
0.0
 10
5.9690754837
 20
3.6523984089
 30
0.0
 10
5.9702756892
 20
3.6512770721
 30
0.0
 10
5.9711348758
 20
3.6506413567
 30
0.0
 10
5.9715708144
 20
3.6503555918
 30
0.0
  0
SPLINE
  5
40E
100
AcDbEntity
  8
0
100
AcDbSpline
 62
7
  6
CONTINUOUS
 70
0
 71
3
 72
16
 73
12
 74
0
 42
0.0000001
 43
0.0000001
 44
0.0000000001
 40
0.0
 40
0.0
 40
0.0
 40
0.0
 40
0.1473961279
 40
0.219870764
 40
0.2909453428
 40
0.4277688387
 40
0.5566654707
 40
0.6775723013
 40
0.7911119962
 40
0.8982670374
 40
1.0
 40
1.0
 40
1.0
 40
1.0
 10
5.9669873785
 20
3.6631196534
 30
0.0
 10
5.9669873785
 20
3.6623956387
 30
0.0
 10
5.9670549573
 20
3.6613139973
 30
0.0
 10
5.9672778199
 20
3.6599016745
 30
0.0
 10
5.9675765273
 20
3.6585564608
 30
0.0
 10
5.9680822289
 20
3.6569766002
 30
0.0
 10
5.9688777894
 20
3.6552471812
 30
0.0
 10
5.9698139919
 20
3.6537227461
 30
0.0
 10
5.9708567327
 20
3.6524031607
 30
0.0
 10
5.97197914
 20
3.6512809691
 30
0.0
 10
5.9727856691
 20
3.6506423932
 30
0.0
 10
5.9731948888
 20
3.6503555918
 30
0.0
  0
SPLINE
  5
40F
100
AcDbEntity
  8
0
100
AcDbSpline
 62
7
  6
CONTINUOUS
 70
0
 71
3
 72
15
 73
11
 74
0
 42
0.0000001
 43
0.0000001
 44
0.0000000001
 40
0.0
 40
0.0
 40
0.0
 40
0.0
 40
0.1498347337
 40
0.2953769901
 40
0.4335981983
 40
0.5630600078
 40
0.6836366034
 40
0.7959602333
 40
0.9010661813
 40
1.0
 40
1.0
 40
1.0
 40
1.0
 10
5.9701355272
 20
3.6631196534
 30
0.0
 10
5.9701355272
 20
3.6623958353
 30
0.0
 10
5.9702182501
 20
3.6609675132
 30
0.0
 10
5.9705805795
 20
3.6588999616
 30
0.0
 10
5.9711497628
 20
3.6569819793
 30
0.0
 10
5.9718871745
 20
3.6552529694
 30
0.0
 10
5.9727552189
 20
3.6537284736
 30
0.0
 10
5.9737223831
 20
3.6524083783
 30
0.0
 10
5.9747637717
 20
3.6512853955
 30
0.0
 10
5.9755153346
 20
3.6506436018
 30
0.0
 10
5.9758967329
 20
3.6503555918
 30
0.0
  0
SPLINE
  5
410
100
AcDbEntity
  8
0
100
AcDbSpline
 62
7
  6
CONTINUOUS
 70
0
 71
3
 72
14
 73
10
 74
0
 42
0.0000001
 43
0.0000001
 44
0.0000000001
 40
0.0
 40
0.0
 40
0.0
 40
0.0
 40
0.2996557724
 40
0.4393735028
 40
0.5694869087
 40
0.6897954456
 40
0.8009270976
 40
0.9039562071
 40
1.0
 40
1.0
 40
1.0
 40
1.0
 10
5.974369831
 20
3.6631196534
 30
0.0
 10
5.974369831
 20
3.6616966048
 30
0.0
 10
5.9745883984
 20
3.6596000933
 30
0.0
 10
5.9753009728
 20
3.6569874769
 30
0.0
 10
5.9759783293
 20
3.65525882
 30
0.0
 10
5.9767758423
 20
3.653734498
 30
0.0
 10
5.9776647011
 20
3.6524140526
 30
0.0
 10
5.978622068
 20
3.6512903937
 30
0.0
 10
5.9793164202
 20
3.6506450089
 30
0.0
 10
5.9796689411
 20
3.6503555918
 30
0.0
  0
SPLINE
  5
411
100
AcDbEntity
  8
0
100
AcDbSpline
 62
7
  6
CONTINUOUS
 70
0
 71
3
 72
15
 73
11
 74
0
 42
0.0000001
 43
0.0000001
 44
0.0000000001
 40
0.0
 40
0.0
 40
0.0
 40
0.0
 40
0.1548059618
 40
0.3045755509
 40
0.4457008879
 40
0.5763879388
 40
0.6963507609
 40
0.8061974586
 40
0.9070233872
 40
1.0
 40
1.0
 40
1.0
 40
1.0
 10
5.9796786841
 20
3.6631196534
 30
0.0
 10
5.9796786841
 20
3.662396201
 30
0.0
 10
5.9797476052
 20
3.6609718323
 30
0.0
 10
5.9800497584
 20
3.658907801
 30
0.0
 10
5.980524601
 20
3.6569923834
 30
0.0
 10
5.9811400795
 20
3.6552647952
 30
0.0
 10
5.9818649516
 20
3.6537407075
 30
0.0
 10
5.9826730191
 20
3.6524201565
 30
0.0
 10
5.9835436038
 20
3.6512959866
 30
0.0
 10
5.9841785507
 20
3.6506466413
 30
0.0
 10
5.9845011741
 20
3.6503555918
 30
0.0
  0
SPLINE
  5
412
100
AcDbEntity
  8
0
100
AcDbSpline
 62
7
  6
CONTINUOUS
 70
0
 71
3
 72
14
 73
10
 74
0
 42
0.0000001
 43
0.0000001
 44
0.0000000001
 40
0.0
 40
0.0
 40
0.0
 40
0.0
 40
0.1573266107
 40
0.3092577118
 40
0.4519015954
 40
0.583281855
 40
0.7030178954
 40
0.8116832162
 40
1.0
 40
1.0
 40
1.0
 40
1.0
 10
5.9860475354
 20
3.6631196534
 30
0.0
 10
5.9860475354
 20
3.6623963661
 30
0.0
 10
5.9861093268
 20
3.6609737853
 30
0.0
 10
5.9863803098
 20
3.6589114218
 30
0.0
 10
5.9868062504
 20
3.6569972872
 30
0.0
 10
5.9873582926
 20
3.6552707182
 30
0.0
 10
5.9880088988
 20
3.6537467331
 30
0.0
 10
5.9889315278
 20
3.6520661438
 30
0.0
 10
5.989769264
 20
3.650969036
 30
0.0
 10
5.9903801872
 20
3.6503555918
 30
0.0
  0
SPLINE
  5
413
100
AcDbEntity
  8
0
100
AcDbSpline
 62
7
  6
CONTINUOUS
 70
0
 71
3
 72
15
 73
11
 74
0
 42
0.0000001
 43
0.0000001
 44
0.0000000001
 40
0.0
 40
0.0
 40
0.0
 40
0.0
 40
0.1596867766
 40
0.3136395233
 40
0.4576964112
 40
0.5897023755
 40
0.7091760679
 40
0.8166419901
 40
0.9131790533
 40
1.0
 40
1.0
 40
1.0
 40
1.0
 10
5.9934589281
 20
3.6631196534
 30
0.0
 10
5.9934589281
 20
3.662396517
 30
0.0
 10
5.9935134571
 20
3.6609755772
 30
0.0
 10
5.9937526816
 20
3.6589147533
 30
0.0
 10
5.9941286909
 20
3.6570019563
 30
0.0
 10
5.9946161431
 20
3.6552762456
 30
0.0
 10
5.9951903157
 20
3.6537533397
 30
0.0
 10
5.9958304808
 20
3.6524332933
 30
0.0
 10
5.9965203409
 20
3.6513088864
 30
0.0
 10
5.9970300354
 20
3.6506506636
 30
0.0
 10
5.9972898662
 20
3.6503555918
 30
0.0
  0
SPLINE
  5
414
100
AcDbEntity
  8
0
100
AcDbSpline
 62
7
  6
CONTINUOUS
 70
0
 71
3
 72
15
 73
11
 74
0
 42
0.0000001
 43
0.0000001
 44
0.0000000001
 40
0.0
 40
0.0
 40
0.0
 40
0.0
 40
0.1619755593
 40
0.3179007378
 40
0.4633594427
 40
0.596024539
 40
0.7153111547
 40
0.8216834642
 40
0.9161821663
 40
1.0
 40
1.0
 40
1.0
 40
1.0
 10
6.0018925482
 20
3.6631196534
 30
0.0
 10
6.0018925482
 20
3.6623966519
 30
0.0
 10
6.0019397048
 20
3.6609771798
 30
0.0
 10
6.0021466416
 20
3.6589177731
 30
0.0
 10
6.0024719057
 20
3.6570062195
 30
0.0
 10
6.0028935641
 20
3.6552815301
 30
0.0
 10
6.0033902059
 20
3.6537594496
 30
0.0
 10
6.0039438653
 20
3.6524400361
 30
0.0
 10
6.0045404426
 20
3.6513160003
 30
0.0
 10
6.0049843569
 20
3.6506530561
 30
0.0
 10
6.0052112722
 20
3.6503555918
 30
0.0
  0
SPLINE
  5
415
100
AcDbEntity
  8
0
100
AcDbSpline
 62
7
  6
CONTINUOUS
 70
0
 71
3
 72
15
 73
11
 74
0
 42
0.0000001
 43
0.0000001
 44
0.0000000001
 40
0.0
 40
0.0
 40
0.0
 40
0.0
 40
0.1640868931
 40
0.321837574
 40
0.4686046979
 40
0.601901369
 40
0.7210410526
 40
0.8264201583
 40
0.9190246371
 40
1.0
 40
1.0
 40
1.0
 40
1.0
 10
6.0113252797
 20
3.6631196534
 30
0.0
 10
6.0113252797
 20
3.6623967694
 30
0.0
 10
6.011364969
 20
3.660978577
 30
0.0
 10
6.0115391758
 20
3.6589204283
 30
0.0
 10
6.0118129896
 20
3.6570100217
 30
0.0
 10
6.0121679254
 20
3.6552863435
 30
0.0
 10
6.0125859225
 20
3.6537651765
 30
0.0
 10
6.0130517962
 20
3.652446604
 30
0.0
 10
6.0135536428
 20
3.6513232772
 30
0.0
 10
6.0139297539
 20
3.6506556507
 30
0.0
 10
6.0141226933
 20
3.6503555918
 30
0.0
  0
SPLINE
  5
416
100
AcDbEntity
  8
0
100
AcDbSpline
 62
7
  6
CONTINUOUS
 70
0
 71
3
 72
15
 73
11
 74
0
 42
0.0000001
 43
0.0000001
 44
0.0000000001
 40
0.0
 40
0.0
 40
0.0
 40
0.0
 40
0.1659573935
 40
0.3253300969
 40
0.4732686452
 40
0.6071440482
 40
0.7261751275
 40
0.8306885055
 40
0.9216047364
 40
1.0
 40
1.0
 40
1.0
 40
1.0
 10
6.0217312682
 20
3.6631196534
 30
0.0
 10
6.0217312682
 20
3.6623968681
 30
0.0
 10
6.0217634117
 20
3.6609797528
 30
0.0
 10
6.0219045228
 20
3.6589226788
 30
0.0
 10
6.0221263092
 20
3.6570132844
 30
0.0
 10
6.0224137747
 20
3.6552905514
 30
0.0
 10
6.0227522529
 20
3.6537703132
 30
0.0
 10
6.0231293713
 20
3.6524527104
 30
0.0
 10
6.0235354342
 20
3.6513303665
 30
0.0
 10
6.0238418466
 20
3.6506583392
 30
0.0
 10
6.0239997039
 20
3.6503555918
 30
0.0
  0
SPLINE
  5
417
100
AcDbEntity
  8
0
100
AcDbSpline
 62
7
  6
CONTINUOUS
 70
0
 71
3
 72
15
 73
11
 74
0
 42
0.0000001
 43
0.0000001
 44
0.0000000001
 40
0.0
 40
0.0
 40
0.0
 40
0.0
 40
0.1675224351
 40
0.3282556868
 40
0.4771832029
 40
0.6115569318
 40
0.7305133652
 40
0.8343137962
 40
0.9238110262
 40
1.0
 40
1.0
 40
1.0
 40
1.0
 10
6.0330819916
 20
3.6631196534
 30
0.0
 10
6.0330819916
 20
3.662396947
 30
0.0
 10
6.0331065266
 20
3.6609806934
 30
0.0
 10
6.0332142503
 20
3.6589244899
 30
0.0
 10
6.0333835539
 20
3.6570159371
 30
0.0
 10
6.03360297
 20
3.6552940266
 30
0.0
 10
6.033861273
 20
3.6537746493
 30
0.0
 10
6.0341489505
 20
3.6524580328
 30
0.0
 10
6.0344585485
 20
3.6513368095
 30
0.0
 10
6.0346935828
 20
3.6506609374
 30
0.0
 10
6.0348152317
 20
3.6503555918
 30
0.0
  0
SPLINE
  5
418
100
AcDbEntity
  8
0
100
AcDbSpline
 62
7
  6
CONTINUOUS
 70
0
 71
3
 72
15
 73
11
 74
0
 42
0.0000001
 43
0.0000001
 44
0.0000000001
 40
0.0
 40
0.0
 40
0.0
 40
0.0
 40
0.1687208701
 40
0.3304980495
 40
0.4801883397
 40
0.6149524711
 40
0.7338621328
 40
0.8371242984
 40
0.9255314379
 40
1.0
 40
1.0
 40
1.0
 40
1.0
 10
6.0453463383
 20
3.6631196534
 30
0.0
 10
6.0453463383
 20
3.6623970053
 30
0.0
 10
6.0453632174
 20
3.6609813879
 30
0.0
 10
6.0454373342
 20
3.6589258334
 30
0.0
 10
6.0455538148
 20
3.6570179205
 30
0.0
 10
6.0457047573
 20
3.6552966576
 30
0.0
 10
6.0458824207
 20
3.6537779889
 30
0.0
 10
6.0460802134
 20
3.6524622426
 30
0.0
 10
6.046292972
 20
3.6513420834
 30
0.0
 10
6.0464552627
 20
3.6506631871
 30
0.0
 10
6.0465396321
 20
3.6503555918
 30
0.0
  0
SPLINE
  5
419
100
AcDbEntity
  8
0
100
AcDbSpline
 62
7
  6
CONTINUOUS
 70
0
 71
3
 72
14
 73
10
 74
0
 42
0.0000001
 43
0.0000001
 44
0.0000000001
 40
0.0
 40
0.0
 40
0.0
 40
0.0
 40
0.3319537061
 40
0.4821441457
 40
0.6171675388
 40
0.7360526038
 40
0.8389689864
 40
0.9266657989
 40
1.0
 40
1.0
 40
1.0
 40
1.0
 10
6.0584906926
 20
3.6631196534
 30
0.0
 10
6.0584906926
 20
3.6617044889
 30
0.0
 10
6.0585162969
 20
3.6596488739
 30
0.0
 10
6.0586036606
 20
3.657019192
 30
0.0
 10
6.0586858607
 20
3.6552983545
 30
0.0
 10
6.0587825825
 20
3.6537801699
 30
0.0
 10
6.0588902357
 20
3.6524650463
 30
0.0
 10
6.0590059907
 20
3.6513456836
 30
0.0
 10
6.0590945672
 20
3.6506647928
 30
0.0
 10
6.0591407694
 20
3.6503555918
 30
0.0
  0
LINE
  5
41A
100
AcDbEntity
  8
0
100
AcDbLine
 62
7
  6
CONTINUOUS
 10
6.0724790268
 20
3.6631196534
 11
6.0725841048
 21
3.6503555918
  0
SPLINE
  5
41B
100
AcDbEntity
  8
0
100
AcDbSpline
 62
7
  6
CONTINUOUS
 70
0
 71
3
 72
16
 73
12
 74
0
 42
0.0000001
 43
0.0000001
 44
0.0000000001
 40
0.0
 40
0.0
 40
0.0
 40
0.0
 40
0.1388807561
 40
0.2076358772
 40
0.2755658427
 40
0.4081977097
 40
0.5359375002
 40
0.6585885015
 40
0.7764275983
 40
0.8900374822
 40
1.0
 40
1.0
 40
1.0
 40
1.0
 10
6.7688522461
 20
3.8986196534
 30
0.0
 10
6.7688522461
 20
3.8993246971
 30
0.0
 10
6.7687788106
 20
3.9003807141
 30
0.0
 10
6.7685370779
 20
3.9017594117
 30
0.0
 10
6.7682092023
 20
3.9030877181
 30
0.0
 10
6.7676468225
 20
3.9046623909
 30
0.0
 10
6.7667549505
 20
3.9063962803
 30
0.0
 10
6.7656920803
 20
3.9079400796
 30
0.0
 10
6.7644951
 20
3.9092872064
 30
0.0
 10
6.7631948887
 20
3.9104390237
 30
0.0
 10
6.7622619976
 20
3.9110904914
 30
0.0
 10
6.7617869728
 20
3.9113837149
 30
0.0
  0
SPLINE
  5
41C
100
AcDbEntity
  8
0
100
AcDbSpline
 62
7
  6
CONTINUOUS
 70
0
 71
3
 72
15
 73
11
 74
0
 42
0.0000001
 43
0.0000001
 44
0.0000000001
 40
0.0
 40
0.0
 40
0.0
 40
0.0
 40
0.1408214072
 40
0.2790755143
 40
0.4128341092
 40
0.5410354463
 40
0.6634259913
 40
0.7802909257
 40
0.8922626021
 40
1.0
 40
1.0
 40
1.0
 40
1.0
 10
6.7679502068
 20
3.8986196534
 30
0.0
 10
6.7679502068
 20
3.8993245282
 30
0.0
 10
6.7678580177
 20
3.9007232001
 30
0.0
 10
6.7674523807
 20
3.902755132
 30
0.0
 10
6.7668080652
 20
3.9046578512
 30
0.0
 10
6.7659624921
 20
3.9063915735
 30
0.0
 10
6.7649544777
 20
3.9079355928
 30
0.0
 10
6.7638188963
 20
3.9092833132
 30
0.0
 10
6.762585053
 20
3.910435893
 30
0.0
 10
6.76169718
 20
3.911089677
 30
0.0
 10
6.7612451197
 20
3.9113837149
 30
0.0
  0
SPLINE
  5
41D
100
AcDbEntity
  8
0
100
AcDbSpline
 62
7
  6
CONTINUOUS
 70
0
 71
3
 72
16
 73
12
 74
0
 42
0.0000001
 43
0.0000001
 44
0.0000000001
 40
0.0
 40
0.0
 40
0.0
 40
0.0
 40
0.1428361175
 40
0.2133739344
 40
0.2828727633
 40
0.4178072547
 40
0.5464924022
 40
0.6686076122
 40
0.7844373582
 40
0.8946570906
 40
1.0
 40
1.0
 40
1.0
 40
1.0
 10
6.7659475681
 20
3.8986196534
 30
0.0
 10
6.7659475681
 20
3.8993243601
 30
0.0
 10
6.7658820541
 20
3.9003786408
 30
0.0
 10
6.7656656184
 20
3.9017580096
 30
0.0
 10
6.7653727816
 20
3.9030834296
 30
0.0
 10
6.7648716271
 20
3.9046533457
 30
0.0
 10
6.7640747193
 20
3.9063865959
 30
0.0
 10
6.7631243483
 20
3.9079307735
 30
0.0
 10
6.7620533691
 20
3.9092790069
 30
0.0
 10
6.7608893797
 20
3.9104323403
 30
0.0
 10
6.7600489505
 20
3.9110887339
 30
0.0
 10
6.7596210453
 20
3.9113837149
 30
0.0
  0
SPLINE
  5
41E
100
AcDbEntity
  8
0
100
AcDbSpline
 62
7
  6
CONTINUOUS
 70
0
 71
3
 72
13
 73
9
 74
0
 42
0.0000001
 43
0.0000001
 44
0.0000000001
 40
0.0
 40
0.0
 40
0.0
 40
0.0
 40
0.2865098047
 40
0.5517269703
 40
0.6737053975
 40
0.7885881219
 40
0.8970854758
 40
1.0
 40
1.0
 40
1.0
 40
1.0
 10
6.7628498191
 20
3.8986196534
 30
0.0
 10
6.7628498191
 20
3.9000109503
 30
0.0
 10
6.7625415682
 20
3.9027004504
 30
0.0
 10
6.7614267401
 20
3.9058090129
 30
0.0
 10
6.7602066755
 20
3.9079255476
 30
0.0
 10
6.7592032676
 20
3.9092743
 30
0.0
 10
6.7581124533
 20
3.9104283172
 30
0.0
 10
6.7573218127
 20
3.9110876426
 30
0.0
 10
6.7569192012
 20
3.9113837149
 30
0.0
  0
SPLINE
  5
41F
100
AcDbEntity
  8
0
100
AcDbSpline
 62
7
  6
CONTINUOUS
 70
0
 71
3
 72
14
 73
10
 74
0
 42
0.0000001
 43
0.0000001
 44
0.0000000001
 40
0.0
 40
0.0
 40
0.0
 40
0.0
 40
0.290451083
 40
0.4280009659
 40
0.5578544186
 40
0.6795249319
 40
0.7932628004
 40
0.8998006227
 40
1.0
 40
1.0
 40
1.0
 40
1.0
 10
6.7586654506
 20
3.8986196534
 30
0.0
 10
6.7586654506
 20
3.9000096987
 30
0.0
 10
6.7584461941
 20
3.9020679628
 30
0.0
 10
6.7577300628
 20
3.904643741
 30
0.0
 10
6.7570366183
 20
3.9063762332
 30
0.0
 10
6.7562092618
 20
3.9079201796
 30
0.0
 10
6.7552763372
 20
3.909269136
 30
0.0
 10
6.754261791
 20
3.9104237997
 30
0.0
 10
6.7535232205
 20
3.9110863811
 30
0.0
 10
6.7531469929
 20
3.9113837149
 30
0.0
  0
SPLINE
  5
420
100
AcDbEntity
  8
0
100
AcDbSpline
 62
7
  6
CONTINUOUS
 70
0
 71
3
 72
15
 73
11
 74
0
 42
0.0000001
 43
0.0000001
 44
0.0000000001
 40
0.0
 40
0.0
 40
0.0
 40
0.0
 40
0.149324882
 40
0.2948638436
 40
0.4336951839
 40
0.5640980724
 40
0.6854883658
 40
0.7980803998
 40
0.9026150315
 40
1.0
 40
1.0
 40
1.0
 40
1.0
 10
6.7534059316
 20
3.8986196534
 30
0.0
 10
6.7534059316
 20
3.8993238794
 30
0.0
 10
6.7533365272
 20
3.9007155069
 30
0.0
 10
6.7530306281
 20
3.9027411617
 30
0.0
 10
6.7525443375
 20
3.9046393837
 30
0.0
 10
6.7519054973
 20
3.9063708133
 30
0.0
 10
6.7511430836
 20
3.9079145288
 30
0.0
 10
6.7502832061
 20
3.9092635802
 30
0.0
 10
6.7493478424
 20
3.9104187454
 30
0.0
 10
6.7486635549
 20
3.9110849263
 30
0.0
 10
6.7483147599
 20
3.9113837149
 30
0.0
  0
SPLINE
  5
421
100
AcDbEntity
  8
0
100
AcDbSpline
 62
7
  6
CONTINUOUS
 70
0
 71
3
 72
14
 73
10
 74
0
 42
0.0000001
 43
0.0000001
 44
0.0000000001
 40
0.0
 40
0.0
 40
0.0
 40
0.0
 40
0.1515957047
 40
0.2991024929
 40
0.4393457493
 40
0.5704256321
 40
0.6916514146
 40
0.8031885809
 40
1.0
 40
1.0
 40
1.0
 40
1.0
 10
6.747085678
 20
3.8986196534
 30
0.0
 10
6.747085678
 20
3.8993237329
 30
0.0
 10
6.7470224092
 20
3.9007137642
 30
0.0
 10
6.7467434774
 20
3.9027378979
 30
0.0
 10
6.7462999788
 20
3.9046349171
 30
0.0
 10
6.7457174225
 20
3.9063653675
 30
0.0
 10
6.7450216712
 20
3.9079090053
 30
0.0
 10
6.7440180908
 20
3.9096353444
 30
0.0
 10
6.7431024645
 20
3.9107583883
 30
0.0
 10
6.7424357469
 20
3.9113837149
 30
0.0
  0
SPLINE
  5
422
100
AcDbEntity
  8
0
100
AcDbSpline
 62
7
  6
CONTINUOUS
 70
0
 71
3
 72
15
 73
11
 74
0
 42
0.0000001
 43
0.0000001
 44
0.0000000001
 40
0.0
 40
0.0
 40
0.0
 40
0.0
 40
0.1537451411
 40
0.3031102709
 40
0.444675585
 40
0.5763633582
 40
0.6973702288
 40
0.8078002145
 40
0.9083614708
 40
1.0
 40
1.0
 40
1.0
 40
1.0
 10
6.7397220133
 20
3.8986196534
 30
0.0
 10
6.7397220133
 20
3.899323596
 30
0.0
 10
6.7396650263
 20
3.9007121284
 30
0.0
 10
6.7394137018
 20
3.9027348292
 30
0.0
 10
6.7390141185
 20
3.9046305741
 30
0.0
 10
6.7384891074
 20
3.9063601995
 30
0.0
 10
6.7378624336
 20
3.907902805
 30
0.0
 10
6.7371554973
 20
3.9092514628
 30
0.0
 10
6.7363862432
 20
3.9104070175
 30
0.0
 10
6.7358169695
 20
3.9110813526
 30
0.0
 10
6.7355260679
 20
3.9113837149
 30
0.0
  0
SPLINE
  5
423
100
AcDbEntity
  8
0
100
AcDbSpline
 62
7
  6
CONTINUOUS
 70
0
 71
3
 72
15
 73
11
 74
0
 42
0.0000001
 43
0.0000001
 44
0.0000000001
 40
0.0
 40
0.0
 40
0.0
 40
0.0
 40
0.1558874315
 40
0.3071161682
 40
0.450029971
 40
0.5823760351
 40
0.7032343722
 40
0.8126366757
 40
0.9112482511
 40
1.0
 40
1.0
 40
1.0
 40
1.0
 10
6.7313351208
 20
3.8986196534
 30
0.0
 10
6.7313351208
 20
3.8993234701
 30
0.0
 10
6.7312845397
 20
3.9007106254
 30
0.0
 10
6.7310614116
 20
3.9027319725
 30
0.0
 10
6.7307066566
 20
3.904626506
 30
0.0
 10
6.7302405515
 20
3.9063551323
 30
0.0
 10
6.7296842081
 20
3.9078969587
 30
0.0
 10
6.7290566402
 20
3.9092450824
 30
0.0
 10
6.7283737538
 20
3.9104004287
 30
0.0
 10
6.7278651251
 20
3.911079209
 30
0.0
 10
6.7276046618
 20
3.9113837149
 30
0.0
  0
SPLINE
  5
424
100
AcDbEntity
  8
0
100
AcDbSpline
 62
7
  6
CONTINUOUS
 70
0
 71
3
 72
15
 73
11
 74
0
 42
0.0000001
 43
0.0000001
 44
0.0000000001
 40
0.0
 40
0.0
 40
0.0
 40
0.0
 40
0.1579281621
 40
0.3109376477
 40
0.4551501598
 40
0.5881453064
 40
0.7088862154
 40
0.8173241086
 40
0.9140651448
 40
1.0
 40
1.0
 40
1.0
 40
1.0
 10
6.7219479883
 20
3.8986196534
 30
0.0
 10
6.7219479883
 20
3.8993233568
 30
0.0
 10
6.7219039233
 20
3.9007092699
 30
0.0
 10
6.7217094988
 20
3.9027293748
 30
0.0
 10
6.7214003878
 20
3.9046227549
 30
0.0
 10
6.7209942784
 20
3.9063503634
 30
0.0
 10
6.7205095963
 20
3.9078913026
 30
0.0
 10
6.7199629528
 20
3.9092386805
 30
0.0
 10
6.7193682167
 20
3.9103935086
 30
0.0
 10
6.7189222583
 20
3.911076839
 30
0.0
 10
6.7186932407
 20
3.9113837149
 30
0.0
  0
SPLINE
  5
425
100
AcDbEntity
  8
0
100
AcDbSpline
 62
7
  6
CONTINUOUS
 70
0
 71
3
 72
15
 73
11
 74
0
 42
0.0000001
 43
0.0000001
 44
0.0000000001
 40
0.0
 40
0.0
 40
0.0
 40
0.0
 40
0.1598189526
 40
0.3144830512
 40
0.4599111137
 40
0.5935270986
 40
0.7141811069
 40
0.8217397139
 40
0.9167370845
 40
1.0
 40
1.0
 40
1.0
 40
1.0
 10
6.7115863453
 20
3.8986196534
 30
0.0
 10
6.7115863453
 20
3.8993232572
 30
0.0
 10
6.7115488909
 20
3.9007080774
 30
0.0
 10
6.7113836048
 20
3.9027270726
 30
0.0
 10
6.7111208325
 20
3.9046193884
 30
0.0
 10
6.7107756362
 20
3.9063460028
 30
0.0
 10
6.7103637184
 20
3.9078859955
 30
0.0
 10
6.7098992665
 20
3.9092324584
 30
0.0
 10
6.7093941112
 20
3.9103864701
 30
0.0
 10
6.7090127661
 20
3.9110742899
 30
0.0
 10
6.7088162302
 20
3.9113837149
 30
0.0
  0
SPLINE
  5
426
100
AcDbEntity
  8
0
100
AcDbSpline
 62
7
  6
CONTINUOUS
 70
0
 71
3
 72
15
 73
11
 74
0
 42
0.0000001
 43
0.0000001
 44
0.0000000001
 40
0.0
 40
0.0
 40
0.0
 40
0.0
 40
0.1615080626
 40
0.3176541141
 40
0.4641780958
 40
0.5983647207
 40
0.7189596511
 40
0.8257456707
 40
0.9191776585
 40
1.0
 40
1.0
 40
1.0
 40
1.0
 10
6.7002785924
 20
3.8986196534
 30
0.0
 10
6.7002785924
 20
3.8993231724
 30
0.0
 10
6.7002478277
 20
3.9007070614
 30
0.0
 10
6.7001120445
 20
3.9027250989
 30
0.0
 10
6.6998961882
 20
3.9046164708
 30
0.0
 10
6.6996126576
 20
3.9063421599
 30
0.0
 10
6.69927439
 20
3.9078812085
 30
0.0
 10
6.6988931163
 20
3.9092266576
 30
0.0
 10
6.6984786125
 20
3.9103796178
 30
0.0
 10
6.6981636899
 20
3.9110716585
 30
0.0
 10
6.6980007024
 20
3.9113837149
 30
0.0
  0
SPLINE
  5
427
100
AcDbEntity
  8
0
100
AcDbSpline
 62
7
  6
CONTINUOUS
 70
0
 71
3
 72
15
 73
11
 74
0
 42
0.0000001
 43
0.0000001
 44
0.0000000001
 40
0.0
 40
0.0
 40
0.0
 40
0.0
 40
0.1629428738
 40
0.3203505482
 40
0.4678128391
 40
0.602496262
 40
0.723055301
 40
0.829195561
 40
0.921292858
 40
1.0
 40
1.0
 40
1.0
 40
1.0
 10
6.6880557232
 20
3.8986196534
 30
0.0
 10
6.6880557232
 20
3.8993231033
 30
0.0
 10
6.6880317127
 20
3.9007062337
 30
0.0
 10
6.687925728
 20
3.9027234824
 30
0.0
 10
6.6877572523
 20
3.9046140591
 30
0.0
 10
6.6875359843
 20
3.9063389379
 30
0.0
 10
6.687272052
 20
3.9078771142
 30
0.0
 10
6.6869746826
 20
3.909221547
 30
0.0
 10
6.6866515618
 20
3.9103733407
 30
0.0
 10
6.6864046658
 20
3.9110691029
 30
0.0
 10
6.686276302
 20
3.9113837149
 30
0.0
  0
SPLINE
  5
428
100
AcDbEntity
  8
0
100
AcDbSpline
 62
7
  6
CONTINUOUS
 70
0
 71
3
 72
15
 73
11
 74
0
 42
0.0000001
 43
0.0000001
 44
0.0000000001
 40
0.0
 40
0.0
 40
0.0
 40
0.0
 40
0.1640732064
 40
0.3224765753
 40
0.4706828543
 40
0.6057655542
 40
0.7263058684
 40
0.8319447617
 40
0.92298783
 40
1.0
 40
1.0
 40
1.0
 40
1.0
 10
6.67495124
 20
3.8986196534
 30
0.0
 10
6.67495124
 20
3.8993230509
 30
0.0
 10
6.6749340332
 20
3.9007056039
 30
0.0
 10
6.6748580751
 20
3.902722247
 30
0.0
 10
6.6747373366
 20
3.9046122026
 30
0.0
 10
6.6745787821
 20
3.9063364289
 30
0.0
 10
6.6743896891
 20
3.9078738745
 30
0.0
 10
6.6741767222
 20
3.9092174001
 30
0.0
 10
6.6739454285
 20
3.9103680794
 30
0.0
 10
6.6737678797
 20
3.9110668418
 30
0.0
 10
6.6736751646
 20
3.9113837149
 30
0.0
  0
SPLINE
  5
429
100
AcDbEntity
  8
0
100
AcDbSpline
 62
7
  6
CONTINUOUS
 70
0
 71
3
 72
15
 73
11
 74
0
 42
0.0000001
 43
0.0000001
 44
0.0000000001
 40
0.0
 40
0.0
 40
0.0
 40
0.0
 40
0.164855565
 40
0.3239490284
 40
0.4726727383
 40
0.6080359214
 40
0.7285683355
 40
0.8338642467
 40
0.9241764112
 40
1.0
 40
1.0
 40
1.0
 40
1.0
 10
6.6610010611
 20
3.8986196534
 30
0.0
 10
6.6610010611
 20
3.8993230155
 30
0.0
 10
6.6609906935
 20
3.9007051792
 30
0.0
 10
6.6609449242
 20
3.9027214114
 30
0.0
 10
6.6608721747
 20
3.9046109403
 30
0.0
 10
6.6607766478
 20
3.9063347082
 30
0.0
 10
6.660662737
 20
3.9078716266
 30
0.0
 10
6.660534484
 20
3.9092144666
 30
0.0
 10
6.660395249
 20
3.9103642663
 30
0.0
 10
6.6602880211
 20
3.9110651285
 30
0.0
 10
6.6602318293
 20
3.9113837149
 30
0.0
  0
LINE
  5
42A
100
AcDbEntity
  8
0
100
AcDbLine
 62
7
  6
CONTINUOUS
 10
6.646243423
 20
3.8986196534
 11
6.6459831432
 21
3.9113837149
  0
LINE
  5
42B
100
AcDbEntity
  8
0
100
AcDbLine
 62
7
  6
CONTINUOUS
 10
6.0725841048
 20
3.9113837149
 11
6.0724790268
 21
3.8986196534
  0
SPLINE
  5
42C
100
AcDbEntity
  8
0
100
AcDbSpline
 62
7
  6
CONTINUOUS
 70
0
 71
3
 72
14
 73
10
 74
0
 42
0.0000001
 43
0.0000001
 44
0.0000000001
 40
0.0
 40
0.0
 40
0.0
 40
0.0
 40
0.0733341834
 40
0.1610309915
 40
0.2639473574
 40
0.3828323291
 40
0.5178557318
 40
0.6680459696
 40
1.0
 40
1.0
 40
1.0
 40
1.0
 10
6.0591407694
 20
3.9113837149
 30
0.0
 10
6.0590945672
 20
3.911074514
 30
0.0
 10
6.0590059907
 20
3.9103936233
 30
0.0
 10
6.0588902357
 20
3.9092742608
 30
0.0
 10
6.0587825825
 20
3.9079591377
 30
0.0
 10
6.0586858607
 20
3.9064409535
 30
0.0
 10
6.0586036607
 20
3.9047201173
 30
0.0
 10
6.0585162969
 20
3.9020904347
 30
0.0
 10
6.0584906926
 20
3.9000348192
 30
0.0
 10
6.0584906926
 20
3.8986196534
 30
0.0
  0
SPLINE
  5
42D
100
AcDbEntity
  8
0
100
AcDbSpline
 62
7
  6
CONTINUOUS
 70
0
 71
3
 72
15
 73
11
 74
0
 42
0.0000001
 43
0.0000001
 44
0.0000000001
 40
0.0
 40
0.0
 40
0.0
 40
0.0
 40
0.0744685443
 40
0.1628756793
 40
0.2661378284
 40
0.3850473969
 40
0.5198115381
 40
0.6695016274
 40
0.831278905
 40
1.0
 40
1.0
 40
1.0
 40
1.0
 10
6.0465396321
 20
3.9113837149
 30
0.0
 10
6.0464552628
 20
3.9110761197
 30
0.0
 10
6.046292972
 20
3.9103972235
 30
0.0
 10
6.0460802134
 20
3.9092770645
 30
0.0
 10
6.0458824209
 20
3.9079613187
 30
0.0
 10
6.0457047574
 20
3.9064426504
 30
0.0
 10
6.045553815
 20
3.9047213887
 30
0.0
 10
6.0454373343
 20
3.9028134762
 30
0.0
 10
6.0453632175
 20
3.9007579212
 30
0.0
 10
6.0453463383
 20
3.8993423024
 30
0.0
 10
6.0453463383
 20
3.8986196534
 30
0.0
  0
SPLINE
  5
42E
100
AcDbEntity
  8
0
100
AcDbSpline
 62
7
  6
CONTINUOUS
 70
0
 71
3
 72
15
 73
11
 74
0
 42
0.0000001
 43
0.0000001
 44
0.0000000001
 40
0.0
 40
0.0
 40
0.0
 40
0.0
 40
0.0761889557
 40
0.1656861812
 40
0.2694865959
 40
0.3884429364
 40
0.5228166752
 40
0.6717439922
 40
0.8324773415
 40
1.0
 40
1.0
 40
1.0
 40
1.0
 10
6.0348152317
 20
3.9113837149
 30
0.0
 10
6.0346935828
 20
3.9110783694
 30
0.0
 10
6.0344585485
 20
3.9104024974
 30
0.0
 10
6.0341489506
 20
3.9092812742
 30
0.0
 10
6.0338612732
 20
3.9079646582
 30
0.0
 10
6.0336029702
 20
3.9064452814
 30
0.0
 10
6.0333835542
 20
3.9047233721
 30
0.0
 10
6.0332142504
 20
3.9028148197
 30
0.0
 10
6.0331065267
 20
3.9007586157
 30
0.0
 10
6.0330819916
 20
3.8993423607
 30
0.0
 10
6.0330819916
 20
3.8986196534
 30
0.0
  0
SPLINE
  5
42F
100
AcDbEntity
  8
0
100
AcDbSpline
 62
7
  6
CONTINUOUS
 70
0
 71
3
 72
15
 73
11
 74
0
 42
0.0000001
 43
0.0000001
 44
0.0000000001
 40
0.0
 40
0.0
 40
0.0
 40
0.0
 40
0.0783952453
 40
0.1693114692
 40
0.2738248308
 40
0.3928558212
 40
0.526731226
 40
0.6746695686
 40
0.834042374
 40
1.0
 40
1.0
 40
1.0
 40
1.0
 10
6.0239997039
 20
3.9113837149
 30
0.0
 10
6.0238418466
 20
3.9110809676
 30
0.0
 10
6.0235354342
 20
3.9104089404
 30
0.0
 10
6.0231293714
 20
3.9092865967
 30
0.0
 10
6.0227522531
 20
3.9079689943
 30
0.0
 10
6.022413775
 20
3.9064487567
 30
0.0
 10
6.0221263096
 20
3.9047260249
 30
0.0
 10
6.0219045229
 20
3.902816631
 30
0.0
 10
6.0217634118
 20
3.9007595564
 30
0.0
 10
6.0217312682
 20
3.8993424397
 30
0.0
 10
6.0217312682
 20
3.8986196534
 30
0.0
  0
SPLINE
  5
430
100
AcDbEntity
  8
0
100
AcDbSpline
 62
7
  6
CONTINUOUS
 70
0
 71
3
 72
15
 73
11
 74
0
 42
0.0000001
 43
0.0000001
 44
0.0000000001
 40
0.0
 40
0.0
 40
0.0
 40
0.0
 40
0.0809753441
 40
0.1735798183
 40
0.2789589082
 40
0.3980984997
 40
0.5313951813
 40
0.6781621108
 40
0.8359128881
 40
1.0
 40
1.0
 40
1.0
 40
1.0
 10
6.0141226933
 20
3.9113837149
 30
0.0
 10
6.0139297539
 20
3.9110836561
 30
0.0
 10
6.0135536429
 20
3.9104160297
 30
0.0
 10
6.0130517964
 20
3.9092927031
 30
0.0
 10
6.0125859227
 20
3.907974131
 30
0.0
 10
6.0121679256
 20
3.9064529645
 30
0.0
 10
6.0118129901
 20
3.9047292875
 30
0.0
 10
6.011539176
 20
3.9028188814
 30
0.0
 10
6.0113649692
 20
3.9007607321
 30
0.0
 10
6.0113252797
 20
3.8993425384
 30
0.0
 10
6.0113252797
 20
3.8986196534
 30
0.0
  0
SPLINE
  5
431
100
AcDbEntity
  8
0
100
AcDbSpline
 62
7
  6
CONTINUOUS
 70
0
 71
3
 72
15
 73
11
 74
0
 42
0.0000001
 43
0.0000001
 44
0.0000000001
 40
0.0
 40
0.0
 40
0.0
 40
0.0
 40
0.0838178144
 40
0.1783165119
 40
0.2846888057
 40
0.40397533
 40
0.5366404372
 40
0.6820989505
 40
0.8380242246
 40
1.0
 40
1.0
 40
1.0
 40
1.0
 10
6.0052112722
 20
3.9113837149
 30
0.0
 10
6.004984357
 20
3.9110862507
 30
0.0
 10
6.0045404427
 20
3.9104233066
 30
0.0
 10
6.0039438655
 20
3.909299271
 30
0.0
 10
6.0033902062
 20
3.907979858
 30
0.0
 10
6.0028935644
 20
3.9064577779
 30
0.0
 10
6.0024719063
 20
3.9047330897
 30
0.0
 10
6.0021466418
 20
3.9028215365
 30
0.0
 10
6.0019397049
 20
3.9007621294
 30
0.0
 10
6.0018925482
 20
3.8993426558
 30
0.0
 10
6.0018925482
 20
3.8986196534
 30
0.0
  0
SPLINE
  5
432
100
AcDbEntity
  8
0
100
AcDbSpline
 62
7
  6
CONTINUOUS
 70
0
 71
3
 72
15
 73
11
 74
0
 42
0.0000001
 43
0.0000001
 44
0.0000000001
 40
0.0
 40
0.0
 40
0.0
 40
0.0
 40
0.0868209269
 40
0.1833579855
 40
0.2908238923
 40
0.4102974938
 40
0.5423034693
 40
0.6863601689
 40
0.8403130103
 40
1.0
 40
1.0
 40
1.0
 40
1.0
 10
5.9972898662
 20
3.9113837149
 30
0.0
 10
5.9970300354
 20
3.9110886432
 30
0.0
 10
5.996520341
 20
3.9104304205
 30
0.0
 10
5.995830481
 20
3.9093060138
 30
0.0
 10
5.995190316
 20
3.9079859679
 30
0.0
 10
5.9946161435
 20
3.9064630624
 30
0.0
 10
5.9941286917
 20
3.9047373529
 30
0.0
 10
5.9937526818
 20
3.9028245563
 30
0.0
 10
5.9935134572
 20
3.9007637319
 30
0.0
 10
5.9934589281
 20
3.8993427908
 30
0.0
 10
5.9934589281
 20
3.8986196534
 30
0.0
  0
SPLINE
  5
433
100
AcDbEntity
  8
0
100
AcDbSpline
 62
7
  6
CONTINUOUS
 70
0
 71
3
 72
14
 73
10
 74
0
 42
0.0000001
 43
0.0000001
 44
0.0000000001
 40
0.0
 40
0.0
 40
0.0
 40
0.0
 40
0.1883167587
 40
0.2969820645
 40
0.4167180146
 40
0.5480982858
 40
0.6907419843
 40
0.8426731793
 40
1.0
 40
1.0
 40
1.0
 40
1.0
 10
5.9903801872
 20
3.9113837149
 30
0.0
 10
5.9897692641
 20
3.9107702708
 30
0.0
 10
5.988931528
 20
3.9096731631
 30
0.0
 10
5.9880088992
 20
3.9079925744
 30
0.0
 10
5.987358293
 20
3.9064685898
 30
0.0
 10
5.9868062512
 20
3.9047420219
 30
0.0
 10
5.9863803101
 20
3.9028278878
 30
0.0
 10
5.9861093269
 20
3.9007655238
 30
0.0
 10
5.9860475354
 20
3.8993429416
 30
0.0
 10
5.9860475354
 20
3.8986196534
 30
0.0
  0
SPLINE
  5
434
100
AcDbEntity
  8
0
100
AcDbSpline
 62
7
  6
CONTINUOUS
 70
0
 71
3
 72
15
 73
11
 74
0
 42
0.0000001
 43
0.0000001
 44
0.0000000001
 40
0.0
 40
0.0
 40
0.0
 40
0.0
 40
0.0929765919
 40
0.1938025158
 40
0.3036491987
 40
0.4236119311
 40
0.5542989939
 40
0.6954241494
 40
0.8451938315
 40
1.0
 40
1.0
 40
1.0
 40
1.0
 10
5.9845011741
 20
3.9113837149
 30
0.0
 10
5.9841785508
 20
3.9110926655
 30
0.0
 10
5.9835436039
 20
3.9104433203
 30
0.0
 10
5.9826730194
 20
3.9093191505
 30
0.0
 10
5.9818649521
 20
3.9079986001
 30
0.0
 10
5.98114008
 20
3.9064745128
 30
0.0
 10
5.980524602
 20
3.9047469257
 30
0.0
 10
5.9800497588
 20
3.9028315086
 30
0.0
 10
5.9797476054
 20
3.9007674768
 30
0.0
 10
5.9796786841
 20
3.8993431067
 30
0.0
 10
5.9796786841
 20
3.8986196534
 30
0.0
  0
SPLINE
  5
435
100
AcDbEntity
  8
0
100
AcDbSpline
 62
7
  6
CONTINUOUS
 70
0
 71
3
 72
14
 73
10
 74
0
 42
0.0000001
 43
0.0000001
 44
0.0000000001
 40
0.0
 40
0.0
 40
0.0
 40
0.0
 40
0.0960437717
 40
0.1990728764
 40
0.310204514
 40
0.4305129617
 40
0.5606263801
 40
0.7003439325
 40
1.0
 40
1.0
 40
1.0
 40
1.0
 10
5.9796689411
 20
3.9113837149
 30
0.0
 10
5.9793164203
 20
3.9110942979
 30
0.0
 10
5.9786220681
 20
3.9104489133
 30
0.0
 10
5.9776647014
 20
3.9093252545
 30
0.0
 10
5.9767758428
 20
3.9080048096
 30
0.0
 10
5.9759783298
 20
3.906480488
 30
0.0
 10
5.9753009738
 20
3.9047518323
 30
0.0
 10
5.9745883983
 20
3.9021392155
 30
0.0
 10
5.974369831
 20
3.9000427033
 30
0.0
 10
5.974369831
 20
3.8986196534
 30
0.0
  0
SPLINE
  5
436
100
AcDbEntity
  8
0
100
AcDbSpline
 62
7
  6
CONTINUOUS
 70
0
 71
3
 72
15
 73
11
 74
0
 42
0.0000001
 43
0.0000001
 44
0.0000000001
 40
0.0
 40
0.0
 40
0.0
 40
0.0
 40
0.0989337968
 40
0.20403974
 40
0.3163633556
 40
0.4369398624
 40
0.5664016848
 40
0.7046227184
 40
0.8501650661
 40
1.0
 40
1.0
 40
1.0
 40
1.0
 10
5.9758967329
 20
3.9113837149
 30
0.0
 10
5.9755153347
 20
3.911095705
 30
0.0
 10
5.9747637719
 20
3.9104539114
 30
0.0
 10
5.9737223834
 20
3.9093309287
 30
0.0
 10
5.9727552194
 20
3.9080108339
 30
0.0
 10
5.9718871751
 20
3.9064863386
 30
0.0
 10
5.9711497638
 20
3.9047573298
 30
0.0
 10
5.9705805799
 20
3.9028393481
 30
0.0
 10
5.9702182503
 20
3.9007717959
 30
0.0
 10
5.9701355272
 20
3.8993434725
 30
0.0
 10
5.9701355272
 20
3.8986196534
 30
0.0
  0
SPLINE
  5
437
100
AcDbEntity
  8
0
100
AcDbSpline
 62
7
  6
CONTINUOUS
 70
0
 71
3
 72
16
 73
12
 74
0
 42
0.0000001
 43
0.0000001
 44
0.0000000001
 40
0.0
 40
0.0
 40
0.0
 40
0.0
 40
0.1017329403
 40
0.2088879767
 40
0.3224276576
 40
0.4433344
 40
0.5722310454
 40
0.7090543702
 40
0.7801289569
 40
0.852603675
 40
1.0
 40
1.0
 40
1.0
 40
1.0
 10
5.9731948888
 20
3.9113837149
 30
0.0
 10
5.9727856692
 20
3.9110969136
 30
0.0
 10
5.9719791402
 20
3.9104583378
 30
0.0
 10
5.970856733
 20
3.9093361463
 30
0.0
 10
5.9698139924
 20
3.9080165615
 30
0.0
 10
5.96887779
 20
3.9064921268
 30
0.0
 10
5.9680822301
 20
3.9047627089
 30
0.0
 10
5.9675765278
 20
3.9031828493
 30
0.0
 10
5.9672778208
 20
3.9018376359
 30
0.0
 10
5.9670549573
 20
3.9004253119
 30
0.0
 10
5.9669873785
 20
3.899343669
 30
0.0
 10
5.9669873785
 20
3.8986196534
 30
0.0
  0
SPLINE
  5
438
100
AcDbEntity
  8
0
100
AcDbSpline
 62
7
  6
CONTINUOUS
 70
0
 71
3
 72
15
 73
11
 74
0
 42
0.0000001
 43
0.0000001
 44
0.0000000001
 40
0.0
 40
0.0
 40
0.0
 40
0.0
 40
0.104400296
 40
0.2135347062
 40
0.3282755252
 40
0.4495415894
 40
0.5779338013
 40
0.713439838
 40
0.8549481114
 40
1.0
 40
1.0
 40
1.0
 40
1.0
 10
5.9715708144
 20
3.9113837149
 30
0.0
 10
5.9711348759
 20
3.9110979501
 30
0.0
 10
5.9702756894
 20
3.9104622348
 30
0.0
 10
5.969075484
 20
3.9093408981
 30
0.0
 10
5.9679601201
 20
3.9080219423
 30
0.0
 10
5.9669583627
 20
3.9064977724
 30
0.0
 10
5.9661067163
 20
3.904767934
 30
0.0
 10
5.9654488548
 20
3.9028476635
 30
0.0
 10
5.9650297969
 20
3.900776494
 30
0.0
 10
5.964934014
 20
3.8993438719
 30
0.0
 10
5.964934014
 20
3.8986196534
 30
0.0
  0
SPLINE
  5
439
100
AcDbEntity
  8
0
100
AcDbSpline
 62
7
  6
CONTINUOUS
 70
0
 71
3
 72
16
 73
12
 74
0
 42
0.0000001
 43
0.0000001
 44
0.0000000001
 40
0.0
 40
0.0
 40
0.0
 40
0.0
 40
0.1068921037
 40
0.2178898212
 40
0.3337713192
 40
0.4553839578
 40
0.5832961256
 40
0.7175348416
 40
0.7868104678
 40
0.8572212282
 40
1.0
 40
1.0
 40
1.0
 40
1.0
 10
5.9710289612
 20
3.9113837149
 30
0.0
 10
5.9705674595
 20
3.911098839
 30
0.0
 10
5.9696580015
 20
3.9104656531
 30
0.0
 10
5.9683834153
 20
3.9093451891
 30
0.0
 10
5.9671985949
 20
3.9080269623
 30
0.0
 10
5.9661340603
 20
3.9065031481
 30
0.0
 10
5.9652286952
 20
3.9047732254
 30
0.0
 10
5.9646513473
 20
3.9031879169
 30
0.0
 10
5.9643111873
 20
3.90183932
 30
0.0
 10
5.9640581263
 20
3.9004278265
 30
0.0
 10
5.9639810616
 20
3.8993440788
 30
0.0
 10
5.9639810616
 20
3.8986196534
 30
0.0
  0
SPLINE
  5
43A
100
AcDbEntity
  8
0
100
AcDbSpline
 62
7
  6
CONTINUOUS
 70
0
 71
3
 72
11
 73
7
 74
0
 42
0.0000001
 43
0.0000001
 44
0.0000000001
 40
0.0
 40
0.0
 40
0.0
 40
0.0
 40
0.2628194883
 40
0.5193613438
 40
0.7655661577
 40
1.0
 40
1.0
 40
1.0
 40
1.0
 10
5.963963688
 20
3.8986196534
 30
0.0
 10
5.963963688
 20
3.8994829299
 30
0.0
 10
5.9641093118
 20
3.9011924464
 30
0.0
 10
5.9647433694
 20
3.903637483
 30
0.0
 10
5.9657301641
 20
3.9058599224
 30
0.0
 10
5.9665948645
 20
3.9071896673
 30
0.0
 10
5.9670635655
 20
3.9078006332
 30
0.0
  0
SPLINE
  5
43B
100
AcDbEntity
  8
0
100
AcDbSpline
 62
7
  6
CONTINUOUS
 70
0
 71
3
 72
16
 73
12
 74
0
 42
0.0000001
 43
0.0000001
 44
0.0000000001
 40
0.0
 40
0.0
 40
0.0
 40
0.0
 40
0.1334200337
 40
0.199701414
 40
0.2654380714
 40
0.3948049839
 40
0.5211630898
 40
0.6445296817
 40
0.7651841759
 40
0.8835483111
 40
1.0
 40
1.0
 40
1.0
 40
1.0
 10
6.4369374176
 20
3.6631196534
 30
0.0
 10
6.4369374176
 20
3.6624303156
 30
0.0
 10
6.4368509271
 20
3.6613958881
 30
0.0
 10
6.4365689388
 20
3.6600526919
 30
0.0
 10
6.4361864442
 20
3.6587561295
 30
0.0
 10
6.4355317113
 20
3.6572222282
 30
0.0
 10
6.4345068145
 20
3.6555458977
 30
0.0
 10
6.4332970401
 20
3.6540564666
 30
0.0
 10
6.4319455214
 20
3.6527545374
 30
0.0
 10
6.4304861501
 20
3.6516339446
 30
0.0
 10
6.4294512543
 20
3.6509963831
 30
0.0
 10
6.4289244356
 20
3.6507057524
 30
0.0
  0
SPLINE
  5
43C
100
AcDbEntity
  8
0
100
AcDbSpline
 62
7
  6
CONTINUOUS
 70
0
 71
3
 72
15
 73
11
 74
0
 42
0.0000001
 43
0.0000001
 44
0.0000000001
 40
0.0
 40
0.0
 40
0.0
 40
0.0
 40
0.0973247138
 40
0.2018170732
 40
0.3143856449
 40
0.435771288
 40
0.5661874188
 40
0.705047751
 40
0.8506276433
 40
1.0
 40
1.0
 40
1.0
 40
1.0
 10
6.4486118846
 20
3.6503555918
 30
0.0
 10
6.4482636873
 20
3.6506544138
 30
0.0
 10
6.4475805843
 20
3.6513206754
 30
0.0
 10
6.4466469435
 20
3.6524758493
 30
0.0
 10
6.4457886546
 20
3.653824901
 30
0.0
 10
6.4450276524
 20
3.655368608
 30
0.0
 10
6.4443899972
 20
3.65710002
 30
0.0
 10
6.4439046099
 20
3.6589982157
 30
0.0
 10
6.4435992797
 20
3.6610238378
 30
0.0
 10
6.443530005
 20
3.6624154303
 30
0.0
 10
6.443530005
 20
3.6631196534
 30
0.0
  0
SPLINE
  5
43D
100
AcDbEntity
  8
0
100
AcDbSpline
 62
7
  6
CONTINUOUS
 70
0
 71
3
 72
16
 73
12
 74
0
 42
0.0000001
 43
0.0000001
 44
0.0000000001
 40
0.0
 40
0.0
 40
0.0
 40
0.0
 40
0.1323678178
 40
0.1981678923
 40
0.2634697478
 40
0.3921581078
 40
0.5181988287
 40
0.6416746986
 40
0.7628757721
 40
0.8822211624
 40
1.0
 40
1.0
 40
1.0
 40
1.0
 10
6.4575800566
 20
3.6631196534
 30
0.0
 10
6.4575800566
 20
3.662394099
 30
0.0
 10
6.4574808191
 20
3.6613046251
 30
0.0
 10
6.4571587587
 20
3.6598955125
 30
0.0
 10
6.4567225778
 20
3.6585382581
 30
0.0
 10
6.4559783091
 20
3.6569406244
 30
0.0
 10
6.4548214702
 20
3.6552116968
 30
0.0
 10
6.4534644293
 20
3.6536912549
 30
0.0
 10
6.4519564681
 20
3.6523773443
 30
0.0
 10
6.4503358583
 20
3.651261159
 30
0.0
 10
6.4491927339
 20
3.6506373663
 30
0.0
 10
6.4486118846
 20
3.6503555918
 30
0.0
  0
SPLINE
  5
43E
100
AcDbEntity
  8
0
100
AcDbSpline
 62
7
  6
CONTINUOUS
 70
0
 71
3
 72
14
 73
10
 74
0
 42
0.0000001
 43
0.0000001
 44
0.0000000001
 40
0.0
 40
0.0
 40
0.0
 40
0.0
 40
0.1967075284
 40
0.3082214643
 40
0.4294430787
 40
0.5605366592
 40
0.7008091733
 40
0.8483569309
 40
1.0
 40
1.0
 40
1.0
 40
1.0
 10
6.4687395838
 20
3.6503555918
 30
0.0
 10
6.4680740721
 20
3.6509810756
 30
0.0
 10
6.4671603132
 20
3.652104263
 30
0.0
 10
6.4661589218
 20
3.6538304264
 30
0.0
 10
6.4654646237
 20
3.6553740529
 30
0.0
 10
6.464883285
 20
3.6571044834
 30
0.0
 10
6.464440714
 20
3.659001476
 30
0.0
 10
6.4641623659
 20
3.6610255783
 30
0.0
 10
6.4640992299
 20
3.6624155767
 30
0.0
 10
6.4640992299
 20
3.6631196534
 30
0.0
  0
SPLINE
  5
43F
100
AcDbEntity
  8
0
100
AcDbSpline
 62
7
  6
CONTINUOUS
 70
0
 71
3
 72
15
 73
11
 74
0
 42
0.0000001
 43
0.0000001
 44
0.0000000001
 40
0.0
 40
0.0
 40
0.0
 40
0.0
 40
0.1309886391
 40
0.2608426435
 40
0.3888331444
 40
0.514674601
 40
0.6384412771
 40
0.7603715923
 40
0.8808179079
 40
1.0
 40
1.0
 40
1.0
 40
1.0
 10
6.4779727991
 20
3.6631196534
 30
0.0
 10
6.4779727991
 20
3.6623939219
 30
0.0
 10
6.4778369524
 20
3.6609451885
 30
0.0
 10
6.4772458438
 20
3.6588623156
 30
0.0
 10
6.4763216962
 20
3.6569372006
 30
0.0
 10
6.475130092
 20
3.6552084497
 30
0.0
 10
6.4737328256
 20
3.6536886852
 30
0.0
 10
6.4721804298
 20
3.6523754197
 30
0.0
 10
6.4705122142
 20
3.6512598094
 30
0.0
 10
6.4693369153
 20
3.650637044
 30
0.0
 10
6.4687395838
 20
3.6503555918
 30
0.0
  0
SPLINE
  5
440
100
AcDbEntity
  8
0
100
AcDbSpline
 62
7
  6
CONTINUOUS
 70
0
 71
3
 72
15
 73
11
 74
0
 42
0.0000001
 43
0.0000001
 44
0.0000000001
 40
0.0
 40
0.0
 40
0.0
 40
0.0
 40
0.0915765287
 40
0.1920955717
 40
0.3025030703
 40
0.4235064359
 40
0.555208236
 40
0.696802692
 40
0.8462082653
 40
1.0
 40
1.0
 40
1.0
 40
1.0
 10
6.488586799
 20
3.6503555918
 30
0.0
 10
6.4882965379
 20
3.6506579975
 30
0.0
 10
6.4877285392
 20
3.6513324256
 30
0.0
 10
6.4869611107
 20
3.6524879789
 30
0.0
 10
6.4862558531
 20
3.6538366276
 30
0.0
 10
6.4856306674
 20
3.6553792176
 30
0.0
 10
6.4851069031
 20
3.657108822
 30
0.0
 10
6.4847082689
 20
3.6590045405
 30
0.0
 10
6.4844575413
 20
3.6610272115
 30
0.0
 10
6.4844006899
 20
3.6624157134
 30
0.0
 10
6.4844006899
 20
3.6631196534
 30
0.0
  0
SPLINE
  5
441
100
AcDbEntity
  8
0
100
AcDbSpline
 62
7
  6
CONTINUOUS
 70
0
 71
3
 72
15
 73
11
 74
0
 42
0.0000001
 43
0.0000001
 44
0.0000000001
 40
0.0
 40
0.0
 40
0.0
 40
0.0
 40
0.1297380272
 40
0.2585719068
 40
0.3859290209
 40
0.5115850449
 40
0.6356033625
 40
0.7581735304
 40
0.8795866531
 40
1.0
 40
1.0
 40
1.0
 40
1.0
 10
6.4980597502
 20
3.6631196534
 30
0.0
 10
6.4980597502
 20
3.6623937573
 30
0.0
 10
6.4979200852
 20
3.6609432903
 30
0.0
 10
6.4973127857
 20
3.6588593242
 30
0.0
 10
6.4963638562
 20
3.6569339746
 30
0.0
 10
6.4951408721
 20
3.6552055923
 30
0.0
 10
6.4937072391
 20
3.6536864223
 30
0.0
 10
6.4921146888
 20
3.6523737551
 30
0.0
 10
6.4904034376
 20
3.6512586525
 30
0.0
 10
6.4891990428
 20
3.6506367698
 30
0.0
 10
6.488586799
 20
3.6503555918
 30
0.0
  0
SPLINE
  5
442
100
AcDbEntity
  8
0
100
AcDbSpline
 62
7
  6
CONTINUOUS
 70
0
 71
3
 72
15
 73
11
 74
0
 42
0.0000001
 43
0.0000001
 44
0.0000000001
 40
0.0
 40
0.0
 40
0.0
 40
0.0
 40
0.0886905448
 40
0.1872611346
 40
0.2966420783
 40
0.4174975677
 40
0.5498576379
 40
0.6927998396
 40
0.8440676709
 40
1.0
 40
1.0
 40
1.0
 40
1.0
 10
6.5080991306
 20
3.6503555918
 30
0.0
 10
6.5078393291
 20
3.6506601461
 30
0.0
 10
6.5073320193
 20
3.6513390231
 30
0.0
 10
6.5066510001
 20
3.6524943616
 30
0.0
 10
6.5060251472
 20
3.6538424713
 30
0.0
 10
6.5054703229
 20
3.6553842796
 30
0.0
 10
6.5050054897
 20
3.6571128841
 30
0.0
 10
6.5046517024
 20
3.6590073921
 30
0.0
 10
6.5044291829
 20
3.6610287115
 30
0.0
 10
6.5043787401
 20
3.662415839
 30
0.0
 10
6.5043787401
 20
3.6631196534
 30
0.0
  0
SPLINE
  5
443
100
AcDbEntity
  8
0
100
AcDbSpline
 62
7
  6
CONTINUOUS
 70
0
 71
3
 72
15
 73
11
 74
0
 42
0.0000001
 43
0.0000001
 44
0.0000000001
 40
0.0
 40
0.0
 40
0.0
 40
0.0
 40
0.1286326058
 40
0.2565671753
 40
0.3833693443
 40
0.5088669259
 40
0.6331111469
 40
0.7562464408
 40
0.8785087757
 40
1.0
 40
1.0
 40
1.0
 40
1.0
 10
6.5177858529
 20
3.6631196534
 30
0.0
 10
6.5177858529
 20
3.662393607
 30
0.0
 10
6.517642764
 20
3.6609415601
 30
0.0
 10
6.5170209832
 20
3.6588566247
 30
0.0
 10
6.5160499362
 20
3.6569311016
 30
0.0
 10
6.5147989822
 20
3.6552030827
 30
0.0
 10
6.5133329476
 20
3.6536844603
 30
0.0
 10
6.5117046176
 20
3.652372328
 30
0.0
 10
6.5099550108
 20
3.6512576698
 30
0.0
 10
6.5087246749
 20
3.6506365382
 30
0.0
 10
6.5080991306
 20
3.6503555918
 30
0.0
  0
SPLINE
  5
444
100
AcDbEntity
  8
0
100
AcDbSpline
 62
7
  6
CONTINUOUS
 70
0
 71
3
 72
15
 73
11
 74
0
 42
0.0000001
 43
0.0000001
 44
0.0000000001
 40
0.0
 40
0.0
 40
0.0
 40
0.0
 40
0.0858759206
 40
0.1825781677
 40
0.2909962917
 40
0.4117350189
 40
0.5447437779
 40
0.6889832736
 40
0.8420296244
 40
1.0
 40
1.0
 40
1.0
 40
1.0
 10
6.5272230966
 20
3.6503555918
 30
0.0
 10
6.5269947626
 20
3.6506625207
 30
0.0
 10
6.5265501656
 20
3.6513459483
 30
0.0
 10
6.5259573311
 20
3.6525007619
 30
0.0
 10
6.5254124326
 20
3.6538481217
 30
0.0
 10
6.5249292956
 20
3.6553890409
 30
0.0
 10
6.5245244795
 20
3.6571166276
 30
0.0
 10
6.5242163524
 20
3.6590099838
 30
0.0
 10
6.5240225464
 20
3.6610300637
 30
0.0
 10
6.5239786219
 20
3.6624159521
 30
0.0
 10
6.5239786219
 20
3.6631196534
 30
0.0
  0
SPLINE
  5
445
100
AcDbEntity
  8
0
100
AcDbSpline
 62
7
  6
CONTINUOUS
 70
0
 71
3
 72
14
 73
10
 74
0
 42
0.0000001
 43
0.0000001
 44
0.0000000001
 40
0.0
 40
0.0
 40
0.0
 40
0.0
 40
0.1277107751
 40
0.2549042507
 40
0.3812661436
 40
0.5066679719
 40
0.6311484832
 40
0.7548115227
 40
1.0
 40
1.0
 40
1.0
 40
1.0
 10
6.5370970394
 20
3.6631196534
 30
0.0
 10
6.5370970394
 20
3.6623934727
 30
0.0
 10
6.5369509356
 20
3.6609400154
 30
0.0
 10
6.5363164425
 20
3.6588542391
 30
0.0
 10
6.5353259947
 20
3.6569285824
 30
0.0
 10
6.5340506161
 20
3.6552009446
 30
0.0
 10
6.5325559995
 20
3.6536826774
 30
0.0
 10
6.5303512639
 20
3.6519400103
 30
0.0
 10
6.52849892
 20
3.6509177288
 30
0.0
 10
6.5272230966
 20
3.6503555918
 30
0.0
  0
SPLINE
  5
446
100
AcDbEntity
  8
0
100
AcDbSpline
 62
7
  6
CONTINUOUS
 70
0
 71
3
 72
15
 73
11
 74
0
 42
0.0000001
 43
0.0000001
 44
0.0000000001
 40
0.0
 40
0.0
 40
0.0
 40
0.0
 40
0.0832079851
 40
0.1781698311
 40
0.2857107303
 40
0.4063631831
 40
0.5399919325
 40
0.6854448283
 40
0.8401426042
 40
1.0
 40
1.0
 40
1.0
 40
1.0
 10
6.5459062795
 20
3.6503555918
 30
0.0
 10
6.5457104496
 20
3.6506650727
 30
0.0
 10
6.5453305063
 20
3.6513529863
 30
0.0
 10
6.5448272791
 20
3.6525069776
 30
0.0
 10
6.5443645963
 20
3.6538534195
 30
0.0
 10
6.5439542447
 20
3.6553933915
 30
0.0
 10
6.5436103595
 20
3.657119985
 30
0.0
 10
6.5433485846
 20
3.6590122793
 30
0.0
 10
6.5431839257
 20
3.6610312526
 30
0.0
 10
6.5431466135
 20
3.6624160514
 30
0.0
 10
6.5431466135
 20
3.6631196534
 30
0.0
  0
SPLINE
  5
447
100
AcDbEntity
  8
0
100
AcDbSpline
 62
7
  6
CONTINUOUS
 70
0
 71
3
 72
14
 73
10
 74
0
 42
0.0000001
 43
0.0000001
 44
0.0000000001
 40
0.0
 40
0.0
 40
0.0
 40
0.0
 40
0.1268946327
 40
0.2534269936
 40
0.3793849165
 40
0.5046759187
 40
0.6293267308
 40
0.753405688
 40
1.0
 40
1.0
 40
1.0
 40
1.0
 10
6.555940379
 20
3.6631196534
 30
0.0
 10
6.555940379
 20
3.6623933557
 30
0.0
 10
6.5557916856
 20
3.6609386733
 30
0.0
 10
6.5551462886
 20
3.65885218
 30
0.0
 10
6.55413925
 20
3.6569264387
 30
0.0
 10
6.5528429318
 20
3.6551991139
 30
0.0
 10
6.5513240785
 20
3.6536812758
 30
0.0
 10
6.5490819691
 20
3.6519377696
 30
0.0
 10
6.5472012164
 20
3.6509170436
 30
0.0
 10
6.5459062795
 20
3.6503555918
 30
0.0
  0
SPLINE
  5
448
100
AcDbEntity
  8
0
100
AcDbSpline
 62
7
  6
CONTINUOUS
 70
0
 71
3
 72
15
 73
11
 74
0
 42
0.0000001
 43
0.0000001
 44
0.0000000001
 40
0.0
 40
0.0
 40
0.0
 40
0.0
 40
0.0807733696
 40
0.1741742163
 40
0.2809450336
 40
0.4015389534
 40
0.5357369912
 40
0.6822828794
 40
0.8384584151
 40
1.0
 40
1.0
 40
1.0
 40
1.0
 10
6.5640974699
 20
3.6503555918
 30
0.0
 10
6.5639352115
 20
3.6506677044
 30
0.0
 10
6.5636217274
 20
3.6513598307
 30
0.0
 10
6.5632091708
 20
3.6525127665
 30
0.0
 10
6.5628296844
 20
3.6538581934
 30
0.0
 10
6.5624929996
 20
3.655397222
 30
0.0
 10
6.5622107945
 20
3.6571228923
 30
0.0
 10
6.5619959466
 20
3.6590142457
 30
0.0
 10
6.5618607976
 20
3.6610322649
 30
0.0
 10
6.5618301768
 20
3.662416136
 30
0.0
 10
6.5618301768
 20
3.6631196534
 30
0.0
  0
SPLINE
  5
449
100
AcDbEntity
  8
0
100
AcDbSpline
 62
7
  6
CONTINUOUS
 70
0
 71
3
 72
15
 73
11
 74
0
 42
0.0000001
 43
0.0000001
 44
0.0000000001
 40
0.0
 40
0.0
 40
0.0
 40
0.0
 40
0.1261857054
 40
0.252137751
 40
0.3777280648
 40
0.5028929893
 40
0.6276484028
 40
0.7520327203
 40
0.8761569518
 40
1.0
 40
1.0
 40
1.0
 40
1.0
 10
6.5742642234
 20
3.6631196534
 30
0.0
 10
6.5742642234
 20
3.6623932575
 30
0.0
 10
6.5741133779
 20
3.6609375475
 30
0.0
 10
6.5734589278
 20
3.6588504615
 30
0.0
 10
6.5724381569
 20
3.6569246749
 30
0.0
 10
6.5711244435
 20
3.6551975854
 30
0.0
 10
6.5695857411
 20
3.6536802431
 30
0.0
 10
6.5678771509
 20
3.6523693097
 30
0.0
 10
6.5660414744
 20
3.6512556188
 30
0.0
 10
6.564752893
 20
3.6506360587
 30
0.0
 10
6.5640974699
 20
3.6503555918
 30
0.0
  0
SPLINE
  5
44A
100
AcDbEntity
  8
0
100
AcDbSpline
 62
7
  6
CONTINUOUS
 70
0
 71
3
 72
15
 73
11
 74
0
 42
0.0000001
 43
0.0000001
 44
0.0000000001
 40
0.0
 40
0.0
 40
0.0
 40
0.0
 40
0.0786661752
 40
0.1707378266
 40
0.2768657986
 40
0.39742427
 40
0.5321173007
 40
0.6795976553
 40
0.8370295631
 40
1.0
 40
1.0
 40
1.0
 40
1.0
 10
6.5817468072
 20
3.6503555918
 30
0.0
 10
6.5816191952
 20
3.6506702561
 30
0.0
 10
6.5813737691
 20
3.6513660907
 30
0.0
 10
6.5810526079
 20
3.6525178594
 30
0.0
 10
6.5807570385
 20
3.6538622711
 30
0.0
 10
6.5804947017
 20
3.6554004299
 30
0.0
 10
6.5802747702
 20
3.6571252929
 30
0.0
 10
6.5801073119
 20
3.6590158543
 30
0.0
 10
6.5800019669
 20
3.6610330882
 30
0.0
 10
6.5799781014
 20
3.6624162045
 30
0.0
 10
6.5799781014
 20
3.6631196534
 30
0.0
  0
SPLINE
  5
44B
100
AcDbEntity
  8
0
100
AcDbSpline
 62
7
  6
CONTINUOUS
 70
0
 71
3
 72
15
 73
11
 74
0
 42
0.0000001
 43
0.0000001
 44
0.0000000001
 40
0.0
 40
0.0
 40
0.0
 40
0.0
 40
0.1256583283
 40
0.2511845827
 40
0.3765167146
 40
0.5016131783
 40
0.6264807046
 40
0.7511338143
 40
0.8756561153
 40
1.0
 40
1.0
 40
1.0
 40
1.0
 10
6.5920183482
 20
3.6631196534
 30
0.0
 10
6.5920183482
 20
3.6623931789
 30
0.0
 10
6.5918657967
 20
3.6609366483
 30
0.0
 10
6.5912041875
 20
3.6588490988
 30
0.0
 10
6.590172553
 20
3.6569232783
 30
0.0
 10
6.5888451496
 20
3.6551964116
 30
0.0
 10
6.5872906011
 20
3.6536793566
 30
0.0
 10
6.5855645055
 20
3.6523686836
 30
0.0
 10
6.5837100506
 20
3.651255198
 30
0.0
 10
6.5824087549
 20
3.650635961
 30
0.0
 10
6.5817468072
 20
3.6503555918
 30
0.0
  0
SPLINE
  5
44C
100
AcDbEntity
  8
0
100
AcDbSpline
 62
7
  6
CONTINUOUS
 70
0
 71
3
 72
15
 73
11
 74
0
 42
0.0000001
 43
0.0000001
 44
0.0000000001
 40
0.0
 40
0.0
 40
0.0
 40
0.0
 40
0.0769811791
 40
0.1680050986
 40
0.273634958
 40
0.3941750012
 40
0.5292649782
 40
0.6774847919
 40
0.8359062468
 40
1.0
 40
1.0
 40
1.0
 40
1.0
 10
6.5988059157
 20
3.6503555918
 30
0.0
 10
6.5987139731
 20
3.6506725082
 30
0.0
 10
6.598537919
 20
3.6513713254
 30
0.0
 10
6.5983085916
 20
3.6525219828
 30
0.0
 10
6.5980974333
 20
3.653865491
 30
0.0
 10
6.5979099446
 20
3.6554029228
 30
0.0
 10
6.5977527348
 20
3.6571271369
 30
0.0
 10
6.59763302
 20
3.6590170812
 30
0.0
 10
6.5975577059
 20
3.6610337137
 30
0.0
 10
6.597540645
 20
3.6624162567
 30
0.0
 10
6.597540645
 20
3.6631196534
 30
0.0
  0
SPLINE
  5
44D
100
AcDbEntity
  8
0
100
AcDbSpline
 62
7
  6
CONTINUOUS
 70
0
 71
3
 72
17
 73
13
 74
0
 42
0.0000001
 43
0.0000001
 44
0.0000000001
 40
0.0
 40
0.0
 40
0.0
 40
0.0
 40
0.1092179011
 40
0.2219710141
 40
0.3389426028
 40
0.3992934264
 40
0.460965258
 40
0.5884435229
 40
0.7214944729
 40
0.7899346059
 40
0.8593826756
 40
1.0
 40
1.0
 40
1.0
 40
1.0
 10
6.7612451197
 20
3.9113837149
 30
0.0
 10
6.7617309715
 20
3.9110996015
 30
0.0
 10
6.7626882426
 20
3.9104686229
 30
0.0
 10
6.7640335444
 20
3.9093491142
 30
0.0
 10
6.7650655256
 20
3.9082621727
 30
0.0
 10
6.7658285566
 20
3.9072945319
 30
0.0
 10
6.7665594523
 20
3.9062358082
 30
0.0
 10
6.7673655469
 20
3.9047782172
 30
0.0
 10
6.7679765232
 20
3.9031904442
 30
0.0
 10
6.7683361334
 20
3.9018401629
 30
0.0
 10
6.7686032703
 20
3.9004291027
 30
0.0
 10
6.7686848007
 20
3.8993442874
 30
0.0
 10
6.7686848007
 20
3.8986196534
 30
0.0
  0
SPLINE
  5
44E
100
AcDbEntity
  8
0
100
AcDbSpline
 62
7
  6
CONTINUOUS
 70
0
 71
3
 72
15
 73
11
 74
0
 42
0.0000001
 43
0.0000001
 44
0.0000000001
 40
0.0
 40
0.0
 40
0.0
 40
0.0
 40
0.1252742193
 40
0.2504906934
 40
0.3756354588
 40
0.5006827759
 40
0.6256323817
 40
0.7504811606
 40
0.8752926694
 40
1.0
 40
1.0
 40
1.0
 40
1.0
 10
6.6091540907
 20
3.6631196534
 30
0.0
 10
6.6091540907
 20
3.662393121
 30
0.0
 10
6.6090002885
 20
3.6609359854
 30
0.0
 10
6.6083334374
 20
3.6588480986
 30
0.0
 10
6.6072938562
 20
3.6569222587
 30
0.0
 10
6.6059564435
 20
3.6551955592
 30
0.0
 10
6.6043903102
 20
3.653678716
 30
0.0
 10
6.6026514157
 20
3.6523682329
 30
0.0
 10
6.6007832296
 20
3.651254896
 30
0.0
 10
6.5994726355
 20
3.650635891
 30
0.0
 10
6.5988059157
 20
3.6503555918
 30
0.0
  0
SPLINE
  5
44F
100
AcDbEntity
  8
0
100
AcDbSpline
 62
7
  6
CONTINUOUS
 70
0
 71
3
 72
17
 73
13
 74
0
 42
0.0000001
 43
0.0000001
 44
0.0000000001
 40
0.0
 40
0.0
 40
0.0
 40
0.0
 40
0.1113789549
 40
0.2257779722
 40
0.3437870271
 40
0.4044037399
 40
0.4661619553
 40
0.593256755
 40
0.7252091936
 40
0.7928690883
 40
0.8614147832
 40
1.0
 40
1.0
 40
1.0
 40
1.0
 10
6.7596210453
 20
3.9113837149
 30
0.0
 10
6.7601299757
 20
3.9111002561
 30
0.0
 10
6.7611324835
 20
3.9104712305
 30
0.0
 10
6.7625447805
 20
3.9093525605
 30
0.0
 10
6.7636300549
 20
3.9082646064
 30
0.0
 10
6.7644324063
 20
3.9072956682
 30
0.0
 10
6.7651987305
 20
3.9062386247
 30
0.0
 10
6.7660446419
 20
3.9047831014
 30
0.0
 10
6.7666877351
 20
3.9031929126
 30
0.0
 10
6.767065844
 20
3.9018409976
 30
0.0
 10
6.7673463267
 20
3.9004303708
 30
0.0
 10
6.767432116
 20
3.8993444956
 30
0.0
 10
6.767432116
 20
3.8986196534
 30
0.0
  0
SPLINE
  5
450
100
AcDbEntity
  8
0
100
AcDbSpline
 62
7
  6
CONTINUOUS
 70
0
 71
3
 72
15
 73
11
 74
0
 42
0.0000001
 43
0.0000001
 44
0.0000000001
 40
0.0
 40
0.0
 40
0.0
 40
0.0
 40
0.0758042398
 40
0.166104561
 40
0.2713949467
 40
0.3919272568
 40
0.5272949772
 40
0.6760270789
 40
0.8351317284
 40
1.0
 40
1.0
 40
1.0
 40
1.0
 10
6.6152280376
 20
3.6503555918
 30
0.0
 10
6.6151726344
 20
3.6506742071
 30
0.0
 10
6.6150669179
 20
3.6513751034
 30
0.0
 10
6.6149296525
 20
3.652524888
 30
0.0
 10
6.614803213
 20
3.6538677164
 30
0.0
 10
6.6146909121
 20
3.655404626
 30
0.0
 10
6.6145967352
 20
3.6571283863
 30
0.0
 10
6.6145250138
 20
3.6590179082
 30
0.0
 10
6.6144798912
 20
3.661034134
 30
0.0
 10
6.6144696701
 20
3.6624162917
 30
0.0
 10
6.6144696701
 20
3.6631196534
 30
0.0
  0
SPLINE
  5
451
100
AcDbEntity
  8
0
100
AcDbSpline
 62
7
  6
CONTINUOUS
 70
0
 71
3
 72
18
 73
14
 74
0
 42
0.0000001
 43
0.0000001
 44
0.0000000001
 40
0.0
 40
0.0
 40
0.0
 40
0.0
 40
0.1133620431
 40
0.2292806562
 40
0.288373362
 40
0.3483097962
 40
0.4091772455
 40
0.4710200499
 40
0.5977654614
 40
0.7286957231
 40
0.7956255103
 40
0.863324784
 40
1.0
 40
1.0
 40
1.0
 40
1.0
 10
6.7569192012
 20
3.9113837149
 30
0.0
 10
6.7574498798
 20
3.9111008183
 30
0.0
 10
6.7584948958
 20
3.9104735912
 30
0.0
 10
6.7597168247
 20
3.9095475906
 30
0.0
 10
6.7606421048
 20
3.9087115999
 30
0.0
 10
6.7613108159
 20
3.9080298834
 30
0.0
 10
6.7619453105
 20
3.9072967036
 30
0.0
 10
6.7627448956
 20
3.9062412554
 30
0.0
 10
6.7636282566
 20
3.9047877527
 30
0.0
 10
6.7643017604
 20
3.9031953081
 30
0.0
 10
6.7646973657
 20
3.9018418131
 30
0.0
 10
6.7649904242
 20
3.9004316181
 30
0.0
 10
6.765080252
 20
3.899344701
 30
0.0
 10
6.765080252
 20
3.8986196534
 30
0.0
  0
SPLINE
  5
452
100
AcDbEntity
  8
0
100
AcDbSpline
 62
7
  6
CONTINUOUS
 70
0
 71
3
 72
15
 73
11
 74
0
 42
0.0000001
 43
0.0000001
 44
0.0000000001
 40
0.0
 40
0.0
 40
0.0
 40
0.0
 40
0.1250329653
 40
0.2500550179
 40
0.3750823929
 40
0.5000991499
 40
0.6251004882
 40
0.7500721187
 40
0.875064965
 40
1.0
 40
1.0
 40
1.0
 40
1.0
 10
6.6256244829
 20
3.6631196534
 30
0.0
 10
6.6256244829
 20
3.6623930843
 30
0.0
 10
6.6254698917
 20
3.6609355656
 30
0.0
 10
6.6247997361
 20
3.658847467
 30
0.0
 10
6.6237551486
 20
3.6569216173
 30
0.0
 10
6.6224114323
 20
3.6551950249
 30
0.0
 10
6.6208380036
 20
3.6536783157
 30
0.0
 10
6.6190910486
 20
3.6523679521
 30
0.0
 10
6.6172142145
 20
3.6512547082
 30
0.0
 10
6.6158977635
 20
3.6506358475
 30
0.0
 10
6.6152280376
 20
3.6503555918
 30
0.0
  0
SPLINE
  5
453
100
AcDbEntity
  8
0
100
AcDbSpline
 62
7
  6
CONTINUOUS
 70
0
 71
3
 72
16
 73
12
 74
0
 42
0.0000001
 43
0.0000001
 44
0.0000000001
 40
0.0
 40
0.0
 40
0.0
 40
0.0
 40
0.1151944634
 40
0.2325309424
 40
0.35242418
 40
0.4754107744
 40
0.601867381
 40
0.731882289
 40
0.7981489296
 40
0.8650754723
 40
1.0
 40
1.0
 40
1.0
 40
1.0
 10
6.7531469929
 20
3.9113837149
 30
0.0
 10
6.7536980325
 20
3.9111013012
 30
0.0
 10
6.7547829196
 20
3.9104754989
 30
0.0
 10
6.7563173172
 20
3.9093582569
 30
0.0
 10
6.7577447935
 20
3.9080431765
 30
0.0
 10
6.7590289385
 20
3.906521684
 30
0.0
 10
6.7601229722
 20
3.9047922269
 30
0.0
 10
6.7608251647
 20
3.903197596
 30
0.0
 10
6.7612371919
 20
3.9018426032
 30
0.0
 10
6.7615420253
 20
3.90043283
 30
0.0
 10
6.761635655
 20
3.8993449014
 30
0.0
 10
6.761635655
 20
3.8986196534
 30
0.0
  0
SPLINE
  5
454
100
AcDbEntity
  8
0
100
AcDbSpline
 62
7
  6
CONTINUOUS
 70
0
 71
3
 72
17
 73
13
 74
0
 42
0.0000001
 43
0.0000001
 44
0.0000000001
 40
0.0
 40
0.0
 40
0.0
 40
0.0
 40
0.1120298654
 40
0.2271744707
 40
0.3459380929
 40
0.4068858372
 40
0.468912156
 40
0.5962327574
 40
0.7278130545
 40
0.795020599
 40
0.8629520258
 40
1.0
 40
1.0
 40
1.0
 40
1.0
 10
5.9715708144
 20
3.6503555918
 30
0.0
 10
5.9710740692
 20
3.6506481121
 30
0.0
 10
5.9700986553
 20
3.6512975533
 30
0.0
 10
5.9687357936
 20
3.6524485245
 30
0.0
 10
5.9676985124
 20
3.6535614934
 30
0.0
 10
5.9669378917
 20
3.654546664
 30
0.0
 10
5.9662169289
 20
3.6556148539
 30
0.0
 10
5.9654301557
 20
3.6570726926
 30
0.0
 10
5.9648393763
 20
3.6586494852
 30
0.0
 10
5.9644952429
 20
3.6599792065
 30
0.0
 10
5.9642418409
 20
3.6613575617
 30
0.0
 10
5.9641647204
 20
3.6624144416
 30
0.0
 10
5.9641647204
 20
3.6631196534
 30
0.0
  0
SPLINE
  5
455
100
AcDbEntity
  8
0
100
AcDbSpline
 62
7
  6
CONTINUOUS
 70
0
 71
3
 72
16
 73
12
 74
0
 42
0.0000001
 43
0.0000001
 44
0.0000000001
 40
0.0
 40
0.0
 40
0.0
 40
0.0
 40
0.1168456114
 40
0.2354637261
 40
0.3561893735
 40
0.4794850936
 40
0.6056737922
 40
0.7348415612
 40
0.8004933222
 40
0.866702534
 40
1.0
 40
1.0
 40
1.0
 40
1.0
 10
6.7483147599
 20
3.9113837149
 30
0.0
 10
6.7488847182
 20
3.9111017157
 30
0.0
 10
6.7500065733
 20
3.910477212
 30
0.0
 10
6.7515957024
 20
3.9093606439
 30
0.0
 10
6.7530742778
 20
3.9080463024
 30
0.0
 10
6.7544047029
 20
3.9065254639
 30
0.0
 10
6.7555386013
 20
3.9047963225
 30
0.0
 10
6.7562674715
 20
3.9031997776
 30
0.0
 10
6.7566948149
 20
3.9018433559
 30
0.0
 10
6.7570105833
 20
3.9004339961
 30
0.0
 10
6.7571077664
 20
3.8993450945
 30
0.0
 10
6.7571077664
 20
3.8986196534
 30
0.0
  0
LINE
  5
456
100
AcDbEntity
  8
0
100
AcDbLine
 62
7
  6
CONTINUOUS
 10
6.6309681609
 20
3.6503555918
 11
6.6307187753
 21
3.6631196534
  0
SPLINE
  5
457
100
AcDbEntity
  8
0
100
AcDbSpline
 62
7
  6
CONTINUOUS
 70
0
 71
3
 72
16
 73
12
 74
0
 42
0.0000001
 43
0.0000001
 44
0.0000000001
 40
0.0
 40
0.0
 40
0.0
 40
0.0
 40
0.1183325756
 40
0.2381105027
 40
0.3595953529
 40
0.4831798223
 40
0.6091339679
 40
0.7375373728
 40
0.8026307968
 40
0.8681869653
 40
1.0
 40
1.0
 40
1.0
 40
1.0
 10
6.7424357469
 20
3.9113837149
 30
0.0
 10
6.74302313
 20
3.9111020707
 30
0.0
 10
6.744179011
 20
3.9104786926
 30
0.0
 10
6.7458184984
 20
3.9093627351
 30
0.0
 10
6.7473440785
 20
3.9080490853
 30
0.0
 10
6.7487170781
 20
3.9065288889
 30
0.0
 10
6.7498876749
 20
3.9048001025
 30
0.0
 10
6.7506411978
 20
3.9032018229
 30
0.0
 10
6.751082687
 20
3.901844066
 30
0.0
 10
6.7514085237
 20
3.9004351027
 30
0.0
 10
6.7515089968
 20
3.8993452783
 30
0.0
 10
6.7515089968
 20
3.8986196534
 30
0.0
  0
SPLINE
  5
458
100
AcDbEntity
  8
0
100
AcDbSpline
 62
7
  6
CONTINUOUS
 70
0
 71
3
 72
15
 73
11
 74
0
 42
0.0000001
 43
0.0000001
 44
0.0000000001
 40
0.0
 40
0.0
 40
0.0
 40
0.0
 40
0.1139607194
 40
0.2305558348
 40
0.3502135828
 40
0.4734068934
 40
0.6003759019
 40
0.7310095247
 40
0.864640582
 40
1.0
 40
1.0
 40
1.0
 40
1.0
 10
5.9731948888
 20
3.6503555918
 30
0.0
 10
5.9726777209
 20
3.650647505
 30
0.0
 10
5.9716624068
 20
3.6512951249
 30
0.0
 10
5.9702405733
 20
3.6524454639
 30
0.0
 10
5.9689310358
 20
3.653791326
 30
0.0
 10
5.9677675283
 20
3.6553343712
 30
0.0
 10
5.9667904277
 20
3.6570686013
 30
0.0
 10
5.9660449999
 20
3.6589738424
 30
0.0
 10
5.9655752102
 20
3.6610101908
 30
0.0
 10
5.9654682737
 20
3.6624142765
 30
0.0
 10
5.9654682737
 20
3.6631196534
 30
0.0
  0
SPLINE
  5
459
100
AcDbEntity
  8
0
100
AcDbSpline
 62
7
  6
CONTINUOUS
 70
0
 71
3
 72
15
 73
11
 74
0
 42
0.0000001
 43
0.0000001
 44
0.0000000001
 40
0.0
 40
0.0
 40
0.0
 40
0.0
 40
0.1196749192
 40
0.2405078088
 40
0.3626935038
 40
0.4865600042
 40
0.6123266901
 40
0.7400635834
 40
0.869510248
 40
1.0
 40
1.0
 40
1.0
 40
1.0
 10
6.7355260679
 20
3.9113837149
 30
0.0
 10
6.7361293335
 20
3.9111023738
 30
0.0
 10
6.7373162124
 20
3.9104799651
 30
0.0
 10
6.7390015576
 20
3.9093645581
 30
0.0
 10
6.7405699373
 20
3.9080515308
 30
0.0
 10
6.7419816803
 20
3.9065320008
 30
0.0
 10
6.7431857736
 20
3.9048033926
 30
0.0
 10
6.7441197819
 20
3.90287818
 30
0.0
 10
6.7447173281
 20
3.9007948707
 30
0.0
 10
6.7448546921
 20
3.8993454508
 30
0.0
 10
6.7448546921
 20
3.8986196534
 30
0.0
  0
SPLINE
  5
45A
100
AcDbEntity
  8
0
100
AcDbSpline
 62
7
  6
CONTINUOUS
 70
0
 71
3
 72
15
 73
11
 74
0
 42
0.0000001
 43
0.0000001
 44
0.0000000001
 40
0.0
 40
0.0
 40
0.0
 40
0.0
 40
0.1249342879
 40
0.2498768513
 40
0.3748562764
 40
0.4998606022
 40
0.6248831398
 40
0.7499050084
 40
0.8749719563
 40
1.0
 40
1.0
 40
1.0
 40
1.0
 10
6.6413843807
 20
3.6631196534
 30
0.0
 10
6.6413843807
 20
3.6623930692
 30
0.0
 10
6.6412294659
 20
3.6609353932
 30
0.0
 10
6.640557956
 20
3.6588472079
 30
0.0
 10
6.6395113175
 20
3.6569213547
 30
0.0
 10
6.6381650192
 20
3.6551948066
 30
0.0
 10
6.6365886021
 20
3.6536781525
 30
0.0
 10
6.6348383455
 20
3.6523678377
 30
0.0
 10
6.6329579688
 20
3.6512546318
 30
0.0
 10
6.6316391184
 20
3.6506358298
 30
0.0
 10
6.6309681609
 20
3.6503555918
 30
0.0
  0
SPLINE
  5
45B
100
AcDbEntity
  8
0
100
AcDbSpline
 62
7
  6
CONTINUOUS
 70
0
 71
3
 72
15
 73
11
 74
0
 42
0.0000001
 43
0.0000001
 44
0.0000000001
 40
0.0
 40
0.0
 40
0.0
 40
0.0
 40
0.1208465838
 40
0.2426007338
 40
0.36539749
 40
0.489505895
 40
0.6150978063
 40
0.742231755
 40
0.8707049368
 40
1.0
 40
1.0
 40
1.0
 40
1.0
 10
6.7276046618
 20
3.9113837149
 30
0.0
 10
6.7282222234
 20
3.911102631
 30
0.0
 10
6.7294369912
 20
3.9104810527
 30
0.0
 10
6.731163581
 20
3.9093661289
 30
0.0
 10
6.7327704407
 20
3.908053676
 30
0.0
 10
6.7342170326
 20
3.9065347236
 30
0.0
 10
6.7354512013
 20
3.9048064837
 30
0.0
 10
6.7364089735
 20
3.9028810615
 30
0.0
 10
6.7370220588
 20
3.9007967065
 30
0.0
 10
6.7371630912
 20
3.8993456101
 30
0.0
 10
6.7371630912
 20
3.8986196534
 30
0.0
  0
SPLINE
  5
45C
100
AcDbEntity
  8
0
100
AcDbSpline
 62
7
  6
CONTINUOUS
 70
0
 71
3
 72
15
 73
11
 74
0
 42
0.0000001
 43
0.0000001
 44
0.0000000001
 40
0.0
 40
0.0
 40
0.0
 40
0.0
 40
0.1157135162
 40
0.23362958
 40
0.3541032151
 40
0.4775509541
 40
0.6041877088
 40
0.7339329087
 40
0.8662286294
 40
1.0
 40
1.0
 40
1.0
 40
1.0
 10
5.9758967329
 20
3.6503555918
 30
0.0
 10
5.9753604923
 20
3.6506469816
 30
0.0
 10
5.9743079462
 20
3.6512930211
 30
0.0
 10
5.972831157
 20
3.6524426772
 30
0.0
 10
5.9714707579
 20
3.6537878987
 30
0.0
 10
5.9702617345
 20
3.6553305072
 30
0.0
 10
5.9692460399
 20
3.6570647289
 30
0.0
 10
5.9684708385
 20
3.6589706239
 30
0.0
 10
5.9679820881
 20
3.6610083066
 30
0.0
 10
5.9678707748
 20
3.662414116
 30
0.0
 10
5.9678707748
 20
3.6631196534
 30
0.0
  0
SPLINE
  5
45D
100
AcDbEntity
  8
0
100
AcDbSpline
 62
7
  6
CONTINUOUS
 70
0
 71
3
 72
15
 73
11
 74
0
 42
0.0000001
 43
0.0000001
 44
0.0000000001
 40
0.0
 40
0.0
 40
0.0
 40
0.0
 40
0.1218664493
 40
0.2444250367
 40
0.367758145
 40
0.4920821593
 40
0.6175254673
 40
0.7441342113
 40
0.8717544082
 40
1.0
 40
1.0
 40
1.0
 40
1.0
 10
6.7186932407
 20
3.9113837149
 30
0.0
 10
6.7193234715
 20
3.9111028474
 30
0.0
 10
6.720562946
 20
3.9104819728
 30
0.0
 10
6.7223260614
 20
3.9093674694
 30
0.0
 10
6.7239669909
 20
3.908055526
 30
0.0
 10
6.7254444348
 20
3.9065371006
 30
0.0
 10
6.726705239
 20
3.9048092182
 30
0.0
 10
6.7276840833
 20
3.902883643
 30
0.0
 10
6.7283109762
 20
3.9007983669
 30
0.0
 10
6.7284552762
 20
3.8993457544
 30
0.0
 10
6.7284552762
 20
3.8986196534
 30
0.0
  0
SPLINE
  5
45E
100
AcDbEntity
  8
0
100
AcDbSpline
 62
7
  6
CONTINUOUS
 70
0
 71
3
 72
14
 73
10
 74
0
 42
0.0000001
 43
0.0000001
 44
0.0000000001
 40
0.0
 40
0.0
 40
0.0
 40
0.0
 40
0.2457606031
 40
0.369592665
 40
0.4941420958
 40
0.6194985726
 40
0.7456958747
 40
0.872620662
 40
1.0
 40
1.0
 40
1.0
 40
1.0
 10
6.7088162302
 20
3.9113837149
 30
0.0
 10
6.7100998028
 20
3.9108218589
 30
0.0
 10
6.7119636686
 20
3.9098002129
 30
0.0
 10
6.714183559
 20
3.9080572019
 30
0.0
 10
6.7156880049
 20
3.9065391084
 30
0.0
 10
6.7169718745
 20
3.9048115964
 30
0.0
 10
6.7179690497
 20
3.9028859039
 30
0.0
 10
6.7186079618
 20
3.9007998357
 30
0.0
 10
6.7187551148
 20
3.8993458823
 30
0.0
 10
6.7187551148
 20
3.8986196534
 30
0.0
  0
SPLINE
  5
45F
100
AcDbEntity
  8
0
100
AcDbSpline
 62
7
  6
CONTINUOUS
 70
0
 71
3
 72
17
 73
13
 74
0
 42
0.0000001
 43
0.0000001
 44
0.0000000001
 40
0.0
 40
0.0
 40
0.0
 40
0.0
 40
0.1172862306
 40
0.2363891144
 40
0.3575944407
 40
0.4191408133
 40
0.4813302003
 40
0.6076497545
 40
0.7365630756
 40
0.8019124493
 40
0.8677135173
 40
1.0
 40
1.0
 40
1.0
 40
1.0
 10
5.9796689411
 20
3.6503555918
 30
0.0
 10
5.9791150283
 20
3.6506465309
 30
0.0
 10
5.9780279996
 20
3.6512912121
 30
0.0
 10
5.9765004227
 20
3.6524401326
 30
0.0
 10
5.9753329192
 20
3.6535555584
 30
0.0
 10
5.9744769926
 20
3.6545439154
 30
0.0
 10
5.9736713082
 20
3.6556081108
 30
0.0
 10
5.9727902251
 20
3.6570610779
 30
0.0
 10
5.972123851
 20
3.6586436683
 30
0.0
 10
5.9717366822
 20
3.6599772663
 30
0.0
 10
5.9714525541
 20
3.6613546356
 30
0.0
 10
5.9713656386
 20
3.6624139619
 30
0.0
 10
5.9713656386
 20
3.6631196534
 30
0.0
  0
SPLINE
  5
460
100
AcDbEntity
  8
0
100
AcDbSpline
 62
7
  6
CONTINUOUS
 70
0
 71
3
 72
15
 73
11
 74
0
 42
0.0000001
 43
0.0000001
 44
0.0000000001
 40
0.0
 40
0.0
 40
0.0
 40
0.0
 40
0.1234660445
 40
0.247291007
 40
0.3714736395
 40
0.4961453295
 40
0.6213623634
 40
0.7471468492
 40
0.8734186385
 40
1.0
 40
1.0
 40
1.0
 40
1.0
 10
6.6980007024
 20
3.9113837149
 30
0.0
 10
6.6986512529
 20
3.9111031735
 30
0.0
 10
6.6999303384
 20
3.9104833677
 30
0.0
 10
6.7017519875
 20
3.9093695223
 30
0.0
 10
6.7034474999
 20
3.9080583944
 30
0.0
 10
6.7049743635
 20
3.9065408397
 30
0.0
 10
6.7062778492
 20
3.9048135893
 30
0.0
 10
6.7072905094
 20
3.9028878345
 30
0.0
 10
6.7079396195
 20
3.9008010956
 30
0.0
 10
6.7080891943
 20
3.8993459921
 30
0.0
 10
6.7080891943
 20
3.8986196534
 30
0.0
  0
SPLINE
  5
461
100
AcDbEntity
  8
0
100
AcDbSpline
 62
7
  6
CONTINUOUS
 70
0
 71
3
 72
15
 73
11
 74
0
 42
0.0000001
 43
0.0000001
 44
0.0000000001
 40
0.0
 40
0.0
 40
0.0
 40
0.0
 40
0.1249780689
 40
0.2499558976
 40
0.3749565923
 40
0.4999664287
 40
0.6249795578
 40
0.7499791376
 40
0.8750132132
 40
1.0
 40
1.0
 40
1.0
 40
1.0
 10
6.6563905872
 20
3.6631196534
 30
0.0
 10
6.6563905872
 20
3.6623930759
 30
0.0
 10
6.656235816
 20
3.6609354697
 30
0.0
 10
6.6555649072
 20
3.6588473229
 30
0.0
 10
6.654519179
 20
3.6569214712
 30
0.0
 10
6.6531740265
 20
3.6551949035
 30
0.0
 10
6.6515989356
 20
3.6536782249
 30
0.0
 10
6.6498501442
 20
3.6523678884
 30
0.0
 10
6.6479713397
 20
3.6512546657
 30
0.0
 10
6.6466535541
 20
3.6506358377
 30
0.0
 10
6.6459831432
 20
3.6503555918
 30
0.0
  0
SPLINE
  5
462
100
AcDbEntity
  8
0
100
AcDbSpline
 62
7
  6
CONTINUOUS
 70
0
 71
3
 72
15
 73
11
 74
0
 42
0.0000001
 43
0.0000001
 44
0.0000000001
 40
0.0
 40
0.0
 40
0.0
 40
0.0
 40
0.1240524027
 40
0.2483429815
 40
0.3728395392
 40
0.4976415955
 40
0.6227778141
 40
0.7482600524
 40
0.8740343298
 40
1.0
 40
1.0
 40
1.0
 40
1.0
 10
6.686276302
 20
3.9113837149
 30
0.0
 10
6.6869344453
 20
3.9111032891
 30
0.0
 10
6.6882283282
 20
3.9104838647
 30
0.0
 10
6.690071835
 20
3.9093702598
 30
0.0
 10
6.6917877247
 20
3.9080594355
 30
0.0
 10
6.6933330353
 20
3.9065422132
 30
0.0
 10
6.6946524567
 20
3.9048152167
 30
0.0
 10
6.6956777581
 20
3.9028894158
 30
0.0
 10
6.6963351926
 20
3.9008021357
 30
0.0
 10
6.6964867493
 20
3.8993460829
 30
0.0
 10
6.6964867493
 20
3.8986196534
 30
0.0
  0
SPLINE
  5
463
100
AcDbEntity
  8
0
100
AcDbSpline
 62
7
  6
CONTINUOUS
 70
0
 71
3
 72
16
 73
12
 74
0
 42
0.0000001
 43
0.0000001
 44
0.0000000001
 40
0.0
 40
0.0
 40
0.0
 40
0.0
 40
0.1187280303
 40
0.2389309423
 40
0.3608302335
 40
0.4847339636
 40
0.6108002399
 40
0.7389899984
 40
0.8038276222
 40
0.8690385882
 40
1.0
 40
1.0
 40
1.0
 40
1.0
 10
5.9845011741
 20
3.6503555918
 30
0.0
 10
5.9839310372
 20
3.650646144
 30
0.0
 10
5.9828124103
 20
3.6512896025
 30
0.0
 10
5.9812380963
 20
3.6524380482
 30
0.0
 10
5.9797874533
 20
3.6537820481
 30
0.0
 10
5.9784976168
 20
3.6553237761
 30
0.0
 10
5.9774133698
 20
3.6570576462
 30
0.0
 10
5.9767252962
 20
3.6586419537
 30
0.0
 10
5.9763258562
 20
3.6599766826
 30
0.0
 10
5.9760330068
 20
3.6613537503
 30
0.0
 10
5.975943286
 20
3.6624138159
 30
0.0
 10
5.975943286
 20
3.6631196534
 30
0.0
  0
SPLINE
  5
464
100
AcDbEntity
  8
0
100
AcDbSpline
 62
7
  6
CONTINUOUS
 70
0
 71
3
 72
15
 73
11
 74
0
 42
0.0000001
 43
0.0000001
 44
0.0000000001
 40
0.0
 40
0.0
 40
0.0
 40
0.0
 40
0.1245000671
 40
0.2491466292
 40
0.3738837622
 40
0.4987864068
 40
0.6238617093
 40
0.7491131712
 40
0.8745064482
 40
1.0
 40
1.0
 40
1.0
 40
1.0
 10
6.6736751646
 20
3.9113837149
 30
0.0
 10
6.6743391593
 20
3.911103376
 30
0.0
 10
6.6756444439
 20
3.9104842391
 30
0.0
 10
6.6775047894
 20
3.9093708175
 30
0.0
 10
6.6792363755
 20
3.9080602265
 30
0.0
 10
6.6807958942
 20
3.9065432627
 30
0.0
 10
6.6821275909
 20
3.9048164683
 30
0.0
 10
6.6831626354
 20
3.9028906397
 30
0.0
 10
6.6838264931
 20
3.9008029447
 30
0.0
 10
6.6839795813
 20
3.8993461536
 30
0.0
 10
6.6839795813
 20
3.8986196534
 30
0.0
  0
SPLINE
  5
465
100
AcDbEntity
  8
0
100
AcDbSpline
 62
7
  6
CONTINUOUS
 70
0
 71
3
 72
15
 73
11
 74
0
 42
0.0000001
 43
0.0000001
 44
0.0000000001
 40
0.0
 40
0.0
 40
0.0
 40
0.0
 40
0.1248110467
 40
0.2497051541
 40
0.3746098673
 40
0.4995829278
 40
0.6246163169
 40
0.7497074589
 40
0.8748354707
 40
1.0
 40
1.0
 40
1.0
 40
1.0
 10
6.6602318293
 20
3.9113837149
 30
0.0
 10
6.660899917
 20
3.9111034357
 30
0.0
 10
6.6622131764
 20
3.9104844966
 30
0.0
 10
6.6640852979
 20
3.9093712022
 30
0.0
 10
6.6658278603
 20
3.908060774
 30
0.0
 10
6.6673973138
 20
3.9065439922
 30
0.0
 10
6.6687375944
 20
3.9048173423
 30
0.0
 10
6.6697794549
 20
3.9028914985
 30
0.0
 10
6.67044781
 20
3.9008035146
 30
0.0
 10
6.6706019716
 20
3.8993462034
 30
0.0
 10
6.6706019716
 20
3.8986196534
 30
0.0
  0
SPLINE
  5
466
100
AcDbEntity
  8
0
100
AcDbSpline
 62
7
  6
CONTINUOUS
 70
0
 71
3
 72
16
 73
12
 74
0
 42
0.0000001
 43
0.0000001
 44
0.0000000001
 40
0.0
 40
0.0
 40
0.0
 40
0.0
 40
0.1200068072
 40
0.2411878385
 40
0.3637057661
 40
0.4878188118
 40
0.6136560204
 40
0.7411913336
 40
0.8055653454
 40
0.8702412181
 40
1.0
 40
1.0
 40
1.0
 40
1.0
 10
5.9903801872
 20
3.6503555918
 30
0.0
 10
5.9897953183
 20
3.6506458134
 30
0.0
 10
5.9886480025
 20
3.6512882356
 30
0.0
 10
5.987031362
 20
3.6524361594
 30
0.0
 10
5.9855415585
 20
3.6537796107
 30
0.0
 10
5.9842166504
 20
3.6553208884
 30
0.0
 10
5.9831025943
 20
3.657054595
 30
0.0
 10
5.9823948316
 20
3.6586403613
 30
0.0
 10
5.9819842138
 20
3.6599761431
 30
0.0
 10
5.9816834495
 20
3.6613529241
 30
0.0
 10
5.9815911699
 20
3.6624136796
 30
0.0
 10
5.9815911699
 20
3.6631196534
 30
0.0
  0
SPLINE
  5
467
100
AcDbEntity
  8
0
100
AcDbSpline
 62
7
  6
CONTINUOUS
 70
0
 71
3
 72
15
 73
11
 74
0
 42
0.0000001
 43
0.0000001
 44
0.0000000001
 40
0.0
 40
0.0
 40
0.0
 40
0.0
 40
0.1249867602
 40
0.2500208302
 40
0.3750203977
 40
0.5000334415
 40
0.6250432954
 40
0.7500438503
 40
0.8750217631
 40
1.0
 40
1.0
 40
1.0
 40
1.0
 10
6.6459831432
 20
3.9113837149
 30
0.0
 10
6.6466535539
 20
3.9111034691
 30
0.0
 10
6.6479713394
 20
3.9104846412
 30
0.0
 10
6.6498501437
 20
3.9093714186
 30
0.0
 10
6.6515989347
 20
3.9080610826
 30
0.0
 10
6.6531740255
 20
3.9065444046
 30
0.0
 10
6.6545191771
 20
3.9048178378
 30
0.0
 10
6.6555649064
 20
3.9028919869
 30
0.0
 10
6.6562358156
 20
3.9008038394
 30
0.0
 10
6.6563905872
 20
3.8993462318
 30
0.0
 10
6.6563905872
 20
3.8986196534
 30
0.0
  0
SPLINE
  5
468
100
AcDbEntity
  8
0
100
AcDbSpline
 62
7
  6
CONTINUOUS
 70
0
 71
3
 72
15
 73
11
 74
0
 42
0.0000001
 43
0.0000001
 44
0.0000000001
 40
0.0
 40
0.0
 40
0.0
 40
0.0
 40
0.1251643611
 40
0.2502922886
 40
0.3753835708
 40
0.5004169424
 40
0.6253900883
 40
0.7502948137
 40
0.8751889266
 40
1.0
 40
1.0
 40
1.0
 40
1.0
 10
6.6706019716
 20
3.6631196534
 30
0.0
 10
6.6706019716
 20
3.6623931043
 30
0.0
 10
6.6704478104
 20
3.6609357946
 30
0.0
 10
6.6697794558
 20
3.6588478113
 30
0.0
 10
6.6687375963
 20
3.6569219667
 30
0.0
 10
6.6673973148
 20
3.6551953158
 30
0.0
 10
6.6658278613
 20
3.6536785335
 30
0.0
 10
6.6640852984
 20
3.6523681048
 30
0.0
 10
6.6622131767
 20
3.6512548103
 30
0.0
 10
6.6608999171
 20
3.6506358711
 30
0.0
 10
6.6602318293
 20
3.6503555918
 30
0.0
  0
SPLINE
  5
469
100
AcDbEntity
  8
0
100
AcDbSpline
 62
7
  6
CONTINUOUS
 70
0
 71
3
 72
15
 73
11
 74
0
 42
0.0000001
 43
0.0000001
 44
0.0000000001
 40
0.0
 40
0.0
 40
0.0
 40
0.0
 40
0.1250280171
 40
0.2500949594
 40
0.3751168157
 40
0.500139268
 40
0.6251436113
 40
0.7501228966
 40
0.8750655442
 40
1.0
 40
1.0
 40
1.0
 40
1.0
 10
6.6309681609
 20
3.9113837149
 30
0.0
 10
6.6316391182
 20
3.911103477
 30
0.0
 10
6.6329579685
 20
3.9104846751
 30
0.0
 10
6.6348383449
 20
3.9093714693
 30
0.0
 10
6.6365886012
 20
3.908061155
 30
0.0
 10
6.6381650181
 20
3.9065445014
 30
0.0
 10
6.6395113157
 20
3.9048179543
 30
0.0
 10
6.6405579552
 20
3.9028921019
 30
0.0
 10
6.6412294655
 20
3.900803916
 30
0.0
 10
6.6413843807
 20
3.8993462385
 30
0.0
 10
6.6413843807
 20
3.8986196534
 30
0.0
  0
LINE
  5
46A
100
AcDbEntity
  8
0
100
AcDbLine
 62
7
  6
CONTINUOUS
 10
6.6307187753
 20
3.8986196534
 11
6.6309681609
 21
3.9113837149
  0
SPLINE
  5
46B
100
AcDbEntity
  8
0
100
AcDbSpline
 62
7
  6
CONTINUOUS
 70
0
 71
3
 72
15
 73
11
 74
0
 42
0.0000001
 43
0.0000001
 44
0.0000000001
 40
0.0
 40
0.0
 40
0.0
 40
0.0
 40
0.1249350083
 40
0.2499278491
 40
0.3748994673
 40
0.4999007204
 40
0.6249174948
 40
0.7499447298
 40
0.8749668667
 40
1.0
 40
1.0
 40
1.0
 40
1.0
 10
6.6152280376
 20
3.9113837149
 30
0.0
 10
6.6158977633
 20
3.9111034593
 30
0.0
 10
6.6172142143
 20
3.9104845987
 30
0.0
 10
6.6190910481
 20
3.9093713549
 30
0.0
 10
6.6208380026
 20
3.9080609918
 30
0.0
 10
6.6224114313
 20
3.9065442831
 30
0.0
 10
6.6237551468
 20
3.9048176917
 30
0.0
 10
6.6247997353
 20
3.9028918428
 30
0.0
 10
6.6254698912
 20
3.9008037435
 30
0.0
 10
6.6256244829
 20
3.8993462234
 30
0.0
 10
6.6256244829
 20
3.8986196534
 30
0.0
  0
SPLINE
  5
46C
100
AcDbEntity
  8
0
100
AcDbSpline
 62
7
  6
CONTINUOUS
 70
0
 71
3
 72
15
 73
11
 74
0
 42
0.0000001
 43
0.0000001
 44
0.0000000001
 40
0.0
 40
0.0
 40
0.0
 40
0.0
 40
0.1648682298
 40
0.3239728706
 40
0.4727049733
 40
0.6080727248
 40
0.7286050455
 40
0.8338954327
 40
0.9241957581
 40
1.0
 40
1.0
 40
1.0
 40
1.0
 10
6.6144696701
 20
3.8986196534
 30
0.0
 10
6.6144696701
 20
3.8993230149
 30
0.0
 10
6.6144798912
 20
3.9007051723
 30
0.0
 10
6.6145250138
 20
3.902721398
 30
0.0
 10
6.6145967352
 20
3.90461092
 30
0.0
 10
6.6146909121
 20
3.9063346805
 30
0.0
 10
6.6148032129
 20
3.9078715902
 30
0.0
 10
6.6149296525
 20
3.9092144187
 30
0.0
 10
6.6150669179
 20
3.9103642033
 30
0.0
 10
6.6151726344
 20
3.9110650996
 30
0.0
 10
6.6152280376
 20
3.9113837149
 30
0.0
  0
SPLINE
  5
46D
100
AcDbEntity
  8
0
100
AcDbSpline
 62
7
  6
CONTINUOUS
 70
0
 71
3
 72
15
 73
11
 74
0
 42
0.0000001
 43
0.0000001
 44
0.0000000001
 40
0.0
 40
0.0
 40
0.0
 40
0.0
 40
0.124707304
 40
0.2495188073
 40
0.3743675739
 40
0.4993170944
 40
0.6243644289
 40
0.749509054
 40
0.8747256124
 40
1.0
 40
1.0
 40
1.0
 40
1.0
 10
6.5988059157
 20
3.9113837149
 30
0.0
 10
6.5994726353
 20
3.9111034158
 30
0.0
 10
6.6007832293
 20
3.9104844109
 30
0.0
 10
6.6026514151
 20
3.9093710741
 30
0.0
 10
6.6043903092
 20
3.9080605915
 30
0.0
 10
6.6059564425
 20
3.9065437488
 30
0.0
 10
6.6072938543
 20
3.9048170503
 30
0.0
 10
6.6083334366
 20
3.9028912112
 30
0.0
 10
6.6090002881
 20
3.9008033238
 30
0.0
 10
6.6091540907
 20
3.8993461867
 30
0.0
 10
6.6091540907
 20
3.8986196534
 30
0.0
  0
SPLINE
  5
46E
100
AcDbEntity
  8
0
100
AcDbSpline
 62
7
  6
CONTINUOUS
 70
0
 71
3
 72
15
 73
11
 74
0
 42
0.0000001
 43
0.0000001
 44
0.0000000001
 40
0.0
 40
0.0
 40
0.0
 40
0.0
 40
0.1640937115
 40
0.3225151578
 40
0.4707349724
 40
0.6058249804
 40
0.7263650343
 40
0.8319948951
 40
0.9230188188
 40
1.0
 40
1.0
 40
1.0
 40
1.0
 10
6.597540645
 20
3.8986196534
 30
0.0
 10
6.597540645
 20
3.8993230499
 30
0.0
 10
6.5975577059
 20
3.9007055926
 30
0.0
 10
6.59763302
 20
3.9027222249
 30
0.0
 10
6.5977527348
 20
3.9046121693
 30
0.0
 10
6.5979099446
 20
3.9063363837
 30
0.0
 10
6.5980974333
 20
3.9078738157
 30
0.0
 10
6.5983085916
 20
3.9092173239
 30
0.0
 10
6.598537919
 20
3.9103679813
 30
0.0
 10
6.5987139731
 20
3.9110667986
 30
0.0
 10
6.5988059157
 20
3.9113837149
 30
0.0
  0
SPLINE
  5
46F
100
AcDbEntity
  8
0
100
AcDbSpline
 62
7
  6
CONTINUOUS
 70
0
 71
3
 72
15
 73
11
 74
0
 42
0.0000001
 43
0.0000001
 44
0.0000000001
 40
0.0
 40
0.0
 40
0.0
 40
0.0
 40
0.1243438582
 40
0.2488661536
 40
0.373519251
 40
0.4983866919
 40
0.6234831731
 40
0.7488151641
 40
0.8743415029
 40
1.0
 40
1.0
 40
1.0
 40
1.0
 10
6.5817468072
 20
3.9113837149
 30
0.0
 10
6.5824087547
 20
3.9111033458
 30
0.0
 10
6.5837100503
 20
3.9104841089
 30
0.0
 10
6.585564505
 20
3.9093706234
 30
0.0
 10
6.5872906002
 20
3.9080599509
 30
0.0
 10
6.5888451486
 20
3.9065428964
 30
0.0
 10
6.5901725511
 20
3.9048160307
 30
0.0
 10
6.5912041867
 20
3.902890211
 30
0.0
 10
6.5918657963
 20
3.9008026609
 30
0.0
 10
6.5920183482
 20
3.8993461288
 30
0.0
 10
6.5920183482
 20
3.8986196534
 30
0.0
  0
SPLINE
  5
470
100
AcDbEntity
  8
0
100
AcDbSpline
 62
7
  6
CONTINUOUS
 70
0
 71
3
 72
15
 73
11
 74
0
 42
0.0000001
 43
0.0000001
 44
0.0000000001
 40
0.0
 40
0.0
 40
0.0
 40
0.0
 40
0.1629703955
 40
0.3204022946
 40
0.4678826502
 40
0.6025757117
 40
0.7231341937
 40
0.8292621671
 40
0.9213338226
 40
1.0
 40
1.0
 40
1.0
 40
1.0
 10
6.5799781014
 20
3.8986196534
 30
0.0
 10
6.5799781014
 20
3.899323102
 30
0.0
 10
6.5800019669
 20
3.9007062182
 30
0.0
 10
6.5801073118
 20
3.9027234519
 30
0.0
 10
6.5802747702
 20
3.9046140134
 30
0.0
 10
6.5804947016
 20
3.9063388765
 30
0.0
 10
6.5807570385
 20
3.9078770355
 30
0.0
 10
6.5810526078
 20
3.9092214473
 30
0.0
 10
6.5813737691
 20
3.910373216
 30
0.0
 10
6.5816191952
 20
3.9110690506
 30
0.0
 10
6.5817468072
 20
3.9113837149
 30
0.0
  0
SPLINE
  5
471
100
AcDbEntity
  8
0
100
AcDbSpline
 62
7
  6
CONTINUOUS
 70
0
 71
3
 72
15
 73
11
 74
0
 42
0.0000001
 43
0.0000001
 44
0.0000000001
 40
0.0
 40
0.0
 40
0.0
 40
0.0
 40
0.1238430218
 40
0.247967247
 40
0.372351552
 40
0.4971068813
 40
0.6222718207
 40
0.7478619909
 40
0.8738141225
 40
1.0
 40
1.0
 40
1.0
 40
1.0
 10
6.5640974699
 20
3.9113837149
 30
0.0
 10
6.5647528928
 20
3.9111032481
 30
0.0
 10
6.5660414741
 20
3.9104836881
 30
0.0
 10
6.5678771504
 20
3.9093699974
 30
0.0
 10
6.5695857401
 20
3.9080590644
 30
0.0
 10
6.5711244425
 20
3.9065417226
 30
0.0
 10
6.5724381551
 20
3.9048146341
 30
0.0
 10
6.573458927
 20
3.9028888484
 30
0.0
 10
6.5741133775
 20
3.9008017617
 30
0.0
 10
6.5742642234
 20
3.8993460503
 30
0.0
 10
6.5742642234
 20
3.8986196534
 30
0.0
  0
SPLINE
  5
472
100
AcDbEntity
  8
0
100
AcDbSpline
 62
7
  6
CONTINUOUS
 70
0
 71
3
 72
15
 73
11
 74
0
 42
0.0000001
 43
0.0000001
 44
0.0000000001
 40
0.0
 40
0.0
 40
0.0
 40
0.0
 40
0.1615415956
 40
0.3177170837
 40
0.4642628893
 40
0.5984610095
 40
0.7190549548
 40
0.8258257699
 40
0.9192266242
 40
1.0
 40
1.0
 40
1.0
 40
1.0
 10
6.5618301768
 20
3.8986196534
 30
0.0
 10
6.5618301768
 20
3.8993231708
 30
0.0
 10
6.5618607976
 20
3.9007070417
 30
0.0
 10
6.5619959466
 20
3.9027250604
 30
0.0
 10
6.5622107944
 20
3.9046164136
 30
0.0
 10
6.5624929995
 20
3.9063420841
 30
0.0
 10
6.5628296843
 20
3.9078811131
 30
0.0
 10
6.5632091708
 20
3.9092265401
 30
0.0
 10
6.5636217274
 20
3.910379476
 30
0.0
 10
6.5639352114
 20
3.9110716024
 30
0.0
 10
6.5640974699
 20
3.9113837149
 30
0.0
  0
SPLINE
  5
473
100
AcDbEntity
  8
0
100
AcDbSpline
 62
7
  6
CONTINUOUS
 70
0
 71
3
 72
14
 73
10
 74
0
 42
0.0000001
 43
0.0000001
 44
0.0000000001
 40
0.0
 40
0.0
 40
0.0
 40
0.0
 40
0.2465942802
 40
0.370673225
 40
0.4953239516
 40
0.6206149709
 40
0.7465727513
 40
0.8731051969
 40
1.0
 40
1.0
 40
1.0
 40
1.0
 10
6.5459062795
 20
3.9113837149
 30
0.0
 10
6.5472012162
 20
3.9108222633
 30
0.0
 10
6.5490819688
 20
3.9098015373
 30
0.0
 10
6.5513240776
 20
3.9080580317
 30
0.0
 10
6.5528429308
 20
3.9065401941
 30
0.0
 10
6.5541392481
 20
3.9048128702
 30
0.0
 10
6.5551462879
 20
3.9028871298
 30
0.0
 10
6.5557916852
 20
3.9008006359
 30
0.0
 10
6.555940379
 20
3.899345952
 30
0.0
 10
6.555940379
 20
3.8986196534
 30
0.0
  0
SPLINE
  5
474
100
AcDbEntity
  8
0
100
AcDbSpline
 62
7
  6
CONTINUOUS
 70
0
 71
3
 72
15
 73
11
 74
0
 42
0.0000001
 43
0.0000001
 44
0.0000000001
 40
0.0
 40
0.0
 40
0.0
 40
0.0
 40
0.1598573552
 40
0.3145551225
 40
0.4600080189
 40
0.5936367986
 40
0.7142892619
 40
0.8218301625
 40
0.9167920126
 40
1.0
 40
1.0
 40
1.0
 40
1.0
 10
6.5431466135
 20
3.8986196534
 30
0.0
 10
6.5431466135
 20
3.8993232552
 30
0.0
 10
6.5431839256
 20
3.9007080537
 30
0.0
 10
6.5433485845
 20
3.9027270269
 30
0.0
 10
6.5436103594
 20
3.9046193213
 30
0.0
 10
6.5439542446
 20
3.9063459149
 30
0.0
 10
6.5443645963
 20
3.9078858871
 30
0.0
 10
6.5448272791
 20
3.909232329
 30
0.0
 10
6.5453305063
 20
3.9103863204
 30
0.0
 10
6.5457104496
 20
3.911074234
 30
0.0
 10
6.5459062795
 20
3.9113837149
 30
0.0
  0
SPLINE
  5
475
100
AcDbEntity
  8
0
100
AcDbSpline
 62
7
  6
CONTINUOUS
 70
0
 71
3
 72
14
 73
10
 74
0
 42
0.0000001
 43
0.0000001
 44
0.0000000001
 40
0.0
 40
0.0
 40
0.0
 40
0.0
 40
0.2451884456
 40
0.3688514726
 40
0.4933318984
 40
0.6187337437
 40
0.7450954929
 40
0.8722890534
 40
1.0
 40
1.0
 40
1.0
 40
1.0
 10
6.5272230966
 20
3.9113837149
 30
0.0
 10
6.5284989198
 20
3.910821578
 30
0.0
 10
6.5303512636
 20
3.9097992966
 30
0.0
 10
6.5325559986
 20
3.9080566301
 30
0.0
 10
6.5340506151
 20
3.9065383634
 30
0.0
 10
6.535325993
 20
3.9048107266
 30
0.0
 10
6.5363164418
 20
3.9028850707
 30
0.0
 10
6.5369509352
 20
3.9007992938
 30
0.0
 10
6.5370970394
 20
3.899345835
 30
0.0
 10
6.5370970394
 20
3.8986196534
 30
0.0
  0
SPLINE
  5
476
100
AcDbEntity
  8
0
100
AcDbSpline
 62
7
  6
CONTINUOUS
 70
0
 71
3
 72
15
 73
11
 74
0
 42
0.0000001
 43
0.0000001
 44
0.0000000001
 40
0.0
 40
0.0
 40
0.0
 40
0.0
 40
0.1579703354
 40
0.3110166776
 40
0.4552561739
 40
0.5882649629
 40
0.7090037004
 40
0.8174218258
 40
0.914124077
 40
1.0
 40
1.0
 40
1.0
 40
1.0
 10
6.5239786219
 20
3.8986196534
 30
0.0
 10
6.5239786219
 20
3.8993233545
 30
0.0
 10
6.5240225464
 20
3.9007092427
 30
0.0
 10
6.5242163523
 20
3.9027293224
 30
0.0
 10
6.5245244794
 20
3.9046226786
 30
0.0
 10
6.5249292955
 20
3.9063502655
 30
0.0
 10
6.5254124326
 20
3.9078911849
 30
0.0
 10
6.5259573311
 20
3.9092385448
 30
0.0
 10
6.5265501656
 20
3.9103933585
 30
0.0
 10
6.5269947626
 20
3.9110767861
 30
0.0
 10
6.5272230966
 20
3.9113837149
 30
0.0
  0
SPLINE
  5
477
100
AcDbEntity
  8
0
100
AcDbSpline
 62
7
  6
CONTINUOUS
 70
0
 71
3
 72
15
 73
11
 74
0
 42
0.0000001
 43
0.0000001
 44
0.0000000001
 40
0.0
 40
0.0
 40
0.0
 40
0.0
 40
0.1214911983
 40
0.2437535278
 40
0.3668888092
 40
0.4911329445
 40
0.6166305429
 40
0.7434325669
 40
0.8713672215
 40
1.0
 40
1.0
 40
1.0
 40
1.0
 10
6.5080991306
 20
3.9113837149
 30
0.0
 10
6.5087246748
 20
3.9111027686
 30
0.0
 10
6.5099550105
 20
3.9104816371
 30
0.0
 10
6.5117046171
 20
3.9093669791
 30
0.0
 10
6.5133329468
 20
3.9080548472
 30
0.0
 10
6.5147989813
 20
3.9065362253
 30
0.0
 10
6.5160499344
 20
3.9048082073
 30
0.0
 10
6.5170209824
 20
3.9028826851
 30
0.0
 10
6.5176427636
 20
3.900797749
 30
0.0
 10
6.5177858529
 20
3.8993457007
 30
0.0
 10
6.5177858529
 20
3.8986196534
 30
0.0
  0
SPLINE
  5
478
100
AcDbEntity
  8
0
100
AcDbSpline
 62
7
  6
CONTINUOUS
 70
0
 71
3
 72
15
 73
11
 74
0
 42
0.0000001
 43
0.0000001
 44
0.0000000001
 40
0.0
 40
0.0
 40
0.0
 40
0.0
 40
0.1559322895
 40
0.3072001122
 40
0.4501423142
 40
0.5825024141
 40
0.7033579137
 40
0.8127388588
 40
0.9113094527
 40
1.0
 40
1.0
 40
1.0
 40
1.0
 10
6.5043787401
 20
3.8986196534
 30
0.0
 10
6.5043787401
 20
3.8993234676
 30
0.0
 10
6.5044291829
 20
3.9007105949
 30
0.0
 10
6.5046517024
 20
3.9027319141
 30
0.0
 10
6.5050054896
 20
3.9046264222
 30
0.0
 10
6.5054703228
 20
3.9063550268
 30
0.0
 10
6.5060251471
 20
3.9078968353
 30
0.0
 10
6.5066510001
 20
3.9092449451
 30
0.0
 10
6.5073320193
 20
3.9104002836
 30
0.0
 10
6.507839329
 20
3.9110791606
 30
0.0
 10
6.5080991306
 20
3.9113837149
 30
0.0
  0
SPLINE
  5
479
100
AcDbEntity
  8
0
100
AcDbSpline
 62
7
  6
CONTINUOUS
 70
0
 71
3
 72
15
 73
11
 74
0
 42
0.0000001
 43
0.0000001
 44
0.0000000001
 40
0.0
 40
0.0
 40
0.0
 40
0.0
 40
0.1204133211
 40
0.2418264385
 40
0.3643965938
 40
0.4884148255
 40
0.6140708661
 40
0.7414278337
 40
0.8702617987
 40
1.0
 40
1.0
 40
1.0
 40
1.0
 10
6.488586799
 20
3.9113837149
 30
0.0
 10
6.4891990427
 20
3.911102537
 30
0.0
 10
6.4904034374
 20
3.9104806544
 30
0.0
 10
6.4921146883
 20
3.9093655519
 30
0.0
 10
6.4937072383
 20
3.9080528852
 30
0.0
 10
6.4951408712
 20
3.9065337157
 30
0.0
 10
6.4963638545
 20
3.9048053344
 30
0.0
 10
6.497312785
 20
3.9028799856
 30
0.0
 10
6.4979200848
 20
3.9007960189
 30
0.0
 10
6.4980597502
 20
3.8993455504
 30
0.0
 10
6.4980597502
 20
3.8986196534
 30
0.0
  0
SPLINE
  5
47A
100
AcDbEntity
  8
0
100
AcDbSpline
 62
7
  6
CONTINUOUS
 70
0
 71
3
 72
15
 73
11
 74
0
 42
0.0000001
 43
0.0000001
 44
0.0000000001
 40
0.0
 40
0.0
 40
0.0
 40
0.0
 40
0.1537916956
 40
0.3031972603
 40
0.4447917164
 40
0.5764935459
 40
0.6974969217
 40
0.8079044217
 40
0.9084234687
 40
1.0
 40
1.0
 40
1.0
 40
1.0
 10
6.4844006899
 20
3.8986196534
 30
0.0
 10
6.4844006899
 20
3.8993235931
 30
0.0
 10
6.4844575413
 20
3.9007120949
 30
0.0
 10
6.4847082688
 20
3.9027347657
 30
0.0
 10
6.485106903
 20
3.9046304843
 30
0.0
 10
6.4856306673
 20
3.9063600888
 30
0.0
 10
6.486255853
 20
3.907902679
 30
0.0
 10
6.4869611106
 20
3.9092513278
 30
0.0
 10
6.4877285392
 20
3.9104068811
 30
0.0
 10
6.4882965379
 20
3.9110813093
 30
0.0
 10
6.488586799
 20
3.9113837149
 30
0.0
  0
SPLINE
  5
47B
100
AcDbEntity
  8
0
100
AcDbSpline
 62
7
  6
CONTINUOUS
 70
0
 71
3
 72
15
 73
11
 74
0
 42
0.0000001
 43
0.0000001
 44
0.0000000001
 40
0.0
 40
0.0
 40
0.0
 40
0.0
 40
0.1191820665
 40
0.2396283768
 40
0.3615586794
 40
0.4853252695
 40
0.6111667425
 40
0.7391570951
 40
0.8690111852
 40
1.0
 40
1.0
 40
1.0
 40
1.0
 10
6.4687395838
 20
3.9113837149
 30
0.0
 10
6.4693369151
 20
3.9111022628
 30
0.0
 10
6.470512214
 20
3.9104794976
 30
0.0
 10
6.4721804293
 20
3.9093638873
 30
0.0
 10
6.4737328247
 20
3.9080506223
 30
0.0
 10
6.4751300911
 20
3.9065308583
 30
0.0
 10
6.4763216945
 20
3.9048021084
 30
0.0
 10
6.4772458431
 20
3.9028769942
 30
0.0
 10
6.477836952
 20
3.9007941206
 30
0.0
 10
6.4779727991
 20
3.8993453858
 30
0.0
 10
6.4779727991
 20
3.8986196534
 30
0.0
  0
SPLINE
  5
47C
100
AcDbEntity
  8
0
100
AcDbSpline
 62
7
  6
CONTINUOUS
 70
0
 71
3
 72
14
 73
10
 74
0
 42
0.0000001
 43
0.0000001
 44
0.0000000001
 40
0.0
 40
0.0
 40
0.0
 40
0.0
 40
0.1516430305
 40
0.2991907796
 40
0.4394632936
 40
0.5705569031
 40
0.6917785276
 40
0.8032924649
 40
1.0
 40
1.0
 40
1.0
 40
1.0
 10
6.4640992299
 20
3.8986196534
 30
0.0
 10
6.4640992299
 20
3.8993237299
 30
0.0
 10
6.4641623659
 20
3.900713728
 30
0.0
 10
6.4644407139
 20
3.9027378301
 30
0.0
 10
6.4648832849
 20
3.9046348228
 30
0.0
 10
6.4654646236
 20
3.9063652535
 30
0.0
 10
6.4661589217
 20
3.9079088802
 30
0.0
 10
6.4671603131
 20
3.9096350437
 30
0.0
 10
6.4680740721
 20
3.9107582311
 30
0.0
 10
6.4687395838
 20
3.9113837149
 30
0.0
  0
SPLINE
  5
47D
100
AcDbEntity
  8
0
100
AcDbSpline
 62
7
  6
CONTINUOUS
 70
0
 71
3
 72
16
 73
12
 74
0
 42
0.0000001
 43
0.0000001
 44
0.0000000001
 40
0.0
 40
0.0
 40
0.0
 40
0.0
 40
0.1177788125
 40
0.2371241976
 40
0.3583252585
 40
0.4818010424
 40
0.6078417796
 40
0.7365299896
 40
0.8018318522
 40
0.8676320046
 40
1.0
 40
1.0
 40
1.0
 40
1.0
 10
6.4486118846
 20
3.9113837149
 30
0.0
 10
6.4491927337
 20
3.9111019405
 30
0.0
 10
6.450335858
 20
3.9104781479
 30
0.0
 10
6.4519564676
 20
3.9093619627
 30
0.0
 10
6.4534644285
 20
3.9080480526
 30
0.0
 10
6.4548214694
 20
3.9065276112
 30
0.0
 10
6.4559783074
 20
3.9047986846
 30
0.0
 10
6.456722577
 20
3.9032010521
 30
0.0
 10
6.4571587574
 20
3.9018437979
 30
0.0
 10
6.4574808191
 20
3.9004346841
 30
0.0
 10
6.4575800566
 20
3.8993452087
 30
0.0
 10
6.4575800566
 20
3.8986196534
 30
0.0
  0
SPLINE
  5
47E
100
AcDbEntity
  8
0
100
AcDbSpline
 62
7
  6
CONTINUOUS
 70
0
 71
3
 72
15
 73
11
 74
0
 42
0.0000001
 43
0.0000001
 44
0.0000000001
 40
0.0
 40
0.0
 40
0.0
 40
0.0
 40
0.1493723187
 40
0.2949522025
 40
0.4338125344
 40
0.5642286938
 40
0.6856143469
 40
0.79818292
 40
0.9026752835
 40
1.0
 40
1.0
 40
1.0
 40
1.0
 10
6.443530005
 20
3.8986196534
 30
0.0
 10
6.443530005
 20
3.8993238762
 30
0.0
 10
6.4435992797
 20
3.9007154686
 30
0.0
 10
6.4439046098
 20
3.9027410905
 30
0.0
 10
6.444389997
 20
3.9046392862
 30
0.0
 10
6.4450276522
 20
3.9063706985
 30
0.0
 10
6.4457886545
 20
3.9079144056
 30
0.0
 10
6.4466469435
 20
3.9092634574
 30
0.0
 10
6.4475805843
 20
3.9104186314
 30
0.0
 10
6.4482636873
 20
3.9110848929
 30
0.0
 10
6.4486118846
 20
3.9113837149
 30
0.0
  0
SPLINE
  5
47F
100
AcDbEntity
  8
0
100
AcDbSpline
 62
7
  6
CONTINUOUS
 70
0
 71
3
 72
16
 73
12
 74
0
 42
0.0000001
 43
0.0000001
 44
0.0000000001
 40
0.0
 40
0.0
 40
0.0
 40
0.0
 40
0.1164516587
 40
0.2348157978
 40
0.3554702515
 40
0.4788367818
 40
0.6051948901
 40
0.7345616388
 40
0.8002983212
 40
0.8665797911
 40
1.0
 40
1.0
 40
1.0
 40
1.0
 10
6.4289244329
 20
3.9110335558
 30
0.0
 10
6.4294512517
 20
3.9107429252
 30
0.0
 10
6.4304861476
 20
3.9101053639
 30
0.0
 10
6.4319455191
 20
3.9089847712
 30
0.0
 10
6.4332970381
 20
3.9076828425
 30
0.0
 10
6.4345068126
 20
3.9061934117
 30
0.0
 10
6.4355317092
 20
3.9045170821
 30
0.0
 10
6.436186443
 20
3.9029831815
 30
0.0
 10
6.4365689375
 20
3.9016866191
 30
0.0
 10
6.4368509269
 20
3.9003434213
 30
0.0
 10
6.4369374176
 20
3.8993089922
 30
0.0
 10
6.4369374176
 20
3.8986196534
 30
0.0
  0
SPLINE
  5
480
100
AcDbEntity
  8
0
100
AcDbSpline
 62
7
  6
CONTINUOUS
 70
0
 71
3
 72
16
 73
12
 74
0
 42
0.0000001
 43
0.0000001
 44
0.0000000001
 40
0.0
 40
0.0
 40
0.0
 40
0.0
 40
0.1211334418
 40
0.2431794689
 40
0.3662478562
 40
0.4905510261
 40
0.6161899173
 40
0.7431475792
 40
0.8071105352
 40
0.8713111049
 40
1.0
 40
1.0
 40
1.0
 40
1.0
 10
5.9972898662
 20
3.6503555918
 30
0.0
 10
5.9966917985
 20
3.6506455328
 30
0.0
 10
5.995518793
 20
3.6512870677
 30
0.0
 10
5.9938642606
 20
3.6524345284
 30
0.0
 10
5.992339405
 20
3.6537774801
 30
0.0
 10
5.9909831018
 20
3.6553183305
 30
0.0
 10
5.9898423453
 20
3.6570518548
 30
0.0
 10
5.9891168975
 20
3.6586389147
 30
0.0
 10
5.9886962447
 20
3.6599756507
 30
0.0
 10
5.9883883906
 20
3.6613521671
 30
0.0
 10
5.9882938099
 20
3.6624135543
 30
0.0
 10
5.9882938099
 20
3.6631196534
 30
0.0
  0
SPLINE
  5
481
100
AcDbEntity
  8
0
100
AcDbSpline
 62
7
  6
CONTINUOUS
 70
0
 71
3
 72
16
 73
12
 74
0
 42
0.0000001
 43
0.0000001
 44
0.0000000001
 40
0.0
 40
0.0
 40
0.0
 40
0.0
 40
0.1221110275
 40
0.2449100407
 40
0.3684601544
 40
0.4929326556
 40
0.6184021955
 40
0.7448578857
 40
0.8084621997
 40
0.8722473914
 40
1.0
 40
1.0
 40
1.0
 40
1.0
 10
6.0052112722
 20
3.6503555918
 30
0.0
 10
6.0046015756
 20
3.6506452972
 30
0.0
 10
6.0034059456
 20
3.6512860811
 30
0.0
 10
6.0017180512
 20
3.6524331382
 30
0.0
 10
6.0001623386
 20
3.6537756447
 30
0.0
 10
5.9987783964
 20
3.6553161012
 30
0.0
 10
5.9976141227
 20
3.6570494376
 30
0.0
 10
5.9968730591
 20
3.6586376253
 30
0.0
 10
5.9964435487
 20
3.6599752101
 30
0.0
 10
5.9961294496
 20
3.6613514869
 30
0.0
 10
5.9960328346
 20
3.6624134417
 30
0.0
 10
5.9960328346
 20
3.6631196534
 30
0.0
  0
SPLINE
  5
482
100
AcDbEntity
  8
0
100
AcDbSpline
 62
7
  6
CONTINUOUS
 70
0
 71
3
 72
15
 73
11
 74
0
 42
0.0000001
 43
0.0000001
 44
0.0000000001
 40
0.0
 40
0.0
 40
0.0
 40
0.0
 40
0.1254933832
 40
0.2508865758
 40
0.3761381784
 40
0.5012134635
 40
0.6261161934
 40
0.7508533387
 40
0.8754999063
 40
1.0
 40
1.0
 40
1.0
 40
1.0
 10
6.6839795813
 20
3.6631196534
 30
0.0
 10
6.6839795813
 20
3.6623931541
 30
0.0
 10
6.6838264935
 20
3.6609363644
 30
0.0
 10
6.6831626362
 20
3.6588486701
 30
0.0
 10
6.6821275928
 20
3.6569228407
 30
0.0
 10
6.6807958952
 20
3.6551960453
 30
0.0
 10
6.6792363765
 20
3.653679081
 30
0.0
 10
6.6775047899
 20
3.6523684895
 30
0.0
 10
6.6756444442
 20
3.6512550678
 30
0.0
 10
6.6743391594
 20
3.6506359308
 30
0.0
 10
6.6736751646
 20
3.6503555918
 30
0.0
  0
SPLINE
  5
483
100
AcDbEntity
  8
0
100
AcDbSpline
 62
7
  6
CONTINUOUS
 70
0
 71
3
 72
15
 73
11
 74
0
 42
0.0000001
 43
0.0000001
 44
0.0000000001
 40
0.0
 40
0.0
 40
0.0
 40
0.0
 40
0.1229575531
 40
0.2464138622
 40
0.3703918316
 40
0.4950267819
 40
0.6203696215
 40
0.7464132358
 40
0.8730341454
 40
1.0
 40
1.0
 40
1.0
 40
1.0
 10
6.0141226933
 20
3.6503555918
 30
0.0
 10
6.0135029701
 20
3.6506451022
 30
0.0
 10
6.0122878396
 20
3.6512852618
 30
0.0
 10
6.0105711985
 20
3.6524319709
 30
0.0
 10
6.0089888958
 20
3.6537741043
 30
0.0
 10
6.0075811578
 20
3.655314158
 30
0.0
 10
6.0063965482
 20
3.6570475041
 30
0.0
 10
6.0054904296
 20
3.6589556659
 30
0.0
 10
6.004917826
 20
3.6609992743
 30
0.0
 10
6.0047870317
 20
3.6624133427
 30
0.0
 10
6.0047870317
 20
3.6631196534
 30
0.0
  0
SPLINE
  5
484
100
AcDbEntity
  8
0
100
AcDbSpline
 62
7
  6
CONTINUOUS
 70
0
 71
3
 72
15
 73
11
 74
0
 42
0.0000001
 43
0.0000001
 44
0.0000000001
 40
0.0
 40
0.0
 40
0.0
 40
0.0
 40
0.1236461104
 40
0.2476355002
 40
0.3719574432
 40
0.4967167904
 40
0.6219438196
 40
0.7476336417
 40
0.8737020273
 40
1.0
 40
1.0
 40
1.0
 40
1.0
 10
6.0239997039
 20
3.6503555918
 30
0.0
 10
6.0233715846
 20
3.6506449445
 30
0.0
 10
6.0221401296
 20
3.651284596
 30
0.0
 10
6.0203994277
 20
3.6524310195
 30
0.0
 10
6.0187948767
 20
3.6537728281
 30
0.0
 10
6.0173672116
 20
3.6553125772
 30
0.0
 10
6.0161656313
 20
3.6570457625
 30
0.0
 10
6.0152463041
 20
3.6589540922
 30
0.0
 10
6.0146651909
 20
3.6609982968
 30
0.0
 10
6.0145324067
 20
3.6624132587
 30
0.0
 10
6.0145324067
 20
3.6631196534
 30
0.0
  0
SPLINE
  5
485
100
AcDbEntity
  8
0
100
AcDbSpline
 62
7
  6
CONTINUOUS
 70
0
 71
3
 72
15
 73
11
 74
0
 42
0.0000001
 43
0.0000001
 44
0.0000000001
 40
0.0
 40
0.0
 40
0.0
 40
0.0
 40
0.125965501
 40
0.2517396939
 40
0.3772220735
 40
0.5023582747
 40
0.6271604165
 40
0.7516569865
 40
0.8759475708
 40
1.0
 40
1.0
 40
1.0
 40
1.0
 10
6.6964867493
 20
3.6631196534
 30
0.0
 10
6.6964867493
 20
3.6623932248
 30
0.0
 10
6.696335193
 20
3.6609371735
 30
0.0
 10
6.6956777589
 20
3.658849894
 30
0.0
 10
6.6946524585
 20
3.6569240922
 30
0.0
 10
6.6933330363
 20
3.6551970948
 30
0.0
 10
6.6917877257
 20
3.653679872
 30
0.0
 10
6.6900718355
 20
3.6523690472
 30
0.0
 10
6.6882283285
 20
3.6512554422
 30
0.0
 10
6.6869344455
 20
3.6506360177
 30
0.0
 10
6.686276302
 20
3.6503555918
 30
0.0
  0
SPLINE
  5
486
100
AcDbEntity
  8
0
100
AcDbSpline
 62
7
  6
CONTINUOUS
 70
0
 71
3
 72
15
 73
11
 74
0
 42
0.0000001
 43
0.0000001
 44
0.0000000001
 40
0.0
 40
0.0
 40
0.0
 40
0.0
 40
0.1241936522
 40
0.2486077184
 40
0.3732045124
 40
0.4980642452
 40
0.6232001801
 40
0.7486084024
 40
0.8742357564
 40
1.0
 40
1.0
 40
1.0
 40
1.0
 10
6.0348152317
 20
3.6503555918
 30
0.0
 10
6.0341803706
 20
3.6506448215
 30
0.0
 10
6.0329358101
 20
3.6512840748
 30
0.0
 10
6.0311757957
 20
3.6524302711
 30
0.0
 10
6.0295533892
 20
3.6537718181
 30
0.0
 10
6.0281097313
 20
3.6553113179
 30
0.0
 10
6.0268945282
 20
3.6570443649
 30
0.0
 10
6.0259645907
 20
3.6589528204
 30
0.0
 10
6.0253766346
 20
3.6609975025
 30
0.0
 10
6.0252422482
 20
3.6624131902
 30
0.0
 10
6.0252422482
 20
3.6631196534
 30
0.0
  0
SPLINE
  5
487
100
AcDbEntity
  8
0
100
AcDbSpline
 62
7
  6
CONTINUOUS
 70
0
 71
3
 72
15
 73
11
 74
0
 42
0.0000001
 43
0.0000001
 44
0.0000000001
 40
0.0
 40
0.0
 40
0.0
 40
0.0
 40
0.1246021566
 40
0.2493335019
 40
0.3741361171
 40
0.4990715788
 40
0.6241400913
 40
0.7493381506
 40
0.8746355321
 40
1.0
 40
1.0
 40
1.0
 40
1.0
 10
6.0465396321
 20
3.6503555918
 30
0.0
 10
6.0458997025
 20
3.650644731
 30
0.0
 10
6.0446452908
 20
3.6512836907
 30
0.0
 10
6.0428707617
 20
3.6524297173
 30
0.0
 10
6.0412349365
 20
3.6537710673
 30
0.0
 10
6.0397792604
 20
3.6553103767
 30
0.0
 10
6.0385538179
 20
3.6570433145
 30
0.0
 10
6.0376159011
 20
3.6589518596
 30
0.0
 10
6.0370227946
 20
3.6609969003
 30
0.0
 10
6.0368872011
 20
3.6624131383
 30
0.0
 10
6.0368872011
 20
3.6631196534
 30
0.0
  0
SPLINE
  5
488
100
AcDbEntity
  8
0
100
AcDbSpline
 62
7
  6
CONTINUOUS
 70
0
 71
3
 72
15
 73
11
 74
0
 42
0.0000001
 43
0.0000001
 44
0.0000000001
 40
0.0
 40
0.0
 40
0.0
 40
0.0
 40
0.1265811915
 40
0.2528528961
 40
0.3786375241
 40
0.5038545408
 40
0.6285263163
 40
0.7527089612
 40
0.8765339292
 40
1.0
 40
1.0
 40
1.0
 40
1.0
 10
6.7080891943
 20
3.6631196534
 30
0.0
 10
6.7080891943
 20
3.6623933156
 30
0.0
 10
6.7079396199
 20
3.6609382136
 30
0.0
 10
6.7072905102
 20
3.6588514753
 30
0.0
 10
6.706277851
 20
3.6569257196
 30
0.0
 10
6.7049743645
 20
3.6551984683
 30
0.0
 10
6.7034475008
 20
3.6536809131
 30
0.0
 10
6.701751988
 20
3.6523697847
 30
0.0
 10
6.6999303387
 20
3.6512559392
 30
0.0
 10
6.698651253
 20
3.6506361333
 30
0.0
 10
6.6980007024
 20
3.6503555918
 30
0.0
  0
SPLINE
  5
489
100
AcDbEntity
  8
0
100
AcDbSpline
 62
7
  6
CONTINUOUS
 70
0
 71
3
 72
14
 73
10
 74
0
 42
0.0000001
 43
0.0000001
 44
0.0000000001
 40
0.0
 40
0.0
 40
0.0
 40
0.0
 40
0.2495695297
 40
0.3745499514
 40
0.4995769731
 40
0.6246419636
 40
0.7497415107
 40
0.8748605074
 40
1.0
 40
1.0
 40
1.0
 40
1.0
 10
6.0591407694
 20
3.6503555918
 30
0.0
 10
6.0578554798
 20
3.6509331531
 30
0.0
 10
6.0559977282
 20
3.6519843646
 30
0.0
 10
6.0538076827
 20
3.6537704539
 30
0.0
 10
6.0523437535
 20
3.6553097829
 30
0.0
 10
6.0511115462
 20
3.6570426057
 30
0.0
 10
6.0501682887
 20
3.6589512188
 30
0.0
 10
6.0495717486
 20
3.6609964954
 30
0.0
 10
6.0494353476
 20
3.6624131034
 30
0.0
 10
6.0494353476
 20
3.6631196534
 30
0.0
  0
SPLINE
  5
48A
100
AcDbEntity
  8
0
100
AcDbSpline
 62
7
  6
CONTINUOUS
 70
0
 71
3
 72
14
 73
10
 74
0
 42
0.0000001
 43
0.0000001
 44
0.0000000001
 40
0.0
 40
0.0
 40
0.0
 40
0.0
 40
0.2498091913
 40
0.3748576185
 40
0.4999098261
 40
0.6249527472
 40
0.7499829617
 40
0.8749928448
 40
1.0
 40
1.0
 40
1.0
 40
1.0
 10
6.0725841048
 20
3.6503555918
 30
0.0
 10
6.0712956008
 20
3.6509330275
 30
0.0
 10
6.0694330765
 20
3.6519839577
 30
0.0
 10
6.0672367859
 20
3.6537702078
 30
0.0
 10
6.0657688673
 20
3.6553094724
 30
0.0
 10
6.0645332592
 20
3.6570422571
 30
0.0
 10
6.0635873502
 20
3.6589508979
 30
0.0
 10
6.0629890969
 20
3.6609962933
 30
0.0
 10
6.062852294
 20
3.662413086
 30
0.0
 10
6.062852294
 20
3.6631196534
 30
0.0
  0
SPLINE
  5
48B
100
AcDbEntity
  8
0
100
AcDbSpline
 62
7
  6
CONTINUOUS
 70
0
 71
3
 72
14
 73
10
 74
0
 42
0.0000001
 43
0.0000001
 44
0.0000000001
 40
0.0
 40
0.0
 40
0.0
 40
0.0
 40
0.1273791623
 40
0.2543038624
 40
0.3805013112
 40
0.505857775
 40
0.6304072892
 40
0.7542393639
 40
1.0
 40
1.0
 40
1.0
 40
1.0
 10
6.7187551148
 20
3.6631196534
 30
0.0
 10
6.7187551148
 20
3.6623934255
 30
0.0
 10
6.7186079622
 20
3.6609394736
 30
0.0
 10
6.7179690505
 20
3.658853406
 30
0.0
 10
6.7169718763
 20
3.6569277126
 30
0.0
 10
6.7156880059
 20
3.6552001997
 30
0.0
 10
6.7141835599
 20
3.6536821056
 30
0.0
 10
6.711963669
 20
3.651939094
 30
0.0
 10
6.710099803
 20
3.6509174479
 30
0.0
 10
6.7088162302
 20
3.6503555918
 30
0.0
  0
SPLINE
  5
48C
100
AcDbEntity
  8
0
100
AcDbSpline
 62
7
  6
CONTINUOUS
 70
0
 71
3
 72
14
 73
10
 74
0
 42
0.0000001
 43
0.0000001
 44
0.0000000001
 40
0.0
 40
0.0
 40
0.0
 40
0.0
 40
0.2498066031
 40
0.3748542955
 40
0.4999062307
 40
0.6249493899
 40
0.7499803531
 40
0.874991415
 40
1.0
 40
1.0
 40
1.0
 40
1.0
 10
6.0868327909
 20
3.6503555918
 30
0.0
 10
6.0855443217
 20
3.6509330288
 30
0.0
 10
6.083681849
 20
3.6519839621
 30
0.0
 10
6.0814856258
 20
3.6537702105
 30
0.0
 10
6.0800177504
 20
3.6553094758
 30
0.0
 10
6.078782179
 20
3.6570422608
 30
0.0
 10
6.0778362987
 20
3.6589509014
 30
0.0
 10
6.077238064
 20
3.6609962955
 30
0.0
 10
6.0771012654
 20
3.6624130862
 30
0.0
 10
6.0771012654
 20
3.6631196534
 30
0.0
  0
SPLINE
  5
48D
100
AcDbEntity
  8
0
100
AcDbSpline
 62
7
  6
CONTINUOUS
 70
0
 71
3
 72
14
 73
10
 74
0
 42
0.0000001
 43
0.0000001
 44
0.0000000001
 40
0.0
 40
0.0
 40
0.0
 40
0.0
 40
0.3322945996
 40
0.482600271
 40
0.6176833955
 40
0.7365626637
 40
0.8393988579
 40
0.926930578
 40
1.0
 40
1.0
 40
1.0
 40
1.0
 10
6.0872729997
 20
3.6631196534
 30
0.0
 10
6.0872729997
 20
3.6617045544
 30
0.0
 10
6.0872556683
 20
3.6596492913
 30
0.0
 10
6.0871965095
 20
3.6570194815
 30
0.0
 10
6.0871408532
 20
3.6552987462
 30
0.0
 10
6.0870753665
 20
3.6537806754
 30
0.0
 10
6.0870024837
 20
3.6524657027
 30
0.0
 10
6.0869241229
 20
3.6513465365
 30
0.0
 10
6.0868641168
 20
3.6506651821
 30
0.0
 10
6.0868327909
 20
3.6503555918
 30
0.0
  0
SPLINE
  5
48E
100
AcDbEntity
  8
0
100
AcDbSpline
 62
7
  6
CONTINUOUS
 70
0
 71
3
 72
14
 73
10
 74
0
 42
0.0000001
 43
0.0000001
 44
0.0000000001
 40
0.0
 40
0.0
 40
0.0
 40
0.0
 40
0.2495617563
 40
0.3745399732
 40
0.4995661792
 40
0.6246318865
 40
0.7497336824
 40
0.8748562171
 40
1.0
 40
1.0
 40
1.0
 40
1.0
 10
6.1018477731
 20
3.6503555918
 30
0.0
 10
6.1005625876
 20
3.6509331572
 30
0.0
 10
6.0987049908
 20
3.6519843779
 30
0.0
 10
6.0965151475
 20
3.6537704619
 30
0.0
 10
6.0950513477
 20
3.655309793
 30
0.0
 10
6.0938192505
 20
3.657042617
 30
0.0
 10
6.0928760789
 20
3.6589512292
 30
0.0
 10
6.0922795943
 20
3.6609965019
 30
0.0
 10
6.0921432064
 20
3.662413104
 30
0.0
 10
6.0921432064
 20
3.6631196534
 30
0.0
  0
SPLINE
  5
48F
100
AcDbEntity
  8
0
100
AcDbSpline
 62
7
  6
CONTINUOUS
 70
0
 71
3
 72
15
 73
11
 74
0
 42
0.0000001
 43
0.0000001
 44
0.0000000001
 40
0.0
 40
0.0
 40
0.0
 40
0.0
 40
0.1690733749
 40
0.3311579563
 40
0.4810735112
 40
0.615953945
 40
0.7348516063
 40
0.837956792
 40
0.9260427831
 40
1.0
 40
1.0
 40
1.0
 40
1.0
 10
6.1028320622
 20
3.6631196534
 30
0.0
 10
6.1028320622
 20
3.6623970221
 30
0.0
 10
6.1028181424
 20
3.660981588
 30
0.0
 10
6.1027570187
 20
3.6589262215
 30
0.0
 10
6.102660959
 20
3.6570184959
 30
0.0
 10
6.1025364832
 20
3.6552974262
 30
0.0
 10
6.1023899797
 20
3.6537789738
 30
0.0
 10
6.1022268978
 20
3.6524635033
 30
0.0
 10
6.102051505
 20
3.6513436936
 30
0.0
 10
6.1019175261
 20
3.6506638979
 30
0.0
 10
6.1018477731
 20
3.6503555918
 30
0.0
  0
SPLINE
  5
490
100
AcDbEntity
  8
0
100
AcDbSpline
 62
7
  6
CONTINUOUS
 70
0
 71
3
 72
15
 73
11
 74
0
 42
0.0000001
 43
0.0000001
 44
0.0000000001
 40
0.0
 40
0.0
 40
0.0
 40
0.0
 40
0.1245948659
 40
0.2493205453
 40
0.3741194815
 40
0.4990535854
 40
0.624123297
 40
0.7493251078
 40
0.8746283855
 40
1.0
 40
1.0
 40
1.0
 40
1.0
 10
6.1175878965
 20
3.6503555918
 30
0.0
 10
6.1169480576
 20
3.6506447326
 30
0.0
 10
6.1156938223
 20
3.6512836975
 30
0.0
 10
6.113919553
 20
3.6524297271
 30
0.0
 10
6.1122839681
 20
3.6537710806
 30
0.0
 10
6.1108285071
 20
3.6553103935
 30
0.0
 10
6.109603248
 20
3.6570433333
 30
0.0
 10
6.1086654741
 20
3.6589518768
 30
0.0
 10
6.1080724598
 20
3.6609969111
 30
0.0
 10
6.107936888
 20
3.6624131392
 30
0.0
 10
6.107936888
 20
3.6631196534
 30
0.0
  0
SPLINE
  5
491
100
AcDbEntity
  8
0
100
AcDbSpline
 62
7
  6
CONTINUOUS
 70
0
 71
3
 72
15
 73
11
 74
0
 42
0.0000001
 43
0.0000001
 44
0.0000000001
 40
0.0
 40
0.0
 40
0.0
 40
0.0
 40
0.1680307312
 40
0.3292065269
 40
0.4784569812
 40
0.6129953529
 40
0.731930831
 40
0.8355021202
 40
0.9245373492
 40
1.0
 40
1.0
 40
1.0
 40
1.0
 10
6.1191135679
 20
3.6631196534
 30
0.0
 10
6.1191135679
 20
3.662396972
 30
0.0
 10
6.1190919781
 20
3.6609809906
 30
0.0
 10
6.1189971815
 20
3.6589250643
 30
0.0
 10
6.1188481974
 20
3.6570167834
 30
0.0
 10
6.1186551232
 20
3.6552951458
 30
0.0
 10
6.1184278465
 20
3.6537760639
 30
0.0
 10
6.1181747622
 20
3.652459804
 30
0.0
 10
6.1179024476
 20
3.6513390091
 30
0.0
 10
6.1176953011
 20
3.6506618615
 30
0.0
 10
6.1175878965
 20
3.6503555918
 30
0.0
  0
SPLINE
  5
492
100
AcDbEntity
  8
0
100
AcDbSpline
 62
7
  6
CONTINUOUS
 70
0
 71
3
 72
15
 73
11
 74
0
 42
0.0000001
 43
0.0000001
 44
0.0000000001
 40
0.0
 40
0.0
 40
0.0
 40
0.0
 40
0.1241834065
 40
0.2485895199
 40
0.3731811601
 40
0.4980390028
 40
0.6231766349
 40
0.7485901272
 40
0.8742257468
 40
1.0
 40
1.0
 40
1.0
 40
1.0
 10
6.1340100184
 20
3.6503555918
 30
0.0
 10
6.133375284
 20
3.6506448238
 30
0.0
 10
6.1321309698
 20
3.6512840845
 30
0.0
 10
6.1303713182
 20
3.652430285
 30
0.0
 10
6.1287492471
 20
3.6537718369
 30
0.0
 10
6.1273058897
 20
3.6553113415
 30
0.0
 10
6.1260909426
 20
3.6570443911
 30
0.0
 10
6.1251612045
 20
3.6589528443
 30
0.0
 10
6.1245733771
 20
3.6609975175
 30
0.0
 10
6.1244390208
 20
3.6624131915
 30
0.0
 10
6.1244390208
 20
3.6631196534
 30
0.0
  0
SPLINE
  5
493
100
AcDbEntity
  8
0
100
AcDbSpline
 62
7
  6
CONTINUOUS
 70
0
 71
3
 72
15
 73
11
 74
0
 42
0.0000001
 43
0.0000001
 44
0.0000000001
 40
0.0
 40
0.0
 40
0.0
 40
0.0
 40
0.1666000849
 40
0.3265311309
 40
0.4748748231
 40
0.6089533025
 40
0.7279518948
 40
0.8321711792
 40
0.9225053616
 40
1.0
 40
1.0
 40
1.0
 40
1.0
 10
6.1360728904
 20
3.6631196534
 30
0.0
 10
6.1360728904
 20
3.6623969009
 30
0.0
 10
6.136043672
 20
3.6609801437
 30
0.0
 10
6.1359153951
 20
3.6589234303
 30
0.0
 10
6.1357137837
 20
3.6570143823
 30
0.0
 10
6.135452479
 20
3.6552919837
 30
0.0
 10
6.1351448271
 20
3.6537720901
 30
0.0
 10
6.1348021049
 20
3.6524548724
 30
0.0
 10
6.1344331496
 20
3.6513329535
 30
0.0
 10
6.1341540565
 20
3.6506593637
 30
0.0
 10
6.1340100184
 20
3.6503555918
 30
0.0
  0
SPLINE
  5
494
100
AcDbEntity
  8
0
100
AcDbSpline
 62
7
  6
CONTINUOUS
 70
0
 71
3
 72
15
 73
11
 74
0
 42
0.0000001
 43
0.0000001
 44
0.0000000001
 40
0.0
 40
0.0
 40
0.0
 40
0.0
 40
0.1236328735
 40
0.247612005
 40
0.3719273166
 40
0.4966842605
 40
0.6219135272
 40
0.7476101117
 40
0.8736891249
 40
1.0
 40
1.0
 40
1.0
 40
1.0
 10
6.1510691268
 20
3.6503555918
 30
0.0
 10
6.1504411699
 20
3.6506449475
 30
0.0
 10
6.1492100303
 20
3.6512846087
 30
0.0
 10
6.1474697933
 20
3.6524310378
 30
0.0
 10
6.1458656722
 20
3.6537728526
 30
0.0
 10
6.144438392
 20
3.6553126078
 30
0.0
 10
6.1432371398
 20
3.6570457963
 30
0.0
 10
6.142318068
 20
3.6589541227
 30
0.0
 10
6.1417371195
 20
3.6609983156
 30
0.0
 10
6.1416043738
 20
3.6624132602
 30
0.0
 10
6.1416043738
 20
3.6631196534
 30
0.0
  0
SPLINE
  5
495
100
AcDbEntity
  8
0
100
AcDbSpline
 62
7
  6
CONTINUOUS
 70
0
 71
3
 72
15
 73
11
 74
0
 42
0.0000001
 43
0.0000001
 44
0.0000000001
 40
0.0
 40
0.0
 40
0.0
 40
0.0
 40
0.1648397
 40
0.3232426512
 40
0.4704798437
 40
0.6040072474
 40
0.723100728
 40
0.8281297172
 40
0.9200558193
 40
1.0
 40
1.0
 40
1.0
 40
1.0
 10
6.1536635453
 20
3.6631196534
 30
0.0
 10
6.1536635453
 20
3.6623968097
 30
0.0
 10
6.1536267551
 20
3.6609790571
 30
0.0
 10
6.1534652615
 20
3.6589213454
 30
0.0
 10
6.1532114332
 20
3.6570113468
 30
0.0
 10
6.1528824158
 20
3.6552880437
 30
0.0
 10
6.1524949677
 20
3.6537672373
 30
0.0
 10
6.1520631944
 20
3.6524490287
 30
0.0
 10
6.1515981514
 20
3.651326054
 30
0.0
 10
6.1512486816
 20
3.6506566838
 30
0.0
 10
6.1510691268
 20
3.6503555918
 30
0.0
  0
SPLINE
  5
496
100
AcDbEntity
  8
0
100
AcDbSpline
 62
7
  6
CONTINUOUS
 70
0
 71
3
 72
15
 73
11
 74
0
 42
0.0000001
 43
0.0000001
 44
0.0000000001
 40
0.0
 40
0.0
 40
0.0
 40
0.0
 40
0.122941275
 40
0.2463849948
 40
0.3703548549
 40
0.4949868888
 40
0.6203324817
 40
0.7463844576
 40
0.873018402
 40
1.0
 40
1.0
 40
1.0
 40
1.0
 10
6.1687184641
 20
3.6503555918
 30
0.0
 10
6.1680989383
 20
3.650645106
 30
0.0
 10
6.1668841917
 20
3.6512852777
 30
0.0
 10
6.1651681164
 20
3.6524319935
 30
0.0
 10
6.1635863369
 20
3.6537741346
 30
0.0
 10
6.1621790676
 20
3.6553141953
 30
0.0
 10
6.1609948571
 20
3.657047545
 30
0.0
 10
6.1600890489
 20
3.6589557027
 30
0.0
 10
6.1595166452
 20
3.6609992972
 30
0.0
 10
6.1593858977
 20
3.6624133447
 30
0.0
 10
6.1593858977
 20
3.6631196534
 30
0.0
  0
SPLINE
  5
497
100
AcDbEntity
  8
0
100
AcDbSpline
 62
7
  6
CONTINUOUS
 70
0
 71
3
 72
15
 73
11
 74
0
 42
0.0000001
 43
0.0000001
 44
0.0000000001
 40
0.0
 40
0.0
 40
0.0
 40
0.0
 40
0.1628134988
 40
0.3194624905
 40
0.4654387275
 40
0.5983517486
 40
0.7175770485
 40
0.8235532699
 40
0.9173017181
 40
1.0
 40
1.0
 40
1.0
 40
1.0
 10
6.1718373179
 20
3.6631196534
 30
0.0
 10
6.1718373179
 20
3.6623966993
 30
0.0
 10
6.1717930283
 20
3.6609777434
 30
0.0
 10
6.1715986548
 20
3.6589188417
 30
0.0
 10
6.171293139
 20
3.6570077436
 30
0.0
 10
6.1708970902
 20
3.655283448
 30
0.0
 10
6.1704306331
 20
3.6537617127
 30
0.0
 10
6.1699106647
 20
3.6524426021
 30
0.0
 10
6.1693504389
 20
3.6513188014
 30
0.0
 10
6.1689324162
 20
3.6506540364
 30
0.0
 10
6.1687184641
 20
3.6503555918
 30
0.0
  0
SPLINE
  5
498
100
AcDbEntity
  8
0
100
AcDbSpline
 62
7
  6
CONTINUOUS
 70
0
 71
3
 72
16
 73
12
 74
0
 42
0.0000001
 43
0.0000001
 44
0.0000000001
 40
0.0
 40
0.0
 40
0.0
 40
0.0
 40
0.122091665
 40
0.2448757426
 40
0.3684162783
 40
0.4928853863
 40
0.6183582553
 40
0.7448238941
 40
0.8084353292
 40
0.8722287748
 40
1.0
 40
1.0
 40
1.0
 40
1.0
 10
6.1869096546
 20
3.6503555918
 30
0.0
 10
6.18630019
 20
3.6506453018
 30
0.0
 10
6.1851050112
 20
3.6512861004
 30
0.0
 10
6.183417782
 20
3.6524331655
 30
0.0
 10
6.1818626847
 20
3.6537756809
 30
0.0
 10
6.1804792936
 20
3.6553161454
 30
0.0
 10
6.179315489
 20
3.6570494858
 30
0.0
 10
6.1785747372
 20
3.6586376511
 30
0.0
 10
6.1781454037
 20
3.659975219
 30
0.0
 10
6.1778314291
 20
3.6613515006
 30
0.0
 10
6.1777348548
 20
3.6624134439
 30
0.0
 10
6.1777348548
 20
3.6631196534
 30
0.0
  0
SPLINE
  5
499
100
AcDbEntity
  8
0
100
AcDbSpline
 62
7
  6
CONTINUOUS
 70
0
 71
3
 72
15
 73
11
 74
0
 42
0.0000001
 43
0.0000001
 44
0.0000000001
 40
0.0
 40
0.0
 40
0.0
 40
0.0
 40
0.1605858186
 40
0.3153125319
 40
0.4599180008
 40
0.5921797366
 40
0.7115765859
 40
0.8186109783
 40
0.914349321
 40
1.0
 40
1.0
 40
1.0
 40
1.0
 10
6.1905443951
 20
3.6631196534
 30
0.0
 10
6.1905443951
 20
3.6623965709
 30
0.0
 10
6.1904926946
 20
3.6609762179
 30
0.0
 10
6.1902658537
 20
3.6589159573
 30
0.0
 10
6.1899093054
 20
3.6570036483
 30
0.0
 10
6.1894470827
 20
3.6552783289
 30
0.0
 10
6.1889026362
 20
3.6537557266
 30
0.0
 10
6.1882956313
 20
3.652435896
 30
0.0
 10
6.1876415182
 20
3.6513115908
 30
0.0
 10
6.1871569251
 20
3.6506515574
 30
0.0
 10
6.1869096546
 20
3.6503555918
 30
0.0
  0
SPLINE
  5
49A
100
AcDbEntity
  8
0
100
AcDbSpline
 62
7
  6
CONTINUOUS
 70
0
 71
3
 72
16
 73
12
 74
0
 42
0.0000001
 43
0.0000001
 44
0.0000000001
 40
0.0
 40
0.0
 40
0.0
 40
0.0
 40
0.1211109245
 40
0.243139634
 40
0.3661969701
 40
0.4904962875
 40
0.6161391096
 40
0.743108326
 40
0.8070795213
 40
0.8712896262
 40
1.0
 40
1.0
 40
1.0
 40
1.0
 10
6.2055928375
 20
3.6503555918
 30
0.0
 10
6.2049950357
 20
3.6506455383
 30
0.0
 10
6.2038225476
 20
3.6512870908
 30
0.0
 10
6.2021687783
 20
3.6524345607
 30
0.0
 10
6.2006446285
 20
3.6537775225
 30
0.0
 10
6.1992889575
 20
3.6553183817
 30
0.0
 10
6.1981487388
 20
3.6570519101
 30
0.0
 10
6.1974236477
 20
3.658638944
 30
0.0
 10
6.1970031972
 20
3.6599756607
 30
0.0
 10
6.196695486
 20
3.6613521825
 30
0.0
 10
6.1966009517
 20
3.6624135569
 30
0.0
 10
6.1966009517
 20
3.6631196534
 30
0.0
  0
SPLINE
  5
49B
100
AcDbEntity
  8
0
100
AcDbSpline
 62
7
  6
CONTINUOUS
 70
0
 71
3
 72
15
 73
11
 74
0
 42
0.0000001
 43
0.0000001
 44
0.0000000001
 40
0.0
 40
0.0
 40
0.0
 40
0.0
 40
0.1582175568
 40
0.3109077617
 40
0.4540738954
 40
0.5856705346
 40
0.7052789013
 40
0.8134550675
 40
0.9112917379
 40
1.0
 40
1.0
 40
1.0
 40
1.0
 10
6.2097335022
 20
3.6631196534
 30
0.0
 10
6.2097335022
 20
3.662396426
 30
0.0
 10
6.2096744959
 20
3.6609744982
 30
0.0
 10
6.2094156784
 20
3.6589127352
 30
0.0
 10
6.2090088844
 20
3.6569991431
 30
0.0
 10
6.2084815335
 20
3.6552728218
 30
0.0
 10
6.2078603663
 20
3.6537494774
 30
0.0
 10
6.2071678008
 20
3.6524291651
 30
0.0
 10
6.2064214867
 20
3.6513047006
 30
0.0
 10
6.2058723929
 20
3.6506493162
 30
0.0
 10
6.2055928375
 20
3.6503555918
 30
0.0
  0
SPLINE
  5
49C
100
AcDbEntity
  8
0
100
AcDbSpline
 62
7
  6
CONTINUOUS
 70
0
 71
3
 72
16
 73
12
 74
0
 42
0.0000001
 43
0.0000001
 44
0.0000000001
 40
0.0
 40
0.0
 40
0.0
 40
0.0
 40
0.1199810696
 40
0.2411423756
 40
0.3636477874
 40
0.4877565524
 40
0.6135983302
 40
0.7411468283
 40
0.8055302021
 40
0.8702168905
 40
1.0
 40
1.0
 40
1.0
 40
1.0
 10
6.2247168034
 20
3.6503555918
 30
0.0
 10
6.2241322337
 20
3.6506458199
 30
0.0
 10
6.2229855001
 20
3.6512882627
 30
0.0
 10
6.2213697185
 20
3.652436197
 30
0.0
 10
6.2198807096
 20
3.6537796595
 30
0.0
 10
6.2185565132
 20
3.6553209467
 30
0.0
 10
6.2174430621
 20
3.657054657
 30
0.0
 10
6.2167356997
 20
3.6586403938
 30
0.0
 10
6.2163253091
 20
3.6599761541
 30
0.0
 10
6.2160247054
 20
3.6613529411
 30
0.0
 10
6.2159324779
 20
3.6624136824
 30
0.0
 10
6.2159324779
 20
3.6631196534
 30
0.0
  0
SPLINE
  5
49D
100
AcDbEntity
  8
0
100
AcDbSpline
 62
7
  6
CONTINUOUS
 70
0
 71
3
 72
14
 73
10
 74
0
 42
0.0000001
 43
0.0000001
 44
0.0000000001
 40
0.0
 40
0.0
 40
0.0
 40
0.0
 40
0.1558126782
 40
0.3064479342
 40
0.4481868023
 40
0.5791645934
 40
0.6990597815
 40
0.8084690221
 40
1.0
 40
1.0
 40
1.0
 40
1.0
 10
6.229352043
 20
3.6631196534
 30
0.0
 10
6.229352043
 20
3.6623962662
 30
0.0
 10
6.2292858515
 20
3.6609726017
 30
0.0
 10
6.2289956372
 20
3.6589092299
 30
0.0
 10
6.2285394944
 20
3.6569942866
 30
0.0
 10
6.2279483496
 20
3.6552671456
 30
0.0
 10
6.2272516877
 20
3.6537428549
 30
0.0
 10
6.2262608906
 20
3.6520569429
 30
0.0
 10
6.2253651706
 20
3.6509641346
 30
0.0
 10
6.2247168034
 20
3.6503555918
 30
0.0
  0
SPLINE
  5
49E
100
AcDbEntity
  8
0
100
AcDbSpline
 62
7
  6
CONTINUOUS
 70
0
 71
3
 72
16
 73
12
 74
0
 42
0.0000001
 43
0.0000001
 44
0.0000000001
 40
0.0
 40
0.0
 40
0.0
 40
0.0
 40
0.1186990062
 40
0.238879764
 40
0.3607650905
 40
0.4846641495
 40
0.6107356729
 40
0.7389402693
 40
0.8037883791
 40
0.869011436
 40
1.0
 40
1.0
 40
1.0
 40
1.0
 10
6.244229135
 20
3.6503555918
 30
0.0
 10
6.2436593294
 20
3.6506461516
 30
0.0
 10
6.2425413482
 20
3.6512896341
 30
0.0
 10
6.2409679868
 20
3.6524380915
 30
0.0
 10
6.2395182252
 20
3.6537821036
 30
0.0
 10
6.238229178
 20
3.6553238415
 30
0.0
 10
6.2371456017
 20
3.6570577147
 30
0.0
 10
6.2364579704
 20
3.6586419893
 30
0.0
 10
6.2360587816
 20
3.6599766946
 30
0.0
 10
6.2357661103
 20
3.6613537686
 30
0.0
 10
6.2356764469
 20
3.6624138189
 30
0.0
 10
6.2356764469
 20
3.6631196534
 30
0.0
  0
SPLINE
  5
49F
100
AcDbEntity
  8
0
100
AcDbSpline
 62
7
  6
CONTINUOUS
 70
0
 71
3
 72
15
 73
11
 74
0
 42
0.0000001
 43
0.0000001
 44
0.0000000001
 40
0.0
 40
0.0
 40
0.0
 40
0.0
 40
0.1532726671
 40
0.3017347505
 40
0.4419555026
 40
0.572252106
 40
0.6923923701
 40
0.8029982672
 40
0.9051541278
 40
1.0
 40
1.0
 40
1.0
 40
1.0
 10
6.2493462447
 20
3.6631196534
 30
0.0
 10
6.2493462447
 20
3.6623960932
 30
0.0
 10
6.2492730121
 20
3.6609705573
 30
0.0
 10
6.2489520394
 20
3.6589054671
 30
0.0
 10
6.2484476699
 20
3.6569892435
 30
0.0
 10
6.2477939922
 20
3.6552611603
 30
0.0
 10
6.2470242227
 20
3.6537368625
 30
0.0
 10
6.2461662166
 20
3.6524163594
 30
0.0
 10
6.245241975
 20
3.651292477
 30
0.0
 10
6.2445702552
 20
3.6506456098
 30
0.0
 10
6.244229135
 20
3.6503555918
 30
0.0
  0
SPLINE
  5
4A0
100
AcDbEntity
  8
0
100
AcDbSpline
 62
7
  6
CONTINUOUS
 70
0
 71
3
 72
17
 73
13
 74
0
 42
0.0000001
 43
0.0000001
 44
0.0000000001
 40
0.0
 40
0.0
 40
0.0
 40
0.0
 40
0.1172538619
 40
0.2363321539
 40
0.357522096
 40
0.4190646007
 40
0.4812528207
 40
0.607578344
 40
0.7365081751
 40
0.8018691556
 40
0.8676835787
 40
1.0
 40
1.0
 40
1.0
 40
1.0
 10
6.2640763503
 20
3.6503555918
 30
0.0
 10
6.2635228004
 20
3.6506465398
 30
0.0
 10
6.262436479
 20
3.6512912486
 30
0.0
 10
6.2609099459
 20
3.6524401822
 30
0.0
 10
6.2597432692
 20
3.6535555945
 30
0.0
 10
6.2588879485
 20
3.6545439323
 30
0.0
 10
6.2580828
 20
3.655608153
 30
0.0
 10
6.2572023138
 20
3.6570611526
 30
0.0
 10
6.2565364224
 20
3.6586437066
 30
0.0
 10
6.2561495279
 20
3.6599772792
 30
0.0
 10
6.2558655947
 20
3.6613546552
 30
0.0
 10
6.2557787419
 20
3.6624139651
 30
0.0
 10
6.2557787419
 20
3.6631196534
 30
0.0
  0
SPLINE
  5
4A1
100
AcDbEntity
  8
0
100
AcDbSpline
 62
7
  6
CONTINUOUS
 70
0
 71
3
 72
14
 73
10
 74
0
 42
0.0000001
 43
0.0000001
 44
0.0000000001
 40
0.0
 40
0.0
 40
0.0
 40
0.0
 40
0.2968018216
 40
0.4356370176
 40
0.5653850158
 40
0.6858925282
 40
0.797792092
 40
0.9021362053
 40
1.0
 40
1.0
 40
1.0
 40
1.0
 10
6.2696613043
 20
3.6631196534
 30
0.0
 10
6.2696613043
 20
3.6616957207
 30
0.0
 10
6.2694298115
 20
3.6595948082
 30
0.0
 10
6.268678829
 20
3.6569842809
 30
0.0
 10
6.2679643148
 20
3.6552551743
 30
0.0
 10
6.2671231856
 20
3.6537307745
 30
0.0
 10
6.2661858821
 20
3.6524105092
 30
0.0
 10
6.2651765259
 20
3.6512872525
 30
0.0
 10
6.2644467444
 20
3.650644119
 30
0.0
 10
6.2640763503
 20
3.6503555918
 30
0.0
  0
SPLINE
  5
4A2
100
AcDbEntity
  8
0
100
AcDbSpline
 62
7
  6
CONTINUOUS
 70
0
 71
3
 72
15
 73
11
 74
0
 42
0.0000001
 43
0.0000001
 44
0.0000000001
 40
0.0
 40
0.0
 40
0.0
 40
0.0
 40
0.115677723
 40
0.2335667331
 40
0.3540235806
 40
0.4774659977
 40
0.6041094671
 40
0.7338728414
 40
0.8661959772
 40
1.0
 40
1.0
 40
1.0
 40
1.0
 10
6.2842040494
 20
3.6503555918
 30
0.0
 10
6.2836682022
 20
3.650646992
 30
0.0
 10
6.2826164234
 20
3.6512930631
 30
0.0
 10
6.2811407669
 20
3.6524427333
 30
0.0
 10
6.279781416
 20
3.6537879683
 30
0.0
 10
6.2785733309
 20
3.6553305865
 30
0.0
 10
6.2775584322
 20
3.6570648091
 30
0.0
 10
6.2767838454
 20
3.6589706911
 30
0.0
 10
6.2762954867
 20
3.6610083461
 30
0.0
 10
6.276184264
 20
3.6624141194
 30
0.0
 10
6.276184264
 20
3.6631196534
 30
0.0
  0
SPLINE
  5
4A3
100
AcDbEntity
  8
0
100
AcDbSpline
 62
7
  6
CONTINUOUS
 70
0
 71
3
 72
15
 73
11
 74
0
 42
0.0000001
 43
0.0000001
 44
0.0000000001
 40
0.0
 40
0.0
 40
0.0
 40
0.0
 40
0.1483345521
 40
0.2926079513
 40
0.4299691769
 40
0.5590841167
 40
0.6798670237
 40
0.7929458557
 40
0.8993249516
 40
1.0
 40
1.0
 40
1.0
 40
1.0
 10
6.2902415399
 20
3.6631196534
 30
0.0
 10
6.2902415399
 20
3.6623957153
 30
0.0
 10
6.2901547169
 20
3.6609661001
 30
0.0
 10
6.2897745527
 20
3.6588974375
 30
0.0
 10
6.2891774579
 20
3.6569787145
 30
0.0
 10
6.288404045
 20
3.6552493845
 30
0.0
 10
6.2874938144
 20
3.6537249176
 30
0.0
 10
6.2864798553
 20
3.6524051152
 30
0.0
 10
6.2853882962
 20
3.6512826097
 30
0.0
 10
6.2846026768
 20
3.6506428371
 30
0.0
 10
6.2842040494
 20
3.6503555918
 30
0.0
  0
SPLINE
  5
4A4
100
AcDbEntity
  8
0
100
AcDbSpline
 62
7
  6
CONTINUOUS
 70
0
 71
3
 72
16
 73
12
 74
0
 42
0.0000001
 43
0.0000001
 44
0.0000000001
 40
0.0
 40
0.0
 40
0.0
 40
0.0
 40
0.1143259872
 40
0.2312773423
 40
0.3512790698
 40
0.4747016308
 40
0.601701885
 40
0.7321019431
 40
0.798425851
 40
0.8653181386
 40
1.0
 40
1.0
 40
1.0
 40
1.0
 10
6.3038909118
 20
3.6507529418
 30
0.0
 10
6.3034116961
 20
3.6510544117
 30
0.0
 10
6.302473331
 20
3.6517154346
 30
0.0
 10
6.3011654297
 20
3.6528676142
 30
0.0
 10
6.2999670254
 20
3.6541955765
 30
0.0
 10
6.2989080864
 20
3.6556992153
 30
0.0
 10
6.2980240611
 20
3.657370968
 30
0.0
 10
6.2974679774
 20
3.6588803177
 30
0.0
 10
6.2971455614
 20
3.6601463369
 30
0.0
 10
6.2969090552
 20
3.6614525438
 30
0.0
 10
6.2968370829
 20
3.6624526936
 30
0.0
 10
6.2968370829
 20
3.6631196534
 30
0.0
  0
SPLINE
  5
4A5
100
AcDbEntity
  8
0
100
AcDbSpline
 62
7
  6
CONTINUOUS
 70
0
 71
3
 72
15
 73
11
 74
0
 42
0.0000001
 43
0.0000001
 44
0.0000000001
 40
0.0
 40
0.0
 40
0.0
 40
0.0
 40
0.1282454197
 40
0.2558655315
 40
0.38247442
 40
0.5079177111
 40
0.632241811
 40
0.7555749318
 40
0.8781335247
 40
1.0
 40
1.0
 40
1.0
 40
1.0
 10
6.7284552762
 20
3.6631196534
 30
0.0
 10
6.7284552762
 20
3.6623935533
 30
0.0
 10
6.7283109766
 20
3.6609409422
 30
0.0
 10
6.727684084
 20
3.6588556667
 30
0.0
 10
6.7267052408
 20
3.6569300908
 30
0.0
 10
6.7254444358
 20
3.6552022075
 30
0.0
 10
6.7239669918
 20
3.6536837815
 30
0.0
 10
6.7223260619
 20
3.6523718376
 30
0.0
 10
6.7205629462
 20
3.6512573341
 30
0.0
 10
6.7193234717
 20
3.6506364594
 30
0.0
 10
6.7186932407
 20
3.6503555918
 30
0.0
  0
SPLINE
  5
4A6
100
AcDbEntity
  8
0
100
AcDbSpline
 62
7
  6
CONTINUOUS
 70
0
 71
3
 72
15
 73
11
 74
0
 42
0.0000001
 43
0.0000001
 44
0.0000000001
 40
0.0
 40
0.0
 40
0.0
 40
0.0
 40
0.1292948897
 40
0.2577679862
 40
0.3849020808
 40
0.5104939754
 40
0.6346024662
 40
0.757399235
 40
0.8791533903
 40
1.0
 40
1.0
 40
1.0
 40
1.0
 10
6.7371630912
 20
3.6631196534
 30
0.0
 10
6.7371630912
 20
3.6623936976
 30
0.0
 10
6.7370220592
 20
3.6609426027
 30
0.0
 10
6.7364089743
 20
3.6588582483
 30
0.0
 10
6.735451203
 20
3.6569328253
 30
0.0
 10
6.7342170335
 20
3.6552045844
 30
0.0
 10
6.7327704415
 20
3.6536856315
 30
0.0
 10
6.7311635815
 20
3.6523731781
 30
0.0
 10
6.7294369914
 20
3.6512582542
 30
0.0
 10
6.7282222236
 20
3.6506366758
 30
0.0
 10
6.7276046618
 20
3.6503555918
 30
0.0
  0
SPLINE
  5
4A7
100
AcDbEntity
  8
0
100
AcDbSpline
 62
7
  6
CONTINUOUS
 70
0
 71
3
 72
15
 73
11
 74
0
 42
0.0000001
 43
0.0000001
 44
0.0000000001
 40
0.0
 40
0.0
 40
0.0
 40
0.0
 40
0.130489577
 40
0.2599361559
 40
0.3876731968
 40
0.5134398663
 40
0.6373064526
 40
0.7594921601
 40
0.8803250551
 40
1.0
 40
1.0
 40
1.0
 40
1.0
 10
6.7448546921
 20
3.6631196534
 30
0.0
 10
6.7448546921
 20
3.6623938569
 30
0.0
 10
6.7447173285
 20
3.6609444384
 30
0.0
 10
6.7441197826
 20
3.6588611298
 30
0.0
 10
6.7431857753
 20
3.6569359164
 30
0.0
 10
6.7419816812
 20
3.6552073072
 30
0.0
 10
6.7405699381
 20
3.6536877767
 30
0.0
 10
6.7390015581
 20
3.652374749
 30
0.0
 10
6.7373162127
 20
3.6512593418
 30
0.0
 10
6.7361293337
 20
3.650636933
 30
0.0
 10
6.7355260679
 20
3.6503555918
 30
0.0
  0
SPLINE
  5
4A8
100
AcDbEntity
  8
0
100
AcDbSpline
 62
7
  6
CONTINUOUS
 70
0
 71
3
 72
16
 73
12
 74
0
 42
0.0000001
 43
0.0000001
 44
0.0000000001
 40
0.0
 40
0.0
 40
0.0
 40
0.0
 40
0.1318128577
 40
0.1973689484
 40
0.2624623654
 40
0.3908659196
 40
0.5168200489
 40
0.6404046041
 40
0.7618894669
 40
0.8816673991
 40
1.0
 40
1.0
 40
1.0
 40
1.0
 10
6.7515089968
 20
3.6631196534
 30
0.0
 10
6.7515089968
 20
3.6623940294
 30
0.0
 10
6.7514085237
 20
3.6613042065
 30
0.0
 10
6.7510826884
 20
3.6598952443
 30
0.0
 10
6.7506411986
 20
3.6585374872
 30
0.0
 10
6.7498876767
 20
3.6569392065
 30
0.0
 10
6.748717079
 20
3.6552104192
 30
0.0
 10
6.7473440793
 20
3.6536902222
 30
0.0
 10
6.7458184988
 20
3.6523765719
 30
0.0
 10
6.7441790113
 20
3.6512606144
 30
0.0
 10
6.7430231301
 20
3.6506372361
 30
0.0
 10
6.7424357469
 20
3.6503555918
 30
0.0
  0
SPLINE
  5
4A9
100
AcDbEntity
  8
0
100
AcDbSpline
 62
7
  6
CONTINUOUS
 70
0
 71
3
 72
16
 73
12
 74
0
 42
0.0000001
 43
0.0000001
 44
0.0000000001
 40
0.0
 40
0.0
 40
0.0
 40
0.0
 40
0.1346818273
 40
0.2015741041
 40
0.2678980113
 40
0.3982980684
 40
0.5252983441
 40
0.6487209198
 40
0.7687226488
 40
0.8856740081
 40
1.0
 40
1.0
 40
1.0
 40
1.0
 10
6.2968370829
 20
3.8986196534
 30
0.0
 10
6.2968370829
 20
3.899286613
 30
0.0
 10
6.2969090551
 20
3.9002867625
 30
0.0
 10
6.2971455613
 20
3.9015929691
 30
0.0
 10
6.2974679772
 20
3.9028589882
 30
0.0
 10
6.2980240607
 20
3.9043683381
 30
0.0
 10
6.2989080861
 20
3.9060400908
 30
0.0
 10
6.299967025
 20
3.9075437298
 30
0.0
 10
6.3011654293
 20
3.9088716921
 30
0.0
 10
6.3024733306
 20
3.9100238718
 30
0.0
 10
6.3034116956
 20
3.9106848948
 30
0.0
 10
6.3038909113
 20
3.9109863646
 30
0.0
  0
SPLINE
  5
4AA
100
AcDbEntity
  8
0
100
AcDbSpline
 62
7
  6
CONTINUOUS
 70
0
 71
3
 72
15
 73
11
 74
0
 42
0.0000001
 43
0.0000001
 44
0.0000000001
 40
0.0
 40
0.0
 40
0.0
 40
0.0
 40
0.1006750262
 40
0.2070541172
 40
0.3201329351
 40
0.4409157536
 40
0.5700307066
 40
0.7073917597
 40
0.8516652497
 40
1.0
 40
1.0
 40
1.0
 40
1.0
 10
6.2842040494
 20
3.9113837149
 30
0.0
 10
6.2846026767
 20
3.9110964697
 30
0.0
 10
6.285388296
 20
3.9104566973
 30
0.0
 10
6.2864798549
 20
3.9093341919
 30
0.0
 10
6.2874938138
 20
3.90801439
 30
0.0
 10
6.2884040444
 20
3.9064899235
 30
0.0
 10
6.2891774568
 20
3.9047605947
 30
0.0
 10
6.2897745523
 20
3.9028418722
 30
0.0
 10
6.2901547167
 20
3.900773209
 30
0.0
 10
6.2902415399
 20
3.8993435924
 30
0.0
 10
6.2902415399
 20
3.8986196534
 30
0.0
  0
SPLINE
  5
4AB
100
AcDbEntity
  8
0
100
AcDbSpline
 62
7
  6
CONTINUOUS
 70
0
 71
3
 72
15
 73
11
 74
0
 42
0.0000001
 43
0.0000001
 44
0.0000000001
 40
0.0
 40
0.0
 40
0.0
 40
0.0
 40
0.1338039887
 40
0.2661271158
 40
0.3958904884
 40
0.5225339842
 40
0.6459764107
 40
0.7664332594
 40
0.8843222738
 40
1.0
 40
1.0
 40
1.0
 40
1.0
 10
6.276184264
 20
3.8986196534
 30
0.0
 10
6.276184264
 20
3.8993251872
 30
0.0
 10
6.2762954867
 20
3.9007309602
 30
0.0
 10
6.2767838452
 20
3.902768615
 30
0.0
 10
6.277558432
 20
3.9046744972
 30
0.0
 10
6.2785733306
 20
3.90640872
 30
0.0
 10
6.2797814159
 20
3.9079513383
 30
0.0
 10
6.2811407668
 20
3.9092965734
 30
0.0
 10
6.2826164234
 20
3.9104462436
 30
0.0
 10
6.2836682022
 20
3.9110923148
 30
0.0
 10
6.2842040494
 20
3.9113837149
 30
0.0
  0
SPLINE
  5
4AC
100
AcDbEntity
  8
0
100
AcDbSpline
 62
7
  6
CONTINUOUS
 70
0
 71
3
 72
14
 73
10
 74
0
 42
0.0000001
 43
0.0000001
 44
0.0000000001
 40
0.0
 40
0.0
 40
0.0
 40
0.0
 40
0.0978637731
 40
0.2022078816
 40
0.3141074312
 40
0.4346148547
 40
0.5643628658
 40
0.7031978859
 40
1.0
 40
1.0
 40
1.0
 40
1.0
 10
6.2640763503
 20
3.9113837149
 30
0.0
 10
6.2644467443
 20
3.9110951878
 30
0.0
 10
6.2651765257
 20
3.9104520544
 30
0.0
 10
6.2661858818
 20
3.9093287979
 30
0.0
 10
6.2671231851
 20
3.9080085331
 30
0.0
 10
6.2679643142
 20
3.9064841337
 30
0.0
 10
6.2686788279
 20
3.9047550282
 30
0.0
 10
6.2694298115
 20
3.9021445006
 30
0.0
 10
6.2696613043
 20
3.9000435875
 30
0.0
 10
6.2696613043
 20
3.8986196534
 30
0.0
  0
SPLINE
  5
4AD
100
AcDbEntity
  8
0
100
AcDbSpline
 62
7
  6
CONTINUOUS
 70
0
 71
3
 72
17
 73
13
 74
0
 42
0.0000001
 43
0.0000001
 44
0.0000000001
 40
0.0
 40
0.0
 40
0.0
 40
0.0
 40
0.1323163876
 40
0.1981308031
 40
0.2634917825
 40
0.3924216118
 40
0.5187471612
 40
0.5809353878
 40
0.6424778953
 40
0.7636678386
 40
0.8827461349
 40
1.0
 40
1.0
 40
1.0
 40
1.0
 10
6.2557787419
 20
3.8986196534
 30
0.0
 10
6.2557787419
 20
3.8993253414
 30
0.0
 10
6.2558655947
 20
3.9003846512
 30
0.0
 10
6.2561495277
 20
3.901762027
 30
0.0
 10
6.2565364221
 20
3.9030955995
 30
0.0
 10
6.2572023135
 20
3.9046781536
 30
0.0
 10
6.2580827998
 20
3.9061311534
 30
0.0
 10
6.2588879483
 20
3.9071953743
 30
0.0
 10
6.2597432691
 20
3.9081837122
 30
0.0
 10
6.2609099458
 20
3.9092991245
 30
0.0
 10
6.2624364789
 20
3.9104480581
 30
0.0
 10
6.2635228003
 20
3.9110927669
 30
0.0
 10
6.2640763503
 20
3.9113837149
 30
0.0
  0
SPLINE
  5
4AE
100
AcDbEntity
  8
0
100
AcDbSpline
 62
7
  6
CONTINUOUS
 70
0
 71
3
 72
15
 73
11
 74
0
 42
0.0000001
 43
0.0000001
 44
0.0000000001
 40
0.0
 40
0.0
 40
0.0
 40
0.0
 40
0.094845851
 40
0.1970017069
 40
0.3076075894
 40
0.427747764
 40
0.5580443796
 40
0.6982649523
 40
0.8467271283
 40
1.0
 40
1.0
 40
1.0
 40
1.0
 10
6.244229135
 20
3.9113837149
 30
0.0
 10
6.2445702551
 20
3.911093697
 30
0.0
 10
6.2452419749
 20
3.9104468299
 30
0.0
 10
6.2461662163
 20
3.9093229477
 30
0.0
 10
6.2470242223
 20
3.9080024451
 30
0.0
 10
6.2477939917
 20
3.9064781477
 30
0.0
 10
6.2484476689
 20
3.9047500656
 30
0.0
 10
6.2489520391
 20
3.9028338426
 30
0.0
 10
6.2492730119
 20
3.9007687518
 30
0.0
 10
6.2493462447
 20
3.8993432146
 30
0.0
 10
6.2493462447
 20
3.8986196534
 30
0.0
  0
SPLINE
  5
4AF
100
AcDbEntity
  8
0
100
AcDbSpline
 62
7
  6
CONTINUOUS
 70
0
 71
3
 72
16
 73
12
 74
0
 42
0.0000001
 43
0.0000001
 44
0.0000000001
 40
0.0
 40
0.0
 40
0.0
 40
0.0
 40
0.1309885306
 40
0.1962115799
 40
0.2610596886
 40
0.389264283
 40
0.5153358324
 40
0.6392349008
 40
0.7611202284
 40
0.8813009906
 40
1.0
 40
1.0
 40
1.0
 40
1.0
 10
6.2356764469
 20
3.8986196534
 30
0.0
 10
6.2356764469
 20
3.8993254876
 30
0.0
 10
6.2357661102
 20
3.9003855377
 30
0.0
 10
6.2360587814
 20
3.9017626115
 30
0.0
 10
6.2364579701
 20
3.9030973168
 30
0.0
 10
6.2371456015
 20
3.9046815915
 30
0.0
 10
6.2382291778
 20
3.906415465
 30
0.0
 10
6.2395182251
 20
3.907957203
 30
0.0
 10
6.2409679867
 20
3.9093012151
 30
0.0
 10
6.2425413481
 20
3.9104496727
 30
0.0
 10
6.2436593294
 20
3.9110931551
 30
0.0
 10
6.244229135
 20
3.9113837149
 30
0.0
  0
SPLINE
  5
4B0
100
AcDbEntity
  8
0
100
AcDbSpline
 62
7
  6
CONTINUOUS
 70
0
 71
3
 72
14
 73
10
 74
0
 42
0.0000001
 43
0.0000001
 44
0.0000000001
 40
0.0
 40
0.0
 40
0.0
 40
0.0
 40
0.1915309526
 40
0.3009401782
 40
0.4208352763
 40
0.5518130793
 40
0.6935517644
 40
0.8441871138
 40
1.0
 40
1.0
 40
1.0
 40
1.0
 10
6.2247168034
 20
3.9113837149
 30
0.0
 10
6.2253651705
 20
3.9107751723
 30
0.0
 10
6.2262608904
 20
3.9096823641
 30
0.0
 10
6.2272516872
 20
3.9079964526
 30
0.0
 10
6.2279483491
 20
3.9064721624
 30
0.0
 10
6.2285394936
 20
3.9047450226
 30
0.0
 10
6.2289956369
 20
3.9028300798
 30
0.0
 10
6.2292858513
 20
3.9007667074
 30
0.0
 10
6.229352043
 20
3.8993430415
 30
0.0
 10
6.229352043
 20
3.8986196534
 30
0.0
  0
SPLINE
  5
4B1
100
AcDbEntity
  8
0
100
AcDbSpline
 62
7
  6
CONTINUOUS
 70
0
 71
3
 72
16
 73
12
 74
0
 42
0.0000001
 43
0.0000001
 44
0.0000000001
 40
0.0
 40
0.0
 40
0.0
 40
0.0
 40
0.1297830764
 40
0.1944697572
 40
0.2588531299
 40
0.3864016259
 40
0.5122434294
 40
0.6363522038
 40
0.7588576168
 40
0.8800189271
 40
1.0
 40
1.0
 40
1.0
 40
1.0
 10
6.2159324779
 20
3.8986196534
 30
0.0
 10
6.2159324779
 20
3.8993256242
 30
0.0
 10
6.2160247054
 20
3.9003863652
 30
0.0
 10
6.2163253089
 20
3.901763152
 30
0.0
 10
6.2167356994
 20
3.9030989123
 30
0.0
 10
6.2174430618
 20
3.9046846493
 30
0.0
 10
6.218556513
 20
3.9064183597
 30
0.0
 10
6.2198807095
 20
3.9079596471
 30
0.0
 10
6.2213697184
 20
3.9093031097
 30
0.0
 10
6.2229855
 20
3.910451044
 30
0.0
 10
6.2241322336
 20
3.9110934868
 30
0.0
 10
6.2247168034
 20
3.9113837149
 30
0.0
  0
SPLINE
  5
4B2
100
AcDbEntity
  8
0
100
AcDbSpline
 62
7
  6
CONTINUOUS
 70
0
 71
3
 72
15
 73
11
 74
0
 42
0.0000001
 43
0.0000001
 44
0.0000000001
 40
0.0
 40
0.0
 40
0.0
 40
0.0
 40
0.088708242
 40
0.1865449078
 40
0.2947210587
 40
0.4143293349
 40
0.5459259855
 40
0.689091933
 40
0.841782232
 40
1.0
 40
1.0
 40
1.0
 40
1.0
 10
6.2055928375
 20
3.9113837149
 30
0.0
 10
6.2058723928
 20
3.9110899906
 30
0.0
 10
6.2064214866
 20
3.9104346063
 30
0.0
 10
6.2071678006
 20
3.909310142
 30
0.0
 10
6.2078603659
 20
3.9079898302
 30
0.0
 10
6.2084815331
 20
3.9064664862
 30
0.0
 10
6.2090088836
 20
3.9047401661
 30
0.0
 10
6.2094156781
 20
3.9028265744
 30
0.0
 10
6.2096744957
 20
3.9007648109
 30
0.0
 10
6.2097335022
 20
3.8993428817
 30
0.0
 10
6.2097335022
 20
3.8986196534
 30
0.0
  0
SPLINE
  5
4B3
100
AcDbEntity
  8
0
100
AcDbSpline
 62
7
  6
CONTINUOUS
 70
0
 71
3
 72
16
 73
12
 74
0
 42
0.0000001
 43
0.0000001
 44
0.0000000001
 40
0.0
 40
0.0
 40
0.0
 40
0.0
 40
0.128710341
 40
0.1929204384
 40
0.2568916325
 40
0.3838608466
 40
0.5095036943
 40
0.633803021
 40
0.7568603583
 40
0.8788890722
 40
1.0
 40
1.0
 40
1.0
 40
1.0
 10
6.1966009517
 20
3.8986196534
 30
0.0
 10
6.1966009517
 20
3.8993257497
 30
0.0
 10
6.1966954859
 20
3.9003871239
 30
0.0
 10
6.1970031971
 20
3.9017636454
 30
0.0
 10
6.1974236474
 20
3.9031003621
 30
0.0
 10
6.1981487386
 20
3.9046873962
 30
0.0
 10
6.1992889572
 20
3.9064209247
 30
0.0
 10
6.2006446283
 20
3.9079617841
 30
0.0
 10
6.2021687782
 20
3.909304746
 30
0.0
 10
6.2038225475
 20
3.910452216
 30
0.0
 10
6.2049950357
 20
3.9110937684
 30
0.0
 10
6.2055928375
 20
3.9113837149
 30
0.0
  0
SPLINE
  5
4B4
100
AcDbEntity
  8
0
100
AcDbSpline
 62
7
  6
CONTINUOUS
 70
0
 71
3
 72
15
 73
11
 74
0
 42
0.0000001
 43
0.0000001
 44
0.0000000001
 40
0.0
 40
0.0
 40
0.0
 40
0.0
 40
0.0856506594
 40
0.1813889975
 40
0.2884233744
 40
0.4078201326
 40
0.5400818795
 40
0.6846871588
 40
0.8394139671
 40
1.0
 40
1.0
 40
1.0
 40
1.0
 10
6.1869096546
 20
3.9113837149
 30
0.0
 10
6.1871569251
 20
3.9110877494
 30
0.0
 10
6.1876415181
 20
3.9104277162
 30
0.0
 10
6.1882956311
 20
3.9093034111
 30
0.0
 10
6.1889026359
 20
3.9079835809
 30
0.0
 10
6.1894470823
 20
3.9064609791
 30
0.0
 10
6.1899093047
 20
3.9047356609
 30
0.0
 10
6.1902658534
 20
3.9028233523
 30
0.0
 10
6.1904926944
 20
3.9007630912
 30
0.0
 10
6.1905443951
 20
3.8993427368
 30
0.0
 10
6.1905443951
 20
3.8986196534
 30
0.0
  0
SPLINE
  5
4B5
100
AcDbEntity
  8
0
100
AcDbSpline
 62
7
  6
CONTINUOUS
 70
0
 71
3
 72
16
 73
12
 74
0
 42
0.0000001
 43
0.0000001
 44
0.0000000001
 40
0.0
 40
0.0
 40
0.0
 40
0.0
 40
0.1277711926
 40
0.1915646308
 40
0.2551760646
 40
0.381641701
 40
0.5071145955
 40
0.6315837128
 40
0.7551242497
 40
0.8779083316
 40
1.0
 40
1.0
 40
1.0
 40
1.0
 10
6.1777348548
 20
3.8986196534
 30
0.0
 10
6.1777348548
 20
3.8993258626
 30
0.0
 10
6.177831429
 20
3.9003878057
 30
0.0
 10
6.1781454035
 20
3.9017640871
 30
0.0
 10
6.1785747369
 20
3.903101655
 30
0.0
 10
6.1793154887
 20
3.9046898205
 30
0.0
 10
6.1804792934
 20
3.906423161
 30
0.0
 10
6.1818626846
 20
3.9079636257
 30
0.0
 10
6.1834177819
 20
3.9093061412
 30
0.0
 10
6.1851050111
 20
3.9104532063
 30
0.0
 10
6.18630019
 20
3.911094005
 30
0.0
 10
6.1869096546
 20
3.9113837149
 30
0.0
  0
SPLINE
  5
4B6
100
AcDbEntity
  8
0
100
AcDbSpline
 62
7
  6
CONTINUOUS
 70
0
 71
3
 72
15
 73
11
 74
0
 42
0.0000001
 43
0.0000001
 44
0.0000000001
 40
0.0
 40
0.0
 40
0.0
 40
0.0
 40
0.0826982628
 40
0.1764467035
 40
0.2824229086
 40
0.4016481212
 40
0.5345611432
 40
0.6805371773
 40
0.8371862707
 40
1.0
 40
1.0
 40
1.0
 40
1.0
 10
6.1687184641
 20
3.9113837149
 30
0.0
 10
6.1689324161
 20
3.9110852705
 30
0.0
 10
6.1693504388
 20
3.9104205055
 30
0.0
 10
6.1699106646
 20
3.909296705
 30
0.0
 10
6.1704306328
 20
3.9079775949
 30
0.0
 10
6.1708970899
 20
3.9064558601
 30
0.0
 10
6.1712931384
 20
3.9047315657
 30
0.0
 10
6.1715986545
 20
3.9028204681
 30
0.0
 10
6.1717930281
 20
3.9007615658
 30
0.0
 10
6.1718373179
 20
3.8993426085
 30
0.0
 10
6.1718373179
 20
3.8986196534
 30
0.0
  0
SPLINE
  5
4B7
100
AcDbEntity
  8
0
100
AcDbSpline
 62
7
  6
CONTINUOUS
 70
0
 71
3
 72
15
 73
11
 74
0
 42
0.0000001
 43
0.0000001
 44
0.0000000001
 40
0.0
 40
0.0
 40
0.0
 40
0.0
 40
0.1269815655
 40
0.2536155013
 40
0.3796674748
 40
0.5050130931
 40
0.6296451362
 40
0.7536149975
 40
0.8770587216
 40
1.0
 40
1.0
 40
1.0
 40
1.0
 10
6.1593858977
 20
3.8986196534
 30
0.0
 10
6.1593858977
 20
3.8993259619
 30
0.0
 10
6.1595166452
 20
3.9007400092
 30
0.0
 10
6.1600890487
 20
3.9027836034
 30
0.0
 10
6.1609948568
 20
3.9046917612
 30
0.0
 10
6.1621790674
 20
3.9064251112
 30
0.0
 10
6.1635863368
 20
3.9079651721
 30
0.0
 10
6.1651681163
 20
3.9093073132
 30
0.0
 10
6.1668841916
 20
3.910454029
 30
0.0
 10
6.1680989383
 20
3.9110942008
 30
0.0
 10
6.1687184641
 20
3.9113837149
 30
0.0
  0
SPLINE
  5
4B8
100
AcDbEntity
  8
0
100
AcDbSpline
 62
7
  6
CONTINUOUS
 70
0
 71
3
 72
15
 73
11
 74
0
 42
0.0000001
 43
0.0000001
 44
0.0000000001
 40
0.0
 40
0.0
 40
0.0
 40
0.0
 40
0.079944162
 40
0.1718702596
 40
0.2768992328
 40
0.3959926213
 40
0.5295200353
 40
0.6767570323
 40
0.8351600801
 40
1.0
 40
1.0
 40
1.0
 40
1.0
 10
6.1510691268
 20
3.9113837149
 30
0.0
 10
6.1512486816
 20
3.911082623
 30
0.0
 10
6.1515981514
 20
3.9104132529
 30
0.0
 10
6.1520631942
 20
3.9092902784
 30
0.0
 10
6.1524949674
 20
3.9079720703
 30
0.0
 10
6.1528824156
 20
3.9064512643
 30
0.0
 10
6.1532114327
 20
3.9047279624
 30
0.0
 10
6.1534652613
 20
3.9028179643
 30
0.0
 10
6.153626755
 20
3.9007602521
 30
0.0
 10
6.1536635453
 20
3.899342498
 30
0.0
 10
6.1536635453
 20
3.8986196534
 30
0.0
  0
SPLINE
  5
4B9
100
AcDbEntity
  8
0
100
AcDbSpline
 62
7
  6
CONTINUOUS
 70
0
 71
3
 72
15
 73
11
 74
0
 42
0.0000001
 43
0.0000001
 44
0.0000000001
 40
0.0
 40
0.0
 40
0.0
 40
0.0
 40
0.1263108428
 40
0.2523898474
 40
0.3780864294
 40
0.5033157214
 40
0.6280726745
 40
0.7523879872
 40
0.8763671232
 40
1.0
 40
1.0
 40
1.0
 40
1.0
 10
6.1416043738
 20
3.8986196534
 30
0.0
 10
6.1416043738
 20
3.8993260463
 30
0.0
 10
6.1417371194
 20
3.9007409907
 30
0.0
 10
6.1423180678
 20
3.9027851835
 30
0.0
 10
6.1432371395
 20
3.9046935099
 30
0.0
 10
6.1444383917
 20
3.9064266986
 30
0.0
 10
6.1458656721
 20
3.907966454
 30
0.0
 10
6.1474697932
 20
3.9093082689
 30
0.0
 10
6.1492100302
 20
3.910454698
 30
0.0
 10
6.1504411699
 20
3.9110943592
 30
0.0
 10
6.1510691268
 20
3.9113837149
 30
0.0
  0
SPLINE
  5
4BA
100
AcDbEntity
  8
0
100
AcDbSpline
 62
7
  6
CONTINUOUS
 70
0
 71
3
 72
15
 73
11
 74
0
 42
0.0000001
 43
0.0000001
 44
0.0000000001
 40
0.0
 40
0.0
 40
0.0
 40
0.0
 40
0.0774946201
 40
0.167828798
 40
0.2720480662
 40
0.3910465659
 40
0.5251250554
 40
0.6734685497
 40
0.8333996929
 40
1.0
 40
1.0
 40
1.0
 40
1.0
 10
6.1340100184
 20
3.9113837149
 30
0.0
 10
6.1341540565
 20
3.9110799431
 30
0.0
 10
6.1344331495
 20
3.9104063534
 30
0.0
 10
6.1348021048
 20
3.9092844347
 30
0.0
 10
6.1351448269
 20
3.9079672175
 30
0.0
 10
6.1354524788
 20
3.9064473243
 30
0.0
 10
6.1357137833
 20
3.9047249269
 30
0.0
 10
6.135915395
 20
3.9028158793
 30
0.0
 10
6.1360436719
 20
3.9007591654
 30
0.0
 10
6.1360728904
 20
3.8993424068
 30
0.0
 10
6.1360728904
 20
3.8986196534
 30
0.0
  0
SPLINE
  5
4BB
100
AcDbEntity
  8
0
100
AcDbSpline
 62
7
  6
CONTINUOUS
 70
0
 71
3
 72
15
 73
11
 74
0
 42
0.0000001
 43
0.0000001
 44
0.0000000001
 40
0.0
 40
0.0
 40
0.0
 40
0.0
 40
0.125774221
 40
0.251409832
 40
0.3768233217
 40
0.501960979
 40
0.6268188309
 40
0.7514104723
 40
0.8758165901
 40
1.0
 40
1.0
 40
1.0
 40
1.0
 10
6.1244390208
 20
3.8986196534
 30
0.0
 10
6.1244390208
 20
3.8993261151
 30
0.0
 10
6.1245733771
 20
3.9007417888
 30
0.0
 10
6.1251612043
 20
3.9027864618
 30
0.0
 10
6.1260909423
 20
3.9046949151
 30
0.0
 10
6.1273058895
 20
3.906427965
 30
0.0
 10
6.128749247
 20
3.9079674697
 30
0.0
 10
6.1303713181
 20
3.9093090216
 30
0.0
 10
6.1321309697
 20
3.9104552222
 30
0.0
 10
6.133375284
 20
3.9110944829
 30
0.0
 10
6.1340100184
 20
3.9113837149
 30
0.0
  0
SPLINE
  5
4BC
100
AcDbEntity
  8
0
100
AcDbSpline
 62
7
  6
CONTINUOUS
 70
0
 71
3
 72
15
 73
11
 74
0
 42
0.0000001
 43
0.0000001
 44
0.0000000001
 40
0.0
 40
0.0
 40
0.0
 40
0.0
 40
0.0754626328
 40
0.1644978573
 40
0.2680691302
 40
0.3870045153
 40
0.5215428968
 40
0.6707931512
 40
0.8319690447
 40
1.0
 40
1.0
 40
1.0
 40
1.0
 10
6.1175878965
 20
3.9113837149
 30
0.0
 10
6.117695301
 20
3.9110774453
 30
0.0
 10
6.1179024475
 20
3.9104002978
 30
0.0
 10
6.1181747621
 20
3.9092795031
 30
0.0
 10
6.1184278464
 20
3.9079632436
 30
0.0
 10
6.118655123
 20
3.9064441622
 30
0.0
 10
6.1188481971
 20
3.9047225258
 30
0.0
 10
6.1189971814
 20
3.9028142453
 30
0.0
 10
6.119091978
 20
3.9007583185
 30
0.0
 10
6.1191135679
 20
3.8993423357
 30
0.0
 10
6.1191135679
 20
3.8986196534
 30
0.0
  0
SPLINE
  5
4BD
100
AcDbEntity
  8
0
100
AcDbSpline
 62
7
  6
CONTINUOUS
 70
0
 71
3
 72
15
 73
11
 74
0
 42
0.0000001
 43
0.0000001
 44
0.0000000001
 40
0.0
 40
0.0
 40
0.0
 40
0.0
 40
0.1253715824
 40
0.2506748514
 40
0.3758766597
 40
0.5009463964
 40
0.6258805096
 40
0.7506794469
 40
0.8754051307
 40
1.0
 40
1.0
 40
1.0
 40
1.0
 10
6.107936888
 20
3.8986196534
 30
0.0
 10
6.107936888
 20
3.8993261673
 30
0.0
 10
6.1080724598
 20
3.9007423953
 30
0.0
 10
6.1086654738
 20
3.9027874293
 30
0.0
 10
6.1096032477
 20
3.904695973
 30
0.0
 10
6.1108285069
 20
3.906428913
 30
0.0
 10
6.112283968
 20
3.907968226
 30
0.0
 10
6.113919553
 20
3.9093095795
 30
0.0
 10
6.1156938223
 20
3.9104556092
 30
0.0
 10
6.1169480576
 20
3.9110945741
 30
0.0
 10
6.1175878965
 20
3.9113837149
 30
0.0
  0
SPLINE
  5
4BE
100
AcDbEntity
  8
0
100
AcDbSpline
 62
7
  6
CONTINUOUS
 70
0
 71
3
 72
15
 73
11
 74
0
 42
0.0000001
 43
0.0000001
 44
0.0000000001
 40
0.0
 40
0.0
 40
0.0
 40
0.0
 40
0.0739571992
 40
0.1620431857
 40
0.2651483549
 40
0.384045923
 40
0.5189263664
 40
0.6688417201
 40
0.8309263997
 40
1.0
 40
1.0
 40
1.0
 40
1.0
 10
6.1018477731
 20
3.9113837149
 30
0.0
 10
6.1019175261
 20
3.9110754089
 30
0.0
 10
6.102051505
 20
3.9103956134
 30
0.0
 10
6.1022268978
 20
3.9092758038
 30
0.0
 10
6.1023899796
 20
3.9079603338
 30
0.0
 10
6.1025364831
 20
3.9064418818
 30
0.0
 10
6.1026609588
 20
3.9047208133
 30
0.0
 10
6.1027570186
 20
3.9028130881
 30
0.0
 10
6.1028181424
 20
3.9007577211
 30
0.0
 10
6.1028320622
 20
3.8993422857
 30
0.0
 10
6.1028320622
 20
3.8986196534
 30
0.0
  0
SPLINE
  5
4BF
100
AcDbEntity
  8
0
100
AcDbSpline
 62
7
  6
CONTINUOUS
 70
0
 71
3
 72
14
 73
10
 74
0
 42
0.0000001
 43
0.0000001
 44
0.0000000001
 40
0.0
 40
0.0
 40
0.0
 40
0.0
 40
0.1251437509
 40
0.2502662769
 40
0.3753680702
 40
0.5004338026
 40
0.6254600179
 40
0.7504382359
 40
1.0
 40
1.0
 40
1.0
 40
1.0
 10
6.0921432064
 20
3.8986196534
 30
0.0
 10
6.0921432064
 20
3.8993262026
 30
0.0
 10
6.0922795942
 20
3.9007428044
 30
0.0
 10
6.0928760787
 20
3.9027880769
 30
0.0
 10
6.0938192502
 20
3.9046966892
 30
0.0
 10
6.0950513474
 20
3.9064295135
 30
0.0
 10
6.0965151474
 20
3.9079688447
 30
0.0
 10
6.0987049907
 20
3.9097549288
 30
0.0
 10
6.1005625876
 20
3.9108061495
 30
0.0
 10
6.1018477731
 20
3.9113837149
 30
0.0
  0
SPLINE
  5
4C0
100
AcDbEntity
  8
0
100
AcDbSpline
 62
7
  6
CONTINUOUS
 70
0
 71
3
 72
14
 73
10
 74
0
 42
0.0000001
 43
0.0000001
 44
0.0000000001
 40
0.0
 40
0.0
 40
0.0
 40
0.0
 40
0.0730694043
 40
0.16060112
 40
0.2634372976
 40
0.3823164724
 40
0.5173996064
 40
0.6677050758
 40
1.0
 40
1.0
 40
1.0
 40
1.0
 10
6.0868327909
 20
3.9113837149
 30
0.0
 10
6.0868641168
 20
3.9110741248
 30
0.0
 10
6.0869241229
 20
3.9103927704
 30
0.0
 10
6.0870024836
 20
3.9092736044
 30
0.0
 10
6.0870753664
 20
3.9079586322
 30
0.0
 10
6.0871408532
 20
3.9064405618
 30
0.0
 10
6.0871965094
 20
3.9047198277
 30
0.0
 10
6.0872556683
 20
3.9020900173
 30
0.0
 10
6.0872729997
 20
3.9000347538
 30
0.0
 10
6.0872729997
 20
3.8986196534
 30
0.0
  0
SPLINE
  5
4C1
100
AcDbEntity
  8
0
100
AcDbSpline
 62
7
  6
CONTINUOUS
 70
0
 71
3
 72
14
 73
10
 74
0
 42
0.0000001
 43
0.0000001
 44
0.0000000001
 40
0.0
 40
0.0
 40
0.0
 40
0.0
 40
0.1250085531
 40
0.2500196063
 40
0.3750505669
 40
0.5000937511
 40
0.6251456956
 40
0.7501933892
 40
1.0
 40
1.0
 40
1.0
 40
1.0
 10
6.0771012654
 20
3.8986196534
 30
0.0
 10
6.0771012654
 20
3.8993262204
 30
0.0
 10
6.0772380639
 20
3.9007430108
 30
0.0
 10
6.0778362985
 20
3.9027884047
 30
0.0
 10
6.0787821787
 20
3.9046970454
 30
0.0
 10
6.0800177501
 20
3.9064298307
 30
0.0
 10
6.0814856257
 20
3.9079690961
 30
0.0
 10
6.0836818489
 20
3.9097553446
 30
0.0
 10
6.0855443216
 20
3.9108062779
 30
0.0
 10
6.0868327909
 20
3.9113837149
 30
0.0
  0
SPLINE
  5
4C2
100
AcDbEntity
  8
0
100
AcDbSpline
 62
7
  6
CONTINUOUS
 70
0
 71
3
 72
14
 73
10
 74
0
 42
0.0000001
 43
0.0000001
 44
0.0000000001
 40
0.0
 40
0.0
 40
0.0
 40
0.0
 40
0.1250071232
 40
0.2500169977
 40
0.3750472095
 40
0.5000901557
 40
0.6251423726
 40
0.750190801
 40
1.0
 40
1.0
 40
1.0
 40
1.0
 10
6.062852294
 20
3.8986196534
 30
0.0
 10
6.062852294
 20
3.8993262206
 30
0.0
 10
6.0629890969
 20
3.900743013
 30
0.0
 10
6.06358735
 20
3.9027884082
 30
0.0
 10
6.0645332589
 20
3.9046970492
 30
0.0
 10
6.065768867
 20
3.906429834
 30
0.0
 10
6.0672367857
 20
3.9079690988
 30
0.0
 10
6.0694330765
 20
3.909755349
 30
0.0
 10
6.0712956008
 20
3.9108062793
 30
0.0
 10
6.0725841048
 20
3.9113837149
 30
0.0
  0
SPLINE
  5
4C3
100
AcDbEntity
  8
0
100
AcDbSpline
 62
7
  6
CONTINUOUS
 70
0
 71
3
 72
16
 73
12
 74
0
 42
0.0000001
 43
0.0000001
 44
0.0000000001
 40
0.0
 40
0.0
 40
0.0
 40
0.0
 40
0.1332972872
 40
0.1995064207
 40
0.2651581747
 40
0.394326095
 40
0.5205147776
 40
0.6438105837
 40
0.7645362438
 40
0.8831543636
 40
1.0
 40
1.0
 40
1.0
 40
1.0
 10
6.7571077664
 20
3.6631196534
 30
0.0
 10
6.7571077664
 20
3.6623942132
 30
0.0
 10
6.7570105833
 20
3.6613053131
 30
0.0
 10
6.7566948162
 20
3.6598959544
 30
0.0
 10
6.7562674722
 20
3.6585395326
 30
0.0
 10
6.755538603
 20
3.6569429865
 30
0.0
 10
6.7544047038
 20
3.6552138441
 30
0.0
 10
6.7530742786
 20
3.6536930051
 30
0.0
 10
6.7515957029
 20
3.6523786632
 30
0.0
 10
6.7500065735
 20
3.6512620949
 30
0.0
 10
6.7488847183
 20
3.6506375911
 30
0.0
 10
6.7483147599
 20
3.6503555918
 30
0.0
  0
SPLINE
  5
4C4
100
AcDbEntity
  8
0
100
AcDbSpline
 62
7
  6
CONTINUOUS
 70
0
 71
3
 72
14
 73
10
 74
0
 42
0.0000001
 43
0.0000001
 44
0.0000000001
 40
0.0
 40
0.0
 40
0.0
 40
0.0
 40
0.1251394606
 40
0.2502584487
 40
0.3753579931
 40
0.5004230088
 40
0.6254500397
 40
0.7504304625
 40
1.0
 40
1.0
 40
1.0
 40
1.0
 10
6.0494353476
 20
3.8986196534
 30
0.0
 10
6.0494353476
 20
3.8993262031
 30
0.0
 10
6.0495717485
 20
3.900742811
 30
0.0
 10
6.0501682884
 20
3.9027880873
 30
0.0
 10
6.0511115459
 20
3.9046967005
 30
0.0
 10
6.0523437533
 20
3.9064295235
 30
0.0
 10
6.0538076825
 20
3.9079688527
 30
0.0
 10
6.0559977282
 20
3.9097549421
 30
0.0
 10
6.0578554798
 20
3.9108061536
 30
0.0
 10
6.0591407694
 20
3.9113837149
 30
0.0
  0
SPLINE
  5
4C5
100
AcDbEntity
  8
0
100
AcDbSpline
 62
7
  6
CONTINUOUS
 70
0
 71
3
 72
15
 73
11
 74
0
 42
0.0000001
 43
0.0000001
 44
0.0000000001
 40
0.0
 40
0.0
 40
0.0
 40
0.0
 40
0.1253644358
 40
0.2506618087
 40
0.3758598654
 40
0.500928403
 40
0.625863874
 40
0.7506664904
 40
0.87539784
 40
1.0
 40
1.0
 40
1.0
 40
1.0
 10
6.0368872011
 20
3.8986196534
 30
0.0
 10
6.0368872011
 20
3.8993261683
 30
0.0
 10
6.0370227946
 20
3.9007424061
 30
0.0
 10
6.0376159009
 20
3.9027874465
 30
0.0
 10
6.0385538176
 20
3.9046959918
 30
0.0
 10
6.0397792601
 20
3.9064289298
 30
0.0
 10
6.0412349364
 20
3.9079682394
 30
0.0
 10
6.0428707616
 20
3.9093095894
 30
0.0
 10
6.0446452908
 20
3.9104556161
 30
0.0
 10
6.0458997025
 20
3.9110945757
 30
0.0
 10
6.0465396321
 20
3.9113837149
 30
0.0
  0
SPLINE
  5
4C6
100
AcDbEntity
  8
0
100
AcDbSpline
 62
7
  6
CONTINUOUS
 70
0
 71
3
 72
16
 73
12
 74
0
 42
0.0000001
 43
0.0000001
 44
0.0000000001
 40
0.0
 40
0.0
 40
0.0
 40
0.0
 40
0.1349243468
 40
0.2018508109
 40
0.2681174443
 40
0.3981325059
 40
0.5245890968
 40
0.6475757774
 40
0.7674690278
 40
0.8848055119
 40
1.0
 40
1.0
 40
1.0
 40
1.0
 10
6.761635655
 20
3.6631196534
 30
0.0
 10
6.761635655
 20
3.6623944064
 30
0.0
 10
6.7615420253
 20
3.6613064792
 30
0.0
 10
6.7612371932
 20
3.6598967071
 30
0.0
 10
6.7608251654
 20
3.6585417141
 30
0.0
 10
6.7601229738
 20
3.6569470821
 30
0.0
 10
6.7590289393
 20
3.6552176241
 30
0.0
 10
6.7577447943
 20
3.653696131
 30
0.0
 10
6.7563173176
 20
3.6523810502
 30
0.0
 10
6.7547829199
 20
3.6512638081
 30
0.0
 10
6.7536980326
 20
3.6506380056
 30
0.0
 10
6.7531469929
 20
3.6503555918
 30
0.0
  0
SPLINE
  5
4C7
100
AcDbEntity
  8
0
100
AcDbSpline
 62
7
  6
CONTINUOUS
 70
0
 71
3
 72
15
 73
11
 74
0
 42
0.0000001
 43
0.0000001
 44
0.0000000001
 40
0.0
 40
0.0
 40
0.0
 40
0.0
 40
0.1257642114
 40
0.2513915568
 40
0.3767997765
 40
0.5019357367
 40
0.6267954787
 40
0.7513922739
 40
0.8758063445
 40
1.0
 40
1.0
 40
1.0
 40
1.0
 10
6.0252422482
 20
3.8986196534
 30
0.0
 10
6.0252422482
 20
3.8993261164
 30
0.0
 10
6.0253766345
 20
3.9007418038
 30
0.0
 10
6.0259645905
 20
3.9027864858
 30
0.0
 10
6.0268945279
 20
3.9046949414
 30
0.0
 10
6.028109731
 20
3.9064279886
 30
0.0
 10
6.029553389
 20
3.9079674886
 30
0.0
 10
6.0311757956
 20
3.9093090356
 30
0.0
 10
6.0329358101
 20
3.9104552319
 30
0.0
 10
6.0341803706
 20
3.9110944852
 30
0.0
 10
6.0348152317
 20
3.9113837149
 30
0.0
  0
SPLINE
  5
4C8
100
AcDbEntity
  8
0
100
AcDbSpline
 62
7
  6
CONTINUOUS
 70
0
 71
3
 72
15
 73
11
 74
0
 42
0.0000001
 43
0.0000001
 44
0.0000000001
 40
0.0
 40
0.0
 40
0.0
 40
0.0
 40
0.1262979712
 40
0.2523663271
 40
0.3780560954
 40
0.5032831794
 40
0.6280425452
 40
0.7523644867
 40
0.8763538824
 40
1.0
 40
1.0
 40
1.0
 40
1.0
 10
6.0145324067
 20
3.8986196534
 30
0.0
 10
6.0145324067
 20
3.899326048
 30
0.0
 10
6.0146651909
 20
3.9007410098
 30
0.0
 10
6.0152463039
 20
3.902785214
 30
0.0
 10
6.0161656309
 20
3.9046935435
 30
0.0
 10
6.0173672111
 20
3.906426729
 30
0.0
 10
6.0187948765
 20
3.9079664785
 30
0.0
 10
6.0203994275
 20
3.9093082871
 30
0.0
 10
6.0221401295
 20
3.9104547107
 30
0.0
 10
6.0233715846
 20
3.9110943622
 30
0.0
 10
6.0239997039
 20
3.9113837149
 30
0.0
  0
SPLINE
  5
4C9
100
AcDbEntity
  8
0
100
AcDbSpline
 62
7
  6
CONTINUOUS
 70
0
 71
3
 72
18
 73
14
 74
0
 42
0.0000001
 43
0.0000001
 44
0.0000000001
 40
0.0
 40
0.0
 40
0.0
 40
0.0
 40
0.1366750328
 40
0.2043742274
 40
0.2713040073
 40
0.4022344251
 40
0.5289798212
 40
0.5908226613
 40
0.6516901612
 40
0.7116266105
 40
0.7707193144
 40
0.8866379326
 40
1.0
 40
1.0
 40
1.0
 40
1.0
 10
6.765080252
 20
3.6631196534
 30
0.0
 10
6.765080252
 20
3.6623946067
 30
0.0
 10
6.7649904242
 20
3.6613076911
 30
0.0
 10
6.7646973669
 20
3.6598974973
 30
0.0
 10
6.7643017611
 20
3.658544002
 30
0.0
 10
6.7636282582
 20
3.6569515564
 30
0.0
 10
6.7627448966
 20
3.6554980528
 30
0.0
 10
6.7619453113
 20
3.6544426043
 30
0.0
 10
6.7613108164
 20
3.653709424
 30
0.0
 10
6.7606421053
 20
3.6530277071
 30
0.0
 10
6.7597168251
 20
3.6521917164
 30
0.0
 10
6.7584948961
 20
3.6512657157
 30
0.0
 10
6.7574498799
 20
3.6506384885
 30
0.0
 10
6.7569192012
 20
3.6503555918
 30
0.0
  0
SPLINE
  5
4CA
100
AcDbEntity
  8
0
100
AcDbSpline
 62
7
  6
CONTINUOUS
 70
0
 71
3
 72
15
 73
11
 74
0
 42
0.0000001
 43
0.0000001
 44
0.0000000001
 40
0.0
 40
0.0
 40
0.0
 40
0.0
 40
0.1269658221
 40
0.2535867231
 40
0.379630335
 40
0.5049732
 40
0.6296081596
 40
0.7535861302
 40
0.8770424436
 40
1.0
 40
1.0
 40
1.0
 40
1.0
 10
6.0047870317
 20
3.8986196534
 30
0.0
 10
6.0047870317
 20
3.8993259639
 30
0.0
 10
6.0049178259
 20
3.900740032
 30
0.0
 10
6.0054904294
 20
3.9027836403
 30
0.0
 10
6.0063965479
 20
3.9046918022
 30
0.0
 10
6.0075811576
 20
3.9064251485
 30
0.0
 10
6.0089888956
 20
3.9079652023
 30
0.0
 10
6.0105711984
 20
3.9093073358
 30
0.0
 10
6.0122878395
 20
3.9104540449
 30
0.0
 10
6.0135029701
 20
3.9110942045
 30
0.0
 10
6.0141226933
 20
3.9113837149
 30
0.0
  0
SPLINE
  5
4CB
100
AcDbEntity
  8
0
100
AcDbSpline
 62
7
  6
CONTINUOUS
 70
0
 71
3
 72
16
 73
12
 74
0
 42
0.0000001
 43
0.0000001
 44
0.0000000001
 40
0.0
 40
0.0
 40
0.0
 40
0.0
 40
0.127752576
 40
0.1915377603
 40
0.255142073
 40
0.3815977609
 40
0.5070673262
 40
0.6315398368
 40
0.7550899516
 40
0.8778889692
 40
1.0
 40
1.0
 40
1.0
 40
1.0
 10
5.9960328346
 20
3.8986196534
 30
0.0
 10
5.9960328346
 20
3.8993258649
 30
0.0
 10
5.9961294495
 20
3.9003878194
 30
0.0
 10
5.9964435486
 20
3.901764096
 30
0.0
 10
5.9968730588
 20
3.9031016808
 30
0.0
 10
5.9976141224
 20
3.9046898687
 30
0.0
 10
5.9987783961
 20
3.9064232053
 30
0.0
 10
6.0001623384
 20
3.9079636619
 30
0.0
 10
6.0017180511
 20
3.9093061685
 30
0.0
 10
6.0034059455
 20
3.9104532256
 30
0.0
 10
6.0046015756
 20
3.9110940096
 30
0.0
 10
6.0052112722
 20
3.9113837149
 30
0.0
  0
SPLINE
  5
4CC
100
AcDbEntity
  8
0
100
AcDbSpline
 62
7
  6
CONTINUOUS
 70
0
 71
3
 72
17
 73
13
 74
0
 42
0.0000001
 43
0.0000001
 44
0.0000000001
 40
0.0
 40
0.0
 40
0.0
 40
0.0
 40
0.1385850312
 40
0.2071306466
 40
0.2747905339
 40
0.4067431312
 40
0.5338379159
 40
0.5955961671
 40
0.6562129307
 40
0.7742219987
 40
0.8886210211
 40
1.0
 40
1.0
 40
1.0
 40
1.0
 10
6.767432116
 20
3.6631196534
 30
0.0
 10
6.767432116
 20
3.6623948121
 30
0.0
 10
6.7673463266
 20
3.6613089384
 30
0.0
 10
6.7670658451
 20
3.6598983128
 30
0.0
 10
6.7666877357
 20
3.6585463975
 30
0.0
 10
6.7660446435
 20
3.6569562077
 30
0.0
 10
6.7651987315
 20
3.6555006835
 30
0.0
 10
6.764432407
 20
3.6544436397
 30
0.0
 10
6.7636300555
 20
3.653474701
 30
0.0
 10
6.7625447809
 20
3.6523867465
 30
0.0
 10
6.7611324837
 20
3.6512680764
 30
0.0
 10
6.7601299758
 20
3.6506390507
 30
0.0
 10
6.7596210453
 20
3.6503555918
 30
0.0
  0
SPLINE
  5
4CD
100
AcDbEntity
  8
0
100
AcDbSpline
 62
7
  6
CONTINUOUS
 70
0
 71
3
 72
16
 73
12
 74
0
 42
0.0000001
 43
0.0000001
 44
0.0000000001
 40
0.0
 40
0.0
 40
0.0
 40
0.0
 40
0.1286888622
 40
0.1928894244
 40
0.2568523792
 40
0.383810039
 40
0.5094489557
 40
0.633752135
 40
0.7568205235
 40
0.8788665549
 40
1.0
 40
1.0
 40
1.0
 40
1.0
 10
5.9882938099
 20
3.8986196534
 30
0.0
 10
5.9882938099
 20
3.8993257522
 30
0.0
 10
5.9883883906
 20
3.9003871393
 30
0.0
 10
5.9886962446
 20
3.9017636554
 30
0.0
 10
5.9891168973
 20
3.9031003914
 30
0.0
 10
5.9898423451
 20
3.9046874514
 30
0.0
 10
5.9909831015
 20
3.906420976
 30
0.0
 10
5.9923394049
 20
3.9079618265
 30
0.0
 10
5.9938642605
 20
3.9093047783
 30
0.0
 10
5.9955187929
 20
3.910452239
 30
0.0
 10
5.9966917985
 20
3.9110937739
 30
0.0
 10
5.9972898662
 20
3.9113837149
 30
0.0
  0
SPLINE
  5
4CE
100
AcDbEntity
  8
0
100
AcDbSpline
 62
7
  6
CONTINUOUS
 70
0
 71
3
 72
16
 73
12
 74
0
 42
0.0000001
 43
0.0000001
 44
0.0000000001
 40
0.0
 40
0.0
 40
0.0
 40
0.0
 40
0.1297587488
 40
0.194434614
 40
0.2588086247
 40
0.3863439357
 40
0.51218117
 40
0.6362942251
 40
0.7588121539
 40
0.8799931895
 40
1.0
 40
1.0
 40
1.0
 40
1.0
 10
5.9815911699
 20
3.8986196534
 30
0.0
 10
5.9815911699
 20
3.899325627
 30
0.0
 10
5.9816834495
 20
3.9003863822
 30
0.0
 10
5.9819842137
 20
3.9017631631
 30
0.0
 10
5.9823948313
 20
3.9030989448
 30
0.0
 10
5.983102594
 20
3.9046847113
 30
0.0
 10
5.9842166502
 20
3.906418418
 30
0.0
 10
5.9855415584
 20
3.907959696
 30
0.0
 10
5.9870313619
 20
3.9093031473
 30
0.0
 10
5.9886480024
 20
3.9104510711
 30
0.0
 10
5.9897953183
 20
3.9110934934
 30
0.0
 10
5.9903801872
 20
3.9113837149
 30
0.0
  0
SPLINE
  5
4CF
100
AcDbEntity
  8
0
100
AcDbSpline
 62
7
  6
CONTINUOUS
 70
0
 71
3
 72
17
 73
13
 74
0
 42
0.0000001
 43
0.0000001
 44
0.0000000001
 40
0.0
 40
0.0
 40
0.0
 40
0.0
 40
0.1406171361
 40
0.2100651258
 40
0.2785052513
 40
0.4115563628
 40
0.5390346132
 40
0.6007064806
 40
0.6610573553
 40
0.7780289573
 40
0.8907820753
 40
1.0
 40
1.0
 40
1.0
 40
1.0
 10
6.7686848007
 20
3.6631196534
 30
0.0
 10
6.7686848007
 20
3.6623950203
 30
0.0
 10
6.7686032703
 20
3.6613102065
 30
0.0
 10
6.7683361345
 20
3.6598991475
 30
0.0
 10
6.7679765238
 20
3.6585488659
 30
0.0
 10
6.7673655483
 20
3.6569610919
 30
0.0
 10
6.7665594532
 20
3.6555035
 30
0.0
 10
6.7658285573
 20
3.654444776
 30
0.0
 10
6.7650655262
 20
3.6534771346
 30
0.0
 10
6.7640335448
 20
3.6523901929
 30
0.0
 10
6.7626882428
 20
3.651270684
 30
0.0
 10
6.7617309716
 20
3.6506397053
 30
0.0
 10
6.7612451197
 20
3.6503555918
 30
0.0
  0
SPLINE
  5
4D0
100
AcDbEntity
  8
0
100
AcDbSpline
 62
7
  6
CONTINUOUS
 70
0
 71
3
 72
16
 73
12
 74
0
 42
0.0000001
 43
0.0000001
 44
0.0000000001
 40
0.0
 40
0.0
 40
0.0
 40
0.0
 40
0.1309613784
 40
0.1961723368
 40
0.2610099596
 40
0.389199716
 40
0.5152660183
 40
0.6391697578
 40
0.7610690501
 40
0.8812719664
 40
1.0
 40
1.0
 40
1.0
 40
1.0
 10
5.975943286
 20
3.8986196534
 30
0.0
 10
5.975943286
 20
3.8993254907
 30
0.0
 10
5.9760330068
 20
3.9003855561
 30
0.0
 10
5.976325856
 20
3.9017626235
 30
0.0
 10
5.9767252959
 20
3.9030973524
 30
0.0
 10
5.9774133696
 20
3.90468166
 30
0.0
 10
5.9784976165
 20
3.9064155303
 30
0.0
 10
5.9797874532
 20
3.9079572585
 30
0.0
 10
5.9812380962
 20
3.9093012585
 30
0.0
 10
5.9828124102
 20
3.9104497042
 30
0.0
 10
5.9839310371
 20
3.9110931628
 30
0.0
 10
5.9845011741
 20
3.9113837149
 30
0.0
  0
SPLINE
  5
4D1
100
AcDbEntity
  8
0
100
AcDbSpline
 62
7
  6
CONTINUOUS
 70
0
 71
3
 72
17
 73
13
 74
0
 42
0.0000001
 43
0.0000001
 44
0.0000000001
 40
0.0
 40
0.0
 40
0.0
 40
0.0
 40
0.132286449
 40
0.1980875094
 40
0.263436882
 40
0.3923502012
 40
0.5186697815
 40
0.5808591752
 40
0.6424055506
 40
0.7636108781
 40
0.8827137662
 40
1.0
 40
1.0
 40
1.0
 40
1.0
 10
5.9713656386
 20
3.8986196534
 30
0.0
 10
5.9713656386
 20
3.8993253446
 30
0.0
 10
5.971452554
 20
3.9003846707
 30
0.0
 10
5.971736682
 20
3.9017620398
 30
0.0
 10
5.9721238508
 20
3.9030956378
 30
0.0
 10
5.9727902248
 20
3.9046782283
 30
0.0
 10
5.973671308
 20
3.9061311956
 30
0.0
 10
5.9744769924
 20
3.9071953912
 30
0.0
 10
5.9753329191
 20
3.9081837482
 30
0.0
 10
5.9765004226
 20
3.909299174
 30
0.0
 10
5.9780279995
 20
3.9104480946
 30
0.0
 10
5.9791150283
 20
3.9110927759
 30
0.0
 10
5.9796689411
 20
3.9113837149
 30
0.0
  0
SPLINE
  5
4D2
100
AcDbEntity
  8
0
100
AcDbSpline
 62
7
  6
CONTINUOUS
 70
0
 71
3
 72
15
 73
11
 74
0
 42
0.0000001
 43
0.0000001
 44
0.0000000001
 40
0.0
 40
0.0
 40
0.0
 40
0.0
 40
0.1337713365
 40
0.2660670486
 40
0.3958122468
 40
0.5224490278
 40
0.6458967762
 40
0.7663704126
 40
0.8842864807
 40
1.0
 40
1.0
 40
1.0
 40
1.0
 10
5.9678707748
 20
3.8986196534
 30
0.0
 10
5.9678707748
 20
3.8993251906
 30
0.0
 10
5.967982088
 20
3.9007309998
 30
0.0
 10
5.9684708383
 20
3.9027686822
 30
0.0
 10
5.9692460396
 20
3.9046745774
 30
0.0
 10
5.9702617343
 20
3.9064087993
 30
0.0
 10
5.9714707578
 20
3.907951408
 30
0.0
 10
5.9728311569
 20
3.9092966295
 30
0.0
 10
5.9743079462
 20
3.9104462857
 30
0.0
 10
5.9753604923
 20
3.9110923252
 30
0.0
 10
5.9758967329
 20
3.9113837149
 30
0.0
  0
SPLINE
  5
4D3
100
AcDbEntity
  8
0
100
AcDbSpline
 62
7
  6
CONTINUOUS
 70
0
 71
3
 72
15
 73
11
 74
0
 42
0.0000001
 43
0.0000001
 44
0.0000000001
 40
0.0
 40
0.0
 40
0.0
 40
0.0
 40
0.1353593835
 40
0.2689904322
 40
0.3996240535
 40
0.5265930885
 40
0.6497864086
 40
0.7694441578
 40
0.8860392775
 40
1.0
 40
1.0
 40
1.0
 40
1.0
 10
5.9654682737
 20
3.8986196534
 30
0.0
 10
5.9654682737
 20
3.8993250301
 30
0.0
 10
5.9655752101
 20
3.9007291155
 30
0.0
 10
5.9660449997
 20
3.9027654638
 30
0.0
 10
5.9667904274
 20
3.904670705
 30
0.0
 10
5.9677675281
 20
3.9064049352
 30
0.0
 10
5.9689310357
 20
3.9079479806
 30
0.0
 10
5.9702405733
 20
3.9092938428
 30
0.0
 10
5.9716624068
 20
3.9104441818
 30
0.0
 10
5.9726777209
 20
3.9110918017
 30
0.0
 10
5.9731948888
 20
3.9113837149
 30
0.0
  0
SPLINE
  5
4D4
100
AcDbEntity
  8
0
100
AcDbSpline
 62
7
  6
CONTINUOUS
 70
0
 71
3
 72
17
 73
13
 74
0
 42
0.0000001
 43
0.0000001
 44
0.0000000001
 40
0.0
 40
0.0
 40
0.0
 40
0.0
 40
0.1370479393
 40
0.2049793584
 40
0.272186902
 40
0.4037671976
 40
0.5310878259
 40
0.5931141514
 40
0.6540618985
 40
0.772825522
 40
0.8879701315
 40
1.0
 40
1.0
 40
1.0
 40
1.0
 10
5.9641647204
 20
3.8986196534
 30
0.0
 10
5.9641647204
 20
3.899324865
 30
0.0
 10
5.9642418409
 20
3.9003817447
 30
0.0
 10
5.9644952427
 20
3.9017600997
 30
0.0
 10
5.9648393761
 20
3.9030898209
 30
0.0
 10
5.9654301555
 20
3.9046666137
 30
0.0
 10
5.9662169287
 20
3.9061244526
 30
0.0
 10
5.9669378916
 20
3.9071926426
 30
0.0
 10
5.9676985123
 20
3.9081778133
 30
0.0
 10
5.9687357936
 20
3.9092907821
 30
0.0
 10
5.9700986552
 20
3.9104417534
 30
0.0
 10
5.9710740692
 20
3.9110911947
 30
0.0
 10
5.9715708144
 20
3.9113837149
 30
0.0
  0
ENDSEC
  0
SECTION
  2
OBJECTS
  0
DICTIONARY
  5
C
100
AcDbDictionary
280
0
281
1
  3
ACAD_GROUP
350
D
  3
ACAD_MLINESTYLE
350
17
  3
ACAD_LAYOUT
350
1A
  3
ACAD_PLOTSETTINGS
350
19
  3
ACAD_PLOTSTYLENAME
350
E
  0
DICTIONARY
  5
D
102
{ACAD_REACTORS
330
C
102
}
100
AcDbDictionary
280
0
281
1
  0
ACDBDICTIONARYWDFLT
  5
E
102
{ACAD_REACTORS
330
C
102
}
100
AcDbDictionary
281
1
  3
Normal
350
F
100
AcDbDictionaryWithDefault
340
F
  0
DICTIONARY
  5
17
102
{ACAD_REACTORS
330
C
102
}
100
AcDbDictionary
280
0
281
1
  3
Standard
350
18
  0
DICTIONARY
  5
19
102
{ACAD_REACTORS
330
C
102
}
100
AcDbDictionary
281
1
  0
DICTIONARY
  5
1A
102
{ACAD_REACTORS
330
C
102
}
100
AcDbDictionary
281
1
  3
Model
350
4D5
  3
Layout1
350
4D6
  0
ACDBPLACEHOLDER
  5
F
102
{ACAD_REACTORS
330
E
102
}
  0
MLINESTYLE
  5
18
102
{ACAD_REACTORS
330
17
102
}
100
AcDbMlineStyle
  2
STANDARD
 70
0
  3

 62
256
 51
90.0
 52
90.0
 71
2
 49
0.5
 62
256
  6
BYLAYER
 49
-0.5
 62
256
  6
BYLAYER
  0
LAYOUT
  5
4D5
102
{ACAD_REACTORS
330
1A
102
}
100
AcDbPlotSettings
  1

  2
none_device
  4
ANSI_A_(11.00_x_8.50_Inches)
  6

 40
0.0
 41
0.0
 42
0.0
 43
0.0
 44
279.4
 45
215.9
 46
0.0
 47
0.0
 48
0.0
 49
0.0
140
0.0
141
0.0
142
1.0
143
1.0
 70
1024
 72
0
 73
0
 74
0
  7

 75
0
147
1.0
148
0.0
149
0.0
100
AcDbLayout
  1
Model
 70
0
 71
0
 10
0.0
 20
0.0
 11
11.0
 21
8.5
 12
0.0
 22
0.0
 32
0.0
 14
0.0
 24
0.0
 34
0.0
 15
0.0
 25
0.0
 35
0.0
146
0.0
 13
0.0
 23
0.0
 33
0.0
 16
1.0
 26
0.0
 36
0.0
 17
0.0
 27
1.0
 37
0.0
 76
0
330
203
345
0
346
0
  0
LAYOUT
  5
4D6
102
{ACAD_REACTORS
330
1A
102
}
100
AcDbPlotSettings
  1

  2
none_device
  4
ANSI_A_(11.00_x_8.50_Inches)
  6

 40
0.0
 41
0.0
 42
0.0
 43
0.0
 44
279.4
 45
215.9
 46
0.0
 47
0.0
 48
0.0
 49
0.0
140
0.0
141
0.0
142
1.0
143
1.0
 70
0
 72
0
 73
0
 74
0
  7

 75
0
147
1.0
148
0.0
149
0.0
100
AcDbLayout
  1
Layout1
 70
0
 71
1
 10
0.0
 20
0.0
 11
11.0
 21
8.5
 12
0.0
 22
0.0
 32
0.0
 14
0.0
 24
0.0
 34
0.0
 15
0.0
 25
0.0
 35
0.0
146
0.0
 13
0.0
 23
0.0
 33
0.0
 16
1.0
 26
0.0
 36
0.0
 17
0.0
 27
1.0
 37
0.0
 76
0
330
204
345
0
346
0
  0
ENDSEC
  0
EOF
