999
DXF file: 3230-5623_Right.dxf
999
Pro/ENGINEER 2023134 by Parametric Technology Corporation
  0
SECTION
  2
HEADER
  9
$ACADVER
  1
AC1032
  9
$DWGCODEPAGE
  3
ANSI_1252
  9
$EXTMAX
 10
11.0
 20
8.5
 30
0.0
  9
$EXTMIN
 10
0.0
 20
0.0
 30
0.0
  9
$LIMMIN
 10
0.0
 20
0.0
  9
$LIMMAX
 10
11.0
 20
8.5
  9
$VIEWCTR
 10
5.5
 20
4.25
  9
$VIEWSIZE
 40
8.5
  9
$CLAYER
  8
0
  9
$LTSCALE
 40
0.605
  9
$CELTYPE
  6
BYLAYER
  9
$DIMSCALE
 40
1.0
  9
$DIMASZ
 40
0.1
  9
$DIMEXO
 40
0.0625
  9
$DIMDLI
 40
0.418
  9
$DIMEXE
 40
0.125
  9
$DIMCEN
 40
0.099
  9
$DIMLFAC
 40
1.0
  9
$DIMBLK
  1
_FILLED
  9
$DIMALT
 70
1
  9
$DIMALTD
 70
2
  9
$DIMALTTD
 70
2
  9
$DIMALTF
 40
25.4
  9
$DIMTXT
 40
0.08
  9
$DIMTOL
 70
1
  9
$DIMLIM
 70
0
  9
$DIMTFAC
 40
1.0
  9
$DIMTP
 40
0.001
  9
$DIMTM
 40
0.001
  9
$DIMGAP
 40
0.09
  9
$DIMDSEP
 70
46
  9
$AUNITS
 70
0
  9
$PDMODE
 70
3
  9
$PDSIZE
 40
0.3125
  9
$HANDSEED
  5
4D7
  9
$TILEMODE
 70
1
  9
$MEASUREMENT
 70
0
  9
$INSUNITS
 70
1
  0
ENDSEC
  0
SECTION
  2
CLASSES
  0
CLASS
  1
ACDBDICTIONARYWDFLT
  2
AcDbDictionaryWithDefault
  3
AutoCAD 2000
 90
0
 91
1
280
0
281
0
  0
CLASS
  1
ACDBPLACEHOLDER
  2
AcDbPlaceHolder
  3
AutoCAD 2000
 90
0
 91
1
280
0
281
0
  0
CLASS
  1
LAYOUT
  2
AcDbLayout
  3
AutoCAD 2000
 90
0
 91
0
280
0
281
0
  0
ENDSEC
  0
SECTION
  2
TABLES
  0
TABLE
  2
VPORT
  5
8
100
AcDbSymbolTable
 70
2
  0
VPORT
  5
1F4
100
AcDbSymbolTableRecord
100
AcDbViewportTableRecord
  2
*ACTIVE
 70
0
 10
0.0
 20
0.0
 11
1.0
 21
1.0
 12
5.5
 22
4.25
 13
0.0
 23
0.0
 14
1.0
 24
1.0
 15
0.0
 25
0.0
 16
0.0
 26
0.0
 36
1.0
 17
0.0
 27
0.0
 37
0.0
 40
8.5
 41
1.2941176471
 42
50.0
 43
0.0
 44
0.0
 50
0.0
 51
0.0
 71
0
 72
100
 73
1
 74
1
 75
0
 76
0
 77
0
 78
0
  0
ENDTAB
  0
TABLE
  2
LTYPE
  5
5
100
AcDbSymbolTable
 70
6
  0
LTYPE
  5
14
100
AcDbSymbolTableRecord
100
AcDbLinetypeTableRecord
  2
BYBLOCK
 70
0
  3

 72
65
 73
0
 40
0.0
  0
LTYPE
  5
15
100
AcDbSymbolTableRecord
100
AcDbLinetypeTableRecord
  2
BYLAYER
 70
0
  3

 72
65
 73
0
 40
0.0
  0
LTYPE
  5
16
100
AcDbSymbolTableRecord
100
AcDbLinetypeTableRecord
  2
CONTINUOUS
 70
64
  3
Solid line
 72
65
 73
0
 40
0.0
  0
LTYPE
  5
1F5
100
AcDbSymbolTableRecord
100
AcDbLinetypeTableRecord
  2
CENTER
 70
64
  3
____ _ ____ _ ____ _ ____ _ ____ _ ____ _ ____
 72
65
 73
4
 40
0.6
 49
0.375
 74
0
 49
-0.075
 74
0
 49
0.075
 74
0
 49
-0.075
 74
0
  0
LTYPE
  5
1F6
100
AcDbSymbolTableRecord
100
AcDbLinetypeTableRecord
  2
HIDDEN
 70
64
  3
- - - - - - - - - - - - - - - - - - - -
 72
65
 73
2
 40
0.2
 49
0.1
 74
0
 49
-0.1
 74
0
  0
LTYPE
  5
1F7
100
AcDbSymbolTableRecord
100
AcDbLinetypeTableRecord
  2
PHANTOM
 70
64
  3
_____ _ _ _____ _ _ _____ _ _ _____
 72
65
 73
6
 40
0.8
 49
0.45
 74
0
 49
-0.05
 74
0
 49
0.1
 74
0
 49
-0.05
 74
0
 49
0.1
 74
0
 49
-0.05
 74
0
  0
LTYPE
  5
1F8
100
AcDbSymbolTableRecord
100
AcDbLinetypeTableRecord
  2
DOT
 70
64
  3
. . . . . . . . . . . . . . . . . . . .
 72
65
 73
2
 40
0.2
 49
0.1
 74
0
 49
-0.1
 74
0
  0
LTYPE
  5
1F9
100
AcDbSymbolTableRecord
100
AcDbLinetypeTableRecord
  2
DASHED
 70
64
  3
- - - - - - - - - - - - - - - - - - - -
 72
65
 73
2
 40
0.2
 49
0.1
 74
0
 49
-0.1
 74
0
  0
ENDTAB
  0
TABLE
  2
LAYER
  5
2
100
AcDbSymbolTable
 70
36
  0
LAYER
  5
10
100
AcDbSymbolTableRecord
100
AcDbLayerTableRecord
  2
0
 70
0
 62
7
  6
CONTINUOUS
370
-3
390
F
  0
LAYER
  5
1FA
100
AcDbSymbolTableRecord
100
AcDbLayerTableRecord
  2
DEFAULT_1
 70
0
 62
7
  6
CENTER
370
-3
390
F
  0
LAYER
  5
1FB
100
AcDbSymbolTableRecord
100
AcDbLayerTableRecord
  2
DEFAULT_2
 70
0
 62
8
  6
HIDDEN
370
-3
390
F
  0
LAYER
  5
1FC
100
AcDbSymbolTableRecord
100
AcDbLayerTableRecord
  2
DEFAULT_3
 70
0
 62
7
  6
PHANTOM
370
-3
390
F
  0
LAYER
  5
1FD
100
AcDbSymbolTableRecord
100
AcDbLayerTableRecord
  2
DEFAULT_COORDINATE_SYSTEM
 70
0
 62
7
  6
CONTINUOUS
370
-3
390
F
  0
LAYER
  5
1FE
100
AcDbSymbolTableRecord
100
AcDbLayerTableRecord
  2
DEFAULT_DATUM_AXES
 70
0
 62
7
  6
CONTINUOUS
370
-3
390
F
  0
LAYER
  5
1FF
100
AcDbSymbolTableRecord
100
AcDbLayerTableRecord
  2
DEFAULT_DATUM_CURVES
 70
0
 62
7
  6
CONTINUOUS
370
-3
390
F
  0
LAYER
  5
200
100
AcDbSymbolTableRecord
100
AcDbLayerTableRecord
  2
DEFAULT_DATUM_PLANES
 70
0
 62
7
  6
CONTINUOUS
370
-3
390
F
  0
ENDTAB
  0
TABLE
  2
STYLE
  5
3
100
AcDbSymbolTable
 70
1
  0
STYLE
  5
11
100
AcDbSymbolTableRecord
100
AcDbTextStyleTableRecord
  2
STANDARD
 70
0
 40
0.0
 41
0.8
 50
0.0
 71
0
 42
0.2
  3
txt
  4

  0
STYLE
  5
201
100
AcDbSymbolTableRecord
100
AcDbTextStyleTableRecord
  2
TEXTSTYLE_1
 70
0
 40
0.0
 41
0.8
 50
0.0
 71
0
 42
0.2
  3
gdt
  4

  0
ENDTAB
  0
TABLE
  2
VIEW
  5
6
100
AcDbSymbolTable
 70
0
  0
ENDTAB
  0
TABLE
  2
UCS
  5
7
100
AcDbSymbolTable
 70
0
  0
ENDTAB
  0
TABLE
  2
APPID
  5
9
100
AcDbSymbolTable
 70
1
  0
APPID
  5
202
100
AcDbSymbolTableRecord
100
AcDbRegAppTableRecord
  2
ACAD
 70
0
  0
ENDTAB
  0
TABLE
  2
BLOCK_RECORD
  5
1
100
AcDbSymbolTable
 70
0
  0
BLOCK_RECORD
  5
203
100
AcDbSymbolTableRecord
100
AcDbBlockTableRecord
  2
*Model_Space
  0
BLOCK_RECORD
  5
204
100
AcDbSymbolTableRecord
100
AcDbBlockTableRecord
  2
*Paper_Space
  0
BLOCK_RECORD
  5
205
100
AcDbSymbolTableRecord
100
AcDbBlockTableRecord
  2
_FILLED
  0
ENDTAB
  0
TABLE
  2
DIMSTYLE
  5
A
100
AcDbSymbolTable
 70
1
100
AcDbDimStyleTable
 71
0
  0
DIMSTYLE
105
206
100
AcDbSymbolTableRecord
100
AcDbDimStyleTableRecord
  2
STANDARD
 70
0
  3

  4

 40
1.0
 41
0.1
 42
0.0625
 43
0.38
 44
0.125
 45
0.0
 46
0.0
 47
0.001
 48
0.001
140
0.08
141
0.09
142
0.0
143
25.4
144
1.0
145
0.0
146
1.0
147
0.09
 71
1
 72
0
 73
1
 74
1
 75
0
 76
0
 77
0
 78
4
 79
1
170
1
171
2
172
0
173
0
174
0
175
0
176
0
177
0
178
0
270
2
179
3
271
3
272
3
273
2
274
2
275
0
280
0
281
0
282
0
283
1
284
4
285
0
286
0
287
3
288
0
340
11
278
46
341
205
342
205
343
205
344
205
  0
ENDTAB
  0
ENDSEC
  0
SECTION
  2
BLOCKS
  0
BLOCK
  5
20
100
AcDbEntity
  8
0
100
AcDbBlockBegin
  2
*Model_Space
 70
0
 10
0.0
 20
0.0
 30
0.0
  3
*Model_Space
  1

  0
ENDBLK
  5
21
100
AcDbEntity
  8
0
100
AcDbBlockEnd
  0
BLOCK
  5
1C
100
AcDbEntity
  8
0
100
AcDbBlockBegin
  2
*Paper_Space
 70
0
 10
0.0
 20
0.0
 30
0.0
  3
*Paper_Space
  1

  0
ENDBLK
  5
1D
100
AcDbEntity
  8
0
100
AcDbBlockEnd
  0
BLOCK
  5
207
100
AcDbEntity
  8
0
100
AcDbBlockBegin
  2
_FILLED
 70
64
 10
0.0
 20
0.0
  3
_FILLED
  1

  0
SOLID
  5
208
100
AcDbEntity
  8
0
  6
BYBLOCK
 62
0
100
AcDbTrace
 10
0.0
 20
0.0
 11
-1.0
 21
0.2
 12
-1.0
 22
-0.2
 13
-1.0
 23
-0.2
  0
ENDBLK
  5
209
100
AcDbEntity
  8
0
  6
BYBLOCK
 62
0
100
AcDbBlockEnd
  0
ENDSEC
  0
SECTION
  2
ENTITIES
  0
MTEXT
  5
20A
100
AcDbEntity
  8
0
100
AcDbMText
 62
2
  6
CONTINUOUS
  7
STANDARD
 71
2
 72
1
 10
5.5253208705
 20
1.7229796723
 30
0.0
 11
1.0
 21
0.0
 31
0.0
 73
2
 44
0.9
  1
SCALE 0.500
 40
0.08
 41
0.704
  0
LINE
  5
20B
100
AcDbEntity
  8
0
100
AcDbLine
 62
7
  6
CONTINUOUS
 10
0.0
 20
0.0
 11
0.0
 21
8.5
  0
LINE
  5
20C
100
AcDbEntity
  8
0
100
AcDbLine
 62
7
  6
CONTINUOUS
 10
0.0
 20
0.0
 11
11.0
 21
0.0
  0
LINE
  5
20D
100
AcDbEntity
  8
0
100
AcDbLine
 62
7
  6
CONTINUOUS
 10
0.0
 20
8.5
 11
11.0
 21
8.5
  0
LINE
  5
20E
100
AcDbEntity
  8
0
100
AcDbLine
 62
7
  6
CONTINUOUS
 10
11.0
 20
0.0
 11
11.0
 21
8.5
  0
LINE
  5
20F
100
AcDbEntity
  8
0
100
AcDbLine
 62
7
  6
CONTINUOUS
 10
5.6765708705
 20
2.2031108536
 11
6.8915708705
 21
2.2031108536
  0
LINE
  5
210
100
AcDbEntity
  8
0
100
AcDbLine
 62
7
  6
CONTINUOUS
 10
6.8915708705
 20
2.3112292963
 11
5.6765708705
 21
2.3112292963
  0
LINE
  5
211
100
AcDbEntity
  8
0
100
AcDbLine
 62
7
  6
CONTINUOUS
 10
6.8752203957
 20
2.3317081126
 11
5.6929213454
 21
2.3317081126
  0
LINE
  5
212
100
AcDbEntity
  8
0
100
AcDbLine
 62
7
  6
CONTINUOUS
 10
5.8206972738
 20
2.3679542177
 11
6.7474444672
 21
2.3679542177
  0
LINE
  5
213
100
AcDbEntity
  8
0
100
AcDbLine
 62
7
  6
CONTINUOUS
 10
5.8815708705
 20
2.4531108536
 11
6.6865708705
 21
2.4531108536
  0
LINE
  5
214
100
AcDbEntity
  8
0
100
AcDbLine
 62
7
  6
CONTINUOUS
 10
6.1499461421
 20
2.9388000094
 11
6.1584838009
 21
2.9410876682
  0
LINE
  5
215
100
AcDbEntity
  8
0
100
AcDbLine
 62
7
  6
CONTINUOUS
 10
6.501594056
 20
3.0330237839
 11
6.5101317147
 21
3.0353114427
  0
LINE
  5
216
100
AcDbEntity
  8
0
100
AcDbLine
 62
7
  6
CONTINUOUS
 10
6.1312987498
 20
2.9513261963
 11
6.1400033028
 21
2.9528610439
  0
LINE
  5
217
100
AcDbEntity
  8
0
100
AcDbLine
 62
7
  6
CONTINUOUS
 10
6.4898206802
 20
3.0145432859
 11
6.4985252332
 21
3.0160781334
  0
LINE
  5
218
100
AcDbEntity
  8
0
100
AcDbLine
 62
7
  6
CONTINUOUS
 10
6.1138140456
 20
2.9654299447
 11
6.1226192459
 21
2.9662002999
  0
LINE
  5
219
100
AcDbEntity
  8
0
100
AcDbLine
 62
7
  6
CONTINUOUS
 10
6.4764814242
 20
2.997159229
 11
6.4852866245
 21
2.9979295842
  0
LINE
  5
21A
100
AcDbEntity
  8
0
100
AcDbLine
 62
7
  6
CONTINUOUS
 10
6.3315708705
 20
2.9086108536
 11
6.2365708705
 21
2.9086108536
  0
LINE
  5
21B
100
AcDbEntity
  8
0
100
AcDbLine
 62
7
  6
CONTINUOUS
 10
6.2215708705
 20
2.9236108536
 11
6.3465708705
 21
2.9236108536
  0
LINE
  5
21C
100
AcDbEntity
  8
0
100
AcDbLine
 62
7
  6
CONTINUOUS
 10
6.0976250986
 20
2.9810039164
 11
6.1064639334
 21
2.9810039164
  0
LINE
  5
21D
100
AcDbEntity
  8
0
100
AcDbLine
 62
7
  6
CONTINUOUS
 10
6.4616778077
 20
2.9810039164
 11
6.4705166425
 21
2.9810039164
  0
LINE
  5
21E
100
AcDbEntity
  8
0
100
AcDbLine
 62
7
  6
CONTINUOUS
 10
6.0828551165
 20
2.9979295842
 11
6.0916603169
 21
2.997159229
  0
LINE
  5
21F
100
AcDbEntity
  8
0
100
AcDbLine
 62
7
  6
CONTINUOUS
 10
6.4455224952
 20
2.9662002999
 11
6.4543276955
 21
2.9654299447
  0
LINE
  5
220
100
AcDbEntity
  8
0
100
AcDbLine
 62
7
  6
CONTINUOUS
 10
4.1590708705
 20
5.7781108536
 11
4.1590708705
 21
5.4031108536
  0
LINE
  5
221
100
AcDbEntity
  8
0
100
AcDbLine
 62
7
  6
CONTINUOUS
 10
6.418195599
 20
3.3784216978
 11
6.4096579402
 21
3.376134039
  0
LINE
  5
222
100
AcDbEntity
  8
0
100
AcDbLine
 62
7
  6
CONTINUOUS
 10
6.0665476851
 20
3.2841979232
 11
6.0580100263
 21
3.2819102645
  0
LINE
  5
223
100
AcDbEntity
  8
0
100
AcDbLine
 62
7
  6
CONTINUOUS
 10
6.4368429913
 20
3.3658955108
 11
6.4281384383
 21
3.3643606633
  0
LINE
  5
224
100
AcDbEntity
  8
0
100
AcDbLine
 62
7
  6
CONTINUOUS
 10
6.0783210608
 20
3.3026784213
 11
6.0696165078
 21
3.3011435738
  0
LINE
  5
225
100
AcDbEntity
  8
0
100
AcDbLine
 62
7
  6
CONTINUOUS
 10
6.4543276955
 20
3.3517917625
 11
6.4455224952
 21
3.3510214073
  0
LINE
  5
226
100
AcDbEntity
  8
0
100
AcDbLine
 62
7
  6
CONTINUOUS
 10
6.0916603169
 20
3.3200624782
 11
6.0828551165
 21
3.319292123
  0
LINE
  5
227
100
AcDbEntity
  8
0
100
AcDbLine
 62
7
  6
CONTINUOUS
 10
6.0696165078
 20
3.0160781334
 11
6.0783210608
 21
3.0145432859
  0
LINE
  5
228
100
AcDbEntity
  8
0
100
AcDbLine
 62
7
  6
CONTINUOUS
 10
6.4281384383
 20
2.9528610439
 11
6.4368429913
 21
2.9513261963
  0
LINE
  5
229
100
AcDbEntity
  8
0
100
AcDbLine
 62
7
  6
CONTINUOUS
 10
6.0580100263
 20
3.0353114427
 11
6.0665476851
 21
3.0330237839
  0
LINE
  5
22A
100
AcDbEntity
  8
0
100
AcDbLine
 62
7
  6
CONTINUOUS
 10
6.4096579402
 20
2.9410876682
 11
6.418195599
 21
2.9388000094
  0
LINE
  5
22B
100
AcDbEntity
  8
0
100
AcDbLine
 62
7
  6
CONTINUOUS
 10
4.4090708705
 20
5.7781108536
 11
4.4090708705
 21
5.4031108536
  0
LINE
  5
22C
100
AcDbEntity
  8
0
100
AcDbLine
 62
7
  6
CONTINUOUS
 10
6.4705166425
 20
3.3362177907
 11
6.4616778077
 21
3.3362177907
  0
LINE
  5
22D
100
AcDbEntity
  8
0
100
AcDbLine
 62
7
  6
CONTINUOUS
 10
6.1064639334
 20
3.3362177907
 11
6.0976250986
 21
3.3362177907
  0
LINE
  5
22E
100
AcDbEntity
  8
0
100
AcDbLine
 62
7
  6
CONTINUOUS
 10
6.4852866245
 20
3.319292123
 11
6.4764814242
 21
3.3200624782
  0
LINE
  5
22F
100
AcDbEntity
  8
0
100
AcDbLine
 62
7
  6
CONTINUOUS
 10
6.1226192459
 20
3.3510214073
 11
6.1138140456
 21
3.3517917625
  0
LINE
  5
230
100
AcDbEntity
  8
0
100
AcDbLine
 62
7
  6
CONTINUOUS
 10
6.4985252332
 20
3.3011435738
 11
6.4898206802
 21
3.3026784213
  0
LINE
  5
231
100
AcDbEntity
  8
0
100
AcDbLine
 62
7
  6
CONTINUOUS
 10
6.1400033028
 20
3.3643606633
 11
6.1312987498
 21
3.3658955108
  0
LINE
  5
232
100
AcDbEntity
  8
0
100
AcDbLine
 62
7
  6
CONTINUOUS
 10
6.0481240044
 20
3.055483135
 11
6.0564297922
 21
3.0524600754
  0
LINE
  5
233
100
AcDbEntity
  8
0
100
AcDbLine
 62
7
  6
CONTINUOUS
 10
6.3902216487
 20
2.9309697752
 11
6.3985274365
 21
2.9279467157
  0
LINE
  5
234
100
AcDbEntity
  8
0
100
AcDbLine
 62
7
  6
CONTINUOUS
 10
6.0400336805
 20
3.0764396914
 11
6.0480443853
 21
3.0727042385
  0
LINE
  5
235
100
AcDbEntity
  8
0
100
AcDbLine
 62
7
  6
CONTINUOUS
 10
6.3699774857
 20
2.9225843683
 11
6.3779881904
 21
2.9188489154
  0
LINE
  5
236
100
AcDbEntity
  8
0
100
AcDbLine
 62
7
  6
CONTINUOUS
 10
5.8815708705
 20
3.6281108536
 11
6.2215708705
 21
3.6281108536
  0
LINE
  5
237
100
AcDbEntity
  8
0
100
AcDbLine
 62
7
  6
CONTINUOUS
 10
6.3465708705
 20
3.6281108536
 11
6.6865708705
 21
3.6281108536
  0
LINE
  5
238
100
AcDbEntity
  8
0
100
AcDbLine
 62
7
  6
CONTINUOUS
 10
5.8816439651
 20
3.6431108536
 11
5.8818276239
 21
3.6431108536
  0
LINE
  5
239
100
AcDbEntity
  8
0
100
AcDbLine
 62
7
  6
CONTINUOUS
 10
5.8825969175
 20
3.6431108536
 11
5.8831311772
 21
3.6431108536
  0
LINE
  5
23A
100
AcDbEntity
  8
0
100
AcDbLine
 62
7
  6
CONTINUOUS
 10
5.884650282
 20
3.6431108536
 11
5.8855336783
 21
3.6431108536
  0
LINE
  5
23B
100
AcDbEntity
  8
0
100
AcDbLine
 62
7
  6
CONTINUOUS
 10
5.8877984307
 20
3.6431108536
 11
5.8890285421
 21
3.6431108536
  0
LINE
  5
23C
100
AcDbEntity
  8
0
100
AcDbLine
 62
7
  6
CONTINUOUS
 10
5.8920327345
 20
3.6431108536
 11
5.8936061895
 21
3.6431108536
  0
LINE
  5
23D
100
AcDbEntity
  8
0
100
AcDbLine
 62
7
  6
CONTINUOUS
 10
5.8973415876
 20
3.6431108536
 11
5.8992540734
 21
3.6431108536
  0
LINE
  5
23E
100
AcDbEntity
  8
0
100
AcDbLine
 62
7
  6
CONTINUOUS
 10
5.9037104389
 20
3.6431108536
 11
5.9059567134
 21
3.6431108536
  0
LINE
  5
23F
100
AcDbEntity
  8
0
100
AcDbLine
 62
7
  6
CONTINUOUS
 10
5.9111218316
 20
3.6431108536
 11
5.9136957381
 21
3.6431108536
  0
LINE
  5
240
100
AcDbEntity
  8
0
100
AcDbLine
 62
7
  6
CONTINUOUS
 10
5.9195554517
 20
3.6431108536
 11
5.9224499352
 21
3.6431108536
  0
LINE
  5
241
100
AcDbEntity
  8
0
100
AcDbLine
 62
7
  6
CONTINUOUS
 10
5.9289881832
 20
3.6431108536
 11
5.9321953102
 21
3.6431108536
  0
LINE
  5
242
100
AcDbEntity
  8
0
100
AcDbLine
 62
7
  6
CONTINUOUS
 10
5.9393941717
 20
3.6431108536
 11
5.9429051517
 21
3.6431108536
  0
LINE
  5
243
100
AcDbEntity
  8
0
100
AcDbLine
 62
7
  6
CONTINUOUS
 10
5.9507448951
 20
3.6431108536
 11
5.9545501046
 21
3.6431108536
  0
LINE
  5
244
100
AcDbEntity
  8
0
100
AcDbLine
 62
7
  6
CONTINUOUS
 10
5.9630092418
 20
3.6431108536
 11
5.9670982511
 21
3.6431108536
  0
LINE
  5
245
100
AcDbEntity
  8
0
100
AcDbLine
 62
7
  6
CONTINUOUS
 10
5.9761535961
 20
3.6431108536
 11
5.9805151975
 21
3.6431108536
  0
LINE
  5
246
100
AcDbEntity
  8
0
100
AcDbLine
 62
7
  6
CONTINUOUS
 10
5.9901419303
 20
3.6431108536
 11
5.9947641689
 21
3.6431108536
  0
LINE
  5
247
100
AcDbEntity
  8
0
100
AcDbLine
 62
7
  6
CONTINUOUS
 10
6.0049359032
 20
3.6431108536
 11
6.0098061099
 21
3.6431108536
  0
LINE
  5
248
100
AcDbEntity
  8
0
100
AcDbLine
 62
7
  6
CONTINUOUS
 10
6.0204949657
 20
3.6431108536
 11
6.0255997915
 21
3.6431108536
  0
LINE
  5
249
100
AcDbEntity
  8
0
100
AcDbLine
 62
7
  6
CONTINUOUS
 10
6.0367764714
 20
3.6431108536
 11
6.0421019243
 21
3.6431108536
  0
LINE
  5
24A
100
AcDbEntity
  8
0
100
AcDbLine
 62
7
  6
CONTINUOUS
 10
6.0537357939
 20
3.6431108536
 11
6.0592672773
 21
3.6431108536
  0
LINE
  5
24B
100
AcDbEntity
  8
0
100
AcDbLine
 62
7
  6
CONTINUOUS
 10
6.0713264488
 20
3.6431108536
 11
6.0770488012
 21
3.6431108536
  0
LINE
  5
24C
100
AcDbEntity
  8
0
100
AcDbLine
 62
7
  6
CONTINUOUS
 10
6.0895002214
 20
3.6431108536
 11
6.0953977583
 21
3.6431108536
  0
LINE
  5
24D
100
AcDbEntity
  8
0
100
AcDbLine
 62
7
  6
CONTINUOUS
 10
6.1082072986
 20
3.6431108536
 11
6.1142638552
 21
3.6431108536
  0
LINE
  5
24E
100
AcDbEntity
  8
0
100
AcDbLine
 62
7
  6
CONTINUOUS
 10
6.1273964057
 20
3.6431108536
 11
6.1335953814
 21
3.6431108536
  0
LINE
  5
24F
100
AcDbEntity
  8
0
100
AcDbLine
 62
7
  6
CONTINUOUS
 10
6.1470149466
 20
3.6431108536
 11
6.1533393504
 21
3.6431108536
  0
LINE
  5
250
100
AcDbEntity
  8
0
100
AcDbLine
 62
7
  6
CONTINUOUS
 10
6.1670091482
 20
3.6431108536
 11
6.1734416454
 21
3.6431108536
  0
LINE
  5
251
100
AcDbEntity
  8
0
100
AcDbLine
 62
7
  6
CONTINUOUS
 10
6.1873242078
 20
3.6431108536
 11
6.1938471675
 21
3.6431108536
  0
LINE
  5
252
100
AcDbEntity
  8
0
100
AcDbLine
 62
7
  6
CONTINUOUS
 10
6.2079044434
 20
3.6431108536
 11
6.2144999864
 21
3.6431108536
  0
LINE
  5
253
100
AcDbEntity
  8
0
100
AcDbLine
 62
7
  6
CONTINUOUS
 10
6.3546003212
 20
3.6431108536
 11
6.3611929085
 21
3.6431108536
  0
LINE
  5
254
100
AcDbEntity
  8
0
100
AcDbLine
 62
7
  6
CONTINUOUS
 10
6.3752429601
 20
3.6431108536
 11
6.3817621334
 21
3.6431108536
  0
LINE
  5
255
100
AcDbEntity
  8
0
100
AcDbLine
 62
7
  6
CONTINUOUS
 10
6.3956357026
 20
3.6431108536
 11
6.4020635934
 21
3.6431108536
  0
LINE
  5
256
100
AcDbEntity
  8
0
100
AcDbLine
 62
7
  6
CONTINUOUS
 10
6.4157226537
 20
3.6431108536
 11
6.4220416436
 21
3.6431108536
  0
LINE
  5
257
100
AcDbEntity
  8
0
100
AcDbLine
 62
7
  6
CONTINUOUS
 10
6.4354487564
 20
3.6431108536
 11
6.4416415254
 21
3.6431108536
  0
LINE
  5
258
100
AcDbEntity
  8
0
100
AcDbLine
 62
7
  6
CONTINUOUS
 10
6.4547599429
 20
3.6431108536
 11
6.460809517
 21
3.6431108536
  0
LINE
  5
259
100
AcDbEntity
  8
0
100
AcDbLine
 62
7
  6
CONTINUOUS
 10
6.4736032825
 20
3.6431108536
 11
6.4794930803
 21
3.6431108536
  0
LINE
  5
25A
100
AcDbEntity
  8
0
100
AcDbLine
 62
7
  6
CONTINUOUS
 10
6.4919271269
 20
3.6431108536
 11
6.4976410049
 21
3.6431108536
  0
LINE
  5
25B
100
AcDbEntity
  8
0
100
AcDbLine
 62
7
  6
CONTINUOUS
 10
6.5096812517
 20
3.6431108536
 11
6.5152035485
 21
3.6431108536
  0
LINE
  5
25C
100
AcDbEntity
  8
0
100
AcDbLine
 62
7
  6
CONTINUOUS
 10
6.5268169942
 20
3.6431108536
 11
6.5321325736
 21
3.6431108536
  0
LINE
  5
25D
100
AcDbEntity
  8
0
100
AcDbLine
 62
7
  6
CONTINUOUS
 10
6.5432873864
 20
3.6431108536
 11
6.5483816788
 21
3.6431108536
  0
LINE
  5
25E
100
AcDbEntity
  8
0
100
AcDbLine
 62
7
  6
CONTINUOUS
 10
6.5590472842
 20
3.6431108536
 11
6.5639063265
 21
3.6431108536
  0
LINE
  5
25F
100
AcDbEntity
  8
0
100
AcDbLine
 62
7
  6
CONTINUOUS
 10
6.5740534907
 20
3.6431108536
 11
6.5786639646
 21
3.6431108536
  0
LINE
  5
260
100
AcDbEntity
  8
0
100
AcDbLine
 62
7
  6
CONTINUOUS
 10
6.5882648751
 20
3.6431108536
 11
6.5926141435
 21
3.6431108536
  0
LINE
  5
261
100
AcDbEntity
  8
0
100
AcDbLine
 62
7
  6
CONTINUOUS
 10
6.6016424848
 20
3.6431108536
 11
6.6057186267
 21
3.6431108536
  0
LINE
  5
262
100
AcDbEntity
  8
0
100
AcDbLine
 62
7
  6
CONTINUOUS
 10
6.6141496528
 20
3.6431108536
 11
6.6179414959
 21
3.6431108536
  0
LINE
  5
263
100
AcDbEntity
  8
0
100
AcDbLine
 62
7
  6
CONTINUOUS
 10
6.6257520978
 20
3.6431108536
 11
6.6292492488
 21
3.6431108536
  0
LINE
  5
264
100
AcDbEntity
  8
0
100
AcDbLine
 62
7
  6
CONTINUOUS
 10
6.6364180183
 20
3.6431108536
 11
6.6396108918
 21
3.6431108536
  0
LINE
  5
265
100
AcDbEntity
  8
0
100
AcDbLine
 62
7
  6
CONTINUOUS
 10
6.6461181797
 20
3.6431108536
 11
6.6489980243
 21
3.6431108536
  0
LINE
  5
266
100
AcDbEntity
  8
0
100
AcDbLine
 62
7
  6
CONTINUOUS
 10
6.6548259947
 20
3.6431108536
 11
6.6573849168
 21
3.6431108536
  0
LINE
  5
267
100
AcDbEntity
  8
0
100
AcDbLine
 62
7
  6
CONTINUOUS
 10
6.6625175956
 20
3.6431108536
 11
6.6647485815
 21
3.6431108536
  0
LINE
  5
268
100
AcDbEntity
  8
0
100
AcDbLine
 62
7
  6
CONTINUOUS
 10
6.6691719003
 20
3.6431108536
 11
6.6710688351
 21
3.6431108536
  0
LINE
  5
269
100
AcDbEntity
  8
0
100
AcDbLine
 62
7
  6
CONTINUOUS
 10
6.6747706699
 20
3.6431108536
 11
6.6763283541
 21
3.6431108536
  0
LINE
  5
26A
100
AcDbEntity
  8
0
100
AcDbLine
 62
7
  6
CONTINUOUS
 10
6.6792985586
 20
3.6431108536
 11
6.6805127226
 21
3.6431108536
  0
LINE
  5
26B
100
AcDbEntity
  8
0
100
AcDbLine
 62
7
  6
CONTINUOUS
 10
6.6827431555
 20
3.6431108536
 11
6.6836104716
 21
3.6431108536
  0
LINE
  5
26C
100
AcDbEntity
  8
0
100
AcDbLine
 62
7
  6
CONTINUOUS
 10
6.6850950195
 20
3.6431108536
 11
6.6856131103
 21
3.6431108536
  0
LINE
  5
26D
100
AcDbEntity
  8
0
100
AcDbLine
 62
7
  6
CONTINUOUS
 10
6.6863477042
 20
3.6431108536
 11
6.6865151496
 21
3.6431108536
  0
LINE
  5
26E
100
AcDbEntity
  8
0
100
AcDbLine
 62
7
  6
CONTINUOUS
 10
6.5101317147
 20
3.2819102645
 11
6.501594056
 21
3.2841979232
  0
LINE
  5
26F
100
AcDbEntity
  8
0
100
AcDbLine
 62
7
  6
CONTINUOUS
 10
6.1584838009
 20
3.376134039
 11
6.1499461421
 21
3.3784216978
  0
LINE
  5
270
100
AcDbEntity
  8
0
100
AcDbLine
 62
7
  6
CONTINUOUS
 10
6.033800627
 20
3.0980216201
 11
6.0414552825
 21
3.0936022027
  0
LINE
  5
271
100
AcDbEntity
  8
0
100
AcDbLine
 62
7
  6
CONTINUOUS
 10
6.3490795214
 20
2.9159952655
 11
6.3567341769
 21
2.9115758481
  0
LINE
  5
272
100
AcDbEntity
  8
0
100
AcDbLine
 62
7
  6
CONTINUOUS
 10
6.3349271517
 20
2.9061828665
 11
6.3315342724
 21
2.9085585861
  0
LINE
  5
273
100
AcDbEntity
  8
0
100
AcDbLine
 62
7
  6
CONTINUOUS
 10
6.0294722812
 20
3.1200646694
 11
6.0367126308
 21
3.114994922
  0
LINE
  5
274
100
AcDbEntity
  8
0
100
AcDbLine
 62
7
  6
CONTINUOUS
 10
6.5200177367
 20
3.2617385722
 11
6.5117119489
 21
3.2647616317
  0
LINE
  5
275
100
AcDbEntity
  8
0
100
AcDbLine
 62
7
  6
CONTINUOUS
 10
6.1779200924
 20
3.3862519319
 11
6.1696143046
 21
3.3892749915
  0
LINE
  5
276
100
AcDbEntity
  8
0
100
AcDbLine
 62
7
  6
CONTINUOUS
 10
6.5281080606
 20
3.2407820157
 11
6.5200973558
 21
3.2445174687
  0
LINE
  5
277
100
AcDbEntity
  8
0
100
AcDbLine
 62
7
  6
CONTINUOUS
 10
6.1981642554
 20
3.3946373388
 11
6.1901535506
 21
3.3983727918
  0
LINE
  5
278
100
AcDbEntity
  8
0
100
AcDbLine
 62
7
  6
CONTINUOUS
 10
6.3127330795
 20
2.9027110142
 11
6.3059621392
 21
2.9083925077
  0
LINE
  5
279
100
AcDbEntity
  8
0
100
AcDbLine
 62
7
  6
CONTINUOUS
 10
6.0270815844
 20
3.1424010784
 11
6.0338525247
 21
3.1367195849
  0
LINE
  5
27A
100
AcDbEntity
  8
0
100
AcDbLine
 62
7
  6
CONTINUOUS
 10
5.8816439651
 20
3.8786108536
 11
5.8818276239
 21
3.8786108536
  0
LINE
  5
27B
100
AcDbEntity
  8
0
100
AcDbLine
 62
7
  6
CONTINUOUS
 10
5.8825969175
 20
3.8786108536
 11
5.8831311772
 21
3.8786108536
  0
LINE
  5
27C
100
AcDbEntity
  8
0
100
AcDbLine
 62
7
  6
CONTINUOUS
 10
5.884650282
 20
3.8786108536
 11
5.8855336783
 21
3.8786108536
  0
LINE
  5
27D
100
AcDbEntity
  8
0
100
AcDbLine
 62
7
  6
CONTINUOUS
 10
5.8877984307
 20
3.8786108536
 11
5.8890285421
 21
3.8786108536
  0
LINE
  5
27E
100
AcDbEntity
  8
0
100
AcDbLine
 62
7
  6
CONTINUOUS
 10
5.8920327345
 20
3.8786108536
 11
5.8936061895
 21
3.8786108536
  0
LINE
  5
27F
100
AcDbEntity
  8
0
100
AcDbLine
 62
7
  6
CONTINUOUS
 10
5.8973415876
 20
3.8786108536
 11
5.8992540734
 21
3.8786108536
  0
LINE
  5
280
100
AcDbEntity
  8
0
100
AcDbLine
 62
7
  6
CONTINUOUS
 10
5.9037104389
 20
3.8786108536
 11
5.9059567134
 21
3.8786108536
  0
LINE
  5
281
100
AcDbEntity
  8
0
100
AcDbLine
 62
7
  6
CONTINUOUS
 10
5.9111218316
 20
3.8786108536
 11
5.9136957381
 21
3.8786108536
  0
LINE
  5
282
100
AcDbEntity
  8
0
100
AcDbLine
 62
7
  6
CONTINUOUS
 10
5.9195554517
 20
3.8786108536
 11
5.9224499352
 21
3.8786108536
  0
LINE
  5
283
100
AcDbEntity
  8
0
100
AcDbLine
 62
7
  6
CONTINUOUS
 10
5.9289881832
 20
3.8786108536
 11
5.9321953102
 21
3.8786108536
  0
LINE
  5
284
100
AcDbEntity
  8
0
100
AcDbLine
 62
7
  6
CONTINUOUS
 10
5.9393941717
 20
3.8786108536
 11
5.9429051517
 21
3.8786108536
  0
LINE
  5
285
100
AcDbEntity
  8
0
100
AcDbLine
 62
7
  6
CONTINUOUS
 10
5.9507448951
 20
3.8786108536
 11
5.9545501046
 21
3.8786108536
  0
LINE
  5
286
100
AcDbEntity
  8
0
100
AcDbLine
 62
7
  6
CONTINUOUS
 10
5.9630092418
 20
3.8786108536
 11
5.9670982511
 21
3.8786108536
  0
LINE
  5
287
100
AcDbEntity
  8
0
100
AcDbLine
 62
7
  6
CONTINUOUS
 10
5.9761535961
 20
3.8786108536
 11
5.9805151975
 21
3.8786108536
  0
LINE
  5
288
100
AcDbEntity
  8
0
100
AcDbLine
 62
7
  6
CONTINUOUS
 10
5.9901419303
 20
3.8786108536
 11
5.9947641689
 21
3.8786108536
  0
LINE
  5
289
100
AcDbEntity
  8
0
100
AcDbLine
 62
7
  6
CONTINUOUS
 10
6.0049359032
 20
3.8786108536
 11
6.0098061099
 21
3.8786108536
  0
LINE
  5
28A
100
AcDbEntity
  8
0
100
AcDbLine
 62
7
  6
CONTINUOUS
 10
6.0204949657
 20
3.8786108536
 11
6.0255997915
 21
3.8786108536
  0
LINE
  5
28B
100
AcDbEntity
  8
0
100
AcDbLine
 62
7
  6
CONTINUOUS
 10
6.0367764714
 20
3.8786108536
 11
6.0421019243
 21
3.8786108536
  0
LINE
  5
28C
100
AcDbEntity
  8
0
100
AcDbLine
 62
7
  6
CONTINUOUS
 10
6.0537357939
 20
3.8786108536
 11
6.0592672773
 21
3.8786108536
  0
LINE
  5
28D
100
AcDbEntity
  8
0
100
AcDbLine
 62
7
  6
CONTINUOUS
 10
6.0713264488
 20
3.8786108536
 11
6.0770488012
 21
3.8786108536
  0
LINE
  5
28E
100
AcDbEntity
  8
0
100
AcDbLine
 62
7
  6
CONTINUOUS
 10
6.0895002214
 20
3.8786108536
 11
6.0953977583
 21
3.8786108536
  0
LINE
  5
28F
100
AcDbEntity
  8
0
100
AcDbLine
 62
7
  6
CONTINUOUS
 10
6.1082072986
 20
3.8786108536
 11
6.1142638552
 21
3.8786108536
  0
LINE
  5
290
100
AcDbEntity
  8
0
100
AcDbLine
 62
7
  6
CONTINUOUS
 10
6.1273964057
 20
3.8786108536
 11
6.1335953814
 21
3.8786108536
  0
LINE
  5
291
100
AcDbEntity
  8
0
100
AcDbLine
 62
7
  6
CONTINUOUS
 10
6.1470149466
 20
3.8786108536
 11
6.1533393504
 21
3.8786108536
  0
LINE
  5
292
100
AcDbEntity
  8
0
100
AcDbLine
 62
7
  6
CONTINUOUS
 10
6.1670091482
 20
3.8786108536
 11
6.1734416454
 21
3.8786108536
  0
LINE
  5
293
100
AcDbEntity
  8
0
100
AcDbLine
 62
7
  6
CONTINUOUS
 10
6.1873242078
 20
3.8786108536
 11
6.1938471675
 21
3.8786108536
  0
LINE
  5
294
100
AcDbEntity
  8
0
100
AcDbLine
 62
7
  6
CONTINUOUS
 10
6.2079044434
 20
3.8786108536
 11
6.2144999864
 21
3.8786108536
  0
LINE
  5
295
100
AcDbEntity
  8
0
100
AcDbLine
 62
7
  6
CONTINUOUS
 10
6.3546003212
 20
3.8786108536
 11
6.3611929085
 21
3.8786108536
  0
LINE
  5
296
100
AcDbEntity
  8
0
100
AcDbLine
 62
7
  6
CONTINUOUS
 10
6.3752429601
 20
3.8786108536
 11
6.3817621334
 21
3.8786108536
  0
LINE
  5
297
100
AcDbEntity
  8
0
100
AcDbLine
 62
7
  6
CONTINUOUS
 10
6.3956357026
 20
3.8786108536
 11
6.4020635934
 21
3.8786108536
  0
LINE
  5
298
100
AcDbEntity
  8
0
100
AcDbLine
 62
7
  6
CONTINUOUS
 10
6.4157226537
 20
3.8786108536
 11
6.4220416436
 21
3.8786108536
  0
LINE
  5
299
100
AcDbEntity
  8
0
100
AcDbLine
 62
7
  6
CONTINUOUS
 10
6.4354487564
 20
3.8786108536
 11
6.4416415254
 21
3.8786108536
  0
LINE
  5
29A
100
AcDbEntity
  8
0
100
AcDbLine
 62
7
  6
CONTINUOUS
 10
6.4547599429
 20
3.8786108536
 11
6.460809517
 21
3.8786108536
  0
LINE
  5
29B
100
AcDbEntity
  8
0
100
AcDbLine
 62
7
  6
CONTINUOUS
 10
6.4736032825
 20
3.8786108536
 11
6.4794930803
 21
3.8786108536
  0
LINE
  5
29C
100
AcDbEntity
  8
0
100
AcDbLine
 62
7
  6
CONTINUOUS
 10
6.4919271269
 20
3.8786108536
 11
6.4976410049
 21
3.8786108536
  0
LINE
  5
29D
100
AcDbEntity
  8
0
100
AcDbLine
 62
7
  6
CONTINUOUS
 10
6.5096812517
 20
3.8786108536
 11
6.5152035485
 21
3.8786108536
  0
LINE
  5
29E
100
AcDbEntity
  8
0
100
AcDbLine
 62
7
  6
CONTINUOUS
 10
6.5268169942
 20
3.8786108536
 11
6.5321325736
 21
3.8786108536
  0
LINE
  5
29F
100
AcDbEntity
  8
0
100
AcDbLine
 62
7
  6
CONTINUOUS
 10
6.5432873864
 20
3.8786108536
 11
6.5483816788
 21
3.8786108536
  0
LINE
  5
2A0
100
AcDbEntity
  8
0
100
AcDbLine
 62
7
  6
CONTINUOUS
 10
6.5590472842
 20
3.8786108536
 11
6.5639063265
 21
3.8786108536
  0
LINE
  5
2A1
100
AcDbEntity
  8
0
100
AcDbLine
 62
7
  6
CONTINUOUS
 10
6.5740534907
 20
3.8786108536
 11
6.5786639646
 21
3.8786108536
  0
LINE
  5
2A2
100
AcDbEntity
  8
0
100
AcDbLine
 62
7
  6
CONTINUOUS
 10
6.5882648751
 20
3.8786108536
 11
6.5926141435
 21
3.8786108536
  0
LINE
  5
2A3
100
AcDbEntity
  8
0
100
AcDbLine
 62
7
  6
CONTINUOUS
 10
6.6016424848
 20
3.8786108536
 11
6.6057186267
 21
3.8786108536
  0
LINE
  5
2A4
100
AcDbEntity
  8
0
100
AcDbLine
 62
7
  6
CONTINUOUS
 10
6.6141496528
 20
3.8786108536
 11
6.6179414959
 21
3.8786108536
  0
LINE
  5
2A5
100
AcDbEntity
  8
0
100
AcDbLine
 62
7
  6
CONTINUOUS
 10
6.6257520978
 20
3.8786108536
 11
6.6292492488
 21
3.8786108536
  0
LINE
  5
2A6
100
AcDbEntity
  8
0
100
AcDbLine
 62
7
  6
CONTINUOUS
 10
6.6364180183
 20
3.8786108536
 11
6.6396108918
 21
3.8786108536
  0
LINE
  5
2A7
100
AcDbEntity
  8
0
100
AcDbLine
 62
7
  6
CONTINUOUS
 10
6.6461181797
 20
3.8786108536
 11
6.6489980243
 21
3.8786108536
  0
LINE
  5
2A8
100
AcDbEntity
  8
0
100
AcDbLine
 62
7
  6
CONTINUOUS
 10
6.6548259947
 20
3.8786108536
 11
6.6573849168
 21
3.8786108536
  0
LINE
  5
2A9
100
AcDbEntity
  8
0
100
AcDbLine
 62
7
  6
CONTINUOUS
 10
6.6625175956
 20
3.8786108536
 11
6.6647485815
 21
3.8786108536
  0
LINE
  5
2AA
100
AcDbEntity
  8
0
100
AcDbLine
 62
7
  6
CONTINUOUS
 10
6.6691719003
 20
3.8786108536
 11
6.6710688351
 21
3.8786108536
  0
LINE
  5
2AB
100
AcDbEntity
  8
0
100
AcDbLine
 62
7
  6
CONTINUOUS
 10
6.6747706699
 20
3.8786108536
 11
6.6763283541
 21
3.8786108536
  0
LINE
  5
2AC
100
AcDbEntity
  8
0
100
AcDbLine
 62
7
  6
CONTINUOUS
 10
6.6792985586
 20
3.8786108536
 11
6.6805127226
 21
3.8786108536
  0
LINE
  5
2AD
100
AcDbEntity
  8
0
100
AcDbLine
 62
7
  6
CONTINUOUS
 10
6.6827431555
 20
3.8786108536
 11
6.6836104716
 21
3.8786108536
  0
LINE
  5
2AE
100
AcDbEntity
  8
0
100
AcDbLine
 62
7
  6
CONTINUOUS
 10
6.6850950195
 20
3.8786108536
 11
6.6856131103
 21
3.8786108536
  0
LINE
  5
2AF
100
AcDbEntity
  8
0
100
AcDbLine
 62
7
  6
CONTINUOUS
 10
6.6863477042
 20
3.8786108536
 11
6.6865151496
 21
3.8786108536
  0
LINE
  5
2B0
100
AcDbEntity
  8
0
100
AcDbLine
 62
7
  6
CONTINUOUS
 10
6.6715708705
 20
3.8936108536
 11
6.3465708705
 21
3.8936108536
  0
LINE
  5
2B1
100
AcDbEntity
  8
0
100
AcDbLine
 62
7
  6
CONTINUOUS
 10
6.2215708705
 20
3.8936108536
 11
5.8965708705
 21
3.8936108536
  0
LINE
  5
2B2
100
AcDbEntity
  8
0
100
AcDbLine
 62
7
  6
CONTINUOUS
 10
6.534341114
 20
3.2192000871
 11
6.5266864586
 21
3.2236195045
  0
LINE
  5
2B3
100
AcDbEntity
  8
0
100
AcDbLine
 62
7
  6
CONTINUOUS
 10
6.2114075642
 20
3.405645859
 11
6.2190622196
 21
3.4012264416
  0
LINE
  5
2B4
100
AcDbEntity
  8
0
100
AcDbLine
 62
7
  6
CONTINUOUS
 10
6.5386694599
 20
3.1971570378
 11
6.5314291103
 21
3.2022267852
  0
LINE
  5
2B5
100
AcDbEntity
  8
0
100
AcDbLine
 62
7
  6
CONTINUOUS
 10
6.2903208705
 20
2.9011867143
 11
6.2840708705
 21
2.9074367143
  0
LINE
  5
2B6
100
AcDbEntity
  8
0
100
AcDbLine
 62
7
  6
CONTINUOUS
 10
6.0266467312
 20
3.1648608536
 11
6.0328967312
 21
3.1586108536
  0
LINE
  5
2B7
100
AcDbEntity
  8
0
100
AcDbLine
 62
7
  6
CONTINUOUS
 10
6.5410601567
 20
3.1748206288
 11
6.5342892164
 21
3.1805021223
  0
LINE
  5
2B8
100
AcDbEntity
  8
0
100
AcDbLine
 62
7
  6
CONTINUOUS
 10
6.2678610953
 20
2.9016215674
 11
6.2621796019
 21
2.9083925077
  0
LINE
  5
2B9
100
AcDbEntity
  8
0
100
AcDbLine
 62
7
  6
CONTINUOUS
 10
6.0281710312
 20
3.1872730625
 11
6.0338525247
 21
3.1805021223
  0
LINE
  5
2BA
100
AcDbEntity
  8
0
100
AcDbLine
 62
7
  6
CONTINUOUS
 10
6.2455246863
 20
2.9040122643
 11
6.2423047194
 21
2.9086108536
  0
LINE
  5
2BB
100
AcDbEntity
  8
0
100
AcDbLine
 62
7
  6
CONTINUOUS
 10
6.0316428834
 20
3.2094671347
 11
6.0367126308
 21
3.2022267852
  0
LINE
  5
2BC
100
AcDbEntity
  8
0
100
AcDbLine
 62
7
  6
CONTINUOUS
 10
6.2215708705
 20
4.2436108536
 11
6.3465708705
 21
4.2436108536
  0
LINE
  5
2BD
100
AcDbEntity
  8
0
100
AcDbLine
 62
7
  6
CONTINUOUS
 10
6.2365708705
 20
4.2586108536
 11
6.3315708705
 21
4.2586108536
  0
LINE
  5
2BE
100
AcDbEntity
  8
0
100
AcDbLine
 62
7
  6
CONTINUOUS
 10
6.5414950098
 20
3.1523608536
 11
6.5352450098
 21
3.1586108536
  0
LINE
  5
2BF
100
AcDbEntity
  8
0
100
AcDbLine
 62
7
  6
CONTINUOUS
 10
6.223481637
 20
2.9083406101
 11
6.2190622196
 21
2.9159952655
  0
LINE
  5
2C0
100
AcDbEntity
  8
0
100
AcDbLine
 62
7
  6
CONTINUOUS
 10
6.0370358651
 20
3.2312741599
 11
6.0414552825
 21
3.2236195045
  0
LINE
  5
2C1
100
AcDbEntity
  8
0
100
AcDbLine
 62
7
  6
CONTINUOUS
 10
6.5399707099
 20
3.1299486447
 11
6.5342892164
 21
3.1367195849
  0
LINE
  5
2C2
100
AcDbEntity
  8
0
100
AcDbLine
 62
7
  6
CONTINUOUS
 10
6.5364988576
 20
3.1077545724
 11
6.5314291103
 21
3.114994922
  0
LINE
  5
2C3
100
AcDbEntity
  8
0
100
AcDbLine
 62
7
  6
CONTINUOUS
 10
6.0443089323
 20
3.2525281735
 11
6.0480443853
 21
3.2445174687
  0
LINE
  5
2C4
100
AcDbEntity
  8
0
100
AcDbLine
 62
7
  6
CONTINUOUS
 10
6.1981642554
 20
2.9225843683
 11
6.2018997084
 21
2.9145736636
  0
LINE
  5
2C5
100
AcDbEntity
  8
0
100
AcDbLine
 62
7
  6
CONTINUOUS
 10
5.6765708705
 20
2.3112292963
 11
5.6765708705
 21
2.2031108536
  0
LINE
  5
2C6
100
AcDbEntity
  8
0
100
AcDbLine
 62
7
  6
CONTINUOUS
 10
6.531105876
 20
3.0859475472
 11
6.5266864586
 21
3.0936022027
  0
LINE
  5
2C7
100
AcDbEntity
  8
0
100
AcDbLine
 62
7
  6
CONTINUOUS
 10
6.3465708705
 20
3.4055715524
 11
6.3490795214
 21
3.4012264416
  0
LINE
  5
2C8
100
AcDbEntity
  8
0
100
AcDbLine
 62
7
  6
CONTINUOUS
 10
6.0534067326
 20
3.2730674195
 11
6.0564297922
 21
3.2647616317
  0
LINE
  5
2C9
100
AcDbEntity
  8
0
100
AcDbLine
 62
7
  6
CONTINUOUS
 10
6.1779200924
 20
2.9309697752
 11
6.1809431519
 21
2.9226639874
  0
LINE
  5
2CA
100
AcDbEntity
  8
0
100
AcDbLine
 62
7
  6
CONTINUOUS
 10
6.0642600263
 20
3.292735582
 11
6.0665476851
 21
3.2841979232
  0
LINE
  5
2CB
100
AcDbEntity
  8
0
100
AcDbLine
 62
7
  6
CONTINUOUS
 10
6.1584838009
 20
2.9410876682
 11
6.1607714597
 21
2.9325500094
  0
LINE
  5
2CC
100
AcDbEntity
  8
0
100
AcDbLine
 62
7
  6
CONTINUOUS
 10
5.8815708705
 20
2.4531108536
 11
5.8815708705
 21
3.6281108536
  0
LINE
  5
2CD
100
AcDbEntity
  8
0
100
AcDbLine
 62
7
  6
CONTINUOUS
 10
5.8816265915
 20
3.8786108536
 11
5.8816265915
 21
3.6431108536
  0
LINE
  5
2CE
100
AcDbEntity
  8
0
100
AcDbLine
 62
7
  6
CONTINUOUS
 10
5.8816439651
 20
3.8786108536
 11
5.8816439651
 21
3.6431108536
  0
LINE
  5
2CF
100
AcDbEntity
  8
0
100
AcDbLine
 62
7
  6
CONTINUOUS
 10
5.8818276239
 20
3.8786108536
 11
5.8818276239
 21
3.6431108536
  0
LINE
  5
2D0
100
AcDbEntity
  8
0
100
AcDbLine
 62
7
  6
CONTINUOUS
 10
5.8825969175
 20
3.8786108536
 11
5.8825969175
 21
3.6431108536
  0
LINE
  5
2D1
100
AcDbEntity
  8
0
100
AcDbLine
 62
7
  6
CONTINUOUS
 10
5.8831311772
 20
3.8786108536
 11
5.8831311772
 21
3.6431108536
  0
LINE
  5
2D2
100
AcDbEntity
  8
0
100
AcDbLine
 62
7
  6
CONTINUOUS
 10
5.884650282
 20
3.8786108536
 11
5.884650282
 21
3.6431108536
  0
LINE
  5
2D3
100
AcDbEntity
  8
0
100
AcDbLine
 62
7
  6
CONTINUOUS
 10
5.8855336783
 20
3.8786108536
 11
5.8855336783
 21
3.6431108536
  0
LINE
  5
2D4
100
AcDbEntity
  8
0
100
AcDbLine
 62
7
  6
CONTINUOUS
 10
5.8877984307
 20
3.8786108536
 11
5.8877984307
 21
3.6431108536
  0
LINE
  5
2D5
100
AcDbEntity
  8
0
100
AcDbLine
 62
7
  6
CONTINUOUS
 10
5.8890285421
 20
3.8786108536
 11
5.8890285421
 21
3.6431108536
  0
LINE
  5
2D6
100
AcDbEntity
  8
0
100
AcDbLine
 62
7
  6
CONTINUOUS
 10
5.8920327345
 20
3.8786108536
 11
5.8920327345
 21
3.6431108536
  0
LINE
  5
2D7
100
AcDbEntity
  8
0
100
AcDbLine
 62
7
  6
CONTINUOUS
 10
5.8936061895
 20
3.8786108536
 11
5.8936061895
 21
3.6431108536
  0
LINE
  5
2D8
100
AcDbEntity
  8
0
100
AcDbLine
 62
7
  6
CONTINUOUS
 10
5.8973415876
 20
3.8786108536
 11
5.8973415876
 21
3.6431108536
  0
LINE
  5
2D9
100
AcDbEntity
  8
0
100
AcDbLine
 62
7
  6
CONTINUOUS
 10
5.8992540734
 20
3.8786108536
 11
5.8992540734
 21
3.6431108536
  0
LINE
  5
2DA
100
AcDbEntity
  8
0
100
AcDbLine
 62
7
  6
CONTINUOUS
 10
5.9037104389
 20
3.8786108536
 11
5.9037104389
 21
3.6431108536
  0
LINE
  5
2DB
100
AcDbEntity
  8
0
100
AcDbLine
 62
7
  6
CONTINUOUS
 10
5.9059567134
 20
3.8786108536
 11
5.9059567134
 21
3.6431108536
  0
LINE
  5
2DC
100
AcDbEntity
  8
0
100
AcDbLine
 62
7
  6
CONTINUOUS
 10
5.9111218316
 20
3.8786108536
 11
5.9111218316
 21
3.6431108536
  0
LINE
  5
2DD
100
AcDbEntity
  8
0
100
AcDbLine
 62
7
  6
CONTINUOUS
 10
6.5238328088
 20
3.0646935337
 11
6.5200973558
 21
3.0727042385
  0
LINE
  5
2DE
100
AcDbEntity
  8
0
100
AcDbLine
 62
7
  6
CONTINUOUS
 10
6.3699774857
 20
3.3946373388
 11
6.3662420327
 21
3.4026480436
  0
LINE
  5
2DF
100
AcDbEntity
  8
0
100
AcDbLine
 62
7
  6
CONTINUOUS
 10
6.0767862133
 20
3.3113829743
 11
6.0783210608
 21
3.3026784213
  0
LINE
  5
2E0
100
AcDbEntity
  8
0
100
AcDbLine
 62
7
  6
CONTINUOUS
 10
6.1400033028
 20
2.9528610439
 11
6.1415381504
 21
2.9441564909
  0
LINE
  5
2E1
100
AcDbEntity
  8
0
100
AcDbLine
 62
7
  6
CONTINUOUS
 10
6.0908899617
 20
3.3288676785
 11
6.0916603169
 21
3.3200624782
  0
LINE
  5
2E2
100
AcDbEntity
  8
0
100
AcDbLine
 62
7
  6
CONTINUOUS
 10
6.1226192459
 20
2.9662002999
 11
6.1233896011
 21
2.9573950996
  0
LINE
  5
2E3
100
AcDbEntity
  8
0
100
AcDbLine
 62
7
  6
CONTINUOUS
 10
5.9136957381
 20
3.8786108536
 11
5.9136957381
 21
3.6431108536
  0
LINE
  5
2E4
100
AcDbEntity
  8
0
100
AcDbLine
 62
7
  6
CONTINUOUS
 10
5.9195554517
 20
3.8786108536
 11
5.9195554517
 21
3.6431108536
  0
LINE
  5
2E5
100
AcDbEntity
  8
0
100
AcDbLine
 62
7
  6
CONTINUOUS
 10
5.9224499352
 20
3.8786108536
 11
5.9224499352
 21
3.6431108536
  0
LINE
  5
2E6
100
AcDbEntity
  8
0
100
AcDbLine
 62
7
  6
CONTINUOUS
 10
5.9289881832
 20
3.8786108536
 11
5.9289881832
 21
3.6431108536
  0
LINE
  5
2E7
100
AcDbEntity
  8
0
100
AcDbLine
 62
7
  6
CONTINUOUS
 10
5.9321953102
 20
3.8786108536
 11
5.9321953102
 21
3.6431108536
  0
LINE
  5
2E8
100
AcDbEntity
  8
0
100
AcDbLine
 62
7
  6
CONTINUOUS
 10
5.9393941717
 20
3.8786108536
 11
5.9393941717
 21
3.6431108536
  0
LINE
  5
2E9
100
AcDbEntity
  8
0
100
AcDbLine
 62
7
  6
CONTINUOUS
 10
5.9429051517
 20
3.8786108536
 11
5.9429051517
 21
3.6431108536
  0
LINE
  5
2EA
100
AcDbEntity
  8
0
100
AcDbLine
 62
7
  6
CONTINUOUS
 10
5.9507448951
 20
3.8786108536
 11
5.9507448951
 21
3.6431108536
  0
LINE
  5
2EB
100
AcDbEntity
  8
0
100
AcDbLine
 62
7
  6
CONTINUOUS
 10
5.9545501046
 20
3.8786108536
 11
5.9545501046
 21
3.6431108536
  0
LINE
  5
2EC
100
AcDbEntity
  8
0
100
AcDbLine
 62
7
  6
CONTINUOUS
 10
5.9630092418
 20
3.8786108536
 11
5.9630092418
 21
3.6431108536
  0
LINE
  5
2ED
100
AcDbEntity
  8
0
100
AcDbLine
 62
7
  6
CONTINUOUS
 10
5.9670982511
 20
3.8786108536
 11
5.9670982511
 21
3.6431108536
  0
LINE
  5
2EE
100
AcDbEntity
  8
0
100
AcDbLine
 62
7
  6
CONTINUOUS
 10
5.9761535961
 20
3.8786108536
 11
5.9761535961
 21
3.6431108536
  0
LINE
  5
2EF
100
AcDbEntity
  8
0
100
AcDbLine
 62
7
  6
CONTINUOUS
 10
5.9805151975
 20
3.8786108536
 11
5.9805151975
 21
3.6431108536
  0
LINE
  5
2F0
100
AcDbEntity
  8
0
100
AcDbLine
 62
7
  6
CONTINUOUS
 10
5.9901419303
 20
3.8786108536
 11
5.9901419303
 21
3.6431108536
  0
LINE
  5
2F1
100
AcDbEntity
  8
0
100
AcDbLine
 62
7
  6
CONTINUOUS
 10
5.9947641689
 20
3.8786108536
 11
5.9947641689
 21
3.6431108536
  0
LINE
  5
2F2
100
AcDbEntity
  8
0
100
AcDbLine
 62
7
  6
CONTINUOUS
 10
6.0044956944
 20
3.630346792
 11
6.0044956944
 21
3.8913749151
  0
LINE
  5
2F3
100
AcDbEntity
  8
0
100
AcDbLine
 62
7
  6
CONTINUOUS
 10
6.0049359032
 20
3.8786108536
 11
6.0049359032
 21
3.6431108536
  0
LINE
  5
2F4
100
AcDbEntity
  8
0
100
AcDbLine
 62
7
  6
CONTINUOUS
 10
6.0098061099
 20
3.8786108536
 11
6.0098061099
 21
3.6431108536
  0
LINE
  5
2F5
100
AcDbEntity
  8
0
100
AcDbLine
 62
7
  6
CONTINUOUS
 10
6.0195106766
 20
3.630346792
 11
6.0195106766
 21
3.8913749151
  0
LINE
  5
2F6
100
AcDbEntity
  8
0
100
AcDbLine
 62
7
  6
CONTINUOUS
 10
6.0204949657
 20
3.8786108536
 11
6.0204949657
 21
3.6431108536
  0
LINE
  5
2F7
100
AcDbEntity
  8
0
100
AcDbLine
 62
7
  6
CONTINUOUS
 10
6.0255997915
 20
3.8786108536
 11
6.0255997915
 21
3.6431108536
  0
LINE
  5
2F8
100
AcDbEntity
  8
0
100
AcDbLine
 62
7
  6
CONTINUOUS
 10
6.0352508
 20
3.630346792
 11
6.0352508
 21
3.8913749151
  0
LINE
  5
2F9
100
AcDbEntity
  8
0
100
AcDbLine
 62
7
  6
CONTINUOUS
 10
6.0367764714
 20
3.8786108536
 11
6.0367764714
 21
3.6431108536
  0
LINE
  5
2FA
100
AcDbEntity
  8
0
100
AcDbLine
 62
7
  6
CONTINUOUS
 10
6.0421019243
 20
3.8786108536
 11
6.0421019243
 21
3.6431108536
  0
LINE
  5
2FB
100
AcDbEntity
  8
0
100
AcDbLine
 62
7
  6
CONTINUOUS
 10
6.0516729219
 20
3.630346792
 11
6.0516729219
 21
3.8913749151
  0
LINE
  5
2FC
100
AcDbEntity
  8
0
100
AcDbLine
 62
7
  6
CONTINUOUS
 10
6.0537357939
 20
3.8786108536
 11
6.0537357939
 21
3.6431108536
  0
LINE
  5
2FD
100
AcDbEntity
  8
0
100
AcDbLine
 62
7
  6
CONTINUOUS
 10
6.0592672773
 20
3.8786108536
 11
6.0592672773
 21
3.6431108536
  0
LINE
  5
2FE
100
AcDbEntity
  8
0
100
AcDbLine
 62
7
  6
CONTINUOUS
 10
6.0687320303
 20
3.630346792
 11
6.0687320303
 21
3.8913749151
  0
LINE
  5
2FF
100
AcDbEntity
  8
0
100
AcDbLine
 62
7
  6
CONTINUOUS
 10
6.0713264488
 20
3.8786108536
 11
6.0713264488
 21
3.6431108536
  0
LINE
  5
300
100
AcDbEntity
  8
0
100
AcDbLine
 62
7
  6
CONTINUOUS
 10
6.0770488012
 20
3.8786108536
 11
6.0770488012
 21
3.6431108536
  0
LINE
  5
301
100
AcDbEntity
  8
0
100
AcDbLine
 62
7
  6
CONTINUOUS
 10
6.0863813676
 20
3.630346792
 11
6.0863813676
 21
3.8913749151
  0
LINE
  5
302
100
AcDbEntity
  8
0
100
AcDbLine
 62
7
  6
CONTINUOUS
 10
6.0895002214
 20
3.8786108536
 11
6.0895002214
 21
3.6431108536
  0
LINE
  5
303
100
AcDbEntity
  8
0
100
AcDbLine
 62
7
  6
CONTINUOUS
 10
6.5147350084
 20
3.0441542876
 11
6.5117119489
 21
3.0524600754
  0
LINE
  5
304
100
AcDbEntity
  8
0
100
AcDbLine
 62
7
  6
CONTINUOUS
 10
6.3902216487
 20
3.3862519319
 11
6.3871985892
 21
3.3945577197
  0
LINE
  5
305
100
AcDbEntity
  8
0
100
AcDbLine
 62
7
  6
CONTINUOUS
 10
6.5038817147
 20
3.0244861252
 11
6.501594056
 21
3.0330237839
  0
LINE
  5
306
100
AcDbEntity
  8
0
100
AcDbLine
 62
7
  6
CONTINUOUS
 10
6.4096579402
 20
3.376134039
 11
6.4073702814
 21
3.3846716978
  0
LINE
  5
307
100
AcDbEntity
  8
0
100
AcDbLine
 62
7
  6
CONTINUOUS
 10
6.0953977583
 20
3.8786108536
 11
6.0953977583
 21
3.6431108536
  0
LINE
  5
308
100
AcDbEntity
  8
0
100
AcDbLine
 62
7
  6
CONTINUOUS
 10
6.1045725581
 20
3.630346792
 11
6.1045725581
 21
3.8913749151
  0
LINE
  5
309
100
AcDbEntity
  8
0
100
AcDbLine
 62
7
  6
CONTINUOUS
 10
6.1064639334
 20
3.3450566255
 11
6.1064639334
 21
3.3362177907
  0
LINE
  5
30A
100
AcDbEntity
  8
0
100
AcDbLine
 62
7
  6
CONTINUOUS
 10
6.1064639334
 20
2.9810039164
 11
6.1064639334
 21
2.9721650817
  0
LINE
  5
30B
100
AcDbEntity
  8
0
100
AcDbLine
 62
7
  6
CONTINUOUS
 10
6.1082072986
 20
3.8786108536
 11
6.1082072986
 21
3.6431108536
  0
LINE
  5
30C
100
AcDbEntity
  8
0
100
AcDbLine
 62
7
  6
CONTINUOUS
 10
6.1142638552
 20
3.8786108536
 11
6.1142638552
 21
3.6431108536
  0
LINE
  5
30D
100
AcDbEntity
  8
0
100
AcDbLine
 62
7
  6
CONTINUOUS
 10
6.123255741
 20
3.630346792
 11
6.123255741
 21
3.8913749151
  0
LINE
  5
30E
100
AcDbEntity
  8
0
100
AcDbLine
 62
7
  6
CONTINUOUS
 10
6.1273964057
 20
3.8786108536
 11
6.1273964057
 21
3.6431108536
  0
LINE
  5
30F
100
AcDbEntity
  8
0
100
AcDbLine
 62
7
  6
CONTINUOUS
 10
6.1335953814
 20
3.8786108536
 11
6.1335953814
 21
3.6431108536
  0
LINE
  5
310
100
AcDbEntity
  8
0
100
AcDbLine
 62
7
  6
CONTINUOUS
 10
6.1423797069
 20
3.630346792
 11
6.1423797069
 21
3.8913749151
  0
LINE
  5
311
100
AcDbEntity
  8
0
100
AcDbLine
 62
7
  6
CONTINUOUS
 10
6.1470149466
 20
3.8786108536
 11
6.1470149466
 21
3.6431108536
  0
LINE
  5
312
100
AcDbEntity
  8
0
100
AcDbLine
 62
7
  6
CONTINUOUS
 10
6.1533393504
 20
3.8786108536
 11
6.1533393504
 21
3.6431108536
  0
LINE
  5
313
100
AcDbEntity
  8
0
100
AcDbLine
 62
7
  6
CONTINUOUS
 10
6.1590708705
 20
3.8936108536
 11
6.1590708705
 21
5.7781108536
  0
LINE
  5
314
100
AcDbEntity
  8
0
100
AcDbLine
 62
7
  6
CONTINUOUS
 10
6.1618920385
 20
3.630346792
 11
6.1618920385
 21
3.8913749151
  0
LINE
  5
315
100
AcDbEntity
  8
0
100
AcDbLine
 62
7
  6
CONTINUOUS
 10
6.1670091482
 20
3.8786108536
 11
6.1670091482
 21
3.6431108536
  0
LINE
  5
316
100
AcDbEntity
  8
0
100
AcDbLine
 62
7
  6
CONTINUOUS
 10
6.1734416454
 20
3.8786108536
 11
6.1734416454
 21
3.6431108536
  0
LINE
  5
317
100
AcDbEntity
  8
0
100
AcDbLine
 62
7
  6
CONTINUOUS
 10
6.1817392538
 20
3.630346792
 11
6.1817392538
 21
3.8913749151
  0
LINE
  5
318
100
AcDbEntity
  8
0
100
AcDbLine
 62
7
  6
CONTINUOUS
 10
6.1873242078
 20
3.8786108536
 11
6.1873242078
 21
3.6431108536
  0
LINE
  5
319
100
AcDbEntity
  8
0
100
AcDbLine
 62
7
  6
CONTINUOUS
 10
6.1938471675
 20
3.8786108536
 11
6.1938471675
 21
3.6431108536
  0
LINE
  5
31A
100
AcDbEntity
  8
0
100
AcDbLine
 62
7
  6
CONTINUOUS
 10
6.2018669529
 20
3.630346792
 11
6.2018669529
 21
3.8913749151
  0
LINE
  5
31B
100
AcDbEntity
  8
0
100
AcDbLine
 62
7
  6
CONTINUOUS
 10
6.2079044434
 20
3.8786108536
 11
6.2079044434
 21
3.6431108536
  0
LINE
  5
31C
100
AcDbEntity
  8
0
100
AcDbLine
 62
7
  6
CONTINUOUS
 10
6.2144999864
 20
3.8786108536
 11
6.2144999864
 21
3.6431108536
  0
LINE
  5
31D
100
AcDbEntity
  8
0
100
AcDbLine
 62
7
  6
CONTINUOUS
 10
6.2178208705
 20
2.9152785723
 11
6.2178208705
 21
3.4019431349
  0
LINE
  5
31E
100
AcDbEntity
  8
0
100
AcDbLine
 62
7
  6
CONTINUOUS
 10
6.2215708705
 20
2.9236108536
 11
6.2215708705
 21
4.2436108536
  0
LINE
  5
31F
100
AcDbEntity
  8
0
100
AcDbLine
 62
7
  6
CONTINUOUS
 10
6.2365708705
 20
2.9086108536
 11
6.2365708705
 21
4.2586108536
  0
LINE
  5
320
100
AcDbEntity
  8
0
100
AcDbLine
 62
7
  6
CONTINUOUS
 10
6.1233896011
 20
3.3598266076
 11
6.1226192459
 21
3.3510214073
  0
LINE
  5
321
100
AcDbEntity
  8
0
100
AcDbLine
 62
7
  6
CONTINUOUS
 10
6.0916603169
 20
2.997159229
 11
6.0908899617
 21
2.9883540286
  0
LINE
  5
322
100
AcDbEntity
  8
0
100
AcDbLine
 62
7
  6
CONTINUOUS
 10
6.4913555278
 20
3.0058387328
 11
6.4898206802
 21
3.0145432859
  0
LINE
  5
323
100
AcDbEntity
  8
0
100
AcDbLine
 62
7
  6
CONTINUOUS
 10
6.4281384383
 20
3.3643606633
 11
6.4266035907
 21
3.3730652163
  0
LINE
  5
324
100
AcDbEntity
  8
0
100
AcDbLine
 62
7
  6
CONTINUOUS
 10
6.4772517794
 20
2.9883540286
 11
6.4764814242
 21
2.997159229
  0
LINE
  5
325
100
AcDbEntity
  8
0
100
AcDbLine
 62
7
  6
CONTINUOUS
 10
6.4455224952
 20
3.3510214073
 11
6.4447521399
 21
3.3598266076
  0
LINE
  5
326
100
AcDbEntity
  8
0
100
AcDbLine
 62
7
  6
CONTINUOUS
 10
6.3315708705
 20
2.9086108536
 11
6.3315708705
 21
4.2586108536
  0
LINE
  5
327
100
AcDbEntity
  8
0
100
AcDbLine
 62
7
  6
CONTINUOUS
 10
6.3465708705
 20
2.9236108536
 11
6.3465708705
 21
4.2436108536
  0
LINE
  5
328
100
AcDbEntity
  8
0
100
AcDbLine
 62
7
  6
CONTINUOUS
 10
6.3503208705
 20
3.4019431349
 11
6.3503208705
 21
2.9152785723
  0
LINE
  5
329
100
AcDbEntity
  8
0
100
AcDbLine
 62
7
  6
CONTINUOUS
 10
6.3546003212
 20
3.8786108536
 11
6.3546003212
 21
3.6431108536
  0
LINE
  5
32A
100
AcDbEntity
  8
0
100
AcDbLine
 62
7
  6
CONTINUOUS
 10
6.3611929085
 20
3.8786108536
 11
6.3611929085
 21
3.6431108536
  0
LINE
  5
32B
100
AcDbEntity
  8
0
100
AcDbLine
 62
7
  6
CONTINUOUS
 10
6.3662747881
 20
3.630346792
 11
6.3662747881
 21
3.8913749151
  0
LINE
  5
32C
100
AcDbEntity
  8
0
100
AcDbLine
 62
7
  6
CONTINUOUS
 10
6.3752429601
 20
3.8786108536
 11
6.3752429601
 21
3.6431108536
  0
LINE
  5
32D
100
AcDbEntity
  8
0
100
AcDbLine
 62
7
  6
CONTINUOUS
 10
6.3817621334
 20
3.8786108536
 11
6.3817621334
 21
3.6431108536
  0
LINE
  5
32E
100
AcDbEntity
  8
0
100
AcDbLine
 62
7
  6
CONTINUOUS
 10
6.3864024873
 20
3.630346792
 11
6.3864024873
 21
3.8913749151
  0
LINE
  5
32F
100
AcDbEntity
  8
0
100
AcDbLine
 62
7
  6
CONTINUOUS
 10
6.3956357026
 20
3.8786108536
 11
6.3956357026
 21
3.6431108536
  0
LINE
  5
330
100
AcDbEntity
  8
0
100
AcDbLine
 62
7
  6
CONTINUOUS
 10
6.4020635934
 20
3.8786108536
 11
6.4020635934
 21
3.6431108536
  0
LINE
  5
331
100
AcDbEntity
  8
0
100
AcDbLine
 62
7
  6
CONTINUOUS
 10
6.4062497026
 20
3.630346792
 11
6.4062497026
 21
3.8913749151
  0
LINE
  5
332
100
AcDbEntity
  8
0
100
AcDbLine
 62
7
  6
CONTINUOUS
 10
6.4090708705
 20
3.8936108536
 11
6.4090708705
 21
5.7781108536
  0
LINE
  5
333
100
AcDbEntity
  8
0
100
AcDbLine
 62
7
  6
CONTINUOUS
 10
6.4157226537
 20
3.8786108536
 11
6.4157226537
 21
3.6431108536
  0
LINE
  5
334
100
AcDbEntity
  8
0
100
AcDbLine
 62
7
  6
CONTINUOUS
 10
6.4220416436
 20
3.8786108536
 11
6.4220416436
 21
3.6431108536
  0
LINE
  5
335
100
AcDbEntity
  8
0
100
AcDbLine
 62
7
  6
CONTINUOUS
 10
6.4257620341
 20
3.630346792
 11
6.4257620341
 21
3.8913749151
  0
LINE
  5
336
100
AcDbEntity
  8
0
100
AcDbLine
 62
7
  6
CONTINUOUS
 10
6.4354487564
 20
3.8786108536
 11
6.4354487564
 21
3.6431108536
  0
LINE
  5
337
100
AcDbEntity
  8
0
100
AcDbLine
 62
7
  6
CONTINUOUS
 10
6.4416415254
 20
3.8786108536
 11
6.4416415254
 21
3.6431108536
  0
LINE
  5
338
100
AcDbEntity
  8
0
100
AcDbLine
 62
7
  6
CONTINUOUS
 10
6.4448860001
 20
3.630346792
 11
6.4448860001
 21
3.8913749151
  0
LINE
  5
339
100
AcDbEntity
  8
0
100
AcDbLine
 62
7
  6
CONTINUOUS
 10
6.4547599429
 20
3.8786108536
 11
6.4547599429
 21
3.6431108536
  0
LINE
  5
33A
100
AcDbEntity
  8
0
100
AcDbLine
 62
7
  6
CONTINUOUS
 10
6.1415381504
 20
3.3730652163
 11
6.1400033028
 21
3.3643606633
  0
LINE
  5
33B
100
AcDbEntity
  8
0
100
AcDbLine
 62
7
  6
CONTINUOUS
 10
6.0783210608
 20
3.0145432859
 11
6.0767862133
 21
3.0058387328
  0
LINE
  5
33C
100
AcDbEntity
  8
0
100
AcDbLine
 62
7
  6
CONTINUOUS
 10
6.1607714597
 20
3.3846716978
 11
6.1584838009
 21
3.376134039
  0
LINE
  5
33D
100
AcDbEntity
  8
0
100
AcDbLine
 62
7
  6
CONTINUOUS
 10
6.0665476851
 20
3.0330237839
 11
6.0642600263
 21
3.0244861252
  0
LINE
  5
33E
100
AcDbEntity
  8
0
100
AcDbLine
 62
7
  6
CONTINUOUS
 10
4.1590708705
 20
5.4031108536
 11
4.4090708705
 21
5.4031108536
  0
LINE
  5
33F
100
AcDbEntity
  8
0
100
AcDbLine
 62
7
  6
CONTINUOUS
 10
6.460809517
 20
3.8786108536
 11
6.460809517
 21
3.6431108536
  0
LINE
  5
340
100
AcDbEntity
  8
0
100
AcDbLine
 62
7
  6
CONTINUOUS
 10
6.4616778077
 20
2.9721650817
 11
6.4616778077
 21
2.9810039164
  0
LINE
  5
341
100
AcDbEntity
  8
0
100
AcDbLine
 62
7
  6
CONTINUOUS
 10
6.4616778077
 20
3.3362177907
 11
6.4616778077
 21
3.3450566255
  0
LINE
  5
342
100
AcDbEntity
  8
0
100
AcDbLine
 62
7
  6
CONTINUOUS
 10
6.463569183
 20
3.630346792
 11
6.463569183
 21
3.8913749151
  0
LINE
  5
343
100
AcDbEntity
  8
0
100
AcDbLine
 62
7
  6
CONTINUOUS
 10
6.4736032825
 20
3.8786108536
 11
6.4736032825
 21
3.6431108536
  0
LINE
  5
344
100
AcDbEntity
  8
0
100
AcDbLine
 62
7
  6
CONTINUOUS
 10
6.4794930803
 20
3.8786108536
 11
6.4794930803
 21
3.6431108536
  0
LINE
  5
345
100
AcDbEntity
  8
0
100
AcDbLine
 62
7
  6
CONTINUOUS
 10
6.4817603734
 20
3.630346792
 11
6.4817603734
 21
3.8913749151
  0
LINE
  5
346
100
AcDbEntity
  8
0
100
AcDbLine
 62
7
  6
CONTINUOUS
 10
6.4919271269
 20
3.8786108536
 11
6.4919271269
 21
3.6431108536
  0
LINE
  5
347
100
AcDbEntity
  8
0
100
AcDbLine
 62
7
  6
CONTINUOUS
 10
6.4976410049
 20
3.8786108536
 11
6.4976410049
 21
3.6431108536
  0
LINE
  5
348
100
AcDbEntity
  8
0
100
AcDbLine
 62
7
  6
CONTINUOUS
 10
6.4994097107
 20
3.630346792
 11
6.4994097107
 21
3.8913749151
  0
LINE
  5
349
100
AcDbEntity
  8
0
100
AcDbLine
 62
7
  6
CONTINUOUS
 10
6.5096812517
 20
3.8786108536
 11
6.5096812517
 21
3.6431108536
  0
LINE
  5
34A
100
AcDbEntity
  8
0
100
AcDbLine
 62
7
  6
CONTINUOUS
 10
6.5152035485
 20
3.8786108536
 11
6.5152035485
 21
3.6431108536
  0
LINE
  5
34B
100
AcDbEntity
  8
0
100
AcDbLine
 62
7
  6
CONTINUOUS
 10
6.5164688192
 20
3.630346792
 11
6.5164688192
 21
3.8913749151
  0
LINE
  5
34C
100
AcDbEntity
  8
0
100
AcDbLine
 62
7
  6
CONTINUOUS
 10
6.5268169942
 20
3.8786108536
 11
6.5268169942
 21
3.6431108536
  0
LINE
  5
34D
100
AcDbEntity
  8
0
100
AcDbLine
 62
7
  6
CONTINUOUS
 10
6.5321325736
 20
3.8786108536
 11
6.5321325736
 21
3.6431108536
  0
LINE
  5
34E
100
AcDbEntity
  8
0
100
AcDbLine
 62
7
  6
CONTINUOUS
 10
6.5328909411
 20
3.630346792
 11
6.5328909411
 21
3.8913749151
  0
LINE
  5
34F
100
AcDbEntity
  8
0
100
AcDbLine
 62
7
  6
CONTINUOUS
 10
6.5432873864
 20
3.8786108536
 11
6.5432873864
 21
3.6431108536
  0
LINE
  5
350
100
AcDbEntity
  8
0
100
AcDbLine
 62
7
  6
CONTINUOUS
 10
6.5483816788
 20
3.8786108536
 11
6.5483816788
 21
3.6431108536
  0
LINE
  5
351
100
AcDbEntity
  8
0
100
AcDbLine
 62
7
  6
CONTINUOUS
 10
6.5486310644
 20
3.630346792
 11
6.5486310644
 21
3.8913749151
  0
LINE
  5
352
100
AcDbEntity
  8
0
100
AcDbLine
 62
7
  6
CONTINUOUS
 10
6.5590472842
 20
3.8786108536
 11
6.5590472842
 21
3.6431108536
  0
LINE
  5
353
100
AcDbEntity
  8
0
100
AcDbLine
 62
7
  6
CONTINUOUS
 10
6.5639063265
 20
3.8786108536
 11
6.5639063265
 21
3.6431108536
  0
LINE
  5
354
100
AcDbEntity
  8
0
100
AcDbLine
 62
7
  6
CONTINUOUS
 10
6.5740534907
 20
3.8786108536
 11
6.5740534907
 21
3.6431108536
  0
LINE
  5
355
100
AcDbEntity
  8
0
100
AcDbLine
 62
7
  6
CONTINUOUS
 10
6.5786639646
 20
3.8786108536
 11
6.5786639646
 21
3.6431108536
  0
LINE
  5
356
100
AcDbEntity
  8
0
100
AcDbLine
 62
7
  6
CONTINUOUS
 10
6.5882648751
 20
3.8786108536
 11
6.5882648751
 21
3.6431108536
  0
LINE
  5
357
100
AcDbEntity
  8
0
100
AcDbLine
 62
7
  6
CONTINUOUS
 10
6.5926141435
 20
3.8786108536
 11
6.5926141435
 21
3.6431108536
  0
LINE
  5
358
100
AcDbEntity
  8
0
100
AcDbLine
 62
7
  6
CONTINUOUS
 10
6.6016424848
 20
3.8786108536
 11
6.6016424848
 21
3.6431108536
  0
LINE
  5
359
100
AcDbEntity
  8
0
100
AcDbLine
 62
7
  6
CONTINUOUS
 10
6.6057186267
 20
3.8786108536
 11
6.6057186267
 21
3.6431108536
  0
LINE
  5
35A
100
AcDbEntity
  8
0
100
AcDbLine
 62
7
  6
CONTINUOUS
 10
6.6141496528
 20
3.8786108536
 11
6.6141496528
 21
3.6431108536
  0
LINE
  5
35B
100
AcDbEntity
  8
0
100
AcDbLine
 62
7
  6
CONTINUOUS
 10
6.6179414959
 20
3.8786108536
 11
6.6179414959
 21
3.6431108536
  0
LINE
  5
35C
100
AcDbEntity
  8
0
100
AcDbLine
 62
7
  6
CONTINUOUS
 10
6.6257520978
 20
3.8786108536
 11
6.6257520978
 21
3.6431108536
  0
LINE
  5
35D
100
AcDbEntity
  8
0
100
AcDbLine
 62
7
  6
CONTINUOUS
 10
6.6292492488
 20
3.8786108536
 11
6.6292492488
 21
3.6431108536
  0
LINE
  5
35E
100
AcDbEntity
  8
0
100
AcDbLine
 62
7
  6
CONTINUOUS
 10
6.6364180183
 20
3.8786108536
 11
6.6364180183
 21
3.6431108536
  0
LINE
  5
35F
100
AcDbEntity
  8
0
100
AcDbLine
 62
7
  6
CONTINUOUS
 10
6.4447521399
 20
2.9573950996
 11
6.4455224952
 21
2.9662002999
  0
LINE
  5
360
100
AcDbEntity
  8
0
100
AcDbLine
 62
7
  6
CONTINUOUS
 10
6.4764814242
 20
3.3200624782
 11
6.4772517794
 21
3.3288676785
  0
LINE
  5
361
100
AcDbEntity
  8
0
100
AcDbLine
 62
7
  6
CONTINUOUS
 10
6.1809431519
 20
3.3945577197
 11
6.1779200924
 21
3.3862519319
  0
LINE
  5
362
100
AcDbEntity
  8
0
100
AcDbLine
 62
7
  6
CONTINUOUS
 10
6.0564297922
 20
3.0524600754
 11
6.0534067326
 21
3.0441542876
  0
LINE
  5
363
100
AcDbEntity
  8
0
100
AcDbLine
 62
7
  6
CONTINUOUS
 10
6.2018997084
 20
3.4026480436
 11
6.1981642554
 21
3.3946373388
  0
LINE
  5
364
100
AcDbEntity
  8
0
100
AcDbLine
 62
7
  6
CONTINUOUS
 10
6.0480443853
 20
3.0727042385
 11
6.0443089323
 21
3.0646935337
  0
LINE
  5
365
100
AcDbEntity
  8
0
100
AcDbLine
 62
7
  6
CONTINUOUS
 10
6.6396108918
 20
3.8786108536
 11
6.6396108918
 21
3.6431108536
  0
LINE
  5
366
100
AcDbEntity
  8
0
100
AcDbLine
 62
7
  6
CONTINUOUS
 10
6.6461181797
 20
3.8786108536
 11
6.6461181797
 21
3.6431108536
  0
LINE
  5
367
100
AcDbEntity
  8
0
100
AcDbLine
 62
7
  6
CONTINUOUS
 10
6.6489980243
 20
3.8786108536
 11
6.6489980243
 21
3.6431108536
  0
LINE
  5
368
100
AcDbEntity
  8
0
100
AcDbLine
 62
7
  6
CONTINUOUS
 10
6.6548259947
 20
3.8786108536
 11
6.6548259947
 21
3.6431108536
  0
LINE
  5
369
100
AcDbEntity
  8
0
100
AcDbLine
 62
7
  6
CONTINUOUS
 10
6.6573849168
 20
3.8786108536
 11
6.6573849168
 21
3.6431108536
  0
LINE
  5
36A
100
AcDbEntity
  8
0
100
AcDbLine
 62
7
  6
CONTINUOUS
 10
6.6625175956
 20
3.8786108536
 11
6.6625175956
 21
3.6431108536
  0
LINE
  5
36B
100
AcDbEntity
  8
0
100
AcDbLine
 62
7
  6
CONTINUOUS
 10
6.6647485815
 20
3.8786108536
 11
6.6647485815
 21
3.6431108536
  0
LINE
  5
36C
100
AcDbEntity
  8
0
100
AcDbLine
 62
7
  6
CONTINUOUS
 10
6.6691719003
 20
3.8786108536
 11
6.6691719003
 21
3.6431108536
  0
LINE
  5
36D
100
AcDbEntity
  8
0
100
AcDbLine
 62
7
  6
CONTINUOUS
 10
6.6710688351
 20
3.8786108536
 11
6.6710688351
 21
3.6431108536
  0
LINE
  5
36E
100
AcDbEntity
  8
0
100
AcDbLine
 62
7
  6
CONTINUOUS
 10
6.6747706699
 20
3.8786108536
 11
6.6747706699
 21
3.6431108536
  0
LINE
  5
36F
100
AcDbEntity
  8
0
100
AcDbLine
 62
7
  6
CONTINUOUS
 10
6.6763283541
 20
3.8786108536
 11
6.6763283541
 21
3.6431108536
  0
LINE
  5
370
100
AcDbEntity
  8
0
100
AcDbLine
 62
7
  6
CONTINUOUS
 10
6.6792985586
 20
3.8786108536
 11
6.6792985586
 21
3.6431108536
  0
LINE
  5
371
100
AcDbEntity
  8
0
100
AcDbLine
 62
7
  6
CONTINUOUS
 10
6.6805127226
 20
3.8786108536
 11
6.6805127226
 21
3.6431108536
  0
LINE
  5
372
100
AcDbEntity
  8
0
100
AcDbLine
 62
7
  6
CONTINUOUS
 10
6.6827431555
 20
3.8786108536
 11
6.6827431555
 21
3.6431108536
  0
LINE
  5
373
100
AcDbEntity
  8
0
100
AcDbLine
 62
7
  6
CONTINUOUS
 10
6.6836104716
 20
3.8786108536
 11
6.6836104716
 21
3.6431108536
  0
LINE
  5
374
100
AcDbEntity
  8
0
100
AcDbLine
 62
7
  6
CONTINUOUS
 10
6.6850950195
 20
3.8786108536
 11
6.6850950195
 21
3.6431108536
  0
LINE
  5
375
100
AcDbEntity
  8
0
100
AcDbLine
 62
7
  6
CONTINUOUS
 10
6.6856131103
 20
3.8786108536
 11
6.6856131103
 21
3.6431108536
  0
LINE
  5
376
100
AcDbEntity
  8
0
100
AcDbLine
 62
7
  6
CONTINUOUS
 10
6.6863477042
 20
3.8786108536
 11
6.6863477042
 21
3.6431108536
  0
LINE
  5
377
100
AcDbEntity
  8
0
100
AcDbLine
 62
7
  6
CONTINUOUS
 10
6.6865151496
 20
3.8786108536
 11
6.6865151496
 21
3.6431108536
  0
LINE
  5
378
100
AcDbEntity
  8
0
100
AcDbLine
 62
7
  6
CONTINUOUS
 10
6.6865708705
 20
2.4531108536
 11
6.6865708705
 21
3.6281108536
  0
LINE
  5
379
100
AcDbEntity
  8
0
100
AcDbLine
 62
7
  6
CONTINUOUS
 10
6.4266035907
 20
2.9441564909
 11
6.4281384383
 21
2.9528610439
  0
LINE
  5
37A
100
AcDbEntity
  8
0
100
AcDbLine
 62
7
  6
CONTINUOUS
 10
6.4898206802
 20
3.3026784213
 11
6.4913555278
 21
3.3113829743
  0
LINE
  5
37B
100
AcDbEntity
  8
0
100
AcDbLine
 62
7
  6
CONTINUOUS
 10
6.4073702814
 20
2.9325500094
 11
6.4096579402
 21
2.9410876682
  0
LINE
  5
37C
100
AcDbEntity
  8
0
100
AcDbLine
 62
7
  6
CONTINUOUS
 10
6.501594056
 20
3.2841979232
 11
6.5038817147
 21
3.292735582
  0
LINE
  5
37D
100
AcDbEntity
  8
0
100
AcDbLine
 62
7
  6
CONTINUOUS
 10
6.0414552825
 20
3.0936022027
 11
6.0370358651
 21
3.0859475472
  0
LINE
  5
37E
100
AcDbEntity
  8
0
100
AcDbLine
 62
7
  6
CONTINUOUS
 10
6.2190622196
 20
3.4012264416
 11
6.2215708705
 21
3.4055715524
  0
LINE
  5
37F
100
AcDbEntity
  8
0
100
AcDbLine
 62
7
  6
CONTINUOUS
 10
6.0367126308
 20
3.114994922
 11
6.0316428834
 21
3.1077545724
  0
LINE
  5
380
100
AcDbEntity
  8
0
100
AcDbLine
 62
7
  6
CONTINUOUS
 10
4.4090708705
 20
5.7781108536
 11
4.1590708705
 21
5.7781108536
  0
LINE
  5
381
100
AcDbEntity
  8
0
100
AcDbLine
 62
7
  6
CONTINUOUS
 10
6.1590708705
 20
5.7781108536
 11
6.4090708705
 21
5.7781108536
  0
LINE
  5
382
100
AcDbEntity
  8
0
100
AcDbLine
 62
7
  6
CONTINUOUS
 10
6.8915708705
 20
2.3112292963
 11
6.8915708705
 21
2.2031108536
  0
LINE
  5
383
100
AcDbEntity
  8
0
100
AcDbLine
 62
7
  6
CONTINUOUS
 10
6.3871985892
 20
2.9226639874
 11
6.3902216487
 21
2.9309697752
  0
LINE
  5
384
100
AcDbEntity
  8
0
100
AcDbLine
 62
7
  6
CONTINUOUS
 10
6.5117119489
 20
3.2647616317
 11
6.5147350084
 21
3.2730674195
  0
LINE
  5
385
100
AcDbEntity
  8
0
100
AcDbLine
 62
7
  6
CONTINUOUS
 10
6.3662420327
 20
2.9145736636
 11
6.3699774857
 21
2.9225843683
  0
LINE
  5
386
100
AcDbEntity
  8
0
100
AcDbLine
 62
7
  6
CONTINUOUS
 10
6.5200973558
 20
3.2445174687
 11
6.5238328088
 21
3.2525281735
  0
LINE
  5
387
100
AcDbEntity
  8
0
100
AcDbLine
 62
7
  6
CONTINUOUS
 10
6.0338525247
 20
3.1367195849
 11
6.0281710312
 21
3.1299486447
  0
LINE
  5
388
100
AcDbEntity
  8
0
100
AcDbLine
 62
7
  6
CONTINUOUS
 10
6.0328967312
 20
3.1586108536
 11
6.0266467312
 21
3.1523608536
  0
LINE
  5
389
100
AcDbEntity
  8
0
100
AcDbLine
 62
7
  6
CONTINUOUS
 10
6.0338525247
 20
3.1805021223
 11
6.0270815844
 21
3.1748206288
  0
LINE
  5
38A
100
AcDbEntity
  8
0
100
AcDbLine
 62
7
  6
CONTINUOUS
 10
6.0367126308
 20
3.2022267852
 11
6.0294722812
 21
3.1971570378
  0
LINE
  5
38B
100
AcDbEntity
  8
0
100
AcDbLine
 62
7
  6
CONTINUOUS
 10
6.0414552825
 20
3.2236195045
 11
6.033800627
 21
3.2192000871
  0
LINE
  5
38C
100
AcDbEntity
  8
0
100
AcDbLine
 62
7
  6
CONTINUOUS
 10
6.3490795214
 20
3.4012264416
 11
6.3567341769
 21
3.405645859
  0
LINE
  5
38D
100
AcDbEntity
  8
0
100
AcDbLine
 62
7
  6
CONTINUOUS
 10
6.3779881904
 20
3.3983727918
 11
6.3699774857
 21
3.3946373388
  0
LINE
  5
38E
100
AcDbEntity
  8
0
100
AcDbLine
 62
7
  6
CONTINUOUS
 10
6.0480443853
 20
3.2445174687
 11
6.0400336805
 21
3.2407820157
  0
LINE
  5
38F
100
AcDbEntity
  8
0
100
AcDbLine
 62
7
  6
CONTINUOUS
 10
6.3985274365
 20
3.3892749915
 11
6.3902216487
 21
3.3862519319
  0
LINE
  5
390
100
AcDbEntity
  8
0
100
AcDbLine
 62
7
  6
CONTINUOUS
 10
6.0564297922
 20
3.2647616317
 11
6.0481240044
 21
3.2617385722
  0
LINE
  5
391
100
AcDbEntity
  8
0
100
AcDbLine
 62
7
  6
CONTINUOUS
 10
6.3490795214
 20
2.9159952655
 11
6.344660104
 21
2.9083406101
  0
LINE
  5
392
100
AcDbEntity
  8
0
100
AcDbLine
 62
7
  6
CONTINUOUS
 10
6.5266864586
 20
3.2236195045
 11
6.531105876
 21
3.2312741599
  0
LINE
  5
393
100
AcDbEntity
  8
0
100
AcDbLine
 62
7
  6
CONTINUOUS
 10
6.3258370217
 20
2.9086108536
 11
6.3226170548
 21
2.9040122643
  0
LINE
  5
394
100
AcDbEntity
  8
0
100
AcDbLine
 62
7
  6
CONTINUOUS
 10
6.5314291103
 20
3.2022267852
 11
6.5364988576
 21
3.2094671347
  0
LINE
  5
395
100
AcDbEntity
  8
0
100
AcDbLine
 62
7
  6
CONTINUOUS
 10
6.3059621392
 20
2.9083925077
 11
6.3002806457
 21
2.9016215674
  0
LINE
  5
396
100
AcDbEntity
  8
0
100
AcDbLine
 62
7
  6
CONTINUOUS
 10
6.5342892164
 20
3.1805021223
 11
6.5399707099
 21
3.1872730625
  0
LINE
  5
397
100
AcDbEntity
  8
0
100
AcDbLine
 62
7
  6
CONTINUOUS
 10
6.2840708705
 20
2.9074367143
 11
6.2778208705
 21
2.9011867143
  0
LINE
  5
398
100
AcDbEntity
  8
0
100
AcDbLine
 62
7
  6
CONTINUOUS
 10
6.5352450098
 20
3.1586108536
 11
6.5414950098
 21
3.1648608536
  0
LINE
  5
399
100
AcDbEntity
  8
0
100
AcDbLine
 62
7
  6
CONTINUOUS
 10
6.2621796019
 20
2.9083925077
 11
6.2554086616
 21
2.9027110142
  0
LINE
  5
39A
100
AcDbEntity
  8
0
100
AcDbLine
 62
7
  6
CONTINUOUS
 10
6.5342892164
 20
3.1367195849
 11
6.5410601567
 21
3.1424010784
  0
LINE
  5
39B
100
AcDbEntity
  8
0
100
AcDbLine
 62
7
  6
CONTINUOUS
 10
6.2366074686
 20
2.9085585861
 11
6.2332145894
 21
2.9061828665
  0
LINE
  5
39C
100
AcDbEntity
  8
0
100
AcDbLine
 62
7
  6
CONTINUOUS
 10
6.5314291103
 20
3.114994922
 11
6.5386694599
 21
3.1200646694
  0
LINE
  5
39D
100
AcDbEntity
  8
0
100
AcDbLine
 62
7
  6
CONTINUOUS
 10
6.2114075642
 20
2.9115758481
 11
6.2190622196
 21
2.9159952655
  0
LINE
  5
39E
100
AcDbEntity
  8
0
100
AcDbLine
 62
7
  6
CONTINUOUS
 10
6.5266864586
 20
3.0936022027
 11
6.534341114
 21
3.0980216201
  0
LINE
  5
39F
100
AcDbEntity
  8
0
100
AcDbLine
 62
7
  6
CONTINUOUS
 10
6.1901535506
 20
2.9188489154
 11
6.1981642554
 21
2.9225843683
  0
LINE
  5
3A0
100
AcDbEntity
  8
0
100
AcDbLine
 62
7
  6
CONTINUOUS
 10
6.5200973558
 20
3.0727042385
 11
6.5281080606
 21
3.0764396914
  0
LINE
  5
3A1
100
AcDbEntity
  8
0
100
AcDbLine
 62
7
  6
CONTINUOUS
 10
6.1696143046
 20
2.9279467157
 11
6.1779200924
 21
2.9309697752
  0
LINE
  5
3A2
100
AcDbEntity
  8
0
100
AcDbLine
 62
7
  6
CONTINUOUS
 10
6.5117119489
 20
3.0524600754
 11
6.5200177367
 21
3.055483135
  0
ARC
  5
3A3
100
AcDbEntity
  8
0
100
AcDbCircle
 62
7
  6
CONTINUOUS
 10
5.4161638947
 20
3.5506852713
 40
1.25
100
AcDbArc
 50
282.7916252431
 51
288.8823949698
  0
ARC
  5
3A4
100
AcDbEntity
  8
0
100
AcDbCircle
 62
7
  6
CONTINUOUS
 10
5.7915708705
 20
2.4531108536
 40
0.09
100
AcDbArc
 50
288.8823949698
 51
360.0
  0
ARC
  5
3A5
100
AcDbEntity
  8
0
100
AcDbCircle
 62
7
  6
CONTINUOUS
 10
5.6975708705
 20
2.3112292963
 40
0.021
100
AcDbArc
 50
102.7916252431
 51
180.0
  0
ARC
  5
3A6
100
AcDbEntity
  8
0
100
AcDbCircle
 62
7
  6
CONTINUOUS
 10
5.8965708705
 20
3.8786108536
 40
0.015
100
AcDbArc
 50
90.0
 51
121.6862229406
  0
ARC
  5
3A7
100
AcDbEntity
  8
0
100
AcDbCircle
 62
7
  6
CONTINUOUS
 10
5.8965708705
 20
3.6431108536
 40
0.015
100
AcDbArc
 50
238.3137770589
 51
270.0
  0
ARC
  5
3A8
100
AcDbEntity
  8
0
100
AcDbCircle
 62
7
  6
CONTINUOUS
 10
5.8965076291
 20
3.8787539704
 40
0.0148485252
100
AcDbArc
 50
140.8960843335
 51
142.5065061889
  0
ARC
  5
3A9
100
AcDbEntity
  8
0
100
AcDbCircle
 62
7
  6
CONTINUOUS
 10
5.8965053717
 20
3.6429659541
 40
0.0148456491
100
AcDbArc
 50
217.4892180491
 51
219.1036022057
  0
ARC
  5
3AA
100
AcDbEntity
  8
0
100
AcDbCircle
 62
7
  6
CONTINUOUS
 10
5.8964553349
 20
3.6429237759
 40
0.0147802175
100
AcDbArc
 50
219.0990621462
 51
225.8390676487
  0
ARC
  5
3AB
100
AcDbEntity
  8
0
100
AcDbCircle
 62
7
  6
CONTINUOUS
 10
5.8964527151
 20
3.8788003687
 40
0.0147766437
100
AcDbArc
 50
131.5927572041
 51
140.8978939969
  0
ARC
  5
3AC
100
AcDbEntity
  8
0
100
AcDbCircle
 62
7
  6
CONTINUOUS
 10
5.2840708705
 20
5.7781108536
 40
1.125
100
AcDbArc
 50
0.0
 51
180.0
  0
ARC
  5
3AD
100
AcDbEntity
  8
0
100
AcDbCircle
 62
7
  6
CONTINUOUS
 10
5.2840708705
 20
5.7781108536
 40
0.875
100
AcDbArc
 50
0.0
 51
180.0
  0
ARC
  5
3AE
100
AcDbEntity
  8
0
100
AcDbCircle
 62
7
  6
CONTINUOUS
 10
6.3315708705
 20
2.9236108536
 40
0.015
100
AcDbArc
 50
270.0
 51
360.0
  0
ARC
  5
3AF
100
AcDbEntity
  8
0
100
AcDbCircle
 62
7
  6
CONTINUOUS
 10
6.2365708705
 20
2.9236108536
 40
0.015
100
AcDbArc
 50
180.0
 51
270.0
  0
ARC
  5
3B0
100
AcDbEntity
  8
0
100
AcDbCircle
 62
7
  6
CONTINUOUS
 10
6.2840708705
 20
3.1586108536
 40
0.2575
100
AcDbArc
 50
106.3908108425
 51
108.6091891575
  0
ARC
  5
3B1
100
AcDbEntity
  8
0
100
AcDbCircle
 62
7
  6
CONTINUOUS
 10
6.2840708705
 20
3.1586108536
 40
0.2575
100
AcDbArc
 50
111.3908108425
 51
113.6091891575
  0
ARC
  5
3B2
100
AcDbEntity
  8
0
100
AcDbCircle
 62
7
  6
CONTINUOUS
 10
6.2840708705
 20
3.1586108536
 40
0.2575
100
AcDbArc
 50
116.3908108425
 51
118.6091891575
  0
ARC
  5
3B3
100
AcDbEntity
  8
0
100
AcDbCircle
 62
7
  6
CONTINUOUS
 10
6.2840708705
 20
3.1586108536
 40
0.2575
100
AcDbArc
 50
121.3908108425
 51
123.6091891575
  0
ARC
  5
3B4
100
AcDbEntity
  8
0
100
AcDbCircle
 62
7
  6
CONTINUOUS
 10
6.2840708705
 20
3.1586108536
 40
0.2575
100
AcDbArc
 50
126.3908108425
 51
128.6091891575
  0
ARC
  5
3B5
100
AcDbEntity
  8
0
100
AcDbCircle
 62
7
  6
CONTINUOUS
 10
6.2840708705
 20
3.1586108536
 40
0.2575
100
AcDbArc
 50
131.3908108425
 51
133.6091891575
  0
ARC
  5
3B6
100
AcDbEntity
  8
0
100
AcDbCircle
 62
7
  6
CONTINUOUS
 10
6.2840708705
 20
3.1586108536
 40
0.2575
100
AcDbArc
 50
136.3908108425
 51
138.6091891575
  0
ARC
  5
3B7
100
AcDbEntity
  8
0
100
AcDbCircle
 62
7
  6
CONTINUOUS
 10
6.2840708705
 20
3.1586108536
 40
0.2575
100
AcDbArc
 50
141.3908108425
 51
143.6091891575
  0
ARC
  5
3B8
100
AcDbEntity
  8
0
100
AcDbCircle
 62
7
  6
CONTINUOUS
 10
6.2840708705
 20
3.1586108536
 40
0.2575
100
AcDbArc
 50
146.3908108425
 51
148.6091891575
  0
ARC
  5
3B9
100
AcDbEntity
  8
0
100
AcDbCircle
 62
7
  6
CONTINUOUS
 10
6.2840708705
 20
3.1586108536
 40
0.2575
100
AcDbArc
 50
151.3908108425
 51
153.6091891575
  0
ARC
  5
3BA
100
AcDbEntity
  8
0
100
AcDbCircle
 62
7
  6
CONTINUOUS
 10
6.2840708705
 20
3.1586108536
 40
0.2575
100
AcDbArc
 50
156.3908108425
 51
158.6091891575
  0
ARC
  5
3BB
100
AcDbEntity
  8
0
100
AcDbCircle
 62
7
  6
CONTINUOUS
 10
6.2840708705
 20
3.1586108536
 40
0.2575
100
AcDbArc
 50
161.3908108425
 51
163.6091891575
  0
ARC
  5
3BC
100
AcDbEntity
  8
0
100
AcDbCircle
 62
7
  6
CONTINUOUS
 10
6.2840708705
 20
3.1586108536
 40
0.2575
100
AcDbArc
 50
166.3908108425
 51
168.6091891575
  0
ARC
  5
3BD
100
AcDbEntity
  8
0
100
AcDbCircle
 62
7
  6
CONTINUOUS
 10
6.2840708705
 20
3.1586108536
 40
0.2575
100
AcDbArc
 50
171.3908108425
 51
173.6091891575
  0
ARC
  5
3BE
100
AcDbEntity
  8
0
100
AcDbCircle
 62
7
  6
CONTINUOUS
 10
6.2840708705
 20
3.1586108536
 40
0.2575
100
AcDbArc
 50
176.3908108425
 51
178.6091891575
  0
ARC
  5
3BF
100
AcDbEntity
  8
0
100
AcDbCircle
 62
7
  6
CONTINUOUS
 10
6.2840708705
 20
3.1586108536
 40
0.2575
100
AcDbArc
 50
181.3908108425
 51
183.6091891575
  0
ARC
  5
3C0
100
AcDbEntity
  8
0
100
AcDbCircle
 62
7
  6
CONTINUOUS
 10
6.2840708705
 20
3.1586108536
 40
0.2575
100
AcDbArc
 50
186.3908108425
 51
188.6091891575
  0
ARC
  5
3C1
100
AcDbEntity
  8
0
100
AcDbCircle
 62
7
  6
CONTINUOUS
 10
6.2840708705
 20
3.1586108536
 40
0.2575
100
AcDbArc
 50
191.3908108425
 51
193.6091891575
  0
ARC
  5
3C2
100
AcDbEntity
  8
0
100
AcDbCircle
 62
7
  6
CONTINUOUS
 10
6.2840708705
 20
3.1586108536
 40
0.2575
100
AcDbArc
 50
196.3908108425
 51
198.6091891575
  0
ARC
  5
3C3
100
AcDbEntity
  8
0
100
AcDbCircle
 62
7
  6
CONTINUOUS
 10
6.2840708705
 20
3.1586108536
 40
0.2575
100
AcDbArc
 50
201.3908108425
 51
203.6091891575
  0
ARC
  5
3C4
100
AcDbEntity
  8
0
100
AcDbCircle
 62
7
  6
CONTINUOUS
 10
6.2840708705
 20
3.1586108536
 40
0.2575
100
AcDbArc
 50
206.3908108425
 51
208.6091891575
  0
ARC
  5
3C5
100
AcDbEntity
  8
0
100
AcDbCircle
 62
7
  6
CONTINUOUS
 10
6.2840708705
 20
3.1586108536
 40
0.2575
100
AcDbArc
 50
211.3908108425
 51
213.6091891575
  0
ARC
  5
3C6
100
AcDbEntity
  8
0
100
AcDbCircle
 62
7
  6
CONTINUOUS
 10
6.2840708705
 20
3.1586108536
 40
0.2575
100
AcDbArc
 50
216.3908108425
 51
218.6091891575
  0
ARC
  5
3C7
100
AcDbEntity
  8
0
100
AcDbCircle
 62
7
  6
CONTINUOUS
 10
6.2840708705
 20
3.1586108536
 40
0.2575
100
AcDbArc
 50
221.3908108425
 51
223.6091891575
  0
ARC
  5
3C8
100
AcDbEntity
  8
0
100
AcDbCircle
 62
7
  6
CONTINUOUS
 10
6.2840708705
 20
3.1586108536
 40
0.2575
100
AcDbArc
 50
226.3908108425
 51
228.6091891575
  0
ARC
  5
3C9
100
AcDbEntity
  8
0
100
AcDbCircle
 62
7
  6
CONTINUOUS
 10
6.2840708705
 20
3.1586108536
 40
0.2575
100
AcDbArc
 50
231.3908108425
 51
233.6091891575
  0
ARC
  5
3CA
100
AcDbEntity
  8
0
100
AcDbCircle
 62
7
  6
CONTINUOUS
 10
6.2840708705
 20
3.1586108536
 40
0.2575
100
AcDbArc
 50
236.3908108425
 51
238.6091891575
  0
ARC
  5
3CB
100
AcDbEntity
  8
0
100
AcDbCircle
 62
7
  6
CONTINUOUS
 10
6.2840708705
 20
3.1586108536
 40
0.2575
100
AcDbArc
 50
241.3908108425
 51
243.6091891575
  0
ARC
  5
3CC
100
AcDbEntity
  8
0
100
AcDbCircle
 62
7
  6
CONTINUOUS
 10
6.2840708705
 20
3.1586108536
 40
0.2575
100
AcDbArc
 50
246.3908108425
 51
248.6091891575
  0
ARC
  5
3CD
100
AcDbEntity
  8
0
100
AcDbCircle
 62
7
  6
CONTINUOUS
 10
6.2840708705
 20
3.1586108536
 40
0.2575
100
AcDbArc
 50
251.3908108425
 51
253.6091891575
  0
ARC
  5
3CE
100
AcDbEntity
  8
0
100
AcDbCircle
 62
7
  6
CONTINUOUS
 10
6.2840708705
 20
3.1586108536
 40
0.2575
100
AcDbArc
 50
256.3908108425
 51
258.6091891575
  0
ARC
  5
3CF
100
AcDbEntity
  8
0
100
AcDbCircle
 62
7
  6
CONTINUOUS
 10
6.2840708705
 20
3.1586108536
 40
0.2575
100
AcDbArc
 50
261.3908108425
 51
263.6091891575
  0
ARC
  5
3D0
100
AcDbEntity
  8
0
100
AcDbCircle
 62
7
  6
CONTINUOUS
 10
6.2840708705
 20
3.1586108536
 40
0.2575
100
AcDbArc
 50
266.3908108425
 51
268.6091891575
  0
ARC
  5
3D1
100
AcDbEntity
  8
0
100
AcDbCircle
 62
7
  6
CONTINUOUS
 10
6.2840708705
 20
3.1586108536
 40
0.2575
100
AcDbArc
 50
271.3908108425
 51
273.6091891575
  0
ARC
  5
3D2
100
AcDbEntity
  8
0
100
AcDbCircle
 62
7
  6
CONTINUOUS
 10
6.2840708705
 20
3.1586108536
 40
0.2575
100
AcDbArc
 50
276.3908108425
 51
278.6091891575
  0
ARC
  5
3D3
100
AcDbEntity
  8
0
100
AcDbCircle
 62
7
  6
CONTINUOUS
 10
6.2840708705
 20
3.1586108536
 40
0.2575
100
AcDbArc
 50
281.3908108425
 51
283.6091891575
  0
ARC
  5
3D4
100
AcDbEntity
  8
0
100
AcDbCircle
 62
7
  6
CONTINUOUS
 10
6.2840708705
 20
3.1586108536
 40
0.2575
100
AcDbArc
 50
286.3908108425
 51
288.6091891575
  0
ARC
  5
3D5
100
AcDbEntity
  8
0
100
AcDbCircle
 62
7
  6
CONTINUOUS
 10
6.2840708705
 20
3.1586108536
 40
0.2575
100
AcDbArc
 50
291.3908108425
 51
293.6091891575
  0
ARC
  5
3D6
100
AcDbEntity
  8
0
100
AcDbCircle
 62
7
  6
CONTINUOUS
 10
6.2840708705
 20
3.1586108536
 40
0.2575
100
AcDbArc
 50
296.3908108425
 51
298.6091891575
  0
ARC
  5
3D7
100
AcDbEntity
  8
0
100
AcDbCircle
 62
7
  6
CONTINUOUS
 10
6.2840708705
 20
3.1586108536
 40
0.2575
100
AcDbArc
 50
301.3908108425
 51
303.6091891575
  0
ARC
  5
3D8
100
AcDbEntity
  8
0
100
AcDbCircle
 62
7
  6
CONTINUOUS
 10
6.2840708705
 20
3.1586108536
 40
0.2575
100
AcDbArc
 50
306.3908108425
 51
308.6091891575
  0
ARC
  5
3D9
100
AcDbEntity
  8
0
100
AcDbCircle
 62
7
  6
CONTINUOUS
 10
6.2840708705
 20
3.1586108536
 40
0.2575
100
AcDbArc
 50
311.3908108425
 51
313.6091891575
  0
ARC
  5
3DA
100
AcDbEntity
  8
0
100
AcDbCircle
 62
7
  6
CONTINUOUS
 10
6.2840708705
 20
3.1586108536
 40
0.2575
100
AcDbArc
 50
316.3908108425
 51
318.6091891575
  0
ARC
  5
3DB
100
AcDbEntity
  8
0
100
AcDbCircle
 62
7
  6
CONTINUOUS
 10
6.2840708705
 20
3.1586108536
 40
0.2575
100
AcDbArc
 50
321.3908108425
 51
323.6091891575
  0
ARC
  5
3DC
100
AcDbEntity
  8
0
100
AcDbCircle
 62
7
  6
CONTINUOUS
 10
6.2840708705
 20
3.1586108536
 40
0.2575
100
AcDbArc
 50
326.3908108425
 51
328.6091891575
  0
ARC
  5
3DD
100
AcDbEntity
  8
0
100
AcDbCircle
 62
7
  6
CONTINUOUS
 10
6.2840708705
 20
3.1586108536
 40
0.2575
100
AcDbArc
 50
331.3908108425
 51
333.6091891575
  0
ARC
  5
3DE
100
AcDbEntity
  8
0
100
AcDbCircle
 62
7
  6
CONTINUOUS
 10
6.2840708705
 20
3.1586108536
 40
0.2575
100
AcDbArc
 50
336.3908108425
 51
338.6091891575
  0
ARC
  5
3DF
100
AcDbEntity
  8
0
100
AcDbCircle
 62
7
  6
CONTINUOUS
 10
6.2840708705
 20
3.1586108536
 40
0.2575
100
AcDbArc
 50
341.3908108425
 51
343.6091891575
  0
ARC
  5
3E0
100
AcDbEntity
  8
0
100
AcDbCircle
 62
7
  6
CONTINUOUS
 10
6.2840708705
 20
3.1586108536
 40
0.2575
100
AcDbArc
 50
346.3908108425
 51
348.6091891575
  0
ARC
  5
3E1
100
AcDbEntity
  8
0
100
AcDbCircle
 62
7
  6
CONTINUOUS
 10
6.2840708705
 20
3.1586108536
 40
0.2575
100
AcDbArc
 50
351.3908108425
 51
353.6091891575
  0
ARC
  5
3E2
100
AcDbEntity
  8
0
100
AcDbCircle
 62
7
  6
CONTINUOUS
 10
6.2840708705
 20
3.1586108536
 40
0.2575
100
AcDbArc
 50
356.3908108425
 51
358.6091891575
  0
ARC
  5
3E3
100
AcDbEntity
  8
0
100
AcDbCircle
 62
7
  6
CONTINUOUS
 10
6.2840708705
 20
3.1586108536
 40
0.2575
100
AcDbArc
 50
1.3908108425
 51
3.6091891575
  0
ARC
  5
3E4
100
AcDbEntity
  8
0
100
AcDbCircle
 62
7
  6
CONTINUOUS
 10
6.2840708705
 20
3.1586108536
 40
0.2575
100
AcDbArc
 50
6.3908108425
 51
8.6091891575
  0
ARC
  5
3E5
100
AcDbEntity
  8
0
100
AcDbCircle
 62
7
  6
CONTINUOUS
 10
6.2840708705
 20
3.1586108536
 40
0.2575
100
AcDbArc
 50
11.3908108425
 51
13.6091891575
  0
ARC
  5
3E6
100
AcDbEntity
  8
0
100
AcDbCircle
 62
7
  6
CONTINUOUS
 10
6.2840708705
 20
3.1586108536
 40
0.2575
100
AcDbArc
 50
16.3908108425
 51
18.6091891575
  0
ARC
  5
3E7
100
AcDbEntity
  8
0
100
AcDbCircle
 62
7
  6
CONTINUOUS
 10
6.2840708705
 20
3.1586108536
 40
0.2575
100
AcDbArc
 50
21.3908108425
 51
23.6091891575
  0
ARC
  5
3E8
100
AcDbEntity
  8
0
100
AcDbCircle
 62
7
  6
CONTINUOUS
 10
6.2840708705
 20
3.1586108536
 40
0.2575
100
AcDbArc
 50
26.3908108425
 51
28.6091891575
  0
ARC
  5
3E9
100
AcDbEntity
  8
0
100
AcDbCircle
 62
7
  6
CONTINUOUS
 10
6.2840708705
 20
3.1586108536
 40
0.2575
100
AcDbArc
 50
31.3908108425
 51
33.6091891575
  0
ARC
  5
3EA
100
AcDbEntity
  8
0
100
AcDbCircle
 62
7
  6
CONTINUOUS
 10
6.2840708705
 20
3.1586108536
 40
0.2575
100
AcDbArc
 50
36.3908108425
 51
38.6091891575
  0
ARC
  5
3EB
100
AcDbEntity
  8
0
100
AcDbCircle
 62
7
  6
CONTINUOUS
 10
6.2840708705
 20
3.1586108536
 40
0.2575
100
AcDbArc
 50
41.3908108425
 51
43.6091891575
  0
ARC
  5
3EC
100
AcDbEntity
  8
0
100
AcDbCircle
 62
7
  6
CONTINUOUS
 10
6.2840708705
 20
3.1586108536
 40
0.2575
100
AcDbArc
 50
46.3908108425
 51
48.6091891575
  0
ARC
  5
3ED
100
AcDbEntity
  8
0
100
AcDbCircle
 62
7
  6
CONTINUOUS
 10
6.2840708705
 20
3.1586108536
 40
0.2575
100
AcDbArc
 50
51.3908108425
 51
53.6091891575
  0
ARC
  5
3EE
100
AcDbEntity
  8
0
100
AcDbCircle
 62
7
  6
CONTINUOUS
 10
6.2840708705
 20
3.1586108536
 40
0.2575
100
AcDbArc
 50
56.3908108425
 51
58.6091891575
  0
ARC
  5
3EF
100
AcDbEntity
  8
0
100
AcDbCircle
 62
7
  6
CONTINUOUS
 10
6.2840708705
 20
3.1586108536
 40
0.2575
100
AcDbArc
 50
61.3908108425
 51
63.6091891575
  0
ARC
  5
3F0
100
AcDbEntity
  8
0
100
AcDbCircle
 62
7
  6
CONTINUOUS
 10
6.2840708705
 20
3.1586108536
 40
0.2575
100
AcDbArc
 50
66.3908108425
 51
68.6091891575
  0
ARC
  5
3F1
100
AcDbEntity
  8
0
100
AcDbCircle
 62
7
  6
CONTINUOUS
 10
6.2840708705
 20
3.1586108536
 40
0.2575
100
AcDbArc
 50
71.3908108425
 51
73.6091891575
  0
ARC
  5
3F2
100
AcDbEntity
  8
0
100
AcDbCircle
 62
7
  6
CONTINUOUS
 10
6.2840708705
 20
3.1586108536
 40
0.2425
100
AcDbArc
 50
285.8545289788
 51
74.1454710212
  0
ARC
  5
3F3
100
AcDbEntity
  8
0
100
AcDbCircle
 62
7
  6
CONTINUOUS
 10
6.2840708705
 20
3.1586108536
 40
0.2425
100
AcDbArc
 50
105.8545289788
 51
254.1454710212
  0
ARC
  5
3F4
100
AcDbEntity
  8
0
100
AcDbCircle
 62
7
  6
CONTINUOUS
 10
6.6715708705
 20
3.8786108536
 40
0.015
100
AcDbArc
 50
58.3137770594
 51
90.0
  0
ARC
  5
3F5
100
AcDbEntity
  8
0
100
AcDbCircle
 62
7
  6
CONTINUOUS
 10
6.6715708705
 20
3.6431108536
 40
0.015
100
AcDbArc
 50
270.0
 51
301.6862229411
  0
ARC
  5
3F6
100
AcDbEntity
  8
0
100
AcDbCircle
 62
7
  6
CONTINUOUS
 10
6.7765708705
 20
2.4531108536
 40
0.09
100
AcDbArc
 50
180.0
 51
251.1176050302
  0
ARC
  5
3F7
100
AcDbEntity
  8
0
100
AcDbCircle
 62
7
  6
CONTINUOUS
 10
6.8705708705
 20
2.3112292963
 40
0.021
100
AcDbArc
 50
0.0
 51
77.2083747569
  0
ARC
  5
3F8
100
AcDbEntity
  8
0
100
AcDbCircle
 62
7
  6
CONTINUOUS
 10
7.1519778464
 20
3.5506852713
 40
1.25
100
AcDbArc
 50
251.1176050302
 51
257.2083747569
  0
ARC
  5
3F9
100
AcDbEntity
  8
0
100
AcDbCircle
 62
7
  6
CONTINUOUS
 10
6.3315708705
 20
4.2436108536
 40
0.015
100
AcDbArc
 50
0.0
 51
90.0
  0
ARC
  5
3FA
100
AcDbEntity
  8
0
100
AcDbCircle
 62
7
  6
CONTINUOUS
 10
6.2365708705
 20
4.2436108536
 40
0.015
100
AcDbArc
 50
90.0
 51
180.0
  0
LINE
  5
3FB
100
AcDbEntity
  8
0
100
AcDbLine
 62
7
  6
CONTINUOUS
 10
6.5636460467
 20
3.630346792
 11
6.5639063265
 21
3.6431108536
  0
SPLINE
  5
3FC
100
AcDbEntity
  8
0
100
AcDbSpline
 62
7
  6
CONTINUOUS
 70
0
 71
3
 72
15
 73
11
 74
0
 42
0.0000001
 43
0.0000001
 44
0.0000000001
 40
0.0
 40
0.0
 40
0.0
 40
0.0
 40
0.0758235867
 40
0.166135747
 40
0.2714316568
 40
0.3919640601
 40
0.527327212
 40
0.676050921
 40
0.8351443932
 40
1.0
 40
1.0
 40
1.0
 40
1.0
 10
6.5778947328
 20
3.630346792
 30
0.0
 10
6.5779509246
 20
3.6306653785
 30
0.0
 10
6.5780581524
 20
3.6313662407
 30
0.0
 10
6.5781973875
 20
3.6325160403
 30
0.0
 10
6.5783256405
 20
3.6338588802
 30
0.0
 10
6.5784395513
 20
3.6353957984
 30
0.0
 10
6.5785350782
 20
3.6371195662
 30
0.0
 10
6.5786078277
 20
3.639009095
 30
0.0
 10
6.578653597
 20
3.6410253274
 30
0.0
 10
6.5786639646
 20
3.6424074913
 30
0.0
 10
6.5786639646
 20
3.6431108536
 30
0.0
  0
SPLINE
  5
3FD
100
AcDbEntity
  8
0
100
AcDbSpline
 62
7
  6
CONTINUOUS
 70
0
 71
3
 72
15
 73
11
 74
0
 42
0.0000001
 43
0.0000001
 44
0.0000000001
 40
0.0
 40
0.0
 40
0.0
 40
0.0
 40
0.0770121678
 40
0.168055232
 40
0.2736941238
 40
0.3942344274
 40
0.5293170962
 40
0.6775233743
 40
0.835926752
 40
1.0
 40
1.0
 40
1.0
 40
1.0
 10
6.5913380681
 20
3.630346792
 30
0.0
 10
6.5914307832
 20
3.6306636651
 30
0.0
 10
6.5916083319
 20
3.6313624275
 30
0.0
 10
6.5918396257
 20
3.6325131067
 30
0.0
 10
6.5920525925
 20
3.6338566323
 30
0.0
 10
6.5922416856
 20
3.6353940777
 30
0.0
 10
6.5924002401
 20
3.6371183038
 30
0.0
 10
6.5925209786
 20
3.6390082593
 30
0.0
 10
6.5925969367
 20
3.6410249027
 30
0.0
 10
6.5926141435
 20
3.6424074559
 30
0.0
 10
6.5926141435
 20
3.6431108536
 30
0.0
  0
SPLINE
  5
3FE
100
AcDbEntity
  8
0
100
AcDbSpline
 62
7
  6
CONTINUOUS
 70
0
 71
3
 72
15
 73
11
 74
0
 42
0.0000001
 43
0.0000001
 44
0.0000000001
 40
0.0
 40
0.0
 40
0.0
 40
0.0
 40
0.0787071398
 40
0.1708044326
 40
0.2769446912
 40
0.3975037196
 40
0.5321871115
 40
0.6796494017
 40
0.8370570849
 40
1.0
 40
1.0
 40
1.0
 40
1.0
 10
6.6039392055
 20
3.630346792
 30
0.0
 10
6.6040675693
 20
3.630661404
 30
0.0
 10
6.6043144653
 20
3.6313571662
 30
0.0
 10
6.6046375861
 20
3.6325089599
 30
0.0
 10
6.6049349555
 20
3.6338533926
 30
0.0
 10
6.6051988878
 20
3.6353915687
 30
0.0
 10
6.6054201558
 20
3.6371164474
 30
0.0
 10
6.6055886314
 20
3.639007024
 30
0.0
 10
6.6056946162
 20
3.6410242728
 30
0.0
 10
6.6057186267
 20
3.6424074034
 30
0.0
 10
6.6057186267
 20
3.6431108536
 30
0.0
  0
SPLINE
  5
3FF
100
AcDbEntity
  8
0
100
AcDbSpline
 62
7
  6
CONTINUOUS
 70
0
 71
3
 72
15
 73
11
 74
0
 42
0.0000001
 43
0.0000001
 44
0.0000000001
 40
0.0
 40
0.0
 40
0.0
 40
0.0
 40
0.0808223392
 40
0.1742543229
 40
0.2810403411
 40
0.401635261
 40
0.5358218551
 40
0.6823458362
 40
0.8384918965
 40
1.0
 40
1.0
 40
1.0
 40
1.0
 10
6.6156636059
 20
3.630346792
 30
0.0
 10
6.6158265934
 20
3.6306588485
 30
0.0
 10
6.616141516
 20
3.6313508892
 30
0.0
 10
6.6165560198
 20
3.6325038492
 30
0.0
 10
6.6169372935
 20
3.6338492983
 30
0.0
 10
6.617275561
 20
3.6353883467
 30
0.0
 10
6.6175590916
 20
3.6371140357
 30
0.0
 10
6.617774948
 20
3.6390054075
 30
0.0
 10
6.6179107312
 20
3.6410234452
 30
0.0
 10
6.6179414959
 20
3.6424073344
 30
0.0
 10
6.6179414959
 20
3.6431108536
 30
0.0
  0
SPLINE
  5
400
100
AcDbEntity
  8
0
100
AcDbSpline
 62
7
  6
CONTINUOUS
 70
0
 71
3
 72
15
 73
11
 74
0
 42
0.0000001
 43
0.0000001
 44
0.0000000001
 40
0.0
 40
0.0
 40
0.0
 40
0.0
 40
0.0832629122
 40
0.1782602775
 40
0.2858188831
 40
0.4064728796
 40
0.5400888293
 40
0.6855168912
 40
0.8401810005
 40
1.0
 40
1.0
 40
1.0
 40
1.0
 10
6.6264791337
 20
3.630346792
 30
0.0
 10
6.6266756695
 20
3.6306562171
 30
0.0
 10
6.6270570146
 20
3.6313440369
 30
0.0
 10
6.62756217
 20
3.6324980485
 30
0.0
 10
6.6280266218
 20
3.6338445113
 30
0.0
 10
6.6284385396
 20
3.6353845038
 30
0.0
 10
6.6287837359
 20
3.6371111179
 30
0.0
 10
6.6290465082
 20
3.6390034337
 30
0.0
 10
6.6292117944
 20
3.6410224291
 30
0.0
 10
6.6292492488
 20
3.6424072496
 30
0.0
 10
6.6292492488
 20
3.6431108536
 30
0.0
  0
SPLINE
  5
401
100
AcDbEntity
  8
0
100
AcDbSpline
 62
7
  6
CONTINUOUS
 70
0
 71
3
 72
15
 73
11
 74
0
 42
0.0000001
 43
0.0000001
 44
0.0000000001
 40
0.0
 40
0.0
 40
0.0
 40
0.0
 40
0.0859348528
 40
0.1826758849
 40
0.2911137767
 40
0.4118546753
 40
0.5448497917
 40
0.6890623035
 40
0.8420717979
 40
1.0
 40
1.0
 40
1.0
 40
1.0
 10
6.6363561442
 20
3.630346792
 30
0.0
 10
6.6365851618
 20
3.630653668
 30
0.0
 10
6.6370311202
 20
3.6313369983
 30
0.0
 10
6.6376258563
 20
3.6324918264
 30
0.0
 10
6.6381724998
 20
3.6338392042
 30
0.0
 10
6.6386571818
 20
3.6353801432
 30
0.0
 10
6.6390632912
 20
3.6371077516
 30
0.0
 10
6.6393724022
 20
3.6390011315
 30
0.0
 10
6.6395668268
 20
3.6410212366
 30
0.0
 10
6.6396108918
 20
3.64240715
 30
0.0
 10
6.6396108918
 20
3.6431108536
 30
0.0
  0
SPLINE
  5
402
100
AcDbEntity
  8
0
100
AcDbSpline
 62
7
  6
CONTINUOUS
 70
0
 71
3
 72
15
 73
11
 74
0
 42
0.0000001
 43
0.0000001
 44
0.0000000001
 40
0.0
 40
0.0
 40
0.0
 40
0.0
 40
0.0887517464
 40
0.1873633177
 40
0.2967656198
 40
0.4176239467
 40
0.5499699809
 40
0.6928837836
 40
0.844112529
 40
1.0
 40
1.0
 40
1.0
 40
1.0
 10
6.6452675653
 20
3.630346792
 30
0.0
 10
6.6455280286
 20
3.6306512979
 30
0.0
 10
6.6460366573
 20
3.6313300782
 30
0.0
 10
6.6467195437
 20
3.6324854245
 30
0.0
 10
6.6473471116
 20
3.6338335481
 30
0.0
 10
6.6479034549
 20
3.6353753744
 30
0.0
 10
6.64836956
 20
3.6371040005
 30
0.0
 10
6.648724315
 20
3.6389985339
 30
0.0
 10
6.6489474432
 20
3.6410198811
 30
0.0
 10
6.6489980243
 20
3.6424070367
 30
0.0
 10
6.6489980243
 20
3.6431108536
 30
0.0
  0
SPLINE
  5
403
100
AcDbEntity
  8
0
100
AcDbSpline
 62
7
  6
CONTINUOUS
 70
0
 71
3
 72
15
 73
11
 74
0
 42
0.0000001
 43
0.0000001
 44
0.0000000001
 40
0.0
 40
0.0
 40
0.0
 40
0.0
 40
0.0916385267
 40
0.1921997788
 40
0.3026297632
 40
0.4236366235
 40
0.5553243673
 40
0.6968896813
 40
0.8462548198
 40
1.0
 40
1.0
 40
1.0
 40
1.0
 10
6.6531889714
 20
3.630346792
 30
0.0
 10
6.653479873
 20
3.6306491544
 30
0.0
 10
6.6540491466
 20
3.6313234894
 30
0.0
 10
6.6548184007
 20
3.6324790441
 30
0.0
 10
6.655525337
 20
3.6338277019
 30
0.0
 10
6.6561520108
 20
3.6353703071
 30
0.0
 10
6.6566770219
 20
3.6370999324
 30
0.0
 10
6.6570766052
 20
3.6389956771
 30
0.0
 10
6.6573279298
 20
3.6410183781
 30
0.0
 10
6.6573849168
 20
3.6424069108
 30
0.0
 10
6.6573849168
 20
3.6431108536
 30
0.0
  0
SPLINE
  5
404
100
AcDbEntity
  8
0
100
AcDbSpline
 62
7
  6
CONTINUOUS
 70
0
 71
3
 72
14
 73
10
 74
0
 42
0.0000001
 43
0.0000001
 44
0.0000000001
 40
0.0
 40
0.0
 40
0.0
 40
0.0
 40
0.1968114124
 40
0.3083485774
 40
0.4295743497
 40
0.5606542033
 40
0.70089746
 40
0.8484042568
 40
1.0
 40
1.0
 40
1.0
 40
1.0
 10
6.6600986504
 20
3.630346792
 30
0.0
 10
6.660765368
 20
3.6309721186
 30
0.0
 10
6.6616809943
 20
3.6320951625
 30
0.0
 10
6.6626845746
 20
3.6338215015
 30
0.0
 10
6.6633803259
 20
3.6353651391
 30
0.0
 10
6.6639628821
 20
3.6370955893
 30
0.0
 10
6.6644063808
 20
3.6389926084
 30
0.0
 10
6.6646853127
 20
3.6410167424
 30
0.0
 10
6.6647485815
 20
3.6424067739
 30
0.0
 10
6.6647485815
 20
3.6431108536
 30
0.0
  0
SPLINE
  5
405
100
AcDbEntity
  8
0
100
AcDbSpline
 62
7
  6
CONTINUOUS
 70
0
 71
3
 72
15
 73
11
 74
0
 42
0.0000001
 43
0.0000001
 44
0.0000000001
 40
0.0
 40
0.0
 40
0.0
 40
0.0
 40
0.0973849658
 40
0.2019195933
 40
0.314511626
 40
0.4359019093
 40
0.5663047691
 40
0.7051361098
 40
0.8506750801
 40
1.0
 40
1.0
 40
1.0
 40
1.0
 10
6.6659776634
 20
3.630346792
 30
0.0
 10
6.6663264584
 20
3.6306455806
 30
0.0
 10
6.6670107458
 20
3.6313117615
 30
0.0
 10
6.6679461095
 20
3.6324669266
 30
0.0
 10
6.668805987
 20
3.633815978
 30
0.0
 10
6.6695684007
 20
3.6353596934
 30
0.0
 10
6.6702072408
 20
3.6370911227
 30
0.0
 10
6.6706935315
 20
3.6389893447
 30
0.0
 10
6.6709994307
 20
3.6410149996
 30
0.0
 10
6.6710688351
 20
3.6424066273
 30
0.0
 10
6.6710688351
 20
3.6431108536
 30
0.0
  0
SPLINE
  5
406
100
AcDbEntity
  8
0
100
AcDbSpline
 62
7
  6
CONTINUOUS
 70
0
 71
3
 72
14
 73
10
 74
0
 42
0.0000001
 43
0.0000001
 44
0.0000000001
 40
0.0
 40
0.0
 40
0.0
 40
0.0
 40
0.1001993746
 40
0.2067371927
 40
0.32047506
 40
0.4421455633
 40
0.5719989875
 40
0.7095488711
 40
1.0
 40
1.0
 40
1.0
 40
1.0
 10
6.6708098965
 20
3.630346792
 30
0.0
 10
6.6711861239
 20
3.6306441258
 30
0.0
 10
6.6719246944
 20
3.6313067072
 30
0.0
 10
6.6729392406
 20
3.6324613709
 30
0.0
 10
6.6738721652
 20
3.6338103272
 30
0.0
 10
6.6746995217
 20
3.6353542734
 30
0.0
 10
6.6753929661
 20
3.6370867655
 30
0.0
 10
6.6761090976
 20
3.6396625438
 30
0.0
 10
6.6763283541
 20
3.641720808
 30
0.0
 10
6.6763283541
 20
3.6431108536
 30
0.0
  0
SPLINE
  5
407
100
AcDbEntity
  8
0
100
AcDbSpline
 62
7
  6
CONTINUOUS
 70
0
 71
3
 72
13
 73
9
 74
0
 42
0.0000001
 43
0.0000001
 44
0.0000000001
 40
0.0
 40
0.0
 40
0.0
 40
0.0
 40
0.1029145213
 40
0.2114118711
 40
0.3262945943
 40
0.4482730115
 40
0.71349015
 40
1.0
 40
1.0
 40
1.0
 40
1.0
 10
6.6745821047
 20
3.630346792
 30
0.0
 10
6.6749847162
 20
3.6306428643
 30
0.0
 10
6.6757753568
 20
3.6313021897
 30
0.0
 10
6.6768661711
 20
3.6324562069
 30
0.0
 10
6.6778695789
 20
3.6338049593
 30
0.0
 10
6.6790896434
 20
3.6359214937
 30
0.0
 10
6.6802044717
 20
3.6390300563
 30
0.0
 10
6.6805127226
 20
3.6417195565
 30
0.0
 10
6.6805127226
 20
3.6431108536
 30
0.0
  0
SPLINE
  5
408
100
AcDbEntity
  8
0
100
AcDbSpline
 62
7
  6
CONTINUOUS
 70
0
 71
3
 72
16
 73
12
 74
0
 42
0.0000001
 43
0.0000001
 44
0.0000000001
 40
0.0
 40
0.0
 40
0.0
 40
0.0
 40
0.1053429065
 40
0.2155626347
 40
0.3313923794
 40
0.4535075796
 40
0.5821926993
 40
0.7171271917
 40
0.7866260214
 40
0.8571638462
 40
1.0
 40
1.0
 40
1.0
 40
1.0
 10
6.6772839488
 20
3.630346792
 30
0.0
 10
6.677711854
 20
3.630641773
 30
0.0
 10
6.6785522832
 20
3.6312981666
 30
0.0
 10
6.6797162726
 20
3.6324515
 30
0.0
 10
6.6807872517
 20
3.6337997333
 30
0.0
 10
6.6817376227
 20
3.6353439107
 30
0.0
 10
6.6825345304
 20
3.6370771608
 30
0.0
 10
6.6830356849
 20
3.6386470767
 30
0.0
 10
6.6833285218
 20
3.6399724967
 30
0.0
 10
6.6835449576
 20
3.6413518657
 30
0.0
 10
6.6836104716
 20
3.6424061467
 30
0.0
 10
6.6836104716
 20
3.6431108536
 30
0.0
  0
SPLINE
  5
409
100
AcDbEntity
  8
0
100
AcDbSpline
 62
7
  6
CONTINUOUS
 70
0
 71
3
 72
15
 73
11
 74
0
 42
0.0000001
 43
0.0000001
 44
0.0000000001
 40
0.0
 40
0.0
 40
0.0
 40
0.0
 40
0.1077373949
 40
0.2197090671
 40
0.3365740003
 40
0.4589645355
 40
0.5871658451
 40
0.7209244412
 40
0.859178557
 40
1.0
 40
1.0
 40
1.0
 40
1.0
 10
6.6789080232
 20
3.630346792
 30
0.0
 10
6.6793600834
 20
3.63064083
 30
0.0
 10
6.6802479565
 20
3.6312946139
 30
0.0
 10
6.6814817997
 20
3.6324471937
 30
0.0
 10
6.6826173811
 20
3.633794914
 30
0.0
 10
6.6836253954
 20
3.6353389332
 30
0.0
 10
6.6844709685
 20
3.6370726552
 30
0.0
 10
6.6851152841
 20
3.6389753744
 30
0.0
 10
6.6855209212
 20
3.6410073064
 30
0.0
 10
6.6856131103
 20
3.6424059786
 30
0.0
 10
6.6856131103
 20
3.6431108536
 30
0.0
  0
SPLINE
  5
40A
100
AcDbEntity
  8
0
100
AcDbSpline
 62
7
  6
CONTINUOUS
 70
0
 71
3
 72
16
 73
12
 74
0
 42
0.0000001
 43
0.0000001
 44
0.0000000001
 40
0.0
 40
0.0
 40
0.0
 40
0.0
 40
0.1099625138
 40
0.2235723924
 40
0.3414114882
 40
0.464062479
 40
0.5918022388
 40
0.7244341077
 40
0.7923640745
 40
0.8611192046
 40
1.0
 40
1.0
 40
1.0
 40
1.0
 10
6.6794498763
 20
3.630346792
 30
0.0
 10
6.6799249011
 20
3.6306400155
 30
0.0
 10
6.6808577922
 20
3.6312914832
 30
0.0
 10
6.6821580034
 20
3.6324433004
 30
0.0
 10
6.6833549837
 20
3.6337904272
 30
0.0
 10
6.6844178538
 20
3.6353342263
 30
0.0
 10
6.6853097257
 20
3.6370681155
 30
0.0
 10
6.6858721055
 20
3.6386427882
 30
0.0
 10
6.6861999813
 20
3.6399710946
 30
0.0
 10
6.6864417141
 20
3.6413497924
 30
0.0
 10
6.6865151496
 20
3.6424058097
 30
0.0
 10
6.6865151496
 20
3.6431108536
 30
0.0
  0
SPLINE
  5
40B
100
AcDbEntity
  8
0
100
AcDbSpline
 62
7
  6
CONTINUOUS
 70
0
 71
3
 72
11
 73
7
 74
0
 42
0.0000001
 43
0.0000001
 44
0.0000000001
 40
0.0
 40
0.0
 40
0.0
 40
0.0
 40
0.234436259
 40
0.4806419443
 40
0.7371828094
 40
1.0
 40
1.0
 40
1.0
 40
1.0
 10
5.8847258259
 20
3.633930712
 30
0.0
 10
5.8842572137
 20
3.6345416523
 30
0.0
 10
5.8833926849
 20
3.6358713179
 30
0.0
 10
5.882406098
 20
3.6380935711
 30
0.0
 10
5.8817721817
 20
3.6405383547
 30
0.0
 10
5.8816265915
 20
3.6422476769
 30
0.0
 10
5.8816265915
 20
3.6431108536
 30
0.0
  0
SPLINE
  5
40C
100
AcDbEntity
  8
0
100
AcDbSpline
 62
7
  6
CONTINUOUS
 70
0
 71
3
 72
16
 73
12
 74
0
 42
0.0000001
 43
0.0000001
 44
0.0000000001
 40
0.0
 40
0.0
 40
0.0
 40
0.0
 40
0.1427785742
 40
0.2131892516
 40
0.2824648694
 40
0.4167037548
 40
0.5446159144
 40
0.6662286373
 40
0.782110149
 40
0.8931078732
 40
1.0
 40
1.0
 40
1.0
 40
1.0
 10
5.8816439651
 20
3.6431108536
 30
0.0
 10
5.8816439651
 20
3.6423864292
 30
0.0
 10
5.8817210298
 20
3.6413026829
 30
0.0
 10
5.8819740897
 20
3.6398911907
 30
0.0
 10
5.8823142502
 20
3.6385425935
 30
0.0
 10
5.8828915973
 20
3.6369572839
 30
0.0
 10
5.8837969631
 20
3.6352273602
 30
0.0
 10
5.8848614977
 20
3.6337035454
 30
0.0
 10
5.8860463184
 20
3.6323853181
 30
0.0
 10
5.8873209048
 20
3.6312648541
 30
0.0
 10
5.8882303629
 20
3.6306316681
 30
0.0
 10
5.8886918647
 20
3.630346792
 30
0.0
  0
SPLINE
  5
40D
100
AcDbEntity
  8
0
100
AcDbSpline
 62
7
  6
CONTINUOUS
 70
0
 71
3
 72
15
 73
11
 74
0
 42
0.0000001
 43
0.0000001
 44
0.0000000001
 40
0.0
 40
0.0
 40
0.0
 40
0.0
 40
0.1450516956
 40
0.2865598797
 40
0.4220660835
 40
0.5504582816
 40
0.6717244334
 40
0.7864652661
 40
0.8955996813
 40
1.0
 40
1.0
 40
1.0
 40
1.0
 10
5.8825969175
 20
3.6431108536
 30
0.0
 10
5.8825969175
 20
3.6423866361
 30
0.0
 10
5.8826927001
 20
3.6409540153
 30
0.0
 10
5.8831117578
 20
3.6388828464
 30
0.0
 10
5.8837696186
 20
3.6369625753
 30
0.0
 10
5.8846212656
 20
3.6352327358
 30
0.0
 10
5.885623023
 20
3.6337085655
 30
0.0
 10
5.8867383872
 20
3.6323896091
 30
0.0
 10
5.8879385927
 20
3.6312682723
 30
0.0
 10
5.8887977793
 20
3.6306325569
 30
0.0
 10
5.8892337179
 20
3.630346792
 30
0.0
  0
SPLINE
  5
40E
100
AcDbEntity
  8
0
100
AcDbSpline
 62
7
  6
CONTINUOUS
 70
0
 71
3
 72
16
 73
12
 74
0
 42
0.0000001
 43
0.0000001
 44
0.0000000001
 40
0.0
 40
0.0
 40
0.0
 40
0.0
 40
0.1473961289
 40
0.2198707654
 40
0.2909453442
 40
0.4277688393
 40
0.5566654712
 40
0.6775723015
 40
0.7911119963
 40
0.8982670375
 40
1.0
 40
1.0
 40
1.0
 40
1.0
 10
5.884650282
 20
3.6431108536
 30
0.0
 10
5.884650282
 20
3.6423868389
 30
0.0
 10
5.8847178608
 20
3.6413051975
 30
0.0
 10
5.8849407234
 20
3.6398928747
 30
0.0
 10
5.8852394308
 20
3.638547661
 30
0.0
 10
5.8857451324
 20
3.6369678004
 30
0.0
 10
5.8865406929
 20
3.6352383814
 30
0.0
 10
5.8874768954
 20
3.6337139463
 30
0.0
 10
5.8885196362
 20
3.632394361
 30
0.0
 10
5.8896420435
 20
3.6312721693
 30
0.0
 10
5.8904485726
 20
3.6306335934
 30
0.0
 10
5.8908577923
 20
3.630346792
 30
0.0
  0
SPLINE
  5
40F
100
AcDbEntity
  8
0
100
AcDbSpline
 62
7
  6
CONTINUOUS
 70
0
 71
3
 72
15
 73
11
 74
0
 42
0.0000001
 43
0.0000001
 44
0.0000000001
 40
0.0
 40
0.0
 40
0.0
 40
0.0
 40
0.1498347347
 40
0.2953769916
 40
0.4335981989
 40
0.5630600084
 40
0.6836366036
 40
0.7959602334
 40
0.9010661814
 40
1.0
 40
1.0
 40
1.0
 40
1.0
 10
5.8877984307
 20
3.6431108536
 30
0.0
 10
5.8877984307
 20
3.6423870355
 30
0.0
 10
5.8878811536
 20
3.6409587134
 30
0.0
 10
5.888243483
 20
3.6388911617
 30
0.0
 10
5.8888126663
 20
3.6369731795
 30
0.0
 10
5.889550078
 20
3.6352441696
 30
0.0
 10
5.8904181224
 20
3.6337196738
 30
0.0
 10
5.8913852866
 20
3.6323995785
 30
0.0
 10
5.8924266752
 20
3.6312765957
 30
0.0
 10
5.8931782381
 20
3.630634802
 30
0.0
 10
5.8935596364
 20
3.630346792
 30
0.0
  0
SPLINE
  5
410
100
AcDbEntity
  8
0
100
AcDbSpline
 62
7
  6
CONTINUOUS
 70
0
 71
3
 72
14
 73
10
 74
0
 42
0.0000001
 43
0.0000001
 44
0.0000000001
 40
0.0
 40
0.0
 40
0.0
 40
0.0
 40
0.2996557739
 40
0.4393735034
 40
0.5694869092
 40
0.6897954458
 40
0.8009270978
 40
0.9039562072
 40
1.0
 40
1.0
 40
1.0
 40
1.0
 10
5.8920327345
 20
3.6431108536
 30
0.0
 10
5.8920327345
 20
3.641687805
 30
0.0
 10
5.8922513019
 20
3.6395912935
 30
0.0
 10
5.8929638763
 20
3.6369786771
 30
0.0
 10
5.8936412328
 20
3.6352500202
 30
0.0
 10
5.8944387459
 20
3.6337256982
 30
0.0
 10
5.8953276046
 20
3.6324052528
 30
0.0
 10
5.8962849715
 20
3.6312815939
 30
0.0
 10
5.8969793237
 20
3.6306362091
 30
0.0
 10
5.8973318446
 20
3.630346792
 30
0.0
  0
SPLINE
  5
411
100
AcDbEntity
  8
0
100
AcDbSpline
 62
7
  6
CONTINUOUS
 70
0
 71
3
 72
15
 73
11
 74
0
 42
0.0000001
 43
0.0000001
 44
0.0000000001
 40
0.0
 40
0.0
 40
0.0
 40
0.0
 40
0.1548059629
 40
0.3045755525
 40
0.4457008885
 40
0.5763879393
 40
0.6963507611
 40
0.8061974587
 40
0.9070233873
 40
1.0
 40
1.0
 40
1.0
 40
1.0
 10
5.8973415876
 20
3.6431108536
 30
0.0
 10
5.8973415876
 20
3.6423874012
 30
0.0
 10
5.8974105087
 20
3.6409630325
 30
0.0
 10
5.8977126619
 20
3.6388990012
 30
0.0
 10
5.8981875045
 20
3.6369835836
 30
0.0
 10
5.898802983
 20
3.6352559954
 30
0.0
 10
5.8995278551
 20
3.6337319077
 30
0.0
 10
5.9003359226
 20
3.6324113567
 30
0.0
 10
5.9012065073
 20
3.6312871868
 30
0.0
 10
5.9018414542
 20
3.6306378415
 30
0.0
 10
5.9021640777
 20
3.630346792
 30
0.0
  0
SPLINE
  5
412
100
AcDbEntity
  8
0
100
AcDbSpline
 62
7
  6
CONTINUOUS
 70
0
 71
3
 72
14
 73
10
 74
0
 42
0.0000001
 43
0.0000001
 44
0.0000000001
 40
0.0
 40
0.0
 40
0.0
 40
0.0
 40
0.1573266117
 40
0.3092577134
 40
0.451901596
 40
0.5832818555
 40
0.7030178956
 40
0.8116832164
 40
1.0
 40
1.0
 40
1.0
 40
1.0
 10
5.9037104389
 20
3.6431108536
 30
0.0
 10
5.9037104389
 20
3.6423875663
 30
0.0
 10
5.9037722303
 20
3.6409649855
 30
0.0
 10
5.9040432133
 20
3.638902622
 30
0.0
 10
5.9044691539
 20
3.6369884874
 30
0.0
 10
5.9050211961
 20
3.6352619184
 30
0.0
 10
5.9056718023
 20
3.6337379333
 30
0.0
 10
5.9065944313
 20
3.632057344
 30
0.0
 10
5.9074321675
 20
3.6309602362
 30
0.0
 10
5.9080430907
 20
3.630346792
 30
0.0
  0
SPLINE
  5
413
100
AcDbEntity
  8
0
100
AcDbSpline
 62
7
  6
CONTINUOUS
 70
0
 71
3
 72
15
 73
11
 74
0
 42
0.0000001
 43
0.0000001
 44
0.0000000001
 40
0.0
 40
0.0
 40
0.0
 40
0.0
 40
0.1596867777
 40
0.3136395249
 40
0.4576964118
 40
0.589702376
 40
0.7091760681
 40
0.8166419902
 40
0.9131790534
 40
1.0
 40
1.0
 40
1.0
 40
1.0
 10
5.9111218316
 20
3.6431108536
 30
0.0
 10
5.9111218316
 20
3.6423877172
 30
0.0
 10
5.9111763606
 20
3.6409667774
 30
0.0
 10
5.9114155851
 20
3.6389059535
 30
0.0
 10
5.9117915944
 20
3.6369931565
 30
0.0
 10
5.9122790466
 20
3.6352674458
 30
0.0
 10
5.9128532192
 20
3.6337445399
 30
0.0
 10
5.9134933843
 20
3.6324244935
 30
0.0
 10
5.9141832444
 20
3.6313000866
 30
0.0
 10
5.9146929389
 20
3.6306418638
 30
0.0
 10
5.9149527697
 20
3.630346792
 30
0.0
  0
SPLINE
  5
414
100
AcDbEntity
  8
0
100
AcDbSpline
 62
7
  6
CONTINUOUS
 70
0
 71
3
 72
15
 73
11
 74
0
 42
0.0000001
 43
0.0000001
 44
0.0000000001
 40
0.0
 40
0.0
 40
0.0
 40
0.0
 40
0.1619755605
 40
0.3179007394
 40
0.4633594433
 40
0.5960245396
 40
0.7153111549
 40
0.8216834643
 40
0.9161821664
 40
1.0
 40
1.0
 40
1.0
 40
1.0
 10
5.9195554517
 20
3.6431108536
 30
0.0
 10
5.9195554517
 20
3.6423878521
 30
0.0
 10
5.9196026083
 20
3.6409683799
 30
0.0
 10
5.9198095451
 20
3.6389089733
 30
0.0
 10
5.9201348092
 20
3.6369974196
 30
0.0
 10
5.9205564676
 20
3.6352727303
 30
0.0
 10
5.9210531094
 20
3.6337506498
 30
0.0
 10
5.9216067688
 20
3.6324312363
 30
0.0
 10
5.9222033461
 20
3.6313072005
 30
0.0
 10
5.9226472604
 20
3.6306442564
 30
0.0
 10
5.9228741757
 20
3.630346792
 30
0.0
  0
SPLINE
  5
415
100
AcDbEntity
  8
0
100
AcDbSpline
 62
7
  6
CONTINUOUS
 70
0
 71
3
 72
15
 73
11
 74
0
 42
0.0000001
 43
0.0000001
 44
0.0000000001
 40
0.0
 40
0.0
 40
0.0
 40
0.0
 40
0.1640868942
 40
0.3218375756
 40
0.4686046985
 40
0.6019013696
 40
0.7210410527
 40
0.8264201584
 40
0.9190246372
 40
1.0
 40
1.0
 40
1.0
 40
1.0
 10
5.9289881832
 20
3.6431108536
 30
0.0
 10
5.9289881832
 20
3.6423879696
 30
0.0
 10
5.9290278725
 20
3.6409697772
 30
0.0
 10
5.9292020793
 20
3.6389116285
 30
0.0
 10
5.9294758931
 20
3.6370012219
 30
0.0
 10
5.9298308289
 20
3.6352775437
 30
0.0
 10
5.930248826
 20
3.6337563767
 30
0.0
 10
5.9307146997
 20
3.6324378042
 30
0.0
 10
5.9312165464
 20
3.6313144774
 30
0.0
 10
5.9315926574
 20
3.630646851
 30
0.0
 10
5.9317855968
 20
3.630346792
 30
0.0
  0
SPLINE
  5
416
100
AcDbEntity
  8
0
100
AcDbSpline
 62
7
  6
CONTINUOUS
 70
0
 71
3
 72
15
 73
11
 74
0
 42
0.0000001
 43
0.0000001
 44
0.0000000001
 40
0.0
 40
0.0
 40
0.0
 40
0.0
 40
0.1659573946
 40
0.3253300985
 40
0.4732686458
 40
0.6071440487
 40
0.7261751277
 40
0.8306885056
 40
0.9216047364
 40
1.0
 40
1.0
 40
1.0
 40
1.0
 10
5.9393941717
 20
3.6431108536
 30
0.0
 10
5.9393941717
 20
3.6423880683
 30
0.0
 10
5.9394263152
 20
3.640970953
 30
0.0
 10
5.9395674263
 20
3.638913879
 30
0.0
 10
5.9397892127
 20
3.6370044846
 30
0.0
 10
5.9400766782
 20
3.6352817516
 30
0.0
 10
5.9404151564
 20
3.6337615134
 30
0.0
 10
5.9407922748
 20
3.6324439107
 30
0.0
 10
5.9411983377
 20
3.6313215667
 30
0.0
 10
5.9415047501
 20
3.6306495394
 30
0.0
 10
5.9416626074
 20
3.630346792
 30
0.0
  0
SPLINE
  5
417
100
AcDbEntity
  8
0
100
AcDbSpline
 62
7
  6
CONTINUOUS
 70
0
 71
3
 72
15
 73
11
 74
0
 42
0.0000001
 43
0.0000001
 44
0.0000000001
 40
0.0
 40
0.0
 40
0.0
 40
0.0
 40
0.1675224363
 40
0.3282556885
 40
0.4771832036
 40
0.6115569323
 40
0.7305133654
 40
0.8343137964
 40
0.9238110263
 40
1.0
 40
1.0
 40
1.0
 40
1.0
 10
5.9507448951
 20
3.6431108536
 30
0.0
 10
5.9507448951
 20
3.6423881472
 30
0.0
 10
5.9507694301
 20
3.6409718936
 30
0.0
 10
5.9508771538
 20
3.6389156901
 30
0.0
 10
5.9510464574
 20
3.6370071373
 30
0.0
 10
5.9512658735
 20
3.6352852268
 30
0.0
 10
5.9515241765
 20
3.6337658495
 30
0.0
 10
5.951811854
 20
3.632449233
 30
0.0
 10
5.952121452
 20
3.6313280097
 30
0.0
 10
5.9523564863
 20
3.6306521376
 30
0.0
 10
5.9524781352
 20
3.630346792
 30
0.0
  0
SPLINE
  5
418
100
AcDbEntity
  8
0
100
AcDbSpline
 62
7
  6
CONTINUOUS
 70
0
 71
3
 72
15
 73
11
 74
0
 42
0.0000001
 43
0.0000001
 44
0.0000000001
 40
0.0
 40
0.0
 40
0.0
 40
0.0
 40
0.1687208712
 40
0.3304980512
 40
0.4801883403
 40
0.6149524717
 40
0.7338621329
 40
0.8371242985
 40
0.925531438
 40
1.0
 40
1.0
 40
1.0
 40
1.0
 10
5.9630092418
 20
3.6431108536
 30
0.0
 10
5.9630092418
 20
3.6423882055
 30
0.0
 10
5.9630261209
 20
3.6409725881
 30
0.0
 10
5.9631002377
 20
3.6389170336
 30
0.0
 10
5.9632167183
 20
3.6370091207
 30
0.0
 10
5.9633676608
 20
3.6352878578
 30
0.0
 10
5.9635453242
 20
3.6337691891
 30
0.0
 10
5.9637431169
 20
3.6324534428
 30
0.0
 10
5.9639558755
 20
3.6313332836
 30
0.0
 10
5.9641181662
 20
3.6306543873
 30
0.0
 10
5.9642025356
 20
3.630346792
 30
0.0
  0
SPLINE
  5
419
100
AcDbEntity
  8
0
100
AcDbSpline
 62
7
  6
CONTINUOUS
 70
0
 71
3
 72
14
 73
10
 74
0
 42
0.0000001
 43
0.0000001
 44
0.0000000001
 40
0.0
 40
0.0
 40
0.0
 40
0.0
 40
0.3319537077
 40
0.4821441463
 40
0.6171675394
 40
0.736052604
 40
0.8389689865
 40
0.926665799
 40
1.0
 40
1.0
 40
1.0
 40
1.0
 10
5.9761535961
 20
3.6431108536
 30
0.0
 10
5.9761535961
 20
3.6416956891
 30
0.0
 10
5.9761792004
 20
3.6396400741
 30
0.0
 10
5.9762665641
 20
3.6370103921
 30
0.0
 10
5.9763487642
 20
3.6352895547
 30
0.0
 10
5.976445486
 20
3.6337713701
 30
0.0
 10
5.9765531392
 20
3.6324562465
 30
0.0
 10
5.9766688942
 20
3.6313368838
 30
0.0
 10
5.9767574707
 20
3.630655993
 30
0.0
 10
5.9768036729
 20
3.630346792
 30
0.0
  0
LINE
  5
41A
100
AcDbEntity
  8
0
100
AcDbLine
 62
7
  6
CONTINUOUS
 10
5.9901419303
 20
3.6431108536
 11
5.9902470083
 21
3.630346792
  0
SPLINE
  5
41B
100
AcDbEntity
  8
0
100
AcDbSpline
 62
7
  6
CONTINUOUS
 70
0
 71
3
 72
16
 73
12
 74
0
 42
0.0000001
 43
0.0000001
 44
0.0000000001
 40
0.0
 40
0.0
 40
0.0
 40
0.0
 40
0.138880756
 40
0.2076358772
 40
0.2755658427
 40
0.4081977099
 40
0.5359375002
 40
0.6585885015
 40
0.7764275983
 40
0.8900374822
 40
1.0
 40
1.0
 40
1.0
 40
1.0
 10
6.6865151496
 20
3.8786108536
 30
0.0
 10
6.6865151496
 20
3.8793158973
 30
0.0
 10
6.6864417141
 20
3.8803719144
 30
0.0
 10
6.6861999814
 20
3.8817506119
 30
0.0
 10
6.6858721058
 20
3.8830789183
 30
0.0
 10
6.685309726
 20
3.8846535911
 30
0.0
 10
6.684417854
 20
3.8863874805
 30
0.0
 10
6.6833549838
 20
3.8879312798
 30
0.0
 10
6.6821580035
 20
3.8892784067
 30
0.0
 10
6.6808577922
 20
3.8904302239
 30
0.0
 10
6.6799249011
 20
3.8910816916
 30
0.0
 10
6.6794498763
 20
3.8913749151
 30
0.0
  0
SPLINE
  5
41C
100
AcDbEntity
  8
0
100
AcDbSpline
 62
7
  6
CONTINUOUS
 70
0
 71
3
 72
15
 73
11
 74
0
 42
0.0000001
 43
0.0000001
 44
0.0000000001
 40
0.0
 40
0.0
 40
0.0
 40
0.0
 40
0.1408214072
 40
0.2790755144
 40
0.4128341095
 40
0.5410354464
 40
0.6634259913
 40
0.7802909258
 40
0.8922626021
 40
1.0
 40
1.0
 40
1.0
 40
1.0
 10
6.6856131103
 20
3.8786108536
 30
0.0
 10
6.6856131103
 20
3.8793157284
 30
0.0
 10
6.6855209212
 20
3.8807144003
 30
0.0
 10
6.6851152842
 20
3.8827463322
 30
0.0
 10
6.6844709687
 20
3.8846490514
 30
0.0
 10
6.6836253956
 20
3.8863827737
 30
0.0
 10
6.6826173812
 20
3.887926793
 30
0.0
 10
6.6814817998
 20
3.8892745134
 30
0.0
 10
6.6802479565
 20
3.8904270932
 30
0.0
 10
6.6793600835
 20
3.8910808772
 30
0.0
 10
6.6789080232
 20
3.8913749151
 30
0.0
  0
SPLINE
  5
41D
100
AcDbEntity
  8
0
100
AcDbSpline
 62
7
  6
CONTINUOUS
 70
0
 71
3
 72
16
 73
12
 74
0
 42
0.0000001
 43
0.0000001
 44
0.0000000001
 40
0.0
 40
0.0
 40
0.0
 40
0.0
 40
0.1428361175
 40
0.2133739344
 40
0.2828727634
 40
0.417807255
 40
0.5464924023
 40
0.6686076122
 40
0.7844373582
 40
0.8946570906
 40
1.0
 40
1.0
 40
1.0
 40
1.0
 10
6.6836104716
 20
3.8786108536
 30
0.0
 10
6.6836104716
 20
3.8793155603
 30
0.0
 10
6.6835449576
 20
3.880369841
 30
0.0
 10
6.6833285219
 20
3.8817492098
 30
0.0
 10
6.6830356851
 20
3.8830746298
 30
0.0
 10
6.6825345306
 20
3.8846445459
 30
0.0
 10
6.6817376228
 20
3.8863777961
 30
0.0
 10
6.6807872518
 20
3.8879219737
 30
0.0
 10
6.6797162726
 20
3.8892702071
 30
0.0
 10
6.6785522832
 20
3.8904235405
 30
0.0
 10
6.677711854
 20
3.8910799342
 30
0.0
 10
6.6772839488
 20
3.8913749151
 30
0.0
  0
SPLINE
  5
41E
100
AcDbEntity
  8
0
100
AcDbSpline
 62
7
  6
CONTINUOUS
 70
0
 71
3
 72
13
 73
9
 74
0
 42
0.0000001
 43
0.0000001
 44
0.0000000001
 40
0.0
 40
0.0
 40
0.0
 40
0.0
 40
0.2865098048
 40
0.5517269704
 40
0.6737053975
 40
0.7885881219
 40
0.8970854759
 40
1.0
 40
1.0
 40
1.0
 40
1.0
 10
6.6805127226
 20
3.8786108536
 30
0.0
 10
6.6805127226
 20
3.8800021505
 30
0.0
 10
6.6802044717
 20
3.8826916506
 30
0.0
 10
6.6790896436
 20
3.8858002131
 30
0.0
 10
6.677869579
 20
3.8879167478
 30
0.0
 10
6.6768661711
 20
3.8892655002
 30
0.0
 10
6.6757753568
 20
3.8904195174
 30
0.0
 10
6.6749847163
 20
3.8910788428
 30
0.0
 10
6.6745821047
 20
3.8913749151
 30
0.0
  0
SPLINE
  5
41F
100
AcDbEntity
  8
0
100
AcDbSpline
 62
7
  6
CONTINUOUS
 70
0
 71
3
 72
14
 73
10
 74
0
 42
0.0000001
 43
0.0000001
 44
0.0000000001
 40
0.0
 40
0.0
 40
0.0
 40
0.0
 40
0.2904510831
 40
0.4280009662
 40
0.5578544187
 40
0.6795249319
 40
0.7932628005
 40
0.8998006227
 40
1.0
 40
1.0
 40
1.0
 40
1.0
 10
6.6763283541
 20
3.8786108536
 30
0.0
 10
6.6763283541
 20
3.8800008989
 30
0.0
 10
6.6761090976
 20
3.882059163
 30
0.0
 10
6.6753929663
 20
3.8846349412
 30
0.0
 10
6.6746995218
 20
3.8863674334
 30
0.0
 10
6.6738721653
 20
3.8879113798
 30
0.0
 10
6.6729392407
 20
3.8892603362
 30
0.0
 10
6.6719246945
 20
3.8904149999
 30
0.0
 10
6.671186124
 20
3.8910775813
 30
0.0
 10
6.6708098965
 20
3.8913749151
 30
0.0
  0
SPLINE
  5
420
100
AcDbEntity
  8
0
100
AcDbSpline
 62
7
  6
CONTINUOUS
 70
0
 71
3
 72
15
 73
11
 74
0
 42
0.0000001
 43
0.0000001
 44
0.0000000001
 40
0.0
 40
0.0
 40
0.0
 40
0.0
 40
0.149324882
 40
0.2948638437
 40
0.4336951841
 40
0.5640980725
 40
0.6854883658
 40
0.7980803998
 40
0.9026150315
 40
1.0
 40
1.0
 40
1.0
 40
1.0
 10
6.6710688351
 20
3.8786108536
 30
0.0
 10
6.6710688351
 20
3.8793150797
 30
0.0
 10
6.6709994307
 20
3.8807067072
 30
0.0
 10
6.6706935316
 20
3.8827323619
 30
0.0
 10
6.670207241
 20
3.8846305839
 30
0.0
 10
6.6695684008
 20
3.8863620135
 30
0.0
 10
6.6688059871
 20
3.887905729
 30
0.0
 10
6.6679461096
 20
3.8892547804
 30
0.0
 10
6.6670107459
 20
3.8904099456
 30
0.0
 10
6.6663264584
 20
3.8910761265
 30
0.0
 10
6.6659776634
 20
3.8913749151
 30
0.0
  0
SPLINE
  5
421
100
AcDbEntity
  8
0
100
AcDbSpline
 62
7
  6
CONTINUOUS
 70
0
 71
3
 72
14
 73
10
 74
0
 42
0.0000001
 43
0.0000001
 44
0.0000000001
 40
0.0
 40
0.0
 40
0.0
 40
0.0
 40
0.1515957047
 40
0.299102493
 40
0.4393457495
 40
0.5704256321
 40
0.6916514146
 40
0.8031885809
 40
1.0
 40
1.0
 40
1.0
 40
1.0
 10
6.6647485815
 20
3.8786108536
 30
0.0
 10
6.6647485815
 20
3.8793149331
 30
0.0
 10
6.6646853127
 20
3.8807049644
 30
0.0
 10
6.6644063809
 20
3.8827290981
 30
0.0
 10
6.6639628823
 20
3.8846261173
 30
0.0
 10
6.663380326
 20
3.8863565677
 30
0.0
 10
6.6626845747
 20
3.8879002055
 30
0.0
 10
6.6616809943
 20
3.8896265446
 30
0.0
 10
6.660765368
 20
3.8907495885
 30
0.0
 10
6.6600986504
 20
3.8913749151
 30
0.0
  0
SPLINE
  5
422
100
AcDbEntity
  8
0
100
AcDbSpline
 62
7
  6
CONTINUOUS
 70
0
 71
3
 72
15
 73
11
 74
0
 42
0.0000001
 43
0.0000001
 44
0.0000000001
 40
0.0
 40
0.0
 40
0.0
 40
0.0
 40
0.1537451411
 40
0.303110271
 40
0.4446755852
 40
0.5763633583
 40
0.6973702288
 40
0.8078002145
 40
0.9083614708
 40
1.0
 40
1.0
 40
1.0
 40
1.0
 10
6.6573849168
 20
3.8786108536
 30
0.0
 10
6.6573849168
 20
3.8793147962
 30
0.0
 10
6.6573279298
 20
3.8807033286
 30
0.0
 10
6.6570766053
 20
3.8827260294
 30
0.0
 10
6.656677022
 20
3.8846217743
 30
0.0
 10
6.6561520109
 20
3.8863513997
 30
0.0
 10
6.6555253371
 20
3.8878940052
 30
0.0
 10
6.6548184008
 20
3.889242663
 30
0.0
 10
6.6540491467
 20
3.8903982177
 30
0.0
 10
6.653479873
 20
3.8910725528
 30
0.0
 10
6.6531889714
 20
3.8913749151
 30
0.0
  0
SPLINE
  5
423
100
AcDbEntity
  8
0
100
AcDbSpline
 62
7
  6
CONTINUOUS
 70
0
 71
3
 72
15
 73
11
 74
0
 42
0.0000001
 43
0.0000001
 44
0.0000000001
 40
0.0
 40
0.0
 40
0.0
 40
0.0
 40
0.1558874315
 40
0.3071161683
 40
0.4500299712
 40
0.5823760351
 40
0.7032343723
 40
0.8126366757
 40
0.9112482511
 40
1.0
 40
1.0
 40
1.0
 40
1.0
 10
6.6489980243
 20
3.8786108536
 30
0.0
 10
6.6489980243
 20
3.8793146703
 30
0.0
 10
6.6489474433
 20
3.8807018256
 30
0.0
 10
6.6487243151
 20
3.8827231727
 30
0.0
 10
6.6483695601
 20
3.8846177062
 30
0.0
 10
6.647903455
 20
3.8863463325
 30
0.0
 10
6.6473471116
 20
3.8878881589
 30
0.0
 10
6.6467195437
 20
3.8892362826
 30
0.0
 10
6.6460366573
 20
3.8903916289
 30
0.0
 10
6.6455280286
 20
3.8910704092
 30
0.0
 10
6.6452675653
 20
3.8913749151
 30
0.0
  0
SPLINE
  5
424
100
AcDbEntity
  8
0
100
AcDbSpline
 62
7
  6
CONTINUOUS
 70
0
 71
3
 72
15
 73
11
 74
0
 42
0.0000001
 43
0.0000001
 44
0.0000000001
 40
0.0
 40
0.0
 40
0.0
 40
0.0
 40
0.1579281621
 40
0.3109376478
 40
0.45515016
 40
0.5881453064
 40
0.7088862154
 40
0.8173241086
 40
0.9140651448
 40
1.0
 40
1.0
 40
1.0
 40
1.0
 10
6.6396108918
 20
3.8786108536
 30
0.0
 10
6.6396108918
 20
3.879314557
 30
0.0
 10
6.6395668268
 20
3.8807004701
 30
0.0
 10
6.6393724023
 20
3.882720575
 30
0.0
 10
6.6390632913
 20
3.8846139551
 30
0.0
 10
6.6386571819
 20
3.8863415637
 30
0.0
 10
6.6381724998
 20
3.8878825028
 30
0.0
 10
6.6376258563
 20
3.8892298807
 30
0.0
 10
6.6370311202
 20
3.8903847088
 30
0.0
 10
6.6365851618
 20
3.8910680392
 30
0.0
 10
6.6363561442
 20
3.8913749151
 30
0.0
  0
SPLINE
  5
425
100
AcDbEntity
  8
0
100
AcDbSpline
 62
7
  6
CONTINUOUS
 70
0
 71
3
 72
15
 73
11
 74
0
 42
0.0000001
 43
0.0000001
 44
0.0000000001
 40
0.0
 40
0.0
 40
0.0
 40
0.0
 40
0.1598189526
 40
0.3144830512
 40
0.4599111139
 40
0.5935270987
 40
0.7141811069
 40
0.8217397139
 40
0.9167370845
 40
1.0
 40
1.0
 40
1.0
 40
1.0
 10
6.6292492488
 20
3.8786108536
 30
0.0
 10
6.6292492488
 20
3.8793144574
 30
0.0
 10
6.6292117944
 20
3.8806992776
 30
0.0
 10
6.6290465083
 20
3.8827182728
 30
0.0
 10
6.628783736
 20
3.8846105887
 30
0.0
 10
6.6284385397
 20
3.886337203
 30
0.0
 10
6.6280266219
 20
3.8878771957
 30
0.0
 10
6.62756217
 20
3.8892236586
 30
0.0
 10
6.6270570147
 20
3.8903776703
 30
0.0
 10
6.6266756696
 20
3.8910654901
 30
0.0
 10
6.6264791337
 20
3.8913749151
 30
0.0
  0
SPLINE
  5
426
100
AcDbEntity
  8
0
100
AcDbSpline
 62
7
  6
CONTINUOUS
 70
0
 71
3
 72
15
 73
11
 74
0
 42
0.0000001
 43
0.0000001
 44
0.0000000001
 40
0.0
 40
0.0
 40
0.0
 40
0.0
 40
0.1615080626
 40
0.3176541142
 40
0.4641780961
 40
0.5983647207
 40
0.7189596511
 40
0.8257456707
 40
0.9191776586
 40
1.0
 40
1.0
 40
1.0
 40
1.0
 10
6.6179414959
 20
3.8786108536
 30
0.0
 10
6.6179414959
 20
3.8793143726
 30
0.0
 10
6.6179107312
 20
3.8806982616
 30
0.0
 10
6.617774948
 20
3.8827162991
 30
0.0
 10
6.6175590917
 20
3.884607671
 30
0.0
 10
6.6172755611
 20
3.8863333601
 30
0.0
 10
6.6169372935
 20
3.8878724087
 30
0.0
 10
6.6165560198
 20
3.8892178578
 30
0.0
 10
6.616141516
 20
3.890370818
 30
0.0
 10
6.6158265934
 20
3.8910628587
 30
0.0
 10
6.6156636059
 20
3.8913749151
 30
0.0
  0
SPLINE
  5
427
100
AcDbEntity
  8
0
100
AcDbSpline
 62
7
  6
CONTINUOUS
 70
0
 71
3
 72
15
 73
11
 74
0
 42
0.0000001
 43
0.0000001
 44
0.0000000001
 40
0.0
 40
0.0
 40
0.0
 40
0.0
 40
0.1629428738
 40
0.3203505483
 40
0.4678128393
 40
0.6024962621
 40
0.723055301
 40
0.829195561
 40
0.921292858
 40
1.0
 40
1.0
 40
1.0
 40
1.0
 10
6.6057186267
 20
3.8786108536
 30
0.0
 10
6.6057186267
 20
3.8793143035
 30
0.0
 10
6.6056946162
 20
3.8806974339
 30
0.0
 10
6.6055886315
 20
3.8827146826
 30
0.0
 10
6.6054201558
 20
3.8846052593
 30
0.0
 10
6.6051988878
 20
3.8863301381
 30
0.0
 10
6.6049349555
 20
3.8878683144
 30
0.0
 10
6.6046375861
 20
3.8892127472
 30
0.0
 10
6.6043144653
 20
3.8903645409
 30
0.0
 10
6.6040675693
 20
3.8910603031
 30
0.0
 10
6.6039392055
 20
3.8913749151
 30
0.0
  0
SPLINE
  5
428
100
AcDbEntity
  8
0
100
AcDbSpline
 62
7
  6
CONTINUOUS
 70
0
 71
3
 72
15
 73
11
 74
0
 42
0.0000001
 43
0.0000001
 44
0.0000000001
 40
0.0
 40
0.0
 40
0.0
 40
0.0
 40
0.1640732064
 40
0.3224765754
 40
0.4706828545
 40
0.6057655543
 40
0.7263058684
 40
0.8319447617
 40
0.92298783
 40
1.0
 40
1.0
 40
1.0
 40
1.0
 10
6.5926141435
 20
3.8786108536
 30
0.0
 10
6.5926141435
 20
3.8793142511
 30
0.0
 10
6.5925969367
 20
3.8806968041
 30
0.0
 10
6.5925209787
 20
3.8827134472
 30
0.0
 10
6.5924002401
 20
3.8846034028
 30
0.0
 10
6.5922416856
 20
3.8863276292
 30
0.0
 10
6.5920525926
 20
3.8878650747
 30
0.0
 10
6.5918396257
 20
3.8892086004
 30
0.0
 10
6.591608332
 20
3.8903592796
 30
0.0
 10
6.5914307832
 20
3.891058042
 30
0.0
 10
6.5913380681
 20
3.8913749151
 30
0.0
  0
SPLINE
  5
429
100
AcDbEntity
  8
0
100
AcDbSpline
 62
7
  6
CONTINUOUS
 70
0
 71
3
 72
15
 73
11
 74
0
 42
0.0000001
 43
0.0000001
 44
0.0000000001
 40
0.0
 40
0.0
 40
0.0
 40
0.0
 40
0.164855565
 40
0.3239490285
 40
0.4726727386
 40
0.6080359215
 40
0.7285683355
 40
0.8338642467
 40
0.9241764112
 40
1.0
 40
1.0
 40
1.0
 40
1.0
 10
6.5786639646
 20
3.8786108536
 30
0.0
 10
6.5786639646
 20
3.8793142157
 30
0.0
 10
6.578653597
 20
3.8806963794
 30
0.0
 10
6.5786078277
 20
3.8827126116
 30
0.0
 10
6.5785350782
 20
3.8846021405
 30
0.0
 10
6.5784395513
 20
3.8863259084
 30
0.0
 10
6.5783256405
 20
3.8878628268
 30
0.0
 10
6.5781973875
 20
3.8892056668
 30
0.0
 10
6.5780581525
 20
3.8903554665
 30
0.0
 10
6.5779509246
 20
3.8910563287
 30
0.0
 10
6.5778947328
 20
3.8913749151
 30
0.0
  0
LINE
  5
42A
100
AcDbEntity
  8
0
100
AcDbLine
 62
7
  6
CONTINUOUS
 10
6.5639063265
 20
3.8786108536
 11
6.5636460467
 21
3.8913749151
  0
LINE
  5
42B
100
AcDbEntity
  8
0
100
AcDbLine
 62
7
  6
CONTINUOUS
 10
5.9902470083
 20
3.8913749151
 11
5.9901419303
 21
3.8786108536
  0
SPLINE
  5
42C
100
AcDbEntity
  8
0
100
AcDbSpline
 62
7
  6
CONTINUOUS
 70
0
 71
3
 72
14
 73
10
 74
0
 42
0.0000001
 43
0.0000001
 44
0.0000000001
 40
0.0
 40
0.0
 40
0.0
 40
0.0
 40
0.0733341833
 40
0.1610309913
 40
0.2639473571
 40
0.3828323282
 40
0.5178557308
 40
0.6680459668
 40
1.0
 40
1.0
 40
1.0
 40
1.0
 10
5.9768036729
 20
3.8913749151
 30
0.0
 10
5.9767574707
 20
3.8910657142
 30
0.0
 10
5.9766688942
 20
3.8903848235
 30
0.0
 10
5.9765531392
 20
3.889265461
 30
0.0
 10
5.976445486
 20
3.8879503379
 30
0.0
 10
5.9763487642
 20
3.8864321537
 30
0.0
 10
5.9762665642
 20
3.8847113175
 30
0.0
 10
5.9761792004
 20
3.882081635
 30
0.0
 10
5.9761535961
 20
3.8800260194
 30
0.0
 10
5.9761535961
 20
3.8786108536
 30
0.0
  0
SPLINE
  5
42D
100
AcDbEntity
  8
0
100
AcDbSpline
 62
7
  6
CONTINUOUS
 70
0
 71
3
 72
15
 73
11
 74
0
 42
0.0000001
 43
0.0000001
 44
0.0000000001
 40
0.0
 40
0.0
 40
0.0
 40
0.0
 40
0.0744685441
 40
0.1628756791
 40
0.2661378281
 40
0.3850473961
 40
0.519811537
 40
0.6695016247
 40
0.8312789031
 40
1.0
 40
1.0
 40
1.0
 40
1.0
 10
5.9642025356
 20
3.8913749151
 30
0.0
 10
5.9641181663
 20
3.8910673199
 30
0.0
 10
5.9639558755
 20
3.8903884237
 30
0.0
 10
5.9637431169
 20
3.8892682647
 30
0.0
 10
5.9635453244
 20
3.8879525189
 30
0.0
 10
5.9633676609
 20
3.8864338506
 30
0.0
 10
5.9632167185
 20
3.8847125889
 30
0.0
 10
5.9631002378
 20
3.8828046764
 30
0.0
 10
5.963026121
 20
3.8807491214
 30
0.0
 10
5.9630092418
 20
3.8793335026
 30
0.0
 10
5.9630092418
 20
3.8786108536
 30
0.0
  0
SPLINE
  5
42E
100
AcDbEntity
  8
0
100
AcDbSpline
 62
7
  6
CONTINUOUS
 70
0
 71
3
 72
15
 73
11
 74
0
 42
0.0000001
 43
0.0000001
 44
0.0000000001
 40
0.0
 40
0.0
 40
0.0
 40
0.0
 40
0.0761889556
 40
0.1656861809
 40
0.2694865955
 40
0.3884429356
 40
0.5228166741
 40
0.6717439895
 40
0.8324773397
 40
1.0
 40
1.0
 40
1.0
 40
1.0
 10
5.9524781352
 20
3.8913749151
 30
0.0
 10
5.9523564863
 20
3.8910695696
 30
0.0
 10
5.952121452
 20
3.8903936977
 30
0.0
 10
5.9518118541
 20
3.8892724744
 30
0.0
 10
5.9515241767
 20
3.8879558584
 30
0.0
 10
5.9512658737
 20
3.8864364816
 30
0.0
 10
5.9510464577
 20
3.8847145723
 30
0.0
 10
5.9508771539
 20
3.88280602
 30
0.0
 10
5.9507694302
 20
3.880749816
 30
0.0
 10
5.9507448951
 20
3.8793335609
 30
0.0
 10
5.9507448951
 20
3.8786108536
 30
0.0
  0
SPLINE
  5
42F
100
AcDbEntity
  8
0
100
AcDbSpline
 62
7
  6
CONTINUOUS
 70
0
 71
3
 72
15
 73
11
 74
0
 42
0.0000001
 43
0.0000001
 44
0.0000000001
 40
0.0
 40
0.0
 40
0.0
 40
0.0
 40
0.0783952452
 40
0.169311469
 40
0.2738248304
 40
0.3928558204
 40
0.526731225
 40
0.6746695661
 40
0.8340423723
 40
1.0
 40
1.0
 40
1.0
 40
1.0
 10
5.9416626074
 20
3.8913749151
 30
0.0
 10
5.9415047501
 20
3.8910721678
 30
0.0
 10
5.9411983377
 20
3.8904001406
 30
0.0
 10
5.9407922749
 20
3.8892777969
 30
0.0
 10
5.9404151566
 20
3.8879601946
 30
0.0
 10
5.9400766785
 20
3.8864399569
 30
0.0
 10
5.9397892131
 20
3.8847172251
 30
0.0
 10
5.9395674264
 20
3.8828078312
 30
0.0
 10
5.9394263153
 20
3.8807507567
 30
0.0
 10
5.9393941717
 20
3.8793336399
 30
0.0
 10
5.9393941717
 20
3.8786108536
 30
0.0
  0
SPLINE
  5
430
100
AcDbEntity
  8
0
100
AcDbSpline
 62
7
  6
CONTINUOUS
 70
0
 71
3
 72
15
 73
11
 74
0
 42
0.0000001
 43
0.0000001
 44
0.0000000001
 40
0.0
 40
0.0
 40
0.0
 40
0.0
 40
0.080975344
 40
0.173579818
 40
0.2789589078
 40
0.3980984989
 40
0.5313951802
 40
0.6781621082
 40
0.8359128863
 40
1.0
 40
1.0
 40
1.0
 40
1.0
 10
5.9317855968
 20
3.8913749151
 30
0.0
 10
5.9315926574
 20
3.8910748563
 30
0.0
 10
5.9312165464
 20
3.8904072299
 30
0.0
 10
5.9307146999
 20
3.8892839033
 30
0.0
 10
5.9302488262
 20
3.8879653313
 30
0.0
 10
5.9298308291
 20
3.8864441647
 30
0.0
 10
5.9294758936
 20
3.8847204878
 30
0.0
 10
5.9292020795
 20
3.8828100816
 30
0.0
 10
5.9290278727
 20
3.8807519323
 30
0.0
 10
5.9289881832
 20
3.8793337386
 30
0.0
 10
5.9289881832
 20
3.8786108536
 30
0.0
  0
SPLINE
  5
431
100
AcDbEntity
  8
0
100
AcDbSpline
 62
7
  6
CONTINUOUS
 70
0
 71
3
 72
15
 73
11
 74
0
 42
0.0000001
 43
0.0000001
 44
0.0000000001
 40
0.0
 40
0.0
 40
0.0
 40
0.0
 40
0.0838178143
 40
0.1783165116
 40
0.2846888054
 40
0.4039753292
 40
0.5366404361
 40
0.6820989479
 40
0.8380242228
 40
1.0
 40
1.0
 40
1.0
 40
1.0
 10
5.9228741757
 20
3.8913749151
 30
0.0
 10
5.9226472605
 20
3.8910774509
 30
0.0
 10
5.9222033462
 20
3.8904145069
 30
0.0
 10
5.921606769
 20
3.8892904712
 30
0.0
 10
5.9210531097
 20
3.8879710582
 30
0.0
 10
5.9205564679
 20
3.8864489781
 30
0.0
 10
5.9201348098
 20
3.88472429
 30
0.0
 10
5.9198095453
 20
3.8828127368
 30
0.0
 10
5.9196026084
 20
3.8807533296
 30
0.0
 10
5.9195554517
 20
3.8793338561
 30
0.0
 10
5.9195554517
 20
3.8786108536
 30
0.0
  0
SPLINE
  5
432
100
AcDbEntity
  8
0
100
AcDbSpline
 62
7
  6
CONTINUOUS
 70
0
 71
3
 72
15
 73
11
 74
0
 42
0.0000001
 43
0.0000001
 44
0.0000000001
 40
0.0
 40
0.0
 40
0.0
 40
0.0
 40
0.0868209268
 40
0.1833579852
 40
0.2908238919
 40
0.410297493
 40
0.5423034683
 40
0.6863601663
 40
0.8403130085
 40
1.0
 40
1.0
 40
1.0
 40
1.0
 10
5.9149527697
 20
3.8913749151
 30
0.0
 10
5.914692939
 20
3.8910798434
 30
0.0
 10
5.9141832445
 20
3.8904216207
 30
0.0
 10
5.9134933845
 20
3.889297214
 30
0.0
 10
5.9128532195
 20
3.8879771681
 30
0.0
 10
5.912279047
 20
3.8864542627
 30
0.0
 10
5.9117915952
 20
3.8847285531
 30
0.0
 10
5.9114155853
 20
3.8828157566
 30
0.0
 10
5.9111763607
 20
3.8807549321
 30
0.0
 10
5.9111218316
 20
3.879333991
 30
0.0
 10
5.9111218316
 20
3.8786108536
 30
0.0
  0
SPLINE
  5
433
100
AcDbEntity
  8
0
100
AcDbSpline
 62
7
  6
CONTINUOUS
 70
0
 71
3
 72
14
 73
10
 74
0
 42
0.0000001
 43
0.0000001
 44
0.0000000001
 40
0.0
 40
0.0
 40
0.0
 40
0.0
 40
0.1883167585
 40
0.2969820641
 40
0.4167180138
 40
0.5480982847
 40
0.6907419817
 40
0.8426731776
 40
1.0
 40
1.0
 40
1.0
 40
1.0
 10
5.9080430907
 20
3.8913749151
 30
0.0
 10
5.9074321676
 20
3.890761471
 30
0.0
 10
5.9065944315
 20
3.8896643634
 30
0.0
 10
5.9056718027
 20
3.8879837746
 30
0.0
 10
5.9050211965
 20
3.88645979
 30
0.0
 10
5.9044691547
 20
3.8847332222
 30
0.0
 10
5.9040432136
 20
3.882819088
 30
0.0
 10
5.9037722304
 20
3.880756724
 30
0.0
 10
5.9037104389
 20
3.8793341418
 30
0.0
 10
5.9037104389
 20
3.8786108536
 30
0.0
  0
SPLINE
  5
434
100
AcDbEntity
  8
0
100
AcDbSpline
 62
7
  6
CONTINUOUS
 70
0
 71
3
 72
15
 73
11
 74
0
 42
0.0000001
 43
0.0000001
 44
0.0000000001
 40
0.0
 40
0.0
 40
0.0
 40
0.0
 40
0.0929765918
 40
0.1938025156
 40
0.3036491984
 40
0.4236119303
 40
0.5542989929
 40
0.6954241469
 40
0.8451938298
 40
1.0
 40
1.0
 40
1.0
 40
1.0
 10
5.9021640777
 20
3.8913749151
 30
0.0
 10
5.9018414543
 20
3.8910838657
 30
0.0
 10
5.9012065075
 20
3.8904345205
 30
0.0
 10
5.9003359229
 20
3.8893103507
 30
0.0
 10
5.8995278556
 20
3.8879898003
 30
0.0
 10
5.8988029835
 20
3.886465713
 30
0.0
 10
5.8981875055
 20
3.884738126
 30
0.0
 10
5.8977126623
 20
3.8828227089
 30
0.0
 10
5.8974105089
 20
3.880758677
 30
0.0
 10
5.8973415876
 20
3.879334307
 30
0.0
 10
5.8973415876
 20
3.8786108536
 30
0.0
  0
SPLINE
  5
435
100
AcDbEntity
  8
0
100
AcDbSpline
 62
7
  6
CONTINUOUS
 70
0
 71
3
 72
14
 73
10
 74
0
 42
0.0000001
 43
0.0000001
 44
0.0000000001
 40
0.0
 40
0.0
 40
0.0
 40
0.0
 40
0.0960437715
 40
0.1990728761
 40
0.3102045137
 40
0.4305129609
 40
0.5606263791
 40
0.70034393
 40
1.0
 40
1.0
 40
1.0
 40
1.0
 10
5.8973318446
 20
3.8913749151
 30
0.0
 10
5.8969793238
 20
3.8910854981
 30
0.0
 10
5.8962849716
 20
3.8904401135
 30
0.0
 10
5.8953276049
 20
3.8893164547
 30
0.0
 10
5.8944387464
 20
3.8879960098
 30
0.0
 10
5.8936412333
 20
3.8864716883
 30
0.0
 10
5.8929638773
 20
3.8847430325
 30
0.0
 10
5.8922513018
 20
3.8821304157
 30
0.0
 10
5.8920327345
 20
3.8800339036
 30
0.0
 10
5.8920327345
 20
3.8786108536
 30
0.0
  0
SPLINE
  5
436
100
AcDbEntity
  8
0
100
AcDbSpline
 62
7
  6
CONTINUOUS
 70
0
 71
3
 72
15
 73
11
 74
0
 42
0.0000001
 43
0.0000001
 44
0.0000000001
 40
0.0
 40
0.0
 40
0.0
 40
0.0
 40
0.0989337967
 40
0.2040397398
 40
0.3163633552
 40
0.4369398616
 40
0.5664016838
 40
0.7046227159
 40
0.8501650645
 40
1.0
 40
1.0
 40
1.0
 40
1.0
 10
5.8935596364
 20
3.8913749151
 30
0.0
 10
5.8931782382
 20
3.8910869052
 30
0.0
 10
5.8924266754
 20
3.8904451116
 30
0.0
 10
5.8913852869
 20
3.8893221289
 30
0.0
 10
5.8904181229
 20
3.8880020341
 30
0.0
 10
5.8895500786
 20
3.8864775388
 30
0.0
 10
5.8888126674
 20
3.8847485301
 30
0.0
 10
5.8882434834
 20
3.8828305484
 30
0.0
 10
5.8878811538
 20
3.8807629961
 30
0.0
 10
5.8877984307
 20
3.8793346727
 30
0.0
 10
5.8877984307
 20
3.8786108536
 30
0.0
  0
SPLINE
  5
437
100
AcDbEntity
  8
0
100
AcDbSpline
 62
7
  6
CONTINUOUS
 70
0
 71
3
 72
16
 73
12
 74
0
 42
0.0000001
 43
0.0000001
 44
0.0000000001
 40
0.0
 40
0.0
 40
0.0
 40
0.0
 40
0.1017329402
 40
0.2088879764
 40
0.3224276572
 40
0.4433343992
 40
0.5722310444
 40
0.7090543678
 40
0.7801289546
 40
0.8526036734
 40
1.0
 40
1.0
 40
1.0
 40
1.0
 10
5.8908577923
 20
3.8913749151
 30
0.0
 10
5.8904485727
 20
3.8910881138
 30
0.0
 10
5.8896420437
 20
3.890449538
 30
0.0
 10
5.8885196365
 20
3.8893273465
 30
0.0
 10
5.8874768959
 20
3.8880077617
 30
0.0
 10
5.8865406935
 20
3.8864833271
 30
0.0
 10
5.8857451336
 20
3.8847539091
 30
0.0
 10
5.8852394313
 20
3.8831740495
 30
0.0
 10
5.8849407243
 20
3.8818288361
 30
0.0
 10
5.8847178608
 20
3.8804165121
 30
0.0
 10
5.884650282
 20
3.8793348692
 30
0.0
 10
5.884650282
 20
3.8786108536
 30
0.0
  0
SPLINE
  5
438
100
AcDbEntity
  8
0
100
AcDbSpline
 62
7
  6
CONTINUOUS
 70
0
 71
3
 72
15
 73
11
 74
0
 42
0.0000001
 43
0.0000001
 44
0.0000000001
 40
0.0
 40
0.0
 40
0.0
 40
0.0
 40
0.1044002958
 40
0.213534706
 40
0.3282755248
 40
0.4495415886
 40
0.5779338003
 40
0.7134398356
 40
0.8549481098
 40
1.0
 40
1.0
 40
1.0
 40
1.0
 10
5.8892337179
 20
3.8913749151
 30
0.0
 10
5.8887977794
 20
3.8910891503
 30
0.0
 10
5.8879385929
 20
3.890453435
 30
0.0
 10
5.8867383875
 20
3.8893320983
 30
0.0
 10
5.8856230237
 20
3.8880131425
 30
0.0
 10
5.8846212662
 20
3.8864889727
 30
0.0
 10
5.8837696198
 20
3.8847591342
 30
0.0
 10
5.8831117583
 20
3.8828388637
 30
0.0
 10
5.8826927004
 20
3.8807676942
 30
0.0
 10
5.8825969175
 20
3.8793350721
 30
0.0
 10
5.8825969175
 20
3.8786108536
 30
0.0
  0
SPLINE
  5
439
100
AcDbEntity
  8
0
100
AcDbSpline
 62
7
  6
CONTINUOUS
 70
0
 71
3
 72
16
 73
12
 74
0
 42
0.0000001
 43
0.0000001
 44
0.0000000001
 40
0.0
 40
0.0
 40
0.0
 40
0.0
 40
0.1068921036
 40
0.2178898209
 40
0.3337713188
 40
0.455383957
 40
0.5832961246
 40
0.7175348393
 40
0.7868104657
 40
0.8572212267
 40
1.0
 40
1.0
 40
1.0
 40
1.0
 10
5.8886918647
 20
3.8913749151
 30
0.0
 10
5.888230363
 20
3.8910900392
 30
0.0
 10
5.887320905
 20
3.8904568533
 30
0.0
 10
5.8860463188
 20
3.8893363894
 30
0.0
 10
5.8848614984
 20
3.8880181625
 30
0.0
 10
5.8837969638
 20
3.8864943483
 30
0.0
 10
5.8828915987
 20
3.8847644257
 30
0.0
 10
5.8823142508
 20
3.8831791172
 30
0.0
 10
5.8819740908
 20
3.8818305202
 30
0.0
 10
5.8817210298
 20
3.8804190267
 30
0.0
 10
5.8816439651
 20
3.879335279
 30
0.0
 10
5.8816439651
 20
3.8786108536
 30
0.0
  0
SPLINE
  5
43A
100
AcDbEntity
  8
0
100
AcDbSpline
 62
7
  6
CONTINUOUS
 70
0
 71
3
 72
11
 73
7
 74
0
 42
0.0000001
 43
0.0000001
 44
0.0000000001
 40
0.0
 40
0.0
 40
0.0
 40
0.0
 40
0.2628195128
 40
0.5193613788
 40
0.7655661833
 40
1.0
 40
1.0
 40
1.0
 40
1.0
 10
5.8816265915
 20
3.8786108536
 30
0.0
 10
5.8816265915
 20
3.8794741311
 30
0.0
 10
5.8817722156
 20
3.8811836496
 30
0.0
 10
5.8824062747
 20
3.8836286889
 30
0.0
 10
5.8833930716
 20
3.8858511302
 30
0.0
 10
5.8842577738
 20
3.887180876
 30
0.0
 10
5.8847264756
 20
3.8877918421
 30
0.0
  0
SPLINE
  5
43B
100
AcDbEntity
  8
0
100
AcDbSpline
 62
7
  6
CONTINUOUS
 70
0
 71
3
 72
16
 73
12
 74
0
 42
0.0000001
 43
0.0000001
 44
0.0000000001
 40
0.0
 40
0.0
 40
0.0
 40
0.0
 40
0.1334200346
 40
0.1997014153
 40
0.2654380729
 40
0.3948049845
 40
0.5211630903
 40
0.644529682
 40
0.7651841761
 40
0.8835483112
 40
1.0
 40
1.0
 40
1.0
 40
1.0
 10
6.3546003212
 20
3.6431108536
 30
0.0
 10
6.3546003212
 20
3.6424215158
 30
0.0
 10
6.3545138306
 20
3.6413870883
 30
0.0
 10
6.3542318423
 20
3.6400438921
 30
0.0
 10
6.3538493477
 20
3.6387473296
 30
0.0
 10
6.3531946148
 20
3.6372134284
 30
0.0
 10
6.352169718
 20
3.6355370979
 30
0.0
 10
6.3509599436
 20
3.6340476668
 30
0.0
 10
6.3496084249
 20
3.6327457376
 30
0.0
 10
6.3481490536
 20
3.6316251448
 30
0.0
 10
6.3471141578
 20
3.6309875833
 30
0.0
 10
6.3465873391
 20
3.6306969526
 30
0.0
  0
SPLINE
  5
43C
100
AcDbEntity
  8
0
100
AcDbSpline
 62
7
  6
CONTINUOUS
 70
0
 71
3
 72
15
 73
11
 74
0
 42
0.0000001
 43
0.0000001
 44
0.0000000001
 40
0.0
 40
0.0
 40
0.0
 40
0.0
 40
0.0973247138
 40
0.2018170732
 40
0.3143856449
 40
0.435771288
 40
0.5661874186
 40
0.7050477509
 40
0.8506276434
 40
1.0
 40
1.0
 40
1.0
 40
1.0
 10
6.3662747881
 20
3.630346792
 30
0.0
 10
6.3659265908
 20
3.630645614
 30
0.0
 10
6.3652434878
 20
3.6313118756
 30
0.0
 10
6.364309847
 20
3.6324670495
 30
0.0
 10
6.3634515581
 20
3.6338161012
 30
0.0
 10
6.3626905559
 20
3.6353598082
 30
0.0
 10
6.3620529007
 20
3.6370912202
 30
0.0
 10
6.3615675134
 20
3.6389894159
 30
0.0
 10
6.3612621832
 20
3.641015038
 30
0.0
 10
6.3611929085
 20
3.6424066306
 30
0.0
 10
6.3611929085
 20
3.6431108536
 30
0.0
  0
SPLINE
  5
43D
100
AcDbEntity
  8
0
100
AcDbSpline
 62
7
  6
CONTINUOUS
 70
0
 71
3
 72
16
 73
12
 74
0
 42
0.0000001
 43
0.0000001
 44
0.0000000001
 40
0.0
 40
0.0
 40
0.0
 40
0.0
 40
0.1323678187
 40
0.1981678936
 40
0.2634697491
 40
0.3921581084
 40
0.5181988293
 40
0.6416746988
 40
0.7628757723
 40
0.8822211625
 40
1.0
 40
1.0
 40
1.0
 40
1.0
 10
6.3752429601
 20
3.6431108536
 30
0.0
 10
6.3752429601
 20
3.6423852992
 30
0.0
 10
6.3751437226
 20
3.6412958253
 30
0.0
 10
6.3748216622
 20
3.6398867127
 30
0.0
 10
6.3743854813
 20
3.6385294583
 30
0.0
 10
6.3736412126
 20
3.6369318246
 30
0.0
 10
6.3724843737
 20
3.635202897
 30
0.0
 10
6.3711273328
 20
3.6336824551
 30
0.0
 10
6.3696193716
 20
3.6323685445
 30
0.0
 10
6.3679987618
 20
3.6312523592
 30
0.0
 10
6.3668556374
 20
3.6306285665
 30
0.0
 10
6.3662747881
 20
3.630346792
 30
0.0
  0
SPLINE
  5
43E
100
AcDbEntity
  8
0
100
AcDbSpline
 62
7
  6
CONTINUOUS
 70
0
 71
3
 72
14
 73
10
 74
0
 42
0.0000001
 43
0.0000001
 44
0.0000000001
 40
0.0
 40
0.0
 40
0.0
 40
0.0
 40
0.1967075284
 40
0.3082214643
 40
0.4294430787
 40
0.560536659
 40
0.7008091733
 40
0.848356931
 40
1.0
 40
1.0
 40
1.0
 40
1.0
 10
6.3864024873
 20
3.630346792
 30
0.0
 10
6.3857369756
 20
3.6309722758
 30
0.0
 10
6.3848232167
 20
3.6320954632
 30
0.0
 10
6.3838218253
 20
3.6338216266
 30
0.0
 10
6.3831275272
 20
3.6353652531
 30
0.0
 10
6.3825461885
 20
3.6370956836
 30
0.0
 10
6.3821036175
 20
3.6389926763
 30
0.0
 10
6.3818252694
 20
3.6410167786
 30
0.0
 10
6.3817621334
 20
3.6424067769
 30
0.0
 10
6.3817621334
 20
3.6431108536
 30
0.0
  0
SPLINE
  5
43F
100
AcDbEntity
  8
0
100
AcDbSpline
 62
7
  6
CONTINUOUS
 70
0
 71
3
 72
15
 73
11
 74
0
 42
0.0000001
 43
0.0000001
 44
0.0000000001
 40
0.0
 40
0.0
 40
0.0
 40
0.0
 40
0.13098864
 40
0.2608426448
 40
0.3888331449
 40
0.5146746015
 40
0.6384412773
 40
0.7603715924
 40
0.880817908
 40
1.0
 40
1.0
 40
1.0
 40
1.0
 10
6.3956357026
 20
3.6431108536
 30
0.0
 10
6.3956357026
 20
3.6423851221
 30
0.0
 10
6.3954998559
 20
3.6409363887
 30
0.0
 10
6.3949087473
 20
3.6388535158
 30
0.0
 10
6.3939845997
 20
3.6369284008
 30
0.0
 10
6.3927929955
 20
3.6351996499
 30
0.0
 10
6.3913957291
 20
3.6336798854
 30
0.0
 10
6.3898433333
 20
3.6323666199
 30
0.0
 10
6.3881751177
 20
3.6312510096
 30
0.0
 10
6.3869998188
 20
3.6306282443
 30
0.0
 10
6.3864024873
 20
3.630346792
 30
0.0
  0
SPLINE
  5
440
100
AcDbEntity
  8
0
100
AcDbSpline
 62
7
  6
CONTINUOUS
 70
0
 71
3
 72
15
 73
11
 74
0
 42
0.0000001
 43
0.0000001
 44
0.0000000001
 40
0.0
 40
0.0
 40
0.0
 40
0.0
 40
0.0915765287
 40
0.1920955716
 40
0.3025030703
 40
0.4235064358
 40
0.5552082358
 40
0.696802692
 40
0.8462082654
 40
1.0
 40
1.0
 40
1.0
 40
1.0
 10
6.4062497026
 20
3.630346792
 30
0.0
 10
6.4059594414
 20
3.6306491977
 30
0.0
 10
6.4053914427
 20
3.6313236258
 30
0.0
 10
6.4046240142
 20
3.6324791791
 30
0.0
 10
6.4039187566
 20
3.6338278278
 30
0.0
 10
6.4032935709
 20
3.6353704178
 30
0.0
 10
6.4027698066
 20
3.6371000222
 30
0.0
 10
6.4023711724
 20
3.6389957407
 30
0.0
 10
6.4021204448
 20
3.6410184117
 30
0.0
 10
6.4020635934
 20
3.6424069136
 30
0.0
 10
6.4020635934
 20
3.6431108536
 30
0.0
  0
SPLINE
  5
441
100
AcDbEntity
  8
0
100
AcDbSpline
 62
7
  6
CONTINUOUS
 70
0
 71
3
 72
15
 73
11
 74
0
 42
0.0000001
 43
0.0000001
 44
0.0000000001
 40
0.0
 40
0.0
 40
0.0
 40
0.0
 40
0.1297380281
 40
0.2585719081
 40
0.3859290215
 40
0.5115850455
 40
0.6356033627
 40
0.7581735305
 40
0.8795866532
 40
1.0
 40
1.0
 40
1.0
 40
1.0
 10
6.4157226537
 20
3.6431108536
 30
0.0
 10
6.4157226537
 20
3.6423849575
 30
0.0
 10
6.4155829887
 20
3.6409344905
 30
0.0
 10
6.4149756892
 20
3.6388505244
 30
0.0
 10
6.4140267597
 20
3.6369251748
 30
0.0
 10
6.4128037756
 20
3.6351967925
 30
0.0
 10
6.4113701426
 20
3.6336776225
 30
0.0
 10
6.4097775923
 20
3.6323649553
 30
0.0
 10
6.4080663411
 20
3.6312498527
 30
0.0
 10
6.4068619463
 20
3.63062797
 30
0.0
 10
6.4062497026
 20
3.630346792
 30
0.0
  0
SPLINE
  5
442
100
AcDbEntity
  8
0
100
AcDbSpline
 62
7
  6
CONTINUOUS
 70
0
 71
3
 72
15
 73
11
 74
0
 42
0.0000001
 43
0.0000001
 44
0.0000000001
 40
0.0
 40
0.0
 40
0.0
 40
0.0
 40
0.0886905448
 40
0.1872611345
 40
0.2966420783
 40
0.4174975676
 40
0.5498576377
 40
0.6927998396
 40
0.8440676709
 40
1.0
 40
1.0
 40
1.0
 40
1.0
 10
6.4257620341
 20
3.630346792
 30
0.0
 10
6.4255022326
 20
3.6306513463
 30
0.0
 10
6.4249949228
 20
3.6313302233
 30
0.0
 10
6.4243139036
 20
3.6324855618
 30
0.0
 10
6.4236880507
 20
3.6338336715
 30
0.0
 10
6.4231332264
 20
3.6353754798
 30
0.0
 10
6.4226683932
 20
3.6371040843
 30
0.0
 10
6.4223146059
 20
3.6389985923
 30
0.0
 10
6.4220920864
 20
3.6410199117
 30
0.0
 10
6.4220416436
 20
3.6424070392
 30
0.0
 10
6.4220416436
 20
3.6431108536
 30
0.0
  0
SPLINE
  5
443
100
AcDbEntity
  8
0
100
AcDbSpline
 62
7
  6
CONTINUOUS
 70
0
 71
3
 72
15
 73
11
 74
0
 42
0.0000001
 43
0.0000001
 44
0.0000000001
 40
0.0
 40
0.0
 40
0.0
 40
0.0
 40
0.1286326067
 40
0.2565671766
 40
0.3833693449
 40
0.5088669264
 40
0.6331111471
 40
0.7562464409
 40
0.8785087758
 40
1.0
 40
1.0
 40
1.0
 40
1.0
 10
6.4354487564
 20
3.6431108536
 30
0.0
 10
6.4354487564
 20
3.6423848072
 30
0.0
 10
6.4353056675
 20
3.6409327603
 30
0.0
 10
6.4346838867
 20
3.6388478249
 30
0.0
 10
6.4337128397
 20
3.6369223018
 30
0.0
 10
6.4324618857
 20
3.6351942829
 30
0.0
 10
6.4309958511
 20
3.6336756605
 30
0.0
 10
6.4293675211
 20
3.6323635282
 30
0.0
 10
6.4276179143
 20
3.63124887
 30
0.0
 10
6.4263875784
 20
3.6306277384
 30
0.0
 10
6.4257620341
 20
3.630346792
 30
0.0
  0
SPLINE
  5
444
100
AcDbEntity
  8
0
100
AcDbSpline
 62
7
  6
CONTINUOUS
 70
0
 71
3
 72
15
 73
11
 74
0
 42
0.0000001
 43
0.0000001
 44
0.0000000001
 40
0.0
 40
0.0
 40
0.0
 40
0.0
 40
0.0858759206
 40
0.1825781676
 40
0.2909962916
 40
0.4117350188
 40
0.5447437776
 40
0.6889832736
 40
0.8420296245
 40
1.0
 40
1.0
 40
1.0
 40
1.0
 10
6.4448860001
 20
3.630346792
 30
0.0
 10
6.4446576661
 20
3.6306537209
 30
0.0
 10
6.4442130691
 20
3.6313371485
 30
0.0
 10
6.4436202346
 20
3.6324919621
 30
0.0
 10
6.4430753361
 20
3.6338393219
 30
0.0
 10
6.4425921991
 20
3.6353802411
 30
0.0
 10
6.442187383
 20
3.6371078278
 30
0.0
 10
6.4418792559
 20
3.639001184
 30
0.0
 10
6.4416854499
 20
3.6410212639
 30
0.0
 10
6.4416415254
 20
3.6424071523
 30
0.0
 10
6.4416415254
 20
3.6431108536
 30
0.0
  0
SPLINE
  5
445
100
AcDbEntity
  8
0
100
AcDbSpline
 62
7
  6
CONTINUOUS
 70
0
 71
3
 72
17
 73
13
 74
0
 42
0.0000001
 43
0.0000001
 44
0.0000000001
 40
0.0
 40
0.0
 40
0.0
 40
0.0
 40
0.1092179009
 40
0.2219710138
 40
0.3389426024
 40
0.3992934258
 40
0.4609652571
 40
0.5884435219
 40
0.7214944705
 40
0.7899346037
 40
0.859382674
 40
1.0
 40
1.0
 40
1.0
 40
1.0
 10
6.6789080232
 20
3.8913749151
 30
0.0
 10
6.679393875
 20
3.8910908017
 30
0.0
 10
6.6803511461
 20
3.8904598231
 30
0.0
 10
6.6816964479
 20
3.8893403144
 30
0.0
 10
6.6827284291
 20
3.8882533729
 30
0.0
 10
6.6834914601
 20
3.8872857322
 30
0.0
 10
6.6842223558
 20
3.8862270085
 30
0.0
 10
6.6850284504
 20
3.8847694174
 30
0.0
 10
6.6856394267
 20
3.8831816444
 30
0.0
 10
6.6859990369
 20
3.8818313631
 30
0.0
 10
6.6862661738
 20
3.8804203029
 30
0.0
 10
6.6863477042
 20
3.8793354876
 30
0.0
 10
6.6863477042
 20
3.8786108536
 30
0.0
  0
SPLINE
  5
446
100
AcDbEntity
  8
0
100
AcDbSpline
 62
7
  6
CONTINUOUS
 70
0
 71
3
 72
14
 73
10
 74
0
 42
0.0000001
 43
0.0000001
 44
0.0000000001
 40
0.0
 40
0.0
 40
0.0
 40
0.0
 40
0.127710776
 40
0.254904252
 40
0.3812661442
 40
0.5066679725
 40
0.6311484835
 40
0.7548115229
 40
1.0
 40
1.0
 40
1.0
 40
1.0
 10
6.4547599429
 20
3.6431108536
 30
0.0
 10
6.4547599429
 20
3.6423846729
 30
0.0
 10
6.4546138391
 20
3.6409312156
 30
0.0
 10
6.453979346
 20
3.6388454393
 30
0.0
 10
6.4529888982
 20
3.6369197825
 30
0.0
 10
6.4517135196
 20
3.6351921448
 30
0.0
 10
6.450218903
 20
3.6336738776
 30
0.0
 10
6.4480141675
 20
3.6319312105
 30
0.0
 10
6.4461618235
 20
3.630908929
 30
0.0
 10
6.4448860001
 20
3.630346792
 30
0.0
  0
SPLINE
  5
447
100
AcDbEntity
  8
0
100
AcDbSpline
 62
7
  6
CONTINUOUS
 70
0
 71
3
 72
17
 73
13
 74
0
 42
0.0000001
 43
0.0000001
 44
0.0000000001
 40
0.0
 40
0.0
 40
0.0
 40
0.0
 40
0.1113789547
 40
0.2257779719
 40
0.3437870267
 40
0.4044037393
 40
0.4661619545
 40
0.593256754
 40
0.7252091913
 40
0.7928690861
 40
0.8614147817
 40
1.0
 40
1.0
 40
1.0
 40
1.0
 10
6.6772839488
 20
3.8913749151
 30
0.0
 10
6.6777928792
 20
3.8910914563
 30
0.0
 10
6.678795387
 20
3.8904624307
 30
0.0
 10
6.680207684
 20
3.8893437607
 30
0.0
 10
6.6812929584
 20
3.8882558066
 30
0.0
 10
6.6820953098
 20
3.8872868684
 30
0.0
 10
6.682861634
 20
3.8862298249
 30
0.0
 10
6.6837075454
 20
3.8847743016
 30
0.0
 10
6.6843506386
 20
3.8831841129
 30
0.0
 10
6.6847287475
 20
3.8818321978
 30
0.0
 10
6.6850092302
 20
3.880421571
 30
0.0
 10
6.6850950195
 20
3.8793356958
 30
0.0
 10
6.6850950195
 20
3.8786108536
 30
0.0
  0
SPLINE
  5
448
100
AcDbEntity
  8
0
100
AcDbSpline
 62
7
  6
CONTINUOUS
 70
0
 71
3
 72
15
 73
11
 74
0
 42
0.0000001
 43
0.0000001
 44
0.0000000001
 40
0.0
 40
0.0
 40
0.0
 40
0.0
 40
0.0832079851
 40
0.1781698311
 40
0.2857107302
 40
0.406363183
 40
0.5399919323
 40
0.6854448282
 40
0.8401426043
 40
1.0
 40
1.0
 40
1.0
 40
1.0
 10
6.463569183
 20
3.630346792
 30
0.0
 10
6.4633733531
 20
3.6306562729
 30
0.0
 10
6.4629934098
 20
3.6313441866
 30
0.0
 10
6.4624901827
 20
3.6324981779
 30
0.0
 10
6.4620274998
 20
3.6338446197
 30
0.0
 10
6.4616171482
 20
3.6353845917
 30
0.0
 10
6.461273263
 20
3.6371111852
 30
0.0
 10
6.4610114881
 20
3.6390034795
 30
0.0
 10
6.4608468292
 20
3.6410224528
 30
0.0
 10
6.460809517
 20
3.6424072516
 30
0.0
 10
6.460809517
 20
3.6431108536
 30
0.0
  0
SPLINE
  5
449
100
AcDbEntity
  8
0
100
AcDbSpline
 62
7
  6
CONTINUOUS
 70
0
 71
3
 72
18
 73
14
 74
0
 42
0.0000001
 43
0.0000001
 44
0.0000000001
 40
0.0
 40
0.0
 40
0.0
 40
0.0
 40
0.1133620429
 40
0.2292806559
 40
0.2883733617
 40
0.3483097958
 40
0.4091772449
 40
0.4710200491
 40
0.5977654605
 40
0.7286957209
 40
0.7956255082
 40
0.8633247825
 40
1.0
 40
1.0
 40
1.0
 40
1.0
 10
6.6745821047
 20
3.8913749151
 30
0.0
 10
6.6751127833
 20
3.8910920185
 30
0.0
 10
6.6761577993
 20
3.8904647915
 30
0.0
 10
6.6773797282
 20
3.8895387908
 30
0.0
 10
6.6783050083
 20
3.8887028001
 30
0.0
 10
6.6789737193
 20
3.8880210836
 30
0.0
 10
6.679608214
 20
3.8872879038
 30
0.0
 10
6.680407799
 20
3.8862324556
 30
0.0
 10
6.6812911601
 20
3.8847789529
 30
0.0
 10
6.6819646639
 20
3.8831865084
 30
0.0
 10
6.6823602691
 20
3.8818330133
 30
0.0
 10
6.6826533277
 20
3.8804228183
 30
0.0
 10
6.6827431555
 20
3.8793359012
 30
0.0
 10
6.6827431555
 20
3.8786108536
 30
0.0
  0
SPLINE
  5
44A
100
AcDbEntity
  8
0
100
AcDbSpline
 62
7
  6
CONTINUOUS
 70
0
 71
3
 72
14
 73
10
 74
0
 42
0.0000001
 43
0.0000001
 44
0.0000000001
 40
0.0
 40
0.0
 40
0.0
 40
0.0
 40
0.1268946336
 40
0.2534269949
 40
0.379384917
 40
0.5046759192
 40
0.629326731
 40
0.7534056881
 40
1.0
 40
1.0
 40
1.0
 40
1.0
 10
6.4736032825
 20
3.6431108536
 30
0.0
 10
6.4736032825
 20
3.6423845559
 30
0.0
 10
6.4734545891
 20
3.6409298735
 30
0.0
 10
6.4728091921
 20
3.6388433802
 30
0.0
 10
6.4718021535
 20
3.6369176389
 30
0.0
 10
6.4705058353
 20
3.6351903141
 30
0.0
 10
6.468986982
 20
3.633672476
 30
0.0
 10
6.4667448727
 20
3.6319289699
 30
0.0
 10
6.4648641199
 20
3.6309082438
 30
0.0
 10
6.463569183
 20
3.630346792
 30
0.0
  0
SPLINE
  5
44B
100
AcDbEntity
  8
0
100
AcDbSpline
 62
7
  6
CONTINUOUS
 70
0
 71
3
 72
16
 73
12
 74
0
 42
0.0000001
 43
0.0000001
 44
0.0000000001
 40
0.0
 40
0.0
 40
0.0
 40
0.0
 40
0.1151944632
 40
0.2325309421
 40
0.3524241796
 40
0.4754107735
 40
0.60186738
 40
0.7318822867
 40
0.7981489275
 40
0.8650754708
 40
1.0
 40
1.0
 40
1.0
 40
1.0
 10
6.6708098965
 20
3.8913749151
 30
0.0
 10
6.671360936
 20
3.8910925014
 30
0.0
 10
6.6724458231
 20
3.8904666991
 30
0.0
 10
6.6739802207
 20
3.8893494571
 30
0.0
 10
6.675407697
 20
3.8880343767
 30
0.0
 10
6.676691842
 20
3.8865128842
 30
0.0
 10
6.6777858756
 20
3.8847834271
 30
0.0
 10
6.6784880682
 20
3.8831887963
 30
0.0
 10
6.6789000954
 20
3.8818338035
 30
0.0
 10
6.6792049288
 20
3.8804240302
 30
0.0
 10
6.6792985586
 20
3.8793361016
 30
0.0
 10
6.6792985586
 20
3.8786108536
 30
0.0
  0
SPLINE
  5
44C
100
AcDbEntity
  8
0
100
AcDbSpline
 62
7
  6
CONTINUOUS
 70
0
 71
3
 72
15
 73
11
 74
0
 42
0.0000001
 43
0.0000001
 44
0.0000000001
 40
0.0
 40
0.0
 40
0.0
 40
0.0
 40
0.0807733705
 40
0.174174218
 40
0.2809450343
 40
0.4015389583
 40
0.5357370104
 40
0.6822828734
 40
0.8384583981
 40
1.0
 40
1.0
 40
1.0
 40
1.0
 10
6.4817603734
 20
3.630346792
 30
0.0
 10
6.481598115
 20
3.6306589046
 30
0.0
 10
6.4812846309
 20
3.6313510309
 30
0.0
 10
6.4808720743
 20
3.6325039667
 30
0.0
 10
6.4804925879
 20
3.6338493937
 30
0.0
 10
6.4801559031
 20
3.6353884223
 30
0.0
 10
6.479873698
 20
3.6371140926
 30
0.0
 10
6.4796588501
 20
3.6390054459
 30
0.0
 10
6.4795237011
 20
3.641023465
 30
0.0
 10
6.4794930803
 20
3.6424073362
 30
0.0
 10
6.4794930803
 20
3.6431108536
 30
0.0
  0
SPLINE
  5
44D
100
AcDbEntity
  8
0
100
AcDbSpline
 62
7
  6
CONTINUOUS
 70
0
 71
3
 72
16
 73
12
 74
0
 42
0.0000001
 43
0.0000001
 44
0.0000000001
 40
0.0
 40
0.0
 40
0.0
 40
0.0
 40
0.1168456113
 40
0.2354637258
 40
0.3561893731
 40
0.4794850928
 40
0.6056737913
 40
0.7348415589
 40
0.8004933201
 40
0.8667025325
 40
1.0
 40
1.0
 40
1.0
 40
1.0
 10
6.6659776634
 20
3.8913749151
 30
0.0
 10
6.6665476217
 20
3.8910929159
 30
0.0
 10
6.6676694768
 20
3.8904684122
 30
0.0
 10
6.6692586059
 20
3.8893518441
 30
0.0
 10
6.6707371813
 20
3.8880375026
 30
0.0
 10
6.6720676064
 20
3.8865166641
 30
0.0
 10
6.6732015048
 20
3.8847875227
 30
0.0
 10
6.673930375
 20
3.8831909778
 30
0.0
 10
6.6743577184
 20
3.8818345562
 30
0.0
 10
6.6746734868
 20
3.8804251963
 30
0.0
 10
6.6747706699
 20
3.8793362947
 30
0.0
 10
6.6747706699
 20
3.8786108536
 30
0.0
  0
SPLINE
  5
44E
100
AcDbEntity
  8
0
100
AcDbSpline
 62
7
  6
CONTINUOUS
 70
0
 71
3
 72
15
 73
11
 74
0
 42
0.0000001
 43
0.0000001
 44
0.0000000001
 40
0.0
 40
0.0
 40
0.0
 40
0.0
 40
0.1261857062
 40
0.2521377523
 40
0.3777280654
 40
0.5028929899
 40
0.627648403
 40
0.7520327204
 40
0.8761569519
 40
1.0
 40
1.0
 40
1.0
 40
1.0
 10
6.4919271269
 20
3.6431108536
 30
0.0
 10
6.4919271269
 20
3.6423844577
 30
0.0
 10
6.4917762814
 20
3.6409287477
 30
0.0
 10
6.4911218313
 20
3.6388416617
 30
0.0
 10
6.4901010604
 20
3.6369158751
 30
0.0
 10
6.488787347
 20
3.6351887856
 30
0.0
 10
6.4872486446
 20
3.6336714433
 30
0.0
 10
6.4855400544
 20
3.6323605099
 30
0.0
 10
6.4837043779
 20
3.631246819
 30
0.0
 10
6.4824157965
 20
3.6306272589
 30
0.0
 10
6.4817603734
 20
3.630346792
 30
0.0
  0
SPLINE
  5
44F
100
AcDbEntity
  8
0
100
AcDbSpline
 62
7
  6
CONTINUOUS
 70
0
 71
3
 72
16
 73
12
 74
0
 42
0.0000001
 43
0.0000001
 44
0.0000000001
 40
0.0
 40
0.0
 40
0.0
 40
0.0
 40
0.1183325755
 40
0.2381105024
 40
0.3595953525
 40
0.4831798214
 40
0.6091339669
 40
0.7375373706
 40
0.8026307947
 40
0.8681869639
 40
1.0
 40
1.0
 40
1.0
 40
1.0
 10
6.6600986504
 20
3.8913749151
 30
0.0
 10
6.6606860335
 20
3.8910932709
 30
0.0
 10
6.6618419145
 20
3.8904698928
 30
0.0
 10
6.6634814019
 20
3.8893539353
 30
0.0
 10
6.665006982
 20
3.8880402855
 30
0.0
 10
6.6663799816
 20
3.8865200891
 30
0.0
 10
6.6675505784
 20
3.8847913027
 30
0.0
 10
6.6683041013
 20
3.8831930232
 30
0.0
 10
6.6687455905
 20
3.8818352663
 30
0.0
 10
6.6690714272
 20
3.880426303
 30
0.0
 10
6.6691719003
 20
3.8793364786
 30
0.0
 10
6.6691719003
 20
3.8786108536
 30
0.0
  0
SPLINE
  5
450
100
AcDbEntity
  8
0
100
AcDbSpline
 62
7
  6
CONTINUOUS
 70
0
 71
3
 72
15
 73
11
 74
0
 42
0.0000001
 43
0.0000001
 44
0.0000000001
 40
0.0
 40
0.0
 40
0.0
 40
0.0
 40
0.0786661752
 40
0.1707378265
 40
0.2768657985
 40
0.3974242699
 40
0.5321173004
 40
0.6795976553
 40
0.8370295631
 40
1.0
 40
1.0
 40
1.0
 40
1.0
 10
6.4994097107
 20
3.630346792
 30
0.0
 10
6.4992820987
 20
3.6306614563
 30
0.0
 10
6.4990366726
 20
3.6313572909
 30
0.0
 10
6.4987155114
 20
3.6325090596
 30
0.0
 10
6.498419942
 20
3.6338534714
 30
0.0
 10
6.4981576052
 20
3.6353916301
 30
0.0
 10
6.4979376737
 20
3.6371164931
 30
0.0
 10
6.4977702154
 20
3.6390070545
 30
0.0
 10
6.4976648704
 20
3.6410242884
 30
0.0
 10
6.4976410049
 20
3.6424074047
 30
0.0
 10
6.4976410049
 20
3.6431108536
 30
0.0
  0
SPLINE
  5
451
100
AcDbEntity
  8
0
100
AcDbSpline
 62
7
  6
CONTINUOUS
 70
0
 71
3
 72
15
 73
11
 74
0
 42
0.0000001
 43
0.0000001
 44
0.0000000001
 40
0.0
 40
0.0
 40
0.0
 40
0.0
 40
0.119674919
 40
0.2405078085
 40
0.3626935034
 40
0.4865600033
 40
0.6123266892
 40
0.7400635812
 40
0.8695102466
 40
1.0
 40
1.0
 40
1.0
 40
1.0
 10
6.6531889714
 20
3.8913749151
 30
0.0
 10
6.653792237
 20
3.891093574
 30
0.0
 10
6.6549791159
 20
3.8904711653
 30
0.0
 10
6.6566644611
 20
3.8893557583
 30
0.0
 10
6.6582328408
 20
3.888042731
 30
0.0
 10
6.6596445838
 20
3.886523201
 30
0.0
 10
6.6608486771
 20
3.8847945928
 30
0.0
 10
6.6617826854
 20
3.8828693802
 30
0.0
 10
6.6623802316
 20
3.8807860709
 30
0.0
 10
6.6625175956
 20
3.879336651
 30
0.0
 10
6.6625175956
 20
3.8786108536
 30
0.0
  0
SPLINE
  5
452
100
AcDbEntity
  8
0
100
AcDbSpline
 62
7
  6
CONTINUOUS
 70
0
 71
3
 72
17
 73
13
 74
0
 42
0.0000001
 43
0.0000001
 44
0.0000000001
 40
0.0
 40
0.0
 40
0.0
 40
0.0
 40
0.1120298654
 40
0.2271744706
 40
0.3459380929
 40
0.4068858372
 40
0.4689121559
 40
0.5962327572
 40
0.7278130544
 40
0.795020599
 40
0.8629520258
 40
1.0
 40
1.0
 40
1.0
 40
1.0
 10
5.8892337179
 20
3.630346792
 30
0.0
 10
5.8887369727
 20
3.6306393123
 30
0.0
 10
5.8877615588
 20
3.6312887535
 30
0.0
 10
5.8863986971
 20
3.6324397247
 30
0.0
 10
5.8853614159
 20
3.6335526936
 30
0.0
 10
5.8846007952
 20
3.6345378642
 30
0.0
 10
5.8838798324
 20
3.6356060541
 30
0.0
 10
5.8830930592
 20
3.6370638928
 30
0.0
 10
5.8825022798
 20
3.6386406854
 30
0.0
 10
5.8821581464
 20
3.6399704067
 30
0.0
 10
5.8819047444
 20
3.6413487619
 30
0.0
 10
5.8818276239
 20
3.6424056418
 30
0.0
 10
5.8818276239
 20
3.6431108536
 30
0.0
  0
SPLINE
  5
453
100
AcDbEntity
  8
0
100
AcDbSpline
 62
7
  6
CONTINUOUS
 70
0
 71
3
 72
15
 73
11
 74
0
 42
0.0000001
 43
0.0000001
 44
0.0000000001
 40
0.0
 40
0.0
 40
0.0
 40
0.0
 40
0.1208465837
 40
0.2426007335
 40
0.3653974896
 40
0.4895058942
 40
0.6150978053
 40
0.7422317529
 40
0.8707049354
 40
1.0
 40
1.0
 40
1.0
 40
1.0
 10
6.6452675653
 20
3.8913749151
 30
0.0
 10
6.6458851269
 20
3.8910938312
 30
0.0
 10
6.6470998947
 20
3.8904722529
 30
0.0
 10
6.6488264845
 20
3.8893573291
 30
0.0
 10
6.6504333442
 20
3.8880448762
 30
0.0
 10
6.6518799361
 20
3.8865259238
 30
0.0
 10
6.6531141048
 20
3.8847976839
 30
0.0
 10
6.654071877
 20
3.8828722617
 30
0.0
 10
6.6546849623
 20
3.8807879067
 30
0.0
 10
6.6548259947
 20
3.8793368103
 30
0.0
 10
6.6548259947
 20
3.8786108536
 30
0.0
  0
SPLINE
  5
454
100
AcDbEntity
  8
0
100
AcDbSpline
 62
7
  6
CONTINUOUS
 70
0
 71
3
 72
15
 73
11
 74
0
 42
0.0000001
 43
0.0000001
 44
0.0000000001
 40
0.0
 40
0.0
 40
0.0
 40
0.0
 40
0.1256583291
 40
0.251184584
 40
0.3765167151
 40
0.5016131789
 40
0.6264807048
 40
0.7511338145
 40
0.8756561154
 40
1.0
 40
1.0
 40
1.0
 40
1.0
 10
6.5096812517
 20
3.6431108536
 30
0.0
 10
6.5096812517
 20
3.6423843791
 30
0.0
 10
6.5095287002
 20
3.6409278485
 30
0.0
 10
6.508867091
 20
3.638840299
 30
0.0
 10
6.5078354565
 20
3.6369144785
 30
0.0
 10
6.5065080531
 20
3.6351876118
 30
0.0
 10
6.5049535046
 20
3.6336705568
 30
0.0
 10
6.503227409
 20
3.6323598838
 30
0.0
 10
6.5013729541
 20
3.6312463982
 30
0.0
 10
6.5000716584
 20
3.6306271612
 30
0.0
 10
6.4994097107
 20
3.630346792
 30
0.0
  0
SPLINE
  5
455
100
AcDbEntity
  8
0
100
AcDbSpline
 62
7
  6
CONTINUOUS
 70
0
 71
3
 72
15
 73
11
 74
0
 42
0.0000001
 43
0.0000001
 44
0.0000000001
 40
0.0
 40
0.0
 40
0.0
 40
0.0
 40
0.1218664491
 40
0.2444250364
 40
0.3677581446
 40
0.4920821585
 40
0.6175254663
 40
0.7441342091
 40
0.8717544068
 40
1.0
 40
1.0
 40
1.0
 40
1.0
 10
6.6363561442
 20
3.8913749151
 30
0.0
 10
6.636986375
 20
3.8910940476
 30
0.0
 10
6.6382258495
 20
3.890473173
 30
0.0
 10
6.6399889649
 20
3.8893586696
 30
0.0
 10
6.6416298944
 20
3.8880467262
 30
0.0
 10
6.6431073383
 20
3.8865283008
 30
0.0
 10
6.6443681425
 20
3.8848004184
 30
0.0
 10
6.6453469868
 20
3.8828748433
 30
0.0
 10
6.6459738797
 20
3.8807895672
 30
0.0
 10
6.6461181797
 20
3.8793369547
 30
0.0
 10
6.6461181797
 20
3.8786108536
 30
0.0
  0
SPLINE
  5
456
100
AcDbEntity
  8
0
100
AcDbSpline
 62
7
  6
CONTINUOUS
 70
0
 71
3
 72
15
 73
11
 74
0
 42
0.0000001
 43
0.0000001
 44
0.0000000001
 40
0.0
 40
0.0
 40
0.0
 40
0.0
 40
0.1139607194
 40
0.2305558348
 40
0.3502135828
 40
0.4734068933
 40
0.6003759017
 40
0.7310095246
 40
0.864640582
 40
1.0
 40
1.0
 40
1.0
 40
1.0
 10
5.8908577923
 20
3.630346792
 30
0.0
 10
5.8903406244
 20
3.6306387053
 30
0.0
 10
5.8893253103
 20
3.6312863251
 30
0.0
 10
5.8879034768
 20
3.6324366641
 30
0.0
 10
5.8865939393
 20
3.6337825262
 30
0.0
 10
5.8854304318
 20
3.6353255714
 30
0.0
 10
5.8844533312
 20
3.6370598015
 30
0.0
 10
5.8837079034
 20
3.6389650426
 30
0.0
 10
5.8832381137
 20
3.641001391
 30
0.0
 10
5.8831311772
 20
3.6424054767
 30
0.0
 10
5.8831311772
 20
3.6431108536
 30
0.0
  0
SPLINE
  5
457
100
AcDbEntity
  8
0
100
AcDbSpline
 62
7
  6
CONTINUOUS
 70
0
 71
3
 72
14
 73
10
 74
0
 42
0.0000001
 43
0.0000001
 44
0.0000000001
 40
0.0
 40
0.0
 40
0.0
 40
0.0
 40
0.2457606028
 40
0.3695926647
 40
0.4941420951
 40
0.6194985716
 40
0.7456958726
 40
0.8726206606
 40
1.0
 40
1.0
 40
1.0
 40
1.0
 10
6.6264791337
 20
3.8913749151
 30
0.0
 10
6.6277627063
 20
3.8908130591
 30
0.0
 10
6.6296265721
 20
3.8897914131
 30
0.0
 10
6.6318464625
 20
3.8880484021
 30
0.0
 10
6.6333509084
 20
3.8865303086
 30
0.0
 10
6.634634778
 20
3.8848027966
 30
0.0
 10
6.6356319532
 20
3.8828771041
 30
0.0
 10
6.6362708653
 20
3.8807910359
 30
0.0
 10
6.6364180183
 20
3.8793370825
 30
0.0
 10
6.6364180183
 20
3.8786108536
 30
0.0
  0
SPLINE
  5
458
100
AcDbEntity
  8
0
100
AcDbSpline
 62
7
  6
CONTINUOUS
 70
0
 71
3
 72
15
 73
11
 74
0
 42
0.0000001
 43
0.0000001
 44
0.0000000001
 40
0.0
 40
0.0
 40
0.0
 40
0.0
 40
0.0769811791
 40
0.1680050986
 40
0.273634958
 40
0.3941750012
 40
0.529264978
 40
0.6774847918
 40
0.8359062469
 40
1.0
 40
1.0
 40
1.0
 40
1.0
 10
6.5164688192
 20
3.630346792
 30
0.0
 10
6.5163768767
 20
3.6306637084
 30
0.0
 10
6.5162008225
 20
3.6313625256
 30
0.0
 10
6.5159714951
 20
3.632513183
 30
0.0
 10
6.5157603368
 20
3.6338566912
 30
0.0
 10
6.5155728481
 20
3.635394123
 30
0.0
 10
6.5154156383
 20
3.6371183371
 30
0.0
 10
6.5152959235
 20
3.6390082814
 30
0.0
 10
6.5152206094
 20
3.6410249139
 30
0.0
 10
6.5152035485
 20
3.6424074569
 30
0.0
 10
6.5152035485
 20
3.6431108536
 30
0.0
  0
SPLINE
  5
459
100
AcDbEntity
  8
0
100
AcDbSpline
 62
7
  6
CONTINUOUS
 70
0
 71
3
 72
15
 73
11
 74
0
 42
0.0000001
 43
0.0000001
 44
0.0000000001
 40
0.0
 40
0.0
 40
0.0
 40
0.0
 40
0.1234660443
 40
0.2472910067
 40
0.3714736391
 40
0.4961453287
 40
0.6213623624
 40
0.7471468471
 40
0.8734186371
 40
1.0
 40
1.0
 40
1.0
 40
1.0
 10
6.6156636059
 20
3.8913749151
 30
0.0
 10
6.6163141564
 20
3.8910943737
 30
0.0
 10
6.6175932419
 20
3.8904745679
 30
0.0
 10
6.619414891
 20
3.8893607225
 30
0.0
 10
6.6211104034
 20
3.8880495947
 30
0.0
 10
6.622637267
 20
3.8865320399
 30
0.0
 10
6.6239407526
 20
3.8848047895
 30
0.0
 10
6.6249534129
 20
3.8828790347
 30
0.0
 10
6.625602523
 20
3.8807922958
 30
0.0
 10
6.6257520978
 20
3.8793371923
 30
0.0
 10
6.6257520978
 20
3.8786108536
 30
0.0
  0
SPLINE
  5
45A
100
AcDbEntity
  8
0
100
AcDbSpline
 62
7
  6
CONTINUOUS
 70
0
 71
3
 72
15
 73
11
 74
0
 42
0.0000001
 43
0.0000001
 44
0.0000000001
 40
0.0
 40
0.0
 40
0.0
 40
0.0
 40
0.1157135161
 40
0.23362958
 40
0.3541032151
 40
0.477550954
 40
0.6041877086
 40
0.7339329087
 40
0.8662286294
 40
1.0
 40
1.0
 40
1.0
 40
1.0
 10
5.8935596364
 20
3.630346792
 30
0.0
 10
5.8930233958
 20
3.6306381818
 30
0.0
 10
5.8919708497
 20
3.6312842213
 30
0.0
 10
5.8904940605
 20
3.6324338774
 30
0.0
 10
5.8891336614
 20
3.6337790989
 30
0.0
 10
5.887924638
 20
3.6353217074
 30
0.0
 10
5.8869089434
 20
3.6370559291
 30
0.0
 10
5.886133742
 20
3.6389618241
 30
0.0
 10
5.8856449916
 20
3.6409995068
 30
0.0
 10
5.8855336783
 20
3.6424053162
 30
0.0
 10
5.8855336783
 20
3.6431108536
 30
0.0
  0
SPLINE
  5
45B
100
AcDbEntity
  8
0
100
AcDbSpline
 62
7
  6
CONTINUOUS
 70
0
 71
3
 72
15
 73
11
 74
0
 42
0.0000001
 43
0.0000001
 44
0.0000000001
 40
0.0
 40
0.0
 40
0.0
 40
0.0
 40
0.1240524026
 40
0.2483429812
 40
0.3728395388
 40
0.4976415947
 40
0.6227778131
 40
0.7482600503
 40
0.8740343284
 40
1.0
 40
1.0
 40
1.0
 40
1.0
 10
6.6039392055
 20
3.8913749151
 30
0.0
 10
6.6045973488
 20
3.8910944893
 30
0.0
 10
6.6058912317
 20
3.8904750649
 30
0.0
 10
6.6077347385
 20
3.88936146
 30
0.0
 10
6.6094506282
 20
3.8880506357
 30
0.0
 10
6.6109959388
 20
3.8865334134
 30
0.0
 10
6.6123153602
 20
3.884806417
 30
0.0
 10
6.6133406616
 20
3.8828806161
 30
0.0
 10
6.6139980961
 20
3.8807933359
 30
0.0
 10
6.6141496528
 20
3.8793372831
 30
0.0
 10
6.6141496528
 20
3.8786108536
 30
0.0
  0
SPLINE
  5
45C
100
AcDbEntity
  8
0
100
AcDbSpline
 62
7
  6
CONTINUOUS
 70
0
 71
3
 72
15
 73
11
 74
0
 42
0.0000001
 43
0.0000001
 44
0.0000000001
 40
0.0
 40
0.0
 40
0.0
 40
0.0
 40
0.1252742201
 40
0.2504906947
 40
0.3756354594
 40
0.5006827764
 40
0.6256323819
 40
0.7504811608
 40
0.8752926695
 40
1.0
 40
1.0
 40
1.0
 40
1.0
 10
6.5268169942
 20
3.6431108536
 30
0.0
 10
6.5268169942
 20
3.6423843212
 30
0.0
 10
6.526663192
 20
3.6409271856
 30
0.0
 10
6.5259963409
 20
3.6388392988
 30
0.0
 10
6.5249567597
 20
3.6369134589
 30
0.0
 10
6.523619347
 20
3.6351867594
 30
0.0
 10
6.5220532137
 20
3.6336699162
 30
0.0
 10
6.5203143192
 20
3.6323594331
 30
0.0
 10
6.5184461331
 20
3.6312460962
 30
0.0
 10
6.517135539
 20
3.6306270912
 30
0.0
 10
6.5164688192
 20
3.630346792
 30
0.0
  0
SPLINE
  5
45D
100
AcDbEntity
  8
0
100
AcDbSpline
 62
7
  6
CONTINUOUS
 70
0
 71
3
 72
15
 73
11
 74
0
 42
0.0000001
 43
0.0000001
 44
0.0000000001
 40
0.0
 40
0.0
 40
0.0
 40
0.0
 40
0.124500067
 40
0.2491466289
 40
0.3738837618
 40
0.4987864059
 40
0.6238617083
 40
0.7491131691
 40
0.8745064468
 40
1.0
 40
1.0
 40
1.0
 40
1.0
 10
6.5913380681
 20
3.8913749151
 30
0.0
 10
6.5920020628
 20
3.8910945762
 30
0.0
 10
6.5933073474
 20
3.8904754393
 30
0.0
 10
6.5951676929
 20
3.8893620177
 30
0.0
 10
6.596899279
 20
3.8880514267
 30
0.0
 10
6.5984587977
 20
3.886534463
 30
0.0
 10
6.5997904944
 20
3.8848076685
 30
0.0
 10
6.6008255389
 20
3.88288184
 30
0.0
 10
6.6014893966
 20
3.880794145
 30
0.0
 10
6.6016424848
 20
3.8793373538
 30
0.0
 10
6.6016424848
 20
3.8786108536
 30
0.0
  0
SPLINE
  5
45E
100
AcDbEntity
  8
0
100
AcDbSpline
 62
7
  6
CONTINUOUS
 70
0
 71
3
 72
17
 73
13
 74
0
 42
0.0000001
 43
0.0000001
 44
0.0000000001
 40
0.0
 40
0.0
 40
0.0
 40
0.0
 40
0.1172862306
 40
0.2363891143
 40
0.3575944407
 40
0.4191408133
 40
0.4813302002
 40
0.6076497543
 40
0.7365630756
 40
0.8019124493
 40
0.8677135173
 40
1.0
 40
1.0
 40
1.0
 40
1.0
 10
5.8973318446
 20
3.630346792
 30
0.0
 10
5.8967779318
 20
3.6306377311
 30
0.0
 10
5.8956909031
 20
3.6312824123
 30
0.0
 10
5.8941633262
 20
3.6324313328
 30
0.0
 10
5.8929958227
 20
3.6335467586
 30
0.0
 10
5.8921398961
 20
3.6345351156
 30
0.0
 10
5.8913342117
 20
3.635599311
 30
0.0
 10
5.8904531286
 20
3.6370522781
 30
0.0
 10
5.8897867545
 20
3.6386348685
 30
0.0
 10
5.8893995857
 20
3.6399684665
 30
0.0
 10
5.8891154576
 20
3.6413458358
 30
0.0
 10
5.8890285421
 20
3.6424051621
 30
0.0
 10
5.8890285421
 20
3.6431108536
 30
0.0
  0
SPLINE
  5
45F
100
AcDbEntity
  8
0
100
AcDbSpline
 62
7
  6
CONTINUOUS
 70
0
 71
3
 72
15
 73
11
 74
0
 42
0.0000001
 43
0.0000001
 44
0.0000000001
 40
0.0
 40
0.0
 40
0.0
 40
0.0
 40
0.1248110466
 40
0.2497051538
 40
0.3746098669
 40
0.499582927
 40
0.624616316
 40
0.7497074568
 40
0.8748354694
 40
1.0
 40
1.0
 40
1.0
 40
1.0
 10
6.5778947328
 20
3.8913749151
 30
0.0
 10
6.5785628205
 20
3.8910946359
 30
0.0
 10
6.5798760799
 20
3.8904756968
 30
0.0
 10
6.5817482014
 20
3.8893624024
 30
0.0
 10
6.5834907638
 20
3.8880519742
 30
0.0
 10
6.5850602173
 20
3.8865351924
 30
0.0
 10
6.5864004979
 20
3.8848085425
 30
0.0
 10
6.5874423584
 20
3.8828826987
 30
0.0
 10
6.5881107135
 20
3.8807947148
 30
0.0
 10
6.5882648751
 20
3.8793374036
 30
0.0
 10
6.5882648751
 20
3.8786108536
 30
0.0
  0
SPLINE
  5
460
100
AcDbEntity
  8
0
100
AcDbSpline
 62
7
  6
CONTINUOUS
 70
0
 71
3
 72
15
 73
11
 74
0
 42
0.0000001
 43
0.0000001
 44
0.0000000001
 40
0.0
 40
0.0
 40
0.0
 40
0.0
 40
0.0758042398
 40
0.166104561
 40
0.2713949467
 40
0.3919272568
 40
0.5272949769
 40
0.6760270788
 40
0.8351317284
 40
1.0
 40
1.0
 40
1.0
 40
1.0
 10
6.5328909411
 20
3.630346792
 30
0.0
 10
6.5328355379
 20
3.6306654073
 30
0.0
 10
6.5327298214
 20
3.6313663036
 30
0.0
 10
6.532592556
 20
3.6325160882
 30
0.0
 10
6.5324661165
 20
3.6338589166
 30
0.0
 10
6.5323538156
 20
3.6353958262
 30
0.0
 10
6.5322596388
 20
3.6371195865
 30
0.0
 10
6.5321879173
 20
3.6390091084
 30
0.0
 10
6.5321427947
 20
3.6410253342
 30
0.0
 10
6.5321325736
 20
3.6424074919
 30
0.0
 10
6.5321325736
 20
3.6431108536
 30
0.0
  0
SPLINE
  5
461
100
AcDbEntity
  8
0
100
AcDbSpline
 62
7
  6
CONTINUOUS
 70
0
 71
3
 72
15
 73
11
 74
0
 42
0.0000001
 43
0.0000001
 44
0.0000000001
 40
0.0
 40
0.0
 40
0.0
 40
0.0
 40
0.12498676
 40
0.2500208299
 40
0.3750203973
 40
0.5000334407
 40
0.6250432944
 40
0.7500438481
 40
0.8750217617
 40
1.0
 40
1.0
 40
1.0
 40
1.0
 10
6.5636460467
 20
3.8913749151
 30
0.0
 10
6.5643164574
 20
3.8910946693
 30
0.0
 10
6.5656342429
 20
3.8904758414
 30
0.0
 10
6.5675130472
 20
3.8893626188
 30
0.0
 10
6.5692618382
 20
3.8880522828
 30
0.0
 10
6.570836929
 20
3.8865356048
 30
0.0
 10
6.5721820806
 20
3.884809038
 30
0.0
 10
6.5732278099
 20
3.8828831871
 30
0.0
 10
6.5738987191
 20
3.8807950397
 30
0.0
 10
6.5740534907
 20
3.8793374321
 30
0.0
 10
6.5740534907
 20
3.8786108536
 30
0.0
  0
SPLINE
  5
462
100
AcDbEntity
  8
0
100
AcDbSpline
 62
7
  6
CONTINUOUS
 70
0
 71
3
 72
16
 73
12
 74
0
 42
0.0000001
 43
0.0000001
 44
0.0000000001
 40
0.0
 40
0.0
 40
0.0
 40
0.0
 40
0.1187280303
 40
0.2389309423
 40
0.3608302334
 40
0.4847339635
 40
0.6108002397
 40
0.7389899983
 40
0.8038276222
 40
0.8690385882
 40
1.0
 40
1.0
 40
1.0
 40
1.0
 10
5.9021640777
 20
3.630346792
 30
0.0
 10
5.9015939407
 20
3.6306373442
 30
0.0
 10
5.9004753138
 20
3.6312808027
 30
0.0
 10
5.8989009998
 20
3.6324292484
 30
0.0
 10
5.8974503568
 20
3.6337732483
 30
0.0
 10
5.8961605203
 20
3.6353149763
 30
0.0
 10
5.8950762733
 20
3.6370488464
 30
0.0
 10
5.8943881997
 20
3.638633154
 30
0.0
 10
5.8939887597
 20
3.6399678828
 30
0.0
 10
5.8936959103
 20
3.6413449505
 30
0.0
 10
5.8936061895
 20
3.6424050161
 30
0.0
 10
5.8936061895
 20
3.6431108536
 30
0.0
  0
SPLINE
  5
463
100
AcDbEntity
  8
0
100
AcDbSpline
 62
7
  6
CONTINUOUS
 70
0
 71
3
 72
15
 73
11
 74
0
 42
0.0000001
 43
0.0000001
 44
0.0000000001
 40
0.0
 40
0.0
 40
0.0
 40
0.0
 40
0.1250280169
 40
0.2500949591
 40
0.3751168153
 40
0.5001392672
 40
0.6251436104
 40
0.7501228945
 40
0.8750655428
 40
1.0
 40
1.0
 40
1.0
 40
1.0
 10
6.5486310644
 20
3.8913749151
 30
0.0
 10
6.5493020217
 20
3.8910946772
 30
0.0
 10
6.550620872
 20
3.8904758753
 30
0.0
 10
6.5525012484
 20
3.8893626695
 30
0.0
 10
6.5542515047
 20
3.8880523552
 30
0.0
 10
6.5558279216
 20
3.8865357016
 30
0.0
 10
6.5571742192
 20
3.8848091545
 30
0.0
 10
6.5582208587
 20
3.8828833021
 30
0.0
 10
6.558892369
 20
3.8807951162
 30
0.0
 10
6.5590472842
 20
3.8793374388
 30
0.0
 10
6.5590472842
 20
3.8786108536
 30
0.0
  0
LINE
  5
464
100
AcDbEntity
  8
0
100
AcDbLine
 62
7
  6
CONTINUOUS
 10
6.5483816788
 20
3.8786108536
 11
6.5486310644
 21
3.8913749151
  0
SPLINE
  5
465
100
AcDbEntity
  8
0
100
AcDbSpline
 62
7
  6
CONTINUOUS
 70
0
 71
3
 72
15
 73
11
 74
0
 42
0.0000001
 43
0.0000001
 44
0.0000000001
 40
0.0
 40
0.0
 40
0.0
 40
0.0
 40
0.1249350082
 40
0.2499278488
 40
0.3748994669
 40
0.4999007195
 40
0.6249174939
 40
0.7499447277
 40
0.8749668653
 40
1.0
 40
1.0
 40
1.0
 40
1.0
 10
6.5328909411
 20
3.8913749151
 30
0.0
 10
6.5335606668
 20
3.8910946595
 30
0.0
 10
6.5348771178
 20
3.8904757989
 30
0.0
 10
6.5367539516
 20
3.8893625551
 30
0.0
 10
6.5385009061
 20
3.888052192
 30
0.0
 10
6.5400743348
 20
3.8865354833
 30
0.0
 10
6.5414180503
 20
3.8848088919
 30
0.0
 10
6.5424626388
 20
3.882883043
 30
0.0
 10
6.5431327947
 20
3.8807949438
 30
0.0
 10
6.5432873864
 20
3.8793374237
 30
0.0
 10
6.5432873864
 20
3.8786108536
 30
0.0
  0
SPLINE
  5
466
100
AcDbEntity
  8
0
100
AcDbSpline
 62
7
  6
CONTINUOUS
 70
0
 71
3
 72
15
 73
11
 74
0
 42
0.0000001
 43
0.0000001
 44
0.0000000001
 40
0.0
 40
0.0
 40
0.0
 40
0.0
 40
0.1648682298
 40
0.3239728707
 40
0.4727049736
 40
0.6080727249
 40
0.7286050455
 40
0.8338954327
 40
0.9241957581
 40
1.0
 40
1.0
 40
1.0
 40
1.0
 10
6.5321325736
 20
3.8786108536
 30
0.0
 10
6.5321325736
 20
3.8793142151
 30
0.0
 10
6.5321427947
 20
3.8806963726
 30
0.0
 10
6.5321879173
 20
3.8827125982
 30
0.0
 10
6.5322596387
 20
3.8846021202
 30
0.0
 10
6.5323538156
 20
3.8863258807
 30
0.0
 10
6.5324661164
 20
3.8878627904
 30
0.0
 10
6.532592556
 20
3.8892056189
 30
0.0
 10
6.5327298214
 20
3.8903554036
 30
0.0
 10
6.5328355379
 20
3.8910562999
 30
0.0
 10
6.5328909411
 20
3.8913749151
 30
0.0
  0
SPLINE
  5
467
100
AcDbEntity
  8
0
100
AcDbSpline
 62
7
  6
CONTINUOUS
 70
0
 71
3
 72
15
 73
11
 74
0
 42
0.0000001
 43
0.0000001
 44
0.0000000001
 40
0.0
 40
0.0
 40
0.0
 40
0.0
 40
0.1247073038
 40
0.249518807
 40
0.3743675735
 40
0.4993170936
 40
0.6243644279
 40
0.7495090518
 40
0.874725611
 40
1.0
 40
1.0
 40
1.0
 40
1.0
 10
6.5164688192
 20
3.8913749151
 30
0.0
 10
6.5171355389
 20
3.891094616
 30
0.0
 10
6.5184461328
 20
3.8904756112
 30
0.0
 10
6.5203143186
 20
3.8893622743
 30
0.0
 10
6.5220532127
 20
3.8880517917
 30
0.0
 10
6.523619346
 20
3.8865349491
 30
0.0
 10
6.5249567578
 20
3.8848082505
 30
0.0
 10
6.5259963401
 20
3.8828824115
 30
0.0
 10
6.5266631916
 20
3.880794524
 30
0.0
 10
6.5268169942
 20
3.879337387
 30
0.0
 10
6.5268169942
 20
3.8786108536
 30
0.0
  0
SPLINE
  5
468
100
AcDbEntity
  8
0
100
AcDbSpline
 62
7
  6
CONTINUOUS
 70
0
 71
3
 72
15
 73
11
 74
0
 42
0.0000001
 43
0.0000001
 44
0.0000000001
 40
0.0
 40
0.0
 40
0.0
 40
0.0
 40
0.1640937115
 40
0.3225151579
 40
0.4707349726
 40
0.6058249805
 40
0.7263650343
 40
0.8319948951
 40
0.9230188188
 40
1.0
 40
1.0
 40
1.0
 40
1.0
 10
6.5152035485
 20
3.8786108536
 30
0.0
 10
6.5152035485
 20
3.8793142501
 30
0.0
 10
6.5152206094
 20
3.8806967928
 30
0.0
 10
6.5152959235
 20
3.8827134251
 30
0.0
 10
6.5154156383
 20
3.8846033695
 30
0.0
 10
6.5155728481
 20
3.8863275839
 30
0.0
 10
6.5157603368
 20
3.8878650159
 30
0.0
 10
6.5159714951
 20
3.8892085241
 30
0.0
 10
6.5162008225
 20
3.8903591815
 30
0.0
 10
6.5163768766
 20
3.8910579988
 30
0.0
 10
6.5164688192
 20
3.8913749151
 30
0.0
  0
SPLINE
  5
469
100
AcDbEntity
  8
0
100
AcDbSpline
 62
7
  6
CONTINUOUS
 70
0
 71
3
 72
15
 73
11
 74
0
 42
0.0000001
 43
0.0000001
 44
0.0000000001
 40
0.0
 40
0.0
 40
0.0
 40
0.0
 40
0.124343858
 40
0.2488661533
 40
0.3735192506
 40
0.4983866911
 40
0.6234831721
 40
0.748815162
 40
0.8743415016
 40
1.0
 40
1.0
 40
1.0
 40
1.0
 10
6.4994097107
 20
3.8913749151
 30
0.0
 10
6.5000716582
 20
3.891094546
 30
0.0
 10
6.5013729538
 20
3.8904753091
 30
0.0
 10
6.5032274085
 20
3.8893618236
 30
0.0
 10
6.5049535037
 20
3.8880511511
 30
0.0
 10
6.5065080521
 20
3.8865340967
 30
0.0
 10
6.5078354546
 20
3.8848072309
 30
0.0
 10
6.5088670902
 20
3.8828814112
 30
0.0
 10
6.5095286998
 20
3.8807938611
 30
0.0
 10
6.5096812517
 20
3.879337329
 30
0.0
 10
6.5096812517
 20
3.8786108536
 30
0.0
  0
SPLINE
  5
46A
100
AcDbEntity
  8
0
100
AcDbSpline
 62
7
  6
CONTINUOUS
 70
0
 71
3
 72
15
 73
11
 74
0
 42
0.0000001
 43
0.0000001
 44
0.0000000001
 40
0.0
 40
0.0
 40
0.0
 40
0.0
 40
0.1629703956
 40
0.3204022947
 40
0.4678826504
 40
0.6025757118
 40
0.7231341937
 40
0.8292621671
 40
0.9213338226
 40
1.0
 40
1.0
 40
1.0
 40
1.0
 10
6.4976410049
 20
3.8786108536
 30
0.0
 10
6.4976410049
 20
3.8793143022
 30
0.0
 10
6.4976648704
 20
3.8806974184
 30
0.0
 10
6.4977702153
 20
3.8827146521
 30
0.0
 10
6.4979376737
 20
3.8846052136
 30
0.0
 10
6.4981576051
 20
3.8863300767
 30
0.0
 10
6.498419942
 20
3.8878682357
 30
0.0
 10
6.4987155113
 20
3.8892126475
 30
0.0
 10
6.4990366726
 20
3.8903644162
 30
0.0
 10
6.4992820987
 20
3.8910602508
 30
0.0
 10
6.4994097107
 20
3.8913749151
 30
0.0
  0
SPLINE
  5
46B
100
AcDbEntity
  8
0
100
AcDbSpline
 62
7
  6
CONTINUOUS
 70
0
 71
3
 72
15
 73
11
 74
0
 42
0.0000001
 43
0.0000001
 44
0.0000000001
 40
0.0
 40
0.0
 40
0.0
 40
0.0
 40
0.1238430216
 40
0.2479672467
 40
0.3723515516
 40
0.4971068805
 40
0.6222718197
 40
0.7478619888
 40
0.8738141211
 40
1.0
 40
1.0
 40
1.0
 40
1.0
 10
6.4817603734
 20
3.8913749151
 30
0.0
 10
6.4824157963
 20
3.8910944483
 30
0.0
 10
6.4837043776
 20
3.8904748883
 30
0.0
 10
6.4855400538
 20
3.8893611976
 30
0.0
 10
6.4872486436
 20
3.8880502646
 30
0.0
 10
6.488787346
 20
3.8865329228
 30
0.0
 10
6.4901010586
 20
3.8848058343
 30
0.0
 10
6.4911218305
 20
3.8828800486
 30
0.0
 10
6.491776281
 20
3.880792962
 30
0.0
 10
6.4919271269
 20
3.8793372505
 30
0.0
 10
6.4919271269
 20
3.8786108536
 30
0.0
  0
SPLINE
  5
46C
100
AcDbEntity
  8
0
100
AcDbSpline
 62
7
  6
CONTINUOUS
 70
0
 71
3
 72
15
 73
11
 74
0
 42
0.0000001
 43
0.0000001
 44
0.0000000001
 40
0.0
 40
0.0
 40
0.0
 40
0.0
 40
0.1615415956
 40
0.3177170837
 40
0.4642628894
 40
0.5984610096
 40
0.7190549548
 40
0.8258257699
 40
0.9192266243
 40
1.0
 40
1.0
 40
1.0
 40
1.0
 10
6.4794930803
 20
3.8786108536
 30
0.0
 10
6.4794930803
 20
3.879314371
 30
0.0
 10
6.4795237011
 20
3.8806982419
 30
0.0
 10
6.4796588501
 20
3.8827162606
 30
0.0
 10
6.4798736979
 20
3.8846076138
 30
0.0
 10
6.480155903
 20
3.8863332843
 30
0.0
 10
6.4804925878
 20
3.8878723133
 30
0.0
 10
6.4808720743
 20
3.8892177403
 30
0.0
 10
6.4812846309
 20
3.8903706762
 30
0.0
 10
6.4815981149
 20
3.8910628026
 30
0.0
 10
6.4817603734
 20
3.8913749151
 30
0.0
  0
SPLINE
  5
46D
100
AcDbEntity
  8
0
100
AcDbSpline
 62
7
  6
CONTINUOUS
 70
0
 71
3
 72
14
 73
10
 74
0
 42
0.0000001
 43
0.0000001
 44
0.0000000001
 40
0.0
 40
0.0
 40
0.0
 40
0.0
 40
0.2465942799
 40
0.3706732246
 40
0.4953239508
 40
0.62061497
 40
0.7465727492
 40
0.8731051955
 40
1.0
 40
1.0
 40
1.0
 40
1.0
 10
6.463569183
 20
3.8913749151
 30
0.0
 10
6.4648641197
 20
3.8908134635
 30
0.0
 10
6.4667448723
 20
3.8897927375
 30
0.0
 10
6.4689869811
 20
3.8880492319
 30
0.0
 10
6.4705058343
 20
3.8865313943
 30
0.0
 10
6.4718021516
 20
3.8848040705
 30
0.0
 10
6.4728091914
 20
3.88287833
 30
0.0
 10
6.4734545887
 20
3.8807918361
 30
0.0
 10
6.4736032825
 20
3.8793371522
 30
0.0
 10
6.4736032825
 20
3.8786108536
 30
0.0
  0
SPLINE
  5
46E
100
AcDbEntity
  8
0
100
AcDbSpline
 62
7
  6
CONTINUOUS
 70
0
 71
3
 72
15
 73
11
 74
0
 42
0.0000001
 43
0.0000001
 44
0.0000000001
 40
0.0
 40
0.0
 40
0.0
 40
0.0
 40
0.1598573552
 40
0.3145551226
 40
0.4600080191
 40
0.5936367987
 40
0.7142892619
 40
0.8218301625
 40
0.9167920126
 40
1.0
 40
1.0
 40
1.0
 40
1.0
 10
6.460809517
 20
3.8786108536
 30
0.0
 10
6.460809517
 20
3.8793144554
 30
0.0
 10
6.4608468291
 20
3.8806992539
 30
0.0
 10
6.461011488
 20
3.8827182271
 30
0.0
 10
6.4612732629
 20
3.8846105215
 30
0.0
 10
6.4616171481
 20
3.8863371152
 30
0.0
 10
6.4620274998
 20
3.8878770873
 30
0.0
 10
6.4624901826
 20
3.8892235292
 30
0.0
 10
6.4629934098
 20
3.8903775206
 30
0.0
 10
6.4633733531
 20
3.8910654342
 30
0.0
 10
6.463569183
 20
3.8913749151
 30
0.0
  0
SPLINE
  5
46F
100
AcDbEntity
  8
0
100
AcDbSpline
 62
7
  6
CONTINUOUS
 70
0
 71
3
 72
14
 73
10
 74
0
 42
0.0000001
 43
0.0000001
 44
0.0000000001
 40
0.0
 40
0.0
 40
0.0
 40
0.0
 40
0.2451884453
 40
0.3688514723
 40
0.4933318976
 40
0.6187337427
 40
0.7450954907
 40
0.872289052
 40
1.0
 40
1.0
 40
1.0
 40
1.0
 10
6.4448860001
 20
3.8913749151
 30
0.0
 10
6.4461618233
 20
3.8908127782
 30
0.0
 10
6.4480141671
 20
3.8897904968
 30
0.0
 10
6.4502189021
 20
3.8880478303
 30
0.0
 10
6.4517135186
 20
3.8865295636
 30
0.0
 10
6.4529888964
 20
3.8848019268
 30
0.0
 10
6.4539793452
 20
3.8828762709
 30
0.0
 10
6.4546138387
 20
3.880790494
 30
0.0
 10
6.4547599429
 20
3.8793370353
 30
0.0
 10
6.4547599429
 20
3.8786108536
 30
0.0
  0
SPLINE
  5
470
100
AcDbEntity
  8
0
100
AcDbSpline
 62
7
  6
CONTINUOUS
 70
0
 71
3
 72
15
 73
11
 74
0
 42
0.0000001
 43
0.0000001
 44
0.0000000001
 40
0.0
 40
0.0
 40
0.0
 40
0.0
 40
0.1579703354
 40
0.3110166777
 40
0.4552561741
 40
0.588264963
 40
0.7090037004
 40
0.8174218258
 40
0.914124077
 40
1.0
 40
1.0
 40
1.0
 40
1.0
 10
6.4416415254
 20
3.8786108536
 30
0.0
 10
6.4416415254
 20
3.8793145547
 30
0.0
 10
6.4416854499
 20
3.8807004429
 30
0.0
 10
6.4418792558
 20
3.8827205226
 30
0.0
 10
6.4421873829
 20
3.8846138788
 30
0.0
 10
6.442592199
 20
3.8863414658
 30
0.0
 10
6.4430753361
 20
3.8878823851
 30
0.0
 10
6.4436202346
 20
3.889229745
 30
0.0
 10
6.4442130691
 20
3.8903845587
 30
0.0
 10
6.4446576661
 20
3.8910679863
 30
0.0
 10
6.4448860001
 20
3.8913749151
 30
0.0
  0
SPLINE
  5
471
100
AcDbEntity
  8
0
100
AcDbSpline
 62
7
  6
CONTINUOUS
 70
0
 71
3
 72
15
 73
11
 74
0
 42
0.0000001
 43
0.0000001
 44
0.0000000001
 40
0.0
 40
0.0
 40
0.0
 40
0.0
 40
0.1214911981
 40
0.2437535275
 40
0.3668888088
 40
0.4911329437
 40
0.6166305419
 40
0.7434325647
 40
0.8713672201
 40
1.0
 40
1.0
 40
1.0
 40
1.0
 10
6.4257620341
 20
3.8913749151
 30
0.0
 10
6.4263875783
 20
3.8910939688
 30
0.0
 10
6.427617914
 20
3.8904728373
 30
0.0
 10
6.4293675206
 20
3.8893581793
 30
0.0
 10
6.4309958503
 20
3.8880460474
 30
0.0
 10
6.4324618848
 20
3.8865274255
 30
0.0
 10
6.4337128379
 20
3.8847994076
 30
0.0
 10
6.4346838859
 20
3.8828738853
 30
0.0
 10
6.4353056671
 20
3.8807889493
 30
0.0
 10
6.4354487564
 20
3.8793369009
 30
0.0
 10
6.4354487564
 20
3.8786108536
 30
0.0
  0
SPLINE
  5
472
100
AcDbEntity
  8
0
100
AcDbSpline
 62
7
  6
CONTINUOUS
 70
0
 71
3
 72
15
 73
11
 74
0
 42
0.0000001
 43
0.0000001
 44
0.0000000001
 40
0.0
 40
0.0
 40
0.0
 40
0.0
 40
0.1559322895
 40
0.3072001123
 40
0.4501423144
 40
0.5825024141
 40
0.7033579137
 40
0.8127388589
 40
0.9113094527
 40
1.0
 40
1.0
 40
1.0
 40
1.0
 10
6.4220416436
 20
3.8786108536
 30
0.0
 10
6.4220416436
 20
3.8793146678
 30
0.0
 10
6.4220920864
 20
3.8807017951
 30
0.0
 10
6.4223146059
 20
3.8827231143
 30
0.0
 10
6.4226683931
 20
3.8846176224
 30
0.0
 10
6.4231332263
 20
3.886346227
 30
0.0
 10
6.4236880506
 20
3.8878880355
 30
0.0
 10
6.4243139036
 20
3.8892361453
 30
0.0
 10
6.4249949228
 20
3.8903914838
 30
0.0
 10
6.4255022325
 20
3.8910703608
 30
0.0
 10
6.4257620341
 20
3.8913749151
 30
0.0
  0
SPLINE
  5
473
100
AcDbEntity
  8
0
100
AcDbSpline
 62
7
  6
CONTINUOUS
 70
0
 71
3
 72
15
 73
11
 74
0
 42
0.0000001
 43
0.0000001
 44
0.0000000001
 40
0.0
 40
0.0
 40
0.0
 40
0.0
 40
0.1204133209
 40
0.2418264382
 40
0.3643965934
 40
0.4884148247
 40
0.6140708652
 40
0.7414278316
 40
0.8702617973
 40
1.0
 40
1.0
 40
1.0
 40
1.0
 10
6.4062497026
 20
3.8913749151
 30
0.0
 10
6.4068619462
 20
3.8910937372
 30
0.0
 10
6.4080663409
 20
3.8904718546
 30
0.0
 10
6.4097775918
 20
3.8893567521
 30
0.0
 10
6.4113701418
 20
3.8880440854
 30
0.0
 10
6.4128037746
 20
3.8865249159
 30
0.0
 10
6.414026758
 20
3.8847965346
 30
0.0
 10
6.4149756885
 20
3.8828711858
 30
0.0
 10
6.4155829883
 20
3.8807872191
 30
0.0
 10
6.4157226537
 20
3.8793367506
 30
0.0
 10
6.4157226537
 20
3.8786108536
 30
0.0
  0
SPLINE
  5
474
100
AcDbEntity
  8
0
100
AcDbSpline
 62
7
  6
CONTINUOUS
 70
0
 71
3
 72
15
 73
11
 74
0
 42
0.0000001
 43
0.0000001
 44
0.0000000001
 40
0.0
 40
0.0
 40
0.0
 40
0.0
 40
0.1537916956
 40
0.3031972604
 40
0.4447917166
 40
0.576493546
 40
0.6974969217
 40
0.8079044217
 40
0.9084234687
 40
1.0
 40
1.0
 40
1.0
 40
1.0
 10
6.4020635934
 20
3.8786108536
 30
0.0
 10
6.4020635934
 20
3.8793147934
 30
0.0
 10
6.4021204448
 20
3.8807032951
 30
0.0
 10
6.4023711723
 20
3.8827259659
 30
0.0
 10
6.4027698065
 20
3.8846216845
 30
0.0
 10
6.4032935708
 20
3.886351289
 30
0.0
 10
6.4039187565
 20
3.8878938792
 30
0.0
 10
6.4046240141
 20
3.889242528
 30
0.0
 10
6.4053914427
 20
3.8903980813
 30
0.0
 10
6.4059594414
 20
3.8910725095
 30
0.0
 10
6.4062497026
 20
3.8913749151
 30
0.0
  0
SPLINE
  5
475
100
AcDbEntity
  8
0
100
AcDbSpline
 62
7
  6
CONTINUOUS
 70
0
 71
3
 72
15
 73
11
 74
0
 42
0.0000001
 43
0.0000001
 44
0.0000000001
 40
0.0
 40
0.0
 40
0.0
 40
0.0
 40
0.1191820664
 40
0.2396283765
 40
0.361558679
 40
0.4853252687
 40
0.6111667415
 40
0.7391570929
 40
0.8690111838
 40
1.0
 40
1.0
 40
1.0
 40
1.0
 10
6.3864024873
 20
3.8913749151
 30
0.0
 10
6.3869998186
 20
3.891093463
 30
0.0
 10
6.3881751175
 20
3.8904706978
 30
0.0
 10
6.3898433328
 20
3.8893550875
 30
0.0
 10
6.3913957282
 20
3.8880418225
 30
0.0
 10
6.3927929946
 20
3.8865220585
 30
0.0
 10
6.393984598
 20
3.8847933086
 30
0.0
 10
6.3949087466
 20
3.8828681944
 30
0.0
 10
6.3954998555
 20
3.8807853208
 30
0.0
 10
6.3956357026
 20
3.879336586
 30
0.0
 10
6.3956357026
 20
3.8786108536
 30
0.0
  0
SPLINE
  5
476
100
AcDbEntity
  8
0
100
AcDbSpline
 62
7
  6
CONTINUOUS
 70
0
 71
3
 72
14
 73
10
 74
0
 42
0.0000001
 43
0.0000001
 44
0.0000000001
 40
0.0
 40
0.0
 40
0.0
 40
0.0
 40
0.1516430305
 40
0.2991907797
 40
0.4394632938
 40
0.5705569032
 40
0.6917785276
 40
0.8032924649
 40
1.0
 40
1.0
 40
1.0
 40
1.0
 10
6.3817621334
 20
3.8786108536
 30
0.0
 10
6.3817621334
 20
3.8793149301
 30
0.0
 10
6.3818252694
 20
3.8807049282
 30
0.0
 10
6.3821036174
 20
3.8827290303
 30
0.0
 10
6.3825461884
 20
3.884626023
 30
0.0
 10
6.3831275271
 20
3.8863564537
 30
0.0
 10
6.3838218252
 20
3.8879000804
 30
0.0
 10
6.3848232166
 20
3.8896262439
 30
0.0
 10
6.3857369756
 20
3.8907494313
 30
0.0
 10
6.3864024873
 20
3.8913749151
 30
0.0
  0
SPLINE
  5
477
100
AcDbEntity
  8
0
100
AcDbSpline
 62
7
  6
CONTINUOUS
 70
0
 71
3
 72
16
 73
12
 74
0
 42
0.0000001
 43
0.0000001
 44
0.0000000001
 40
0.0
 40
0.0
 40
0.0
 40
0.0
 40
0.1177788123
 40
0.2371241973
 40
0.3583252581
 40
0.4818010416
 40
0.6078417786
 40
0.7365299874
 40
0.8018318501
 40
0.8676320031
 40
1.0
 40
1.0
 40
1.0
 40
1.0
 10
6.3662747881
 20
3.8913749151
 30
0.0
 10
6.3668556372
 20
3.8910931407
 30
0.0
 10
6.3679987615
 20
3.8904693481
 30
0.0
 10
6.3696193711
 20
3.8893531629
 30
0.0
 10
6.371127332
 20
3.8880392528
 30
0.0
 10
6.3724843728
 20
3.8865188114
 30
0.0
 10
6.3736412109
 20
3.8847898848
 30
0.0
 10
6.3743854805
 20
3.8831922523
 30
0.0
 10
6.3748216609
 20
3.8818349981
 30
0.0
 10
6.3751437226
 20
3.8804258843
 30
0.0
 10
6.3752429601
 20
3.879336409
 30
0.0
 10
6.3752429601
 20
3.8786108536
 30
0.0
  0
SPLINE
  5
478
100
AcDbEntity
  8
0
100
AcDbSpline
 62
7
  6
CONTINUOUS
 70
0
 71
3
 72
15
 73
11
 74
0
 42
0.0000001
 43
0.0000001
 44
0.0000000001
 40
0.0
 40
0.0
 40
0.0
 40
0.0
 40
0.1493723187
 40
0.2949522025
 40
0.4338125346
 40
0.5642286939
 40
0.6856143469
 40
0.79818292
 40
0.9026752835
 40
1.0
 40
1.0
 40
1.0
 40
1.0
 10
6.3611929085
 20
3.8786108536
 30
0.0
 10
6.3611929085
 20
3.8793150764
 30
0.0
 10
6.3612621832
 20
3.8807066688
 30
0.0
 10
6.3615675133
 20
3.8827322907
 30
0.0
 10
6.3620529005
 20
3.8846304865
 30
0.0
 10
6.3626905557
 20
3.8863618987
 30
0.0
 10
6.363451558
 20
3.8879056059
 30
0.0
 10
6.364309847
 20
3.8892546576
 30
0.0
 10
6.3652434878
 20
3.8904098316
 30
0.0
 10
6.3659265908
 20
3.8910760932
 30
0.0
 10
6.3662747881
 20
3.8913749151
 30
0.0
  0
SPLINE
  5
479
100
AcDbEntity
  8
0
100
AcDbSpline
 62
7
  6
CONTINUOUS
 70
0
 71
3
 72
16
 73
12
 74
0
 42
0.0000001
 43
0.0000001
 44
0.0000000001
 40
0.0
 40
0.0
 40
0.0
 40
0.0
 40
0.1164516585
 40
0.2348157975
 40
0.355470251
 40
0.4788367809
 40
0.605194889
 40
0.7345616364
 40
0.800298319
 40
0.8665797896
 40
1.0
 40
1.0
 40
1.0
 40
1.0
 10
6.3465873364
 20
3.8910247561
 30
0.0
 10
6.3471141551
 20
3.8907341254
 30
0.0
 10
6.3481490511
 20
3.8900965641
 30
0.0
 10
6.3496084226
 20
3.8889759714
 30
0.0
 10
6.3509599416
 20
3.8876740428
 30
0.0
 10
6.3521697161
 20
3.8861846119
 30
0.0
 10
6.3531946127
 20
3.8845082823
 30
0.0
 10
6.3538493465
 20
3.8829743818
 30
0.0
 10
6.354231841
 20
3.8816778193
 30
0.0
 10
6.3545138304
 20
3.8803346215
 30
0.0
 10
6.3546003212
 20
3.8793001924
 30
0.0
 10
6.3546003212
 20
3.8786108536
 30
0.0
  0
SPLINE
  5
47A
100
AcDbEntity
  8
0
100
AcDbSpline
 62
7
  6
CONTINUOUS
 70
0
 71
3
 72
15
 73
11
 74
0
 42
0.0000001
 43
0.0000001
 44
0.0000000001
 40
0.0
 40
0.0
 40
0.0
 40
0.0
 40
0.1250329662
 40
0.2500550192
 40
0.3750823935
 40
0.5000991504
 40
0.6251004884
 40
0.7500721189
 40
0.8750649651
 40
1.0
 40
1.0
 40
1.0
 40
1.0
 10
6.5432873864
 20
3.6431108536
 30
0.0
 10
6.5432873864
 20
3.6423842845
 30
0.0
 10
6.5431327952
 20
3.6409267658
 30
0.0
 10
6.5424626396
 20
3.6388386672
 30
0.0
 10
6.5414180521
 20
3.6369128174
 30
0.0
 10
6.5400743358
 20
3.6351862251
 30
0.0
 10
6.5385009071
 20
3.6336695159
 30
0.0
 10
6.5367539521
 20
3.6323591523
 30
0.0
 10
6.534877118
 20
3.6312459084
 30
0.0
 10
6.533560667
 20
3.6306270477
 30
0.0
 10
6.5328909411
 20
3.630346792
 30
0.0
  0
SPLINE
  5
47B
100
AcDbEntity
  8
0
100
AcDbSpline
 62
7
  6
CONTINUOUS
 70
0
 71
3
 72
16
 73
12
 74
0
 42
0.0000001
 43
0.0000001
 44
0.0000000001
 40
0.0
 40
0.0
 40
0.0
 40
0.0
 40
0.1200068072
 40
0.2411878385
 40
0.363705766
 40
0.4878188117
 40
0.6136560202
 40
0.7411913335
 40
0.8055653454
 40
0.8702412181
 40
1.0
 40
1.0
 40
1.0
 40
1.0
 10
5.9080430907
 20
3.630346792
 30
0.0
 10
5.9074582218
 20
3.6306370136
 30
0.0
 10
5.906310906
 20
3.6312794358
 30
0.0
 10
5.9046942655
 20
3.6324273596
 30
0.0
 10
5.903204462
 20
3.6337708109
 30
0.0
 10
5.9018795539
 20
3.6353120886
 30
0.0
 10
5.9007654978
 20
3.6370457952
 30
0.0
 10
5.9000577351
 20
3.6386315615
 30
0.0
 10
5.8996471173
 20
3.6399673433
 30
0.0
 10
5.899346353
 20
3.6413441243
 30
0.0
 10
5.8992540734
 20
3.6424048798
 30
0.0
 10
5.8992540734
 20
3.6431108536
 30
0.0
  0
LINE
  5
47C
100
AcDbEntity
  8
0
100
AcDbLine
 62
7
  6
CONTINUOUS
 10
6.5486310644
 20
3.630346792
 11
6.5483816788
 21
3.6431108536
  0
SPLINE
  5
47D
100
AcDbEntity
  8
0
100
AcDbSpline
 62
7
  6
CONTINUOUS
 70
0
 71
3
 72
16
 73
12
 74
0
 42
0.0000001
 43
0.0000001
 44
0.0000000001
 40
0.0
 40
0.0
 40
0.0
 40
0.0
 40
0.1211334418
 40
0.2431794689
 40
0.3662478562
 40
0.490551026
 40
0.6161899171
 40
0.7431475792
 40
0.8071105353
 40
0.871311105
 40
1.0
 40
1.0
 40
1.0
 40
1.0
 10
5.9149527697
 20
3.630346792
 30
0.0
 10
5.914354702
 20
3.630636733
 30
0.0
 10
5.9131816965
 20
3.631278268
 30
0.0
 10
5.9115271641
 20
3.6324257286
 30
0.0
 10
5.9100023085
 20
3.6337686803
 30
0.0
 10
5.9086460053
 20
3.6353095307
 30
0.0
 10
5.9075052488
 20
3.637043055
 30
0.0
 10
5.906779801
 20
3.6386301149
 30
0.0
 10
5.9063591482
 20
3.6399668509
 30
0.0
 10
5.9060512941
 20
3.6413433673
 30
0.0
 10
5.9059567134
 20
3.6424047546
 30
0.0
 10
5.9059567134
 20
3.6431108536
 30
0.0
  0
SPLINE
  5
47E
100
AcDbEntity
  8
0
100
AcDbSpline
 62
7
  6
CONTINUOUS
 70
0
 71
3
 72
15
 73
11
 74
0
 42
0.0000001
 43
0.0000001
 44
0.0000000001
 40
0.0
 40
0.0
 40
0.0
 40
0.0
 40
0.1249342888
 40
0.2498768526
 40
0.374856277
 40
0.4998606028
 40
0.62488314
 40
0.7499050086
 40
0.8749719564
 40
1.0
 40
1.0
 40
1.0
 40
1.0
 10
6.5590472842
 20
3.6431108536
 30
0.0
 10
6.5590472842
 20
3.6423842694
 30
0.0
 10
6.5588923694
 20
3.6409265934
 30
0.0
 10
6.5582208595
 20
3.6388384081
 30
0.0
 10
6.557174221
 20
3.6369125549
 30
0.0
 10
6.5558279227
 20
3.6351860068
 30
0.0
 10
6.5542515056
 20
3.6336693527
 30
0.0
 10
6.552501249
 20
3.6323590379
 30
0.0
 10
6.5506208723
 20
3.631245832
 30
0.0
 10
6.5493020219
 20
3.6306270301
 30
0.0
 10
6.5486310644
 20
3.630346792
 30
0.0
  0
SPLINE
  5
47F
100
AcDbEntity
  8
0
100
AcDbSpline
 62
7
  6
CONTINUOUS
 70
0
 71
3
 72
16
 73
12
 74
0
 42
0.0000001
 43
0.0000001
 44
0.0000000001
 40
0.0
 40
0.0
 40
0.0
 40
0.0
 40
0.1221110275
 40
0.2449100407
 40
0.3684601543
 40
0.4929326556
 40
0.6184021953
 40
0.7448578856
 40
0.8084621997
 40
0.8722473914
 40
1.0
 40
1.0
 40
1.0
 40
1.0
 10
5.9228741757
 20
3.630346792
 30
0.0
 10
5.9222644791
 20
3.6306364974
 30
0.0
 10
5.9210688491
 20
3.6312772813
 30
0.0
 10
5.9193809547
 20
3.6324243384
 30
0.0
 10
5.9178252421
 20
3.6337668449
 30
0.0
 10
5.9164412999
 20
3.6353073014
 30
0.0
 10
5.9152770262
 20
3.6370406378
 30
0.0
 10
5.9145359626
 20
3.6386288255
 30
0.0
 10
5.9141064522
 20
3.6399664103
 30
0.0
 10
5.9137923531
 20
3.6413426871
 30
0.0
 10
5.9136957381
 20
3.6424046419
 30
0.0
 10
5.9136957381
 20
3.6431108536
 30
0.0
  0
SPLINE
  5
480
100
AcDbEntity
  8
0
100
AcDbSpline
 62
7
  6
CONTINUOUS
 70
0
 71
3
 72
15
 73
11
 74
0
 42
0.0000001
 43
0.0000001
 44
0.0000000001
 40
0.0
 40
0.0
 40
0.0
 40
0.0
 40
0.1229575531
 40
0.2464138621
 40
0.3703918315
 40
0.4950267818
 40
0.6203696213
 40
0.7464132358
 40
0.8730341455
 40
1.0
 40
1.0
 40
1.0
 40
1.0
 10
5.9317855968
 20
3.630346792
 30
0.0
 10
5.9311658736
 20
3.6306363024
 30
0.0
 10
5.9299507431
 20
3.631276462
 30
0.0
 10
5.928234102
 20
3.6324231711
 30
0.0
 10
5.9266517993
 20
3.6337653045
 30
0.0
 10
5.9252440613
 20
3.6353053582
 30
0.0
 10
5.9240594517
 20
3.6370387043
 30
0.0
 10
5.9231533331
 20
3.6389468661
 30
0.0
 10
5.9225807295
 20
3.6409904745
 30
0.0
 10
5.9224499352
 20
3.6424045429
 30
0.0
 10
5.9224499352
 20
3.6431108536
 30
0.0
  0
SPLINE
  5
481
100
AcDbEntity
  8
0
100
AcDbSpline
 62
7
  6
CONTINUOUS
 70
0
 71
3
 72
15
 73
11
 74
0
 42
0.0000001
 43
0.0000001
 44
0.0000000001
 40
0.0
 40
0.0
 40
0.0
 40
0.0
 40
0.1249780698
 40
0.2499558989
 40
0.3749565929
 40
0.4999664292
 40
0.624979558
 40
0.7499791378
 40
0.8750132133
 40
1.0
 40
1.0
 40
1.0
 40
1.0
 10
6.5740534907
 20
3.6431108536
 30
0.0
 10
6.5740534907
 20
3.6423842761
 30
0.0
 10
6.5738987195
 20
3.6409266699
 30
0.0
 10
6.5732278107
 20
3.6388385231
 30
0.0
 10
6.5721820825
 20
3.6369126714
 30
0.0
 10
6.57083693
 20
3.6351861037
 30
0.0
 10
6.5692618391
 20
3.6336694251
 30
0.0
 10
6.5675130477
 20
3.6323590886
 30
0.0
 10
6.5656342432
 20
3.6312458659
 30
0.0
 10
6.5643164576
 20
3.6306270379
 30
0.0
 10
6.5636460467
 20
3.630346792
 30
0.0
  0
SPLINE
  5
482
100
AcDbEntity
  8
0
100
AcDbSpline
 62
7
  6
CONTINUOUS
 70
0
 71
3
 72
15
 73
11
 74
0
 42
0.0000001
 43
0.0000001
 44
0.0000000001
 40
0.0
 40
0.0
 40
0.0
 40
0.0
 40
0.1236461133
 40
0.2476355038
 40
0.3719574445
 40
0.4967168004
 40
0.6219438566
 40
0.7476336284
 40
0.8737019943
 40
1.0
 40
1.0
 40
1.0
 40
1.0
 10
5.9416626074
 20
3.630346792
 30
0.0
 10
5.9410344881
 20
3.6306361448
 30
0.0
 10
5.939803033
 20
3.6312757963
 30
0.0
 10
5.9380623311
 20
3.6324222198
 30
0.0
 10
5.9364577802
 20
3.6337640284
 30
0.0
 10
5.9350301149
 20
3.6353037776
 30
0.0
 10
5.9338285348
 20
3.6370369629
 30
0.0
 10
5.9329092076
 20
3.6389452923
 30
0.0
 10
5.9323280945
 20
3.6409894968
 30
0.0
 10
5.9321953102
 20
3.6424044588
 30
0.0
 10
5.9321953102
 20
3.6431108536
 30
0.0
  0
SPLINE
  5
483
100
AcDbEntity
  8
0
100
AcDbSpline
 62
7
  6
CONTINUOUS
 70
0
 71
3
 72
15
 73
11
 74
0
 42
0.0000001
 43
0.0000001
 44
0.0000000001
 40
0.0
 40
0.0
 40
0.0
 40
0.0
 40
0.1241936521
 40
0.2486077183
 40
0.3732045124
 40
0.4980642451
 40
0.6232001799
 40
0.7486084024
 40
0.8742357565
 40
1.0
 40
1.0
 40
1.0
 40
1.0
 10
5.9524781352
 20
3.630346792
 30
0.0
 10
5.9518432741
 20
3.6306360217
 30
0.0
 10
5.9505987136
 20
3.6312752751
 30
0.0
 10
5.9488386992
 20
3.6324214713
 30
0.0
 10
5.9472162927
 20
3.6337630183
 30
0.0
 10
5.9457726348
 20
3.6353025181
 30
0.0
 10
5.9445574317
 20
3.6370355651
 30
0.0
 10
5.9436274942
 20
3.6389440206
 30
0.0
 10
5.9430395381
 20
3.6409887027
 30
0.0
 10
5.9429051517
 20
3.6424043904
 30
0.0
 10
5.9429051517
 20
3.6431108536
 30
0.0
  0
SPLINE
  5
484
100
AcDbEntity
  8
0
100
AcDbSpline
 62
7
  6
CONTINUOUS
 70
0
 71
3
 72
15
 73
11
 74
0
 42
0.0000001
 43
0.0000001
 44
0.0000000001
 40
0.0
 40
0.0
 40
0.0
 40
0.0
 40
0.125164362
 40
0.2502922899
 40
0.3753835713
 40
0.500416943
 40
0.6253900885
 40
0.7502948139
 40
0.8751889267
 40
1.0
 40
1.0
 40
1.0
 40
1.0
 10
6.5882648751
 20
3.6431108536
 30
0.0
 10
6.5882648751
 20
3.6423843045
 30
0.0
 10
6.5881107139
 20
3.6409269948
 30
0.0
 10
6.5874423593
 20
3.6388390115
 30
0.0
 10
6.5864004998
 20
3.6369131669
 30
0.0
 10
6.5850602183
 20
3.635186516
 30
0.0
 10
6.5834907647
 20
3.6336697337
 30
0.0
 10
6.5817482019
 20
3.632359305
 30
0.0
 10
6.5798760802
 20
3.6312460105
 30
0.0
 10
6.5785628206
 20
3.6306270714
 30
0.0
 10
6.5778947328
 20
3.630346792
 30
0.0
  0
SPLINE
  5
485
100
AcDbEntity
  8
0
100
AcDbSpline
 62
7
  6
CONTINUOUS
 70
0
 71
3
 72
15
 73
11
 74
0
 42
0.0000001
 43
0.0000001
 44
0.0000000001
 40
0.0
 40
0.0
 40
0.0
 40
0.0
 40
0.1246021566
 40
0.2493335018
 40
0.374136117
 40
0.4990715788
 40
0.6241400911
 40
0.7493381506
 40
0.8746355322
 40
1.0
 40
1.0
 40
1.0
 40
1.0
 10
5.9642025356
 20
3.630346792
 30
0.0
 10
5.963562606
 20
3.6306359312
 30
0.0
 10
5.9623081943
 20
3.6312748909
 30
0.0
 10
5.9605336652
 20
3.6324209175
 30
0.0
 10
5.95889784
 20
3.6337622675
 30
0.0
 10
5.9574421639
 20
3.6353015769
 30
0.0
 10
5.9562167214
 20
3.6370345147
 30
0.0
 10
5.9552788046
 20
3.6389430598
 30
0.0
 10
5.9546856981
 20
3.6409881005
 30
0.0
 10
5.9545501046
 20
3.6424043385
 30
0.0
 10
5.9545501046
 20
3.6431108536
 30
0.0
  0
SPLINE
  5
486
100
AcDbEntity
  8
0
100
AcDbSpline
 62
7
  6
CONTINUOUS
 70
0
 71
3
 72
14
 73
10
 74
0
 42
0.0000001
 43
0.0000001
 44
0.0000000001
 40
0.0
 40
0.0
 40
0.0
 40
0.0
 40
0.2495695297
 40
0.3745499514
 40
0.499576973
 40
0.6246419635
 40
0.7497415106
 40
0.8748605074
 40
1.0
 40
1.0
 40
1.0
 40
1.0
 10
5.9768036729
 20
3.630346792
 30
0.0
 10
5.9755183833
 20
3.6309243533
 30
0.0
 10
5.9736606317
 20
3.6319755648
 30
0.0
 10
5.9714705862
 20
3.6337616541
 30
0.0
 10
5.9700066571
 20
3.6353009831
 30
0.0
 10
5.9687744497
 20
3.6370338059
 30
0.0
 10
5.9678311922
 20
3.638942419
 30
0.0
 10
5.9672346521
 20
3.6409876956
 30
0.0
 10
5.9670982511
 20
3.6424043036
 30
0.0
 10
5.9670982511
 20
3.6431108536
 30
0.0
  0
SPLINE
  5
487
100
AcDbEntity
  8
0
100
AcDbSpline
 62
7
  6
CONTINUOUS
 70
0
 71
3
 72
15
 73
11
 74
0
 42
0.0000001
 43
0.0000001
 44
0.0000000001
 40
0.0
 40
0.0
 40
0.0
 40
0.0
 40
0.1254933841
 40
0.2508865771
 40
0.3761381789
 40
0.501213464
 40
0.6261161936
 40
0.7508533388
 40
0.8754999064
 40
1.0
 40
1.0
 40
1.0
 40
1.0
 10
6.6016424848
 20
3.6431108536
 30
0.0
 10
6.6016424848
 20
3.6423843543
 30
0.0
 10
6.601489397
 20
3.6409275646
 30
0.0
 10
6.6008255397
 20
3.6388398703
 30
0.0
 10
6.5997904963
 20
3.6369140409
 30
0.0
 10
6.5984587987
 20
3.6351872455
 30
0.0
 10
6.59689928
 20
3.6336702812
 30
0.0
 10
6.5951676934
 20
3.6323596897
 30
0.0
 10
6.5933073477
 20
3.631246268
 30
0.0
 10
6.592002063
 20
3.630627131
 30
0.0
 10
6.5913380681
 20
3.630346792
 30
0.0
  0
SPLINE
  5
488
100
AcDbEntity
  8
0
100
AcDbSpline
 62
7
  6
CONTINUOUS
 70
0
 71
3
 72
14
 73
10
 74
0
 42
0.0000001
 43
0.0000001
 44
0.0000000001
 40
0.0
 40
0.0
 40
0.0
 40
0.0
 40
0.2498091913
 40
0.3748576185
 40
0.499909826
 40
0.624952747
 40
0.7499829617
 40
0.8749928449
 40
1.0
 40
1.0
 40
1.0
 40
1.0
 10
5.9902470083
 20
3.630346792
 30
0.0
 10
5.9889585043
 20
3.6309242277
 30
0.0
 10
5.98709598
 20
3.6319751579
 30
0.0
 10
5.9848996894
 20
3.633761408
 30
0.0
 10
5.9834317708
 20
3.6353006726
 30
0.0
 10
5.9821961627
 20
3.6370334573
 30
0.0
 10
5.9812502537
 20
3.6389420981
 30
0.0
 10
5.9806520004
 20
3.6409874935
 30
0.0
 10
5.9805151975
 20
3.6424042862
 30
0.0
 10
5.9805151975
 20
3.6431108536
 30
0.0
  0
SPLINE
  5
489
100
AcDbEntity
  8
0
100
AcDbSpline
 62
7
  6
CONTINUOUS
 70
0
 71
3
 72
14
 73
10
 74
0
 42
0.0000001
 43
0.0000001
 44
0.0000000001
 40
0.0
 40
0.0
 40
0.0
 40
0.0
 40
0.249806603
 40
0.3748542955
 40
0.4999062306
 40
0.6249493897
 40
0.7499803531
 40
0.874991415
 40
1.0
 40
1.0
 40
1.0
 40
1.0
 10
6.0044956944
 20
3.630346792
 30
0.0
 10
6.0032072252
 20
3.630924229
 30
0.0
 10
6.0013447525
 20
3.6319751623
 30
0.0
 10
5.9991485293
 20
3.6337614107
 30
0.0
 10
5.9976806539
 20
3.635300676
 30
0.0
 10
5.9964450825
 20
3.637033461
 30
0.0
 10
5.9954992022
 20
3.6389421016
 30
0.0
 10
5.9949009675
 20
3.6409874957
 30
0.0
 10
5.9947641689
 20
3.6424042864
 30
0.0
 10
5.9947641689
 20
3.6431108536
 30
0.0
  0
SPLINE
  5
48A
100
AcDbEntity
  8
0
100
AcDbSpline
 62
7
  6
CONTINUOUS
 70
0
 71
3
 72
14
 73
10
 74
0
 42
0.0000001
 43
0.0000001
 44
0.0000000001
 40
0.0
 40
0.0
 40
0.0
 40
0.0
 40
0.3322946012
 40
0.4826002717
 40
0.617683396
 40
0.7365626638
 40
0.8393988581
 40
0.9269305781
 40
1.0
 40
1.0
 40
1.0
 40
1.0
 10
6.0049359032
 20
3.6431108536
 30
0.0
 10
6.0049359032
 20
3.6416957546
 30
0.0
 10
6.0049185718
 20
3.6396404915
 30
0.0
 10
6.004859413
 20
3.6370106817
 30
0.0
 10
6.0048037567
 20
3.6352899464
 30
0.0
 10
6.00473827
 20
3.6337718756
 30
0.0
 10
6.0046653872
 20
3.6324569029
 30
0.0
 10
6.0045870264
 20
3.6313377367
 30
0.0
 10
6.0045270203
 20
3.6306563823
 30
0.0
 10
6.0044956944
 20
3.630346792
 30
0.0
  0
SPLINE
  5
48B
100
AcDbEntity
  8
0
100
AcDbSpline
 62
7
  6
CONTINUOUS
 70
0
 71
3
 72
14
 73
10
 74
0
 42
0.0000001
 43
0.0000001
 44
0.0000000001
 40
0.0
 40
0.0
 40
0.0
 40
0.0
 40
0.2495617563
 40
0.3745399732
 40
0.4995661791
 40
0.6246318863
 40
0.7497336824
 40
0.8748562171
 40
1.0
 40
1.0
 40
1.0
 40
1.0
 10
6.0195106766
 20
3.630346792
 30
0.0
 10
6.0182254911
 20
3.6309243574
 30
0.0
 10
6.0163678943
 20
3.6319755781
 30
0.0
 10
6.014178051
 20
3.6337616621
 30
0.0
 10
6.0127142512
 20
3.6353009932
 30
0.0
 10
6.011482154
 20
3.6370338172
 30
0.0
 10
6.0105389824
 20
3.6389424294
 30
0.0
 10
6.0099424978
 20
3.6409877021
 30
0.0
 10
6.0098061099
 20
3.6424043042
 30
0.0
 10
6.0098061099
 20
3.6431108536
 30
0.0
  0
SPLINE
  5
48C
100
AcDbEntity
  8
0
100
AcDbSpline
 62
7
  6
CONTINUOUS
 70
0
 71
3
 72
15
 73
11
 74
0
 42
0.0000001
 43
0.0000001
 44
0.0000000001
 40
0.0
 40
0.0
 40
0.0
 40
0.0
 40
0.169073376
 40
0.3311579579
 40
0.4810735118
 40
0.6159539455
 40
0.7348516065
 40
0.8379567922
 40
0.9260427831
 40
1.0
 40
1.0
 40
1.0
 40
1.0
 10
6.0204949657
 20
3.6431108536
 30
0.0
 10
6.0204949657
 20
3.6423882223
 30
0.0
 10
6.0204810459
 20
3.6409727882
 30
0.0
 10
6.0204199222
 20
3.6389174217
 30
0.0
 10
6.0203238625
 20
3.6370096961
 30
0.0
 10
6.0201993867
 20
3.6352886264
 30
0.0
 10
6.0200528832
 20
3.633770174
 30
0.0
 10
6.0198898013
 20
3.6324547035
 30
0.0
 10
6.0197144085
 20
3.6313348938
 30
0.0
 10
6.0195804296
 20
3.6306550981
 30
0.0
 10
6.0195106766
 20
3.630346792
 30
0.0
  0
SPLINE
  5
48D
100
AcDbEntity
  8
0
100
AcDbSpline
 62
7
  6
CONTINUOUS
 70
0
 71
3
 72
15
 73
11
 74
0
 42
0.0000001
 43
0.0000001
 44
0.0000000001
 40
0.0
 40
0.0
 40
0.0
 40
0.0
 40
0.1245948659
 40
0.2493205453
 40
0.3741194815
 40
0.4990535853
 40
0.6241232968
 40
0.7493251078
 40
0.8746283856
 40
1.0
 40
1.0
 40
1.0
 40
1.0
 10
6.0352508
 20
3.630346792
 30
0.0
 10
6.0346109611
 20
3.6306359329
 30
0.0
 10
6.0333567258
 20
3.6312748977
 30
0.0
 10
6.0315824565
 20
3.6324209273
 30
0.0
 10
6.0299468716
 20
3.6337622808
 30
0.0
 10
6.0284914106
 20
3.6353015937
 30
0.0
 10
6.0272661515
 20
3.6370345335
 30
0.0
 10
6.0263283776
 20
3.638943077
 30
0.0
 10
6.0257353633
 20
3.6409881113
 30
0.0
 10
6.0255997915
 20
3.6424043394
 30
0.0
 10
6.0255997915
 20
3.6431108536
 30
0.0
  0
SPLINE
  5
48E
100
AcDbEntity
  8
0
100
AcDbSpline
 62
7
  6
CONTINUOUS
 70
0
 71
3
 72
15
 73
11
 74
0
 42
0.0000001
 43
0.0000001
 44
0.0000000001
 40
0.0
 40
0.0
 40
0.0
 40
0.0
 40
0.1680307324
 40
0.3292065285
 40
0.4784569818
 40
0.6129953534
 40
0.7319308311
 40
0.8355021204
 40
0.9245373493
 40
1.0
 40
1.0
 40
1.0
 40
1.0
 10
6.0367764714
 20
3.6431108536
 30
0.0
 10
6.0367764714
 20
3.6423881722
 30
0.0
 10
6.0367548816
 20
3.6409721908
 30
0.0
 10
6.036660085
 20
3.6389162645
 30
0.0
 10
6.0365111009
 20
3.6370079836
 30
0.0
 10
6.0363180267
 20
3.635286346
 30
0.0
 10
6.03609075
 20
3.6337672641
 30
0.0
 10
6.0358376657
 20
3.6324510042
 30
0.0
 10
6.0355653511
 20
3.6313302093
 30
0.0
 10
6.0353582046
 20
3.6306530617
 30
0.0
 10
6.0352508
 20
3.630346792
 30
0.0
  0
SPLINE
  5
48F
100
AcDbEntity
  8
0
100
AcDbSpline
 62
7
  6
CONTINUOUS
 70
0
 71
3
 72
15
 73
11
 74
0
 42
0.0000001
 43
0.0000001
 44
0.0000000001
 40
0.0
 40
0.0
 40
0.0
 40
0.0
 40
0.1241834065
 40
0.2485895199
 40
0.3731811601
 40
0.4980390027
 40
0.6231766348
 40
0.7485901272
 40
0.8742257469
 40
1.0
 40
1.0
 40
1.0
 40
1.0
 10
6.0516729219
 20
3.630346792
 30
0.0
 10
6.0510381875
 20
3.630636024
 30
0.0
 10
6.0497938733
 20
3.6312752847
 30
0.0
 10
6.0480342217
 20
3.6324214852
 30
0.0
 10
6.0464121506
 20
3.6337630371
 30
0.0
 10
6.0449687932
 20
3.6353025417
 30
0.0
 10
6.0437538461
 20
3.6370355913
 30
0.0
 10
6.042824108
 20
3.6389440445
 30
0.0
 10
6.0422362806
 20
3.6409887177
 30
0.0
 10
6.0421019243
 20
3.6424043917
 30
0.0
 10
6.0421019243
 20
3.6431108536
 30
0.0
  0
SPLINE
  5
490
100
AcDbEntity
  8
0
100
AcDbSpline
 62
7
  6
CONTINUOUS
 70
0
 71
3
 72
15
 73
11
 74
0
 42
0.0000001
 43
0.0000001
 44
0.0000000001
 40
0.0
 40
0.0
 40
0.0
 40
0.0
 40
0.1666000861
 40
0.3265311325
 40
0.4748748237
 40
0.608953303
 40
0.727951895
 40
0.8321711793
 40
0.9225053617
 40
1.0
 40
1.0
 40
1.0
 40
1.0
 10
6.0537357939
 20
3.6431108536
 30
0.0
 10
6.0537357939
 20
3.6423881011
 30
0.0
 10
6.0537065755
 20
3.6409713439
 30
0.0
 10
6.0535782986
 20
3.6389146305
 30
0.0
 10
6.0533766872
 20
3.6370055825
 30
0.0
 10
6.0531153825
 20
3.6352831839
 30
0.0
 10
6.0528077306
 20
3.6337632903
 30
0.0
 10
6.0524650084
 20
3.6324460726
 30
0.0
 10
6.0520960531
 20
3.6313241537
 30
0.0
 10
6.05181696
 20
3.6306505639
 30
0.0
 10
6.0516729219
 20
3.630346792
 30
0.0
  0
SPLINE
  5
491
100
AcDbEntity
  8
0
100
AcDbSpline
 62
7
  6
CONTINUOUS
 70
0
 71
3
 72
15
 73
11
 74
0
 42
0.0000001
 43
0.0000001
 44
0.0000000001
 40
0.0
 40
0.0
 40
0.0
 40
0.0
 40
0.1236328734
 40
0.247612005
 40
0.3719273166
 40
0.4966842604
 40
0.621913527
 40
0.7476101117
 40
0.873689125
 40
1.0
 40
1.0
 40
1.0
 40
1.0
 10
6.0687320303
 20
3.630346792
 30
0.0
 10
6.0681040734
 20
3.6306361478
 30
0.0
 10
6.0668729338
 20
3.6312758089
 30
0.0
 10
6.0651326968
 20
3.632422238
 30
0.0
 10
6.0635285757
 20
3.6337640528
 30
0.0
 10
6.0621012955
 20
3.635303808
 30
0.0
 10
6.0609000433
 20
3.6370369965
 30
0.0
 10
6.0599809715
 20
3.6389453229
 30
0.0
 10
6.059400023
 20
3.6409895158
 30
0.0
 10
6.0592672773
 20
3.6424044604
 30
0.0
 10
6.0592672773
 20
3.6431108536
 30
0.0
  0
SPLINE
  5
492
100
AcDbEntity
  8
0
100
AcDbSpline
 62
7
  6
CONTINUOUS
 70
0
 71
3
 72
15
 73
11
 74
0
 42
0.0000001
 43
0.0000001
 44
0.0000000001
 40
0.0
 40
0.0
 40
0.0
 40
0.0
 40
0.1648397012
 40
0.3232426528
 40
0.4704798443
 40
0.6040072479
 40
0.7231007282
 40
0.8281297173
 40
0.9200558194
 40
1.0
 40
1.0
 40
1.0
 40
1.0
 10
6.0713264488
 20
3.6431108536
 30
0.0
 10
6.0713264488
 20
3.6423880099
 30
0.0
 10
6.0712896586
 20
3.6409702572
 30
0.0
 10
6.071128165
 20
3.6389125455
 30
0.0
 10
6.0708743367
 20
3.637002547
 30
0.0
 10
6.0705453193
 20
3.6352792439
 30
0.0
 10
6.0701578712
 20
3.6337584375
 30
0.0
 10
6.0697260979
 20
3.6324402289
 30
0.0
 10
6.0692610549
 20
3.6313172542
 30
0.0
 10
6.0689115851
 20
3.630647884
 30
0.0
 10
6.0687320303
 20
3.630346792
 30
0.0
  0
SPLINE
  5
493
100
AcDbEntity
  8
0
100
AcDbSpline
 62
7
  6
CONTINUOUS
 70
0
 71
3
 72
15
 73
11
 74
0
 42
0.0000001
 43
0.0000001
 44
0.0000000001
 40
0.0
 40
0.0
 40
0.0
 40
0.0
 40
0.122941275
 40
0.2463849947
 40
0.3703548549
 40
0.4949868887
 40
0.6203324815
 40
0.7463844576
 40
0.8730184021
 40
1.0
 40
1.0
 40
1.0
 40
1.0
 10
6.0863813676
 20
3.630346792
 30
0.0
 10
6.0857618418
 20
3.6306363062
 30
0.0
 10
6.0845470952
 20
3.6312764779
 30
0.0
 10
6.0828310199
 20
3.6324231937
 30
0.0
 10
6.0812492404
 20
3.6337653348
 30
0.0
 10
6.0798419711
 20
3.6353053955
 30
0.0
 10
6.0786577606
 20
3.6370387452
 30
0.0
 10
6.0777519524
 20
3.638946903
 30
0.0
 10
6.0771795487
 20
3.6409904974
 30
0.0
 10
6.0770488012
 20
3.6424045449
 30
0.0
 10
6.0770488012
 20
3.6431108536
 30
0.0
  0
SPLINE
  5
494
100
AcDbEntity
  8
0
100
AcDbSpline
 62
7
  6
CONTINUOUS
 70
0
 71
3
 72
15
 73
11
 74
0
 42
0.0000001
 43
0.0000001
 44
0.0000000001
 40
0.0
 40
0.0
 40
0.0
 40
0.0
 40
0.1628134999
 40
0.3194624921
 40
0.4654387281
 40
0.5983517491
 40
0.7175770487
 40
0.82355327
 40
0.9173017181
 40
1.0
 40
1.0
 40
1.0
 40
1.0
 10
6.0895002214
 20
3.6431108536
 30
0.0
 10
6.0895002214
 20
3.6423878995
 30
0.0
 10
6.0894559318
 20
3.6409689436
 30
0.0
 10
6.0892615583
 20
3.6389100419
 30
0.0
 10
6.0889560425
 20
3.6369989438
 30
0.0
 10
6.0885599937
 20
3.6352746482
 30
0.0
 10
6.0880935366
 20
3.6337529129
 30
0.0
 10
6.0875735682
 20
3.6324338023
 30
0.0
 10
6.0870133424
 20
3.6313100016
 30
0.0
 10
6.0865953197
 20
3.6306452366
 30
0.0
 10
6.0863813676
 20
3.630346792
 30
0.0
  0
SPLINE
  5
495
100
AcDbEntity
  8
0
100
AcDbSpline
 62
7
  6
CONTINUOUS
 70
0
 71
3
 72
16
 73
12
 74
0
 42
0.0000001
 43
0.0000001
 44
0.0000000001
 40
0.0
 40
0.0
 40
0.0
 40
0.0
 40
0.122091665
 40
0.2448757426
 40
0.3684162783
 40
0.4928853862
 40
0.6183582551
 40
0.744823894
 40
0.8084353292
 40
0.8722287748
 40
1.0
 40
1.0
 40
1.0
 40
1.0
 10
6.1045725581
 20
3.630346792
 30
0.0
 10
6.1039630935
 20
3.630636502
 30
0.0
 10
6.1027679147
 20
3.6312773006
 30
0.0
 10
6.1010806855
 20
3.6324243657
 30
0.0
 10
6.0995255882
 20
3.6337668811
 30
0.0
 10
6.0981421971
 20
3.6353073456
 30
0.0
 10
6.0969783925
 20
3.637040686
 30
0.0
 10
6.0962376407
 20
3.6386288513
 30
0.0
 10
6.0958083072
 20
3.6399664192
 30
0.0
 10
6.0954943326
 20
3.6413427008
 30
0.0
 10
6.0953977583
 20
3.6424046441
 30
0.0
 10
6.0953977583
 20
3.6431108536
 30
0.0
  0
SPLINE
  5
496
100
AcDbEntity
  8
0
100
AcDbSpline
 62
7
  6
CONTINUOUS
 70
0
 71
3
 72
15
 73
11
 74
0
 42
0.0000001
 43
0.0000001
 44
0.0000000001
 40
0.0
 40
0.0
 40
0.0
 40
0.0
 40
0.1605858197
 40
0.3153125335
 40
0.4599180014
 40
0.5921797371
 40
0.7115765861
 40
0.8186109784
 40
0.9143493211
 40
1.0
 40
1.0
 40
1.0
 40
1.0
 10
6.1082072986
 20
3.6431108536
 30
0.0
 10
6.1082072986
 20
3.6423877711
 30
0.0
 10
6.1081555981
 20
3.6409674181
 30
0.0
 10
6.1079287572
 20
3.6389071575
 30
0.0
 10
6.1075722089
 20
3.6369948485
 30
0.0
 10
6.1071099862
 20
3.6352695291
 30
0.0
 10
6.1065655397
 20
3.6337469268
 30
0.0
 10
6.1059585348
 20
3.6324270962
 30
0.0
 10
6.1053044217
 20
3.631302791
 30
0.0
 10
6.1048198286
 20
3.6306427576
 30
0.0
 10
6.1045725581
 20
3.630346792
 30
0.0
  0
SPLINE
  5
497
100
AcDbEntity
  8
0
100
AcDbSpline
 62
7
  6
CONTINUOUS
 70
0
 71
3
 72
16
 73
12
 74
0
 42
0.0000001
 43
0.0000001
 44
0.0000000001
 40
0.0
 40
0.0
 40
0.0
 40
0.0
 40
0.1211109245
 40
0.243139634
 40
0.3661969701
 40
0.4904962875
 40
0.6161391095
 40
0.7431083259
 40
0.8070795213
 40
0.8712896262
 40
1.0
 40
1.0
 40
1.0
 40
1.0
 10
6.123255741
 20
3.630346792
 30
0.0
 10
6.1226579392
 20
3.6306367385
 30
0.0
 10
6.1214854511
 20
3.631278291
 30
0.0
 10
6.1198316818
 20
3.6324257609
 30
0.0
 10
6.118307532
 20
3.6337687227
 30
0.0
 10
6.116951861
 20
3.6353095819
 30
0.0
 10
6.1158116423
 20
3.6370431103
 30
0.0
 10
6.1150865512
 20
3.6386301442
 30
0.0
 10
6.1146661007
 20
3.6399668609
 30
0.0
 10
6.1143583895
 20
3.6413433827
 30
0.0
 10
6.1142638552
 20
3.6424047571
 30
0.0
 10
6.1142638552
 20
3.6431108536
 30
0.0
  0
SPLINE
  5
498
100
AcDbEntity
  8
0
100
AcDbSpline
 62
7
  6
CONTINUOUS
 70
0
 71
3
 72
15
 73
11
 74
0
 42
0.0000001
 43
0.0000001
 44
0.0000000001
 40
0.0
 40
0.0
 40
0.0
 40
0.0
 40
0.1582175579
 40
0.3109077632
 40
0.454073896
 40
0.5856705351
 40
0.7052789015
 40
0.8134550676
 40
0.911291738
 40
1.0
 40
1.0
 40
1.0
 40
1.0
 10
6.1273964057
 20
3.6431108536
 30
0.0
 10
6.1273964057
 20
3.6423876262
 30
0.0
 10
6.1273373994
 20
3.6409656984
 30
0.0
 10
6.1270785819
 20
3.6389039354
 30
0.0
 10
6.1266717879
 20
3.6369903433
 30
0.0
 10
6.126144437
 20
3.635264022
 30
0.0
 10
6.1255232698
 20
3.6337406776
 30
0.0
 10
6.1248307043
 20
3.6324203653
 30
0.0
 10
6.1240843902
 20
3.6312959008
 30
0.0
 10
6.1235352964
 20
3.6306405164
 30
0.0
 10
6.123255741
 20
3.630346792
 30
0.0
  0
SPLINE
  5
499
100
AcDbEntity
  8
0
100
AcDbSpline
 62
7
  6
CONTINUOUS
 70
0
 71
3
 72
16
 73
12
 74
0
 42
0.0000001
 43
0.0000001
 44
0.0000000001
 40
0.0
 40
0.0
 40
0.0
 40
0.0
 40
0.1199810696
 40
0.2411423756
 40
0.3636477874
 40
0.4877565524
 40
0.61359833
 40
0.7411468283
 40
0.8055302022
 40
0.8702168905
 40
1.0
 40
1.0
 40
1.0
 40
1.0
 10
6.1423797069
 20
3.630346792
 30
0.0
 10
6.1417951372
 20
3.6306370201
 30
0.0
 10
6.1406484036
 20
3.6312794629
 30
0.0
 10
6.139032622
 20
3.6324273972
 30
0.0
 10
6.1375436131
 20
3.6337708597
 30
0.0
 10
6.1362194167
 20
3.6353121469
 30
0.0
 10
6.1351059656
 20
3.6370458572
 30
0.0
 10
6.1343986032
 20
3.6386315941
 30
0.0
 10
6.1339882126
 20
3.6399673543
 30
0.0
 10
6.1336876089
 20
3.6413441413
 30
0.0
 10
6.1335953814
 20
3.6424048826
 30
0.0
 10
6.1335953814
 20
3.6431108536
 30
0.0
  0
SPLINE
  5
49A
100
AcDbEntity
  8
0
100
AcDbSpline
 62
7
  6
CONTINUOUS
 70
0
 71
3
 72
14
 73
10
 74
0
 42
0.0000001
 43
0.0000001
 44
0.0000000001
 40
0.0
 40
0.0
 40
0.0
 40
0.0
 40
0.1558126793
 40
0.3064479357
 40
0.4481868029
 40
0.579164594
 40
0.6990597817
 40
0.8084690222
 40
1.0
 40
1.0
 40
1.0
 40
1.0
 10
6.1470149466
 20
3.6431108536
 30
0.0
 10
6.1470149466
 20
3.6423874664
 30
0.0
 10
6.146948755
 20
3.6409638019
 30
0.0
 10
6.1466585407
 20
3.6389004301
 30
0.0
 10
6.1462023979
 20
3.6369854868
 30
0.0
 10
6.1456112531
 20
3.6352583458
 30
0.0
 10
6.1449145912
 20
3.6337340551
 30
0.0
 10
6.1439237941
 20
3.6320481431
 30
0.0
 10
6.1430280741
 20
3.6309553348
 30
0.0
 10
6.1423797069
 20
3.630346792
 30
0.0
  0
SPLINE
  5
49B
100
AcDbEntity
  8
0
100
AcDbSpline
 62
7
  6
CONTINUOUS
 70
0
 71
3
 72
16
 73
12
 74
0
 42
0.0000001
 43
0.0000001
 44
0.0000000001
 40
0.0
 40
0.0
 40
0.0
 40
0.0
 40
0.1186990062
 40
0.238879764
 40
0.3607650905
 40
0.4846641494
 40
0.6107356727
 40
0.7389402693
 40
0.8037883791
 40
0.869011436
 40
1.0
 40
1.0
 40
1.0
 40
1.0
 10
6.1618920385
 20
3.630346792
 30
0.0
 10
6.1613222329
 20
3.6306373518
 30
0.0
 10
6.1602042517
 20
3.6312808343
 30
0.0
 10
6.1586308903
 20
3.6324292917
 30
0.0
 10
6.1571811287
 20
3.6337733038
 30
0.0
 10
6.1558920815
 20
3.6353150417
 30
0.0
 10
6.1548085052
 20
3.637048915
 30
0.0
 10
6.1541208739
 20
3.6386331895
 30
0.0
 10
6.1537216851
 20
3.6399678948
 30
0.0
 10
6.1534290138
 20
3.6413449688
 30
0.0
 10
6.1533393504
 20
3.6424050191
 30
0.0
 10
6.1533393504
 20
3.6431108536
 30
0.0
  0
SPLINE
  5
49C
100
AcDbEntity
  8
0
100
AcDbSpline
 62
7
  6
CONTINUOUS
 70
0
 71
3
 72
15
 73
11
 74
0
 42
0.0000001
 43
0.0000001
 44
0.0000000001
 40
0.0
 40
0.0
 40
0.0
 40
0.0
 40
0.1532726681
 40
0.301734752
 40
0.4419555032
 40
0.5722521065
 40
0.6923923703
 40
0.8029982673
 40
0.9051541279
 40
1.0
 40
1.0
 40
1.0
 40
1.0
 10
6.1670091482
 20
3.6431108536
 30
0.0
 10
6.1670091482
 20
3.6423872934
 30
0.0
 10
6.1669359156
 20
3.6409617575
 30
0.0
 10
6.1666149429
 20
3.6388966673
 30
0.0
 10
6.1661105734
 20
3.6369804437
 30
0.0
 10
6.1654568957
 20
3.6352523605
 30
0.0
 10
6.1646871262
 20
3.6337280627
 30
0.0
 10
6.1638291201
 20
3.6324075596
 30
0.0
 10
6.1629048785
 20
3.6312836772
 30
0.0
 10
6.1622331587
 20
3.63063681
 30
0.0
 10
6.1618920385
 20
3.630346792
 30
0.0
  0
SPLINE
  5
49D
100
AcDbEntity
  8
0
100
AcDbSpline
 62
7
  6
CONTINUOUS
 70
0
 71
3
 72
17
 73
13
 74
0
 42
0.0000001
 43
0.0000001
 44
0.0000000001
 40
0.0
 40
0.0
 40
0.0
 40
0.0
 40
0.1172538619
 40
0.2363321539
 40
0.357522096
 40
0.4190646007
 40
0.4812528206
 40
0.6075783438
 40
0.7365081751
 40
0.8018691556
 40
0.8676835787
 40
1.0
 40
1.0
 40
1.0
 40
1.0
 10
6.1817392538
 20
3.630346792
 30
0.0
 10
6.1811857039
 20
3.63063774
 30
0.0
 10
6.1800993825
 20
3.6312824488
 30
0.0
 10
6.1785728494
 20
3.6324313824
 30
0.0
 10
6.1774061727
 20
3.6335467947
 30
0.0
 10
6.176550852
 20
3.6345351325
 30
0.0
 10
6.1757457035
 20
3.6355993532
 30
0.0
 10
6.1748652173
 20
3.6370523528
 30
0.0
 10
6.1741993259
 20
3.6386349068
 30
0.0
 10
6.1738124314
 20
3.6399684794
 30
0.0
 10
6.1735284982
 20
3.6413458554
 30
0.0
 10
6.1734416454
 20
3.6424051653
 30
0.0
 10
6.1734416454
 20
3.6431108536
 30
0.0
  0
SPLINE
  5
49E
100
AcDbEntity
  8
0
100
AcDbSpline
 62
7
  6
CONTINUOUS
 70
0
 71
3
 72
14
 73
10
 74
0
 42
0.0000001
 43
0.0000001
 44
0.0000000001
 40
0.0
 40
0.0
 40
0.0
 40
0.0
 40
0.296801823
 40
0.4356370182
 40
0.5653850163
 40
0.6858925284
 40
0.7977920922
 40
0.9021362054
 40
1.0
 40
1.0
 40
1.0
 40
1.0
 10
6.1873242078
 20
3.6431108536
 30
0.0
 10
6.1873242078
 20
3.6416869209
 30
0.0
 10
6.187092715
 20
3.6395860084
 30
0.0
 10
6.1863417325
 20
3.6369754811
 30
0.0
 10
6.1856272183
 20
3.6352463745
 30
0.0
 10
6.1847860891
 20
3.6337219747
 30
0.0
 10
6.1838487856
 20
3.6324017094
 30
0.0
 10
6.1828394294
 20
3.6312784527
 30
0.0
 10
6.1821096479
 20
3.6306353192
 30
0.0
 10
6.1817392538
 20
3.630346792
 30
0.0
  0
SPLINE
  5
49F
100
AcDbEntity
  8
0
100
AcDbSpline
 62
7
  6
CONTINUOUS
 70
0
 71
3
 72
15
 73
11
 74
0
 42
0.0000001
 43
0.0000001
 44
0.0000000001
 40
0.0
 40
0.0
 40
0.0
 40
0.0
 40
0.115677723
 40
0.2335667331
 40
0.3540235806
 40
0.4774659976
 40
0.6041094669
 40
0.7338728414
 40
0.8661959772
 40
1.0
 40
1.0
 40
1.0
 40
1.0
 10
6.2018669529
 20
3.630346792
 30
0.0
 10
6.2013311057
 20
3.6306381922
 30
0.0
 10
6.2002793269
 20
3.6312842633
 30
0.0
 10
6.1988036704
 20
3.6324339335
 30
0.0
 10
6.1974443195
 20
3.6337791685
 30
0.0
 10
6.1962362344
 20
3.6353217867
 30
0.0
 10
6.1952213357
 20
3.6370560093
 30
0.0
 10
6.1944467489
 20
3.6389618913
 30
0.0
 10
6.1939583902
 20
3.6409995463
 30
0.0
 10
6.1938471675
 20
3.6424053196
 30
0.0
 10
6.1938471675
 20
3.6431108536
 30
0.0
  0
SPLINE
  5
4A0
100
AcDbEntity
  8
0
100
AcDbSpline
 62
7
  6
CONTINUOUS
 70
0
 71
3
 72
15
 73
11
 74
0
 42
0.0000001
 43
0.0000001
 44
0.0000000001
 40
0.0
 40
0.0
 40
0.0
 40
0.0
 40
0.1483345531
 40
0.2926079527
 40
0.4299691775
 40
0.5590841172
 40
0.6798670239
 40
0.7929458558
 40
0.8993249517
 40
1.0
 40
1.0
 40
1.0
 40
1.0
 10
6.2079044434
 20
3.6431108536
 30
0.0
 10
6.2079044434
 20
3.6423869155
 30
0.0
 10
6.2078176204
 20
3.6409573003
 30
0.0
 10
6.2074374562
 20
3.6388886377
 30
0.0
 10
6.2068403614
 20
3.6369699147
 30
0.0
 10
6.2060669485
 20
3.6352405847
 30
0.0
 10
6.2051567179
 20
3.6337161178
 30
0.0
 10
6.2041427588
 20
3.6323963154
 30
0.0
 10
6.2030511997
 20
3.6312738099
 30
0.0
 10
6.2022655803
 20
3.6306340373
 30
0.0
 10
6.2018669529
 20
3.630346792
 30
0.0
  0
SPLINE
  5
4A1
100
AcDbEntity
  8
0
100
AcDbSpline
 62
7
  6
CONTINUOUS
 70
0
 71
3
 72
16
 73
12
 74
0
 42
0.0000001
 43
0.0000001
 44
0.0000000001
 40
0.0
 40
0.0
 40
0.0
 40
0.0
 40
0.1143259872
 40
0.2312773422
 40
0.3512790697
 40
0.4747016307
 40
0.6017018848
 40
0.7321019431
 40
0.798425851
 40
0.8653181387
 40
1.0
 40
1.0
 40
1.0
 40
1.0
 10
6.2215538153
 20
3.630744142
 30
0.0
 10
6.2210745996
 20
3.6310456119
 30
0.0
 10
6.2201362345
 20
3.6317066348
 30
0.0
 10
6.2188283332
 20
3.6328588145
 30
0.0
 10
6.2176299289
 20
3.6341867767
 30
0.0
 10
6.2165709899
 20
3.6356904155
 30
0.0
 10
6.2156869646
 20
3.6373621682
 30
0.0
 10
6.2151308809
 20
3.6388715179
 30
0.0
 10
6.2148084649
 20
3.6401375371
 30
0.0
 10
6.2145719587
 20
3.641443744
 30
0.0
 10
6.2144999864
 20
3.6424438938
 30
0.0
 10
6.2144999864
 20
3.6431108536
 30
0.0
  0
SPLINE
  5
4A2
100
AcDbEntity
  8
0
100
AcDbSpline
 62
7
  6
CONTINUOUS
 70
0
 71
3
 72
15
 73
11
 74
0
 42
0.0000001
 43
0.0000001
 44
0.0000000001
 40
0.0
 40
0.0
 40
0.0
 40
0.0
 40
0.1259655019
 40
0.2517396952
 40
0.3772220741
 40
0.5023582753
 40
0.6271604167
 40
0.7516569867
 40
0.8759475709
 40
1.0
 40
1.0
 40
1.0
 40
1.0
 10
6.6141496528
 20
3.6431108536
 30
0.0
 10
6.6141496528
 20
3.642384425
 30
0.0
 10
6.6139980965
 20
3.6409283737
 30
0.0
 10
6.6133406624
 20
3.6388410942
 30
0.0
 10
6.612315362
 20
3.6369152924
 30
0.0
 10
6.6109959398
 20
3.635188295
 30
0.0
 10
6.6094506292
 20
3.6336710722
 30
0.0
 10
6.607734739
 20
3.6323602474
 30
0.0
 10
6.605891232
 20
3.6312466424
 30
0.0
 10
6.604597349
 20
3.6306272179
 30
0.0
 10
6.6039392055
 20
3.630346792
 30
0.0
  0
SPLINE
  5
4A3
100
AcDbEntity
  8
0
100
AcDbSpline
 62
7
  6
CONTINUOUS
 70
0
 71
3
 72
15
 73
11
 74
0
 42
0.0000001
 43
0.0000001
 44
0.0000000001
 40
0.0
 40
0.0
 40
0.0
 40
0.0
 40
0.1265811924
 40
0.2528528974
 40
0.3786375247
 40
0.5038545413
 40
0.6285263165
 40
0.7527089613
 40
0.8765339293
 40
1.0
 40
1.0
 40
1.0
 40
1.0
 10
6.6257520978
 20
3.6431108536
 30
0.0
 10
6.6257520978
 20
3.6423845158
 30
0.0
 10
6.6256025234
 20
3.6409294138
 30
0.0
 10
6.6249534137
 20
3.6388426755
 30
0.0
 10
6.6239407545
 20
3.6369169198
 30
0.0
 10
6.622637268
 20
3.6351896685
 30
0.0
 10
6.6211104043
 20
3.6336721133
 30
0.0
 10
6.6194148915
 20
3.6323609849
 30
0.0
 10
6.6175932422
 20
3.6312471394
 30
0.0
 10
6.6163141565
 20
3.6306273335
 30
0.0
 10
6.6156636059
 20
3.630346792
 30
0.0
  0
SPLINE
  5
4A4
100
AcDbEntity
  8
0
100
AcDbSpline
 62
7
  6
CONTINUOUS
 70
0
 71
3
 72
14
 73
10
 74
0
 42
0.0000001
 43
0.0000001
 44
0.0000000001
 40
0.0
 40
0.0
 40
0.0
 40
0.0
 40
0.1273791632
 40
0.2543038637
 40
0.3805013117
 40
0.5058577756
 40
0.6304072894
 40
0.754239364
 40
1.0
 40
1.0
 40
1.0
 40
1.0
 10
6.6364180183
 20
3.6431108536
 30
0.0
 10
6.6364180183
 20
3.6423846257
 30
0.0
 10
6.6362708657
 20
3.6409306738
 30
0.0
 10
6.635631954
 20
3.6388446062
 30
0.0
 10
6.6346347798
 20
3.6369189128
 30
0.0
 10
6.6333509094
 20
3.6351913999
 30
0.0
 10
6.6318464634
 20
3.6336733058
 30
0.0
 10
6.6296265725
 20
3.6319302942
 30
0.0
 10
6.6277627065
 20
3.6309086481
 30
0.0
 10
6.6264791337
 20
3.630346792
 30
0.0
  0
SPLINE
  5
4A5
100
AcDbEntity
  8
0
100
AcDbSpline
 62
7
  6
CONTINUOUS
 70
0
 71
3
 72
16
 73
12
 74
0
 42
0.0000001
 43
0.0000001
 44
0.0000000001
 40
0.0
 40
0.0
 40
0.0
 40
0.0
 40
0.1346818273
 40
0.2015741041
 40
0.2678980114
 40
0.3982980686
 40
0.5252983442
 40
0.6487209198
 40
0.7687226489
 40
0.8856740081
 40
1.0
 40
1.0
 40
1.0
 40
1.0
 10
6.2144999864
 20
3.8786108536
 30
0.0
 10
6.2144999864
 20
3.8792778132
 30
0.0
 10
6.2145719586
 20
3.8802779627
 30
0.0
 10
6.2148084648
 20
3.8815841693
 30
0.0
 10
6.2151308807
 20
3.8828501885
 30
0.0
 10
6.2156869643
 20
3.8843595383
 30
0.0
 10
6.2165709896
 20
3.886031291
 30
0.0
 10
6.2176299286
 20
3.88753493
 30
0.0
 10
6.2188283328
 20
3.8888628923
 30
0.0
 10
6.2201362341
 20
3.890015072
 30
0.0
 10
6.2210745991
 20
3.890676095
 30
0.0
 10
6.2215538148
 20
3.8909775649
 30
0.0
  0
SPLINE
  5
4A6
100
AcDbEntity
  8
0
100
AcDbSpline
 62
7
  6
CONTINUOUS
 70
0
 71
3
 72
15
 73
11
 74
0
 42
0.0000001
 43
0.0000001
 44
0.0000000001
 40
0.0
 40
0.0
 40
0.0
 40
0.0
 40
0.1006750261
 40
0.207054117
 40
0.3201329347
 40
0.4409157528
 40
0.5700307056
 40
0.7073917572
 40
0.8516652481
 40
1.0
 40
1.0
 40
1.0
 40
1.0
 10
6.2018669529
 20
3.8913749151
 30
0.0
 10
6.2022655803
 20
3.8910876699
 30
0.0
 10
6.2030511995
 20
3.8904478975
 30
0.0
 10
6.2041427584
 20
3.8893253921
 30
0.0
 10
6.2051567173
 20
3.8880055902
 30
0.0
 10
6.2060669479
 20
3.8864811237
 30
0.0
 10
6.2068403603
 20
3.8847517949
 30
0.0
 10
6.2074374558
 20
3.8828330725
 30
0.0
 10
6.2078176202
 20
3.8807644092
 30
0.0
 10
6.2079044434
 20
3.8793347926
 30
0.0
 10
6.2079044434
 20
3.8786108536
 30
0.0
  0
SPLINE
  5
4A7
100
AcDbEntity
  8
0
100
AcDbSpline
 62
7
  6
CONTINUOUS
 70
0
 71
3
 72
15
 73
11
 74
0
 42
0.0000001
 43
0.0000001
 44
0.0000000001
 40
0.0
 40
0.0
 40
0.0
 40
0.0
 40
0.1338039887
 40
0.2661271159
 40
0.3958904886
 40
0.5225339843
 40
0.6459764107
 40
0.7664332595
 40
0.8843222739
 40
1.0
 40
1.0
 40
1.0
 40
1.0
 10
6.1938471675
 20
3.8786108536
 30
0.0
 10
6.1938471675
 20
3.8793163874
 30
0.0
 10
6.1939583902
 20
3.8807221604
 30
0.0
 10
6.1944467487
 20
3.8827598152
 30
0.0
 10
6.1952213355
 20
3.8846656974
 30
0.0
 10
6.1962362341
 20
3.8863999202
 30
0.0
 10
6.1974443194
 20
3.8879425385
 30
0.0
 10
6.1988036703
 20
3.8892877736
 30
0.0
 10
6.2002793269
 20
3.8904374438
 30
0.0
 10
6.2013311057
 20
3.891083515
 30
0.0
 10
6.2018669529
 20
3.8913749151
 30
0.0
  0
SPLINE
  5
4A8
100
AcDbEntity
  8
0
100
AcDbSpline
 62
7
  6
CONTINUOUS
 70
0
 71
3
 72
14
 73
10
 74
0
 42
0.0000001
 43
0.0000001
 44
0.0000000001
 40
0.0
 40
0.0
 40
0.0
 40
0.0
 40
0.097863773
 40
0.2022078814
 40
0.3141074309
 40
0.4346148539
 40
0.5643628648
 40
0.7031978835
 40
1.0
 40
1.0
 40
1.0
 40
1.0
 10
6.1817392538
 20
3.8913749151
 30
0.0
 10
6.1821096478
 20
3.891086388
 30
0.0
 10
6.1828394292
 20
3.8904432546
 30
0.0
 10
6.1838487853
 20
3.8893199981
 30
0.0
 10
6.1847860886
 20
3.8879997333
 30
0.0
 10
6.1856272177
 20
3.8864753339
 30
0.0
 10
6.1863417314
 20
3.8847462284
 30
0.0
 10
6.187092715
 20
3.8821357008
 30
0.0
 10
6.1873242078
 20
3.8800347877
 30
0.0
 10
6.1873242078
 20
3.8786108536
 30
0.0
  0
SPLINE
  5
4A9
100
AcDbEntity
  8
0
100
AcDbSpline
 62
7
  6
CONTINUOUS
 70
0
 71
3
 72
17
 73
13
 74
0
 42
0.0000001
 43
0.0000001
 44
0.0000000001
 40
0.0
 40
0.0
 40
0.0
 40
0.0
 40
0.1323163876
 40
0.1981308031
 40
0.2634917826
 40
0.392421612
 40
0.5187471612
 40
0.5809353878
 40
0.6424778953
 40
0.7636678386
 40
0.8827461349
 40
1.0
 40
1.0
 40
1.0
 40
1.0
 10
6.1734416454
 20
3.8786108536
 30
0.0
 10
6.1734416454
 20
3.8793165416
 30
0.0
 10
6.1735284982
 20
3.8803758514
 30
0.0
 10
6.1738124312
 20
3.8817532272
 30
0.0
 10
6.1741993256
 20
3.8830867997
 30
0.0
 10
6.174865217
 20
3.8846693538
 30
0.0
 10
6.1757457033
 20
3.8861223536
 30
0.0
 10
6.1765508518
 20
3.8871865745
 30
0.0
 10
6.1774061726
 20
3.8881749124
 30
0.0
 10
6.1785728493
 20
3.8892903247
 30
0.0
 10
6.1800993824
 20
3.8904392583
 30
0.0
 10
6.1811857038
 20
3.8910839671
 30
0.0
 10
6.1817392538
 20
3.8913749151
 30
0.0
  0
SPLINE
  5
4AA
100
AcDbEntity
  8
0
100
AcDbSpline
 62
7
  6
CONTINUOUS
 70
0
 71
3
 72
15
 73
11
 74
0
 42
0.0000001
 43
0.0000001
 44
0.0000000001
 40
0.0
 40
0.0
 40
0.0
 40
0.0
 40
0.0948458509
 40
0.1970017067
 40
0.307607589
 40
0.4277477631
 40
0.5580443786
 40
0.6982649498
 40
0.8467271266
 40
1.0
 40
1.0
 40
1.0
 40
1.0
 10
6.1618920385
 20
3.8913749151
 30
0.0
 10
6.1622331586
 20
3.8910848972
 30
0.0
 10
6.1629048784
 20
3.8904380301
 30
0.0
 10
6.1638291198
 20
3.8893141479
 30
0.0
 10
6.1646871258
 20
3.8879936453
 30
0.0
 10
6.1654568952
 20
3.8864693479
 30
0.0
 10
6.1661105724
 20
3.8847412659
 30
0.0
 10
6.1666149426
 20
3.8828250428
 30
0.0
 10
6.1669359154
 20
3.880759952
 30
0.0
 10
6.1670091482
 20
3.8793344148
 30
0.0
 10
6.1670091482
 20
3.8786108536
 30
0.0
  0
SPLINE
  5
4AB
100
AcDbEntity
  8
0
100
AcDbSpline
 62
7
  6
CONTINUOUS
 70
0
 71
3
 72
16
 73
12
 74
0
 42
0.0000001
 43
0.0000001
 44
0.0000000001
 40
0.0
 40
0.0
 40
0.0
 40
0.0
 40
0.1309885306
 40
0.19621158
 40
0.2610596887
 40
0.3892642832
 40
0.5153358324
 40
0.6392349008
 40
0.7611202284
 40
0.8813009906
 40
1.0
 40
1.0
 40
1.0
 40
1.0
 10
6.1533393504
 20
3.8786108536
 30
0.0
 10
6.1533393504
 20
3.8793166878
 30
0.0
 10
6.1534290138
 20
3.8803767379
 30
0.0
 10
6.1537216849
 20
3.8817538117
 30
0.0
 10
6.1541208736
 20
3.883088517
 30
0.0
 10
6.154808505
 20
3.8846727917
 30
0.0
 10
6.1558920813
 20
3.8864066652
 30
0.0
 10
6.1571811286
 20
3.8879484032
 30
0.0
 10
6.1586308902
 20
3.8892924153
 30
0.0
 10
6.1602042516
 20
3.8904408729
 30
0.0
 10
6.1613222329
 20
3.8910843553
 30
0.0
 10
6.1618920385
 20
3.8913749151
 30
0.0
  0
SPLINE
  5
4AC
100
AcDbEntity
  8
0
100
AcDbSpline
 62
7
  6
CONTINUOUS
 70
0
 71
3
 72
14
 73
10
 74
0
 42
0.0000001
 43
0.0000001
 44
0.0000000001
 40
0.0
 40
0.0
 40
0.0
 40
0.0
 40
0.1915309523
 40
0.3009401779
 40
0.4208352754
 40
0.5518130782
 40
0.6935517619
 40
0.8441871121
 40
1.0
 40
1.0
 40
1.0
 40
1.0
 10
6.1423797069
 20
3.8913749151
 30
0.0
 10
6.143028074
 20
3.8907663725
 30
0.0
 10
6.1439237939
 20
3.8896735643
 30
0.0
 10
6.1449145907
 20
3.8879876528
 30
0.0
 10
6.1456112526
 20
3.8864633626
 30
0.0
 10
6.146202397
 20
3.8847362228
 30
0.0
 10
6.1466585404
 20
3.88282128
 30
0.0
 10
6.1469487548
 20
3.8807579076
 30
0.0
 10
6.1470149466
 20
3.8793342418
 30
0.0
 10
6.1470149466
 20
3.8786108536
 30
0.0
  0
SPLINE
  5
4AD
100
AcDbEntity
  8
0
100
AcDbSpline
 62
7
  6
CONTINUOUS
 70
0
 71
3
 72
16
 73
12
 74
0
 42
0.0000001
 43
0.0000001
 44
0.0000000001
 40
0.0
 40
0.0
 40
0.0
 40
0.0
 40
0.1297830764
 40
0.1944697572
 40
0.25885313
 40
0.3864016261
 40
0.5122434295
 40
0.6363522038
 40
0.7588576168
 40
0.8800189271
 40
1.0
 40
1.0
 40
1.0
 40
1.0
 10
6.1335953814
 20
3.8786108536
 30
0.0
 10
6.1335953814
 20
3.8793168244
 30
0.0
 10
6.1336876089
 20
3.8803775654
 30
0.0
 10
6.1339882125
 20
3.8817543522
 30
0.0
 10
6.1343986029
 20
3.8830901125
 30
0.0
 10
6.1351059653
 20
3.8846758495
 30
0.0
 10
6.1362194165
 20
3.8864095599
 30
0.0
 10
6.137543613
 20
3.8879508473
 30
0.0
 10
6.1390326219
 20
3.8892943099
 30
0.0
 10
6.1406484035
 20
3.8904422442
 30
0.0
 10
6.1417951371
 20
3.8910846871
 30
0.0
 10
6.1423797069
 20
3.8913749151
 30
0.0
  0
SPLINE
  5
4AE
100
AcDbEntity
  8
0
100
AcDbSpline
 62
7
  6
CONTINUOUS
 70
0
 71
3
 72
15
 73
11
 74
0
 42
0.0000001
 43
0.0000001
 44
0.0000000001
 40
0.0
 40
0.0
 40
0.0
 40
0.0
 40
0.0887082418
 40
0.1865449075
 40
0.2947210584
 40
0.4143293341
 40
0.5459259845
 40
0.6890919304
 40
0.8417822303
 40
1.0
 40
1.0
 40
1.0
 40
1.0
 10
6.123255741
 20
3.8913749151
 30
0.0
 10
6.1235352963
 20
3.8910811908
 30
0.0
 10
6.1240843901
 20
3.8904258065
 30
0.0
 10
6.1248307041
 20
3.8893013422
 30
0.0
 10
6.1255232694
 20
3.8879810304
 30
0.0
 10
6.1261444366
 20
3.8864576864
 30
0.0
 10
6.1266717871
 20
3.8847313663
 30
0.0
 10
6.1270785816
 20
3.8828177747
 30
0.0
 10
6.1273373992
 20
3.8807560111
 30
0.0
 10
6.1273964057
 20
3.8793340819
 30
0.0
 10
6.1273964057
 20
3.8786108536
 30
0.0
  0
SPLINE
  5
4AF
100
AcDbEntity
  8
0
100
AcDbSpline
 62
7
  6
CONTINUOUS
 70
0
 71
3
 72
16
 73
12
 74
0
 42
0.0000001
 43
0.0000001
 44
0.0000000001
 40
0.0
 40
0.0
 40
0.0
 40
0.0
 40
0.128710341
 40
0.1929204384
 40
0.2568916326
 40
0.3838608468
 40
0.5095036943
 40
0.6338030211
 40
0.7568603584
 40
0.8788890722
 40
1.0
 40
1.0
 40
1.0
 40
1.0
 10
6.1142638552
 20
3.8786108536
 30
0.0
 10
6.1142638552
 20
3.8793169499
 30
0.0
 10
6.1143583894
 20
3.8803783241
 30
0.0
 10
6.1146661006
 20
3.8817548456
 30
0.0
 10
6.1150865509
 20
3.8830915623
 30
0.0
 10
6.1158116421
 20
3.8846785964
 30
0.0
 10
6.1169518607
 20
3.8864121249
 30
0.0
 10
6.1183075318
 20
3.8879529843
 30
0.0
 10
6.1198316817
 20
3.8892959462
 30
0.0
 10
6.121485451
 20
3.8904434162
 30
0.0
 10
6.1226579392
 20
3.8910849686
 30
0.0
 10
6.123255741
 20
3.8913749151
 30
0.0
  0
SPLINE
  5
4B0
100
AcDbEntity
  8
0
100
AcDbSpline
 62
7
  6
CONTINUOUS
 70
0
 71
3
 72
15
 73
11
 74
0
 42
0.0000001
 43
0.0000001
 44
0.0000000001
 40
0.0
 40
0.0
 40
0.0
 40
0.0
 40
0.0856506593
 40
0.1813889973
 40
0.288423374
 40
0.4078201318
 40
0.5400818784
 40
0.6846871562
 40
0.8394139654
 40
1.0
 40
1.0
 40
1.0
 40
1.0
 10
6.1045725581
 20
3.8913749151
 30
0.0
 10
6.1048198286
 20
3.8910789496
 30
0.0
 10
6.1053044216
 20
3.8904189164
 30
0.0
 10
6.1059585346
 20
3.8892946113
 30
0.0
 10
6.1065655394
 20
3.8879747812
 30
0.0
 10
6.1071099858
 20
3.8864521793
 30
0.0
 10
6.1075722082
 20
3.8847268611
 30
0.0
 10
6.1079287569
 20
3.8828145526
 30
0.0
 10
6.1081555979
 20
3.8807542914
 30
0.0
 10
6.1082072986
 20
3.879333937
 30
0.0
 10
6.1082072986
 20
3.8786108536
 30
0.0
  0
SPLINE
  5
4B1
100
AcDbEntity
  8
0
100
AcDbSpline
 62
7
  6
CONTINUOUS
 70
0
 71
3
 72
16
 73
12
 74
0
 42
0.0000001
 43
0.0000001
 44
0.0000000001
 40
0.0
 40
0.0
 40
0.0
 40
0.0
 40
0.1277711926
 40
0.1915646308
 40
0.2551760647
 40
0.3816417012
 40
0.5071145956
 40
0.6315837128
 40
0.7551242497
 40
0.8779083317
 40
1.0
 40
1.0
 40
1.0
 40
1.0
 10
6.0953977583
 20
3.8786108536
 30
0.0
 10
6.0953977583
 20
3.8793170628
 30
0.0
 10
6.0954943325
 20
3.8803790059
 30
0.0
 10
6.095808307
 20
3.8817552873
 30
0.0
 10
6.0962376405
 20
3.8830928552
 30
0.0
 10
6.0969783922
 20
3.8846810207
 30
0.0
 10
6.0981421969
 20
3.8864143613
 30
0.0
 10
6.0995255881
 20
3.8879548259
 30
0.0
 10
6.1010806855
 20
3.8892973414
 30
0.0
 10
6.1027679146
 20
3.8904444065
 30
0.0
 10
6.1039630935
 20
3.8910852052
 30
0.0
 10
6.1045725581
 20
3.8913749151
 30
0.0
  0
SPLINE
  5
4B2
100
AcDbEntity
  8
0
100
AcDbSpline
 62
7
  6
CONTINUOUS
 70
0
 71
3
 72
15
 73
11
 74
0
 42
0.0000001
 43
0.0000001
 44
0.0000000001
 40
0.0
 40
0.0
 40
0.0
 40
0.0
 40
0.0826982627
 40
0.1764467032
 40
0.2824229083
 40
0.4016481204
 40
0.5345611422
 40
0.6805371749
 40
0.837186269
 40
1.0
 40
1.0
 40
1.0
 40
1.0
 10
6.0863813676
 20
3.8913749151
 30
0.0
 10
6.0865953196
 20
3.8910764707
 30
0.0
 10
6.0870133423
 20
3.8904117057
 30
0.0
 10
6.0875735681
 20
3.8892879052
 30
0.0
 10
6.0880935363
 20
3.8879687951
 30
0.0
 10
6.0885599934
 20
3.8864470603
 30
0.0
 10
6.0889560419
 20
3.8847227659
 30
0.0
 10
6.089261558
 20
3.8828116683
 30
0.0
 10
6.0894559316
 20
3.8807527661
 30
0.0
 10
6.0895002214
 20
3.8793338087
 30
0.0
 10
6.0895002214
 20
3.8786108536
 30
0.0
  0
SPLINE
  5
4B3
100
AcDbEntity
  8
0
100
AcDbSpline
 62
7
  6
CONTINUOUS
 70
0
 71
3
 72
15
 73
11
 74
0
 42
0.0000001
 43
0.0000001
 44
0.0000000001
 40
0.0
 40
0.0
 40
0.0
 40
0.0
 40
0.1269815655
 40
0.2536155014
 40
0.379667475
 40
0.5050130931
 40
0.6296451362
 40
0.7536149976
 40
0.8770587216
 40
1.0
 40
1.0
 40
1.0
 40
1.0
 10
6.0770488012
 20
3.8786108536
 30
0.0
 10
6.0770488012
 20
3.8793171621
 30
0.0
 10
6.0771795487
 20
3.8807312094
 30
0.0
 10
6.0777519522
 20
3.8827748036
 30
0.0
 10
6.0786577603
 20
3.8846829615
 30
0.0
 10
6.0798419709
 20
3.8864163114
 30
0.0
 10
6.0812492403
 20
3.8879563723
 30
0.0
 10
6.0828310198
 20
3.8892985134
 30
0.0
 10
6.0845470951
 20
3.8904452292
 30
0.0
 10
6.0857618418
 20
3.891085401
 30
0.0
 10
6.0863813676
 20
3.8913749151
 30
0.0
  0
SPLINE
  5
4B4
100
AcDbEntity
  8
0
100
AcDbSpline
 62
7
  6
CONTINUOUS
 70
0
 71
3
 72
15
 73
11
 74
0
 42
0.0000001
 43
0.0000001
 44
0.0000000001
 40
0.0
 40
0.0
 40
0.0
 40
0.0
 40
0.0799441619
 40
0.1718702594
 40
0.2768992324
 40
0.3959926204
 40
0.5295200342
 40
0.6767570297
 40
0.8351600783
 40
1.0
 40
1.0
 40
1.0
 40
1.0
 10
6.0687320303
 20
3.8913749151
 30
0.0
 10
6.0689115851
 20
3.8910738232
 30
0.0
 10
6.0692610549
 20
3.8904044531
 30
0.0
 10
6.0697260977
 20
3.8892814786
 30
0.0
 10
6.0701578709
 20
3.8879632705
 30
0.0
 10
6.0705453191
 20
3.8864424645
 30
0.0
 10
6.0708743362
 20
3.8847191626
 30
0.0
 10
6.0711281648
 20
3.8828091645
 30
0.0
 10
6.0712896585
 20
3.8807514523
 30
0.0
 10
6.0713264488
 20
3.8793336982
 30
0.0
 10
6.0713264488
 20
3.8786108536
 30
0.0
  0
SPLINE
  5
4B5
100
AcDbEntity
  8
0
100
AcDbSpline
 62
7
  6
CONTINUOUS
 70
0
 71
3
 72
15
 73
11
 74
0
 42
0.0000001
 43
0.0000001
 44
0.0000000001
 40
0.0
 40
0.0
 40
0.0
 40
0.0
 40
0.1263108428
 40
0.2523898474
 40
0.3780864296
 40
0.5033157214
 40
0.6280726745
 40
0.7523879873
 40
0.8763671232
 40
1.0
 40
1.0
 40
1.0
 40
1.0
 10
6.0592672773
 20
3.8786108536
 30
0.0
 10
6.0592672773
 20
3.8793172466
 30
0.0
 10
6.0594000229
 20
3.8807321909
 30
0.0
 10
6.0599809713
 20
3.8827763837
 30
0.0
 10
6.060900043
 20
3.8846847101
 30
0.0
 10
6.0621012952
 20
3.8864178988
 30
0.0
 10
6.0635285756
 20
3.8879576542
 30
0.0
 10
6.0651326967
 20
3.8892994691
 30
0.0
 10
6.0668729337
 20
3.8904458982
 30
0.0
 10
6.0681040734
 20
3.8910855594
 30
0.0
 10
6.0687320303
 20
3.8913749151
 30
0.0
  0
SPLINE
  5
4B6
100
AcDbEntity
  8
0
100
AcDbSpline
 62
7
  6
CONTINUOUS
 70
0
 71
3
 72
15
 73
11
 74
0
 42
0.0000001
 43
0.0000001
 44
0.0000000001
 40
0.0
 40
0.0
 40
0.0
 40
0.0
 40
0.07749462
 40
0.1678287978
 40
0.2720480658
 40
0.3910465651
 40
0.5251250543
 40
0.673468547
 40
0.8333996911
 40
1.0
 40
1.0
 40
1.0
 40
1.0
 10
6.0516729219
 20
3.8913749151
 30
0.0
 10
6.05181696
 20
3.8910711433
 30
0.0
 10
6.052096053
 20
3.8903975536
 30
0.0
 10
6.0524650083
 20
3.8892756349
 30
0.0
 10
6.0528077304
 20
3.8879584177
 30
0.0
 10
6.0531153823
 20
3.8864385245
 30
0.0
 10
6.0533766868
 20
3.8847161272
 30
0.0
 10
6.0535782985
 20
3.8828070795
 30
0.0
 10
6.0537065754
 20
3.8807503656
 30
0.0
 10
6.0537357939
 20
3.879333607
 30
0.0
 10
6.0537357939
 20
3.8786108536
 30
0.0
  0
SPLINE
  5
4B7
100
AcDbEntity
  8
0
100
AcDbSpline
 62
7
  6
CONTINUOUS
 70
0
 71
3
 72
15
 73
11
 74
0
 42
0.0000001
 43
0.0000001
 44
0.0000000001
 40
0.0
 40
0.0
 40
0.0
 40
0.0
 40
0.125774221
 40
0.251409832
 40
0.3768233219
 40
0.5019609791
 40
0.6268188309
 40
0.7514104724
 40
0.8758165901
 40
1.0
 40
1.0
 40
1.0
 40
1.0
 10
6.0421019243
 20
3.8786108536
 30
0.0
 10
6.0421019243
 20
3.8793173153
 30
0.0
 10
6.0422362806
 20
3.880732989
 30
0.0
 10
6.0428241078
 20
3.882777662
 30
0.0
 10
6.0437538458
 20
3.8846861153
 30
0.0
 10
6.044968793
 20
3.8864191652
 30
0.0
 10
6.0464121505
 20
3.8879586699
 30
0.0
 10
6.0480342216
 20
3.8893002218
 30
0.0
 10
6.0497938732
 20
3.8904464224
 30
0.0
 10
6.0510381875
 20
3.8910856832
 30
0.0
 10
6.0516729219
 20
3.8913749151
 30
0.0
  0
SPLINE
  5
4B8
100
AcDbEntity
  8
0
100
AcDbSpline
 62
7
  6
CONTINUOUS
 70
0
 71
3
 72
15
 73
11
 74
0
 42
0.0000001
 43
0.0000001
 44
0.0000000001
 40
0.0
 40
0.0
 40
0.0
 40
0.0
 40
0.0754626327
 40
0.1644978571
 40
0.2680691298
 40
0.3870045144
 40
0.5215428957
 40
0.6707931485
 40
0.8319690429
 40
1.0
 40
1.0
 40
1.0
 40
1.0
 10
6.0352508
 20
3.8913749151
 30
0.0
 10
6.0353582045
 20
3.8910686455
 30
0.0
 10
6.035565351
 20
3.890391498
 30
0.0
 10
6.0358376656
 20
3.8892707033
 30
0.0
 10
6.0360907499
 20
3.8879544438
 30
0.0
 10
6.0363180265
 20
3.8864353624
 30
0.0
 10
6.0365111006
 20
3.884713726
 30
0.0
 10
6.0366600849
 20
3.8828054456
 30
0.0
 10
6.0367548815
 20
3.8807495187
 30
0.0
 10
6.0367764714
 20
3.879333536
 30
0.0
 10
6.0367764714
 20
3.8786108536
 30
0.0
  0
SPLINE
  5
4B9
100
AcDbEntity
  8
0
100
AcDbSpline
 62
7
  6
CONTINUOUS
 70
0
 71
3
 72
15
 73
11
 74
0
 42
0.0000001
 43
0.0000001
 44
0.0000000001
 40
0.0
 40
0.0
 40
0.0
 40
0.0
 40
0.1253715824
 40
0.2506748515
 40
0.3758766599
 40
0.5009463965
 40
0.6258805096
 40
0.7506794469
 40
0.8754051307
 40
1.0
 40
1.0
 40
1.0
 40
1.0
 10
6.0255997915
 20
3.8786108536
 30
0.0
 10
6.0255997915
 20
3.8793173675
 30
0.0
 10
6.0257353633
 20
3.8807335955
 30
0.0
 10
6.0263283773
 20
3.8827786295
 30
0.0
 10
6.0272661512
 20
3.8846871732
 30
0.0
 10
6.0284914104
 20
3.8864201132
 30
0.0
 10
6.0299468715
 20
3.8879594262
 30
0.0
 10
6.0315824565
 20
3.8893007798
 30
0.0
 10
6.0333567258
 20
3.8904468094
 30
0.0
 10
6.0346109611
 20
3.8910857743
 30
0.0
 10
6.0352508
 20
3.8913749151
 30
0.0
  0
SPLINE
  5
4BA
100
AcDbEntity
  8
0
100
AcDbSpline
 62
7
  6
CONTINUOUS
 70
0
 71
3
 72
15
 73
11
 74
0
 42
0.0000001
 43
0.0000001
 44
0.0000000001
 40
0.0
 40
0.0
 40
0.0
 40
0.0
 40
0.0739571991
 40
0.1620431855
 40
0.2651483545
 40
0.3840459221
 40
0.5189263654
 40
0.6688417174
 40
0.8309263979
 40
1.0
 40
1.0
 40
1.0
 40
1.0
 10
6.0195106766
 20
3.8913749151
 30
0.0
 10
6.0195804296
 20
3.8910666091
 30
0.0
 10
6.0197144085
 20
3.8903868136
 30
0.0
 10
6.0198898013
 20
3.889267004
 30
0.0
 10
6.0200528831
 20
3.887951534
 30
0.0
 10
6.0201993866
 20
3.886433082
 30
0.0
 10
6.0203238623
 20
3.8847120135
 30
0.0
 10
6.0204199221
 20
3.8828042883
 30
0.0
 10
6.0204810459
 20
3.8807489213
 30
0.0
 10
6.0204949657
 20
3.8793334859
 30
0.0
 10
6.0204949657
 20
3.8786108536
 30
0.0
  0
SPLINE
  5
4BB
100
AcDbEntity
  8
0
100
AcDbSpline
 62
7
  6
CONTINUOUS
 70
0
 71
3
 72
14
 73
10
 74
0
 42
0.0000001
 43
0.0000001
 44
0.0000000001
 40
0.0
 40
0.0
 40
0.0
 40
0.0
 40
0.1251437509
 40
0.250266277
 40
0.3753680704
 40
0.5004338027
 40
0.6254600179
 40
0.750438236
 40
1.0
 40
1.0
 40
1.0
 40
1.0
 10
6.0098061099
 20
3.8786108536
 30
0.0
 10
6.0098061099
 20
3.8793174028
 30
0.0
 10
6.0099424977
 20
3.8807340046
 30
0.0
 10
6.0105389822
 20
3.8827792771
 30
0.0
 10
6.0114821537
 20
3.8846878894
 30
0.0
 10
6.0127142509
 20
3.8864207137
 30
0.0
 10
6.0141780509
 20
3.8879600449
 30
0.0
 10
6.0163678942
 20
3.889746129
 30
0.0
 10
6.0182254911
 20
3.8907973497
 30
0.0
 10
6.0195106766
 20
3.8913749151
 30
0.0
  0
SPLINE
  5
4BC
100
AcDbEntity
  8
0
100
AcDbSpline
 62
7
  6
CONTINUOUS
 70
0
 71
3
 72
14
 73
10
 74
0
 42
0.0000001
 43
0.0000001
 44
0.0000000001
 40
0.0
 40
0.0
 40
0.0
 40
0.0
 40
0.0730694042
 40
0.1606011198
 40
0.2634372973
 40
0.3823164715
 40
0.5173996053
 40
0.6677050731
 40
1.0
 40
1.0
 40
1.0
 40
1.0
 10
6.0044956944
 20
3.8913749151
 30
0.0
 10
6.0045270203
 20
3.891065325
 30
0.0
 10
6.0045870264
 20
3.8903839706
 30
0.0
 10
6.0046653871
 20
3.8892648046
 30
0.0
 10
6.0047382699
 20
3.8879498324
 30
0.0
 10
6.0048037567
 20
3.886431762
 30
0.0
 10
6.0048594129
 20
3.884711028
 30
0.0
 10
6.0049185719
 20
3.8820812175
 30
0.0
 10
6.0049359032
 20
3.880025954
 30
0.0
 10
6.0049359032
 20
3.8786108536
 30
0.0
  0
SPLINE
  5
4BD
100
AcDbEntity
  8
0
100
AcDbSpline
 62
7
  6
CONTINUOUS
 70
0
 71
3
 72
14
 73
10
 74
0
 42
0.0000001
 43
0.0000001
 44
0.0000000001
 40
0.0
 40
0.0
 40
0.0
 40
0.0
 40
0.1250085531
 40
0.2500196063
 40
0.3750505671
 40
0.5000937512
 40
0.6251456956
 40
0.7501933892
 40
1.0
 40
1.0
 40
1.0
 40
1.0
 10
5.9947641689
 20
3.8786108536
 30
0.0
 10
5.9947641689
 20
3.8793174206
 30
0.0
 10
5.9949009674
 20
3.880734211
 30
0.0
 10
5.995499202
 20
3.8827796049
 30
0.0
 10
5.9964450822
 20
3.8846882456
 30
0.0
 10
5.9976806536
 20
3.8864210309
 30
0.0
 10
5.9991485292
 20
3.8879602964
 30
0.0
 10
6.0013447524
 20
3.8897465448
 30
0.0
 10
6.0032072251
 20
3.8907974781
 30
0.0
 10
6.0044956944
 20
3.8913749151
 30
0.0
  0
SPLINE
  5
4BE
100
AcDbEntity
  8
0
100
AcDbSpline
 62
7
  6
CONTINUOUS
 70
0
 71
3
 72
15
 73
11
 74
0
 42
0.0000001
 43
0.0000001
 44
0.0000000001
 40
0.0
 40
0.0
 40
0.0
 40
0.0
 40
0.1282454206
 40
0.2558655328
 40
0.3824744205
 40
0.5079177116
 40
0.6322418112
 40
0.755574932
 40
0.8781335248
 40
1.0
 40
1.0
 40
1.0
 40
1.0
 10
6.6461181797
 20
3.6431108536
 30
0.0
 10
6.6461181797
 20
3.6423847535
 30
0.0
 10
6.6459738801
 20
3.6409321424
 30
0.0
 10
6.6453469875
 20
3.6388468669
 30
0.0
 10
6.6443681443
 20
3.636921291
 30
0.0
 10
6.6431073393
 20
3.6351934077
 30
0.0
 10
6.6416298953
 20
3.6336749817
 30
0.0
 10
6.6399889654
 20
3.6323630378
 30
0.0
 10
6.6382258497
 20
3.6312485343
 30
0.0
 10
6.6369863752
 20
3.6306276596
 30
0.0
 10
6.6363561442
 20
3.630346792
 30
0.0
  0
SPLINE
  5
4BF
100
AcDbEntity
  8
0
100
AcDbSpline
 62
7
  6
CONTINUOUS
 70
0
 71
3
 72
14
 73
10
 74
0
 42
0.0000001
 43
0.0000001
 44
0.0000000001
 40
0.0
 40
0.0
 40
0.0
 40
0.0
 40
0.1250071232
 40
0.2500169977
 40
0.3750472097
 40
0.5000901558
 40
0.6251423726
 40
0.750190801
 40
1.0
 40
1.0
 40
1.0
 40
1.0
 10
5.9805151975
 20
3.8786108536
 30
0.0
 10
5.9805151975
 20
3.8793174208
 30
0.0
 10
5.9806520004
 20
3.8807342132
 30
0.0
 10
5.9812502535
 20
3.8827796084
 30
0.0
 10
5.9821961624
 20
3.8846882494
 30
0.0
 10
5.9834317705
 20
3.8864210342
 30
0.0
 10
5.9848996892
 20
3.887960299
 30
0.0
 10
5.98709598
 20
3.8897465492
 30
0.0
 10
5.9889585043
 20
3.8907974795
 30
0.0
 10
5.9902470083
 20
3.8913749151
 30
0.0
  0
SPLINE
  5
4C0
100
AcDbEntity
  8
0
100
AcDbSpline
 62
7
  6
CONTINUOUS
 70
0
 71
3
 72
14
 73
10
 74
0
 42
0.0000001
 43
0.0000001
 44
0.0000000001
 40
0.0
 40
0.0
 40
0.0
 40
0.0
 40
0.1251394606
 40
0.2502584488
 40
0.3753579933
 40
0.5004230088
 40
0.6254500397
 40
0.7504304626
 40
1.0
 40
1.0
 40
1.0
 40
1.0
 10
5.9670982511
 20
3.8786108536
 30
0.0
 10
5.9670982511
 20
3.8793174033
 30
0.0
 10
5.967234652
 20
3.8807340112
 30
0.0
 10
5.9678311919
 20
3.8827792875
 30
0.0
 10
5.9687744494
 20
3.8846879007
 30
0.0
 10
5.9700066568
 20
3.8864207238
 30
0.0
 10
5.971470586
 20
3.8879600529
 30
0.0
 10
5.9736606317
 20
3.8897461423
 30
0.0
 10
5.9755183833
 20
3.8907973538
 30
0.0
 10
5.9768036729
 20
3.8913749151
 30
0.0
  0
SPLINE
  5
4C1
100
AcDbEntity
  8
0
100
AcDbSpline
 62
7
  6
CONTINUOUS
 70
0
 71
3
 72
15
 73
11
 74
0
 42
0.0000001
 43
0.0000001
 44
0.0000000001
 40
0.0
 40
0.0
 40
0.0
 40
0.0
 40
0.1292948906
 40
0.2577679875
 40
0.3849020814
 40
0.510493976
 40
0.6346024664
 40
0.7573992351
 40
0.8791533904
 40
1.0
 40
1.0
 40
1.0
 40
1.0
 10
6.6548259947
 20
3.6431108536
 30
0.0
 10
6.6548259947
 20
3.6423848978
 30
0.0
 10
6.6546849627
 20
3.6409338029
 30
0.0
 10
6.6540718778
 20
3.6388494485
 30
0.0
 10
6.6531141065
 20
3.6369240255
 30
0.0
 10
6.651879937
 20
3.6351957846
 30
0.0
 10
6.650433345
 20
3.6336768317
 30
0.0
 10
6.648826485
 20
3.6323643783
 30
0.0
 10
6.647099895
 20
3.6312494544
 30
0.0
 10
6.6458851271
 20
3.630627876
 30
0.0
 10
6.6452675653
 20
3.630346792
 30
0.0
  0
SPLINE
  5
4C2
100
AcDbEntity
  8
0
100
AcDbSpline
 62
7
  6
CONTINUOUS
 70
0
 71
3
 72
15
 73
11
 74
0
 42
0.0000001
 43
0.0000001
 44
0.0000000001
 40
0.0
 40
0.0
 40
0.0
 40
0.0
 40
0.1253644359
 40
0.2506618087
 40
0.3758598656
 40
0.5009284031
 40
0.625863874
 40
0.7506664904
 40
0.8753978401
 40
1.0
 40
1.0
 40
1.0
 40
1.0
 10
5.9545501046
 20
3.8786108536
 30
0.0
 10
5.9545501046
 20
3.8793173685
 30
0.0
 10
5.9546856981
 20
3.8807336063
 30
0.0
 10
5.9552788044
 20
3.8827786467
 30
0.0
 10
5.9562167211
 20
3.884687192
 30
0.0
 10
5.9574421636
 20
3.88642013
 30
0.0
 10
5.9588978399
 20
3.8879594396
 30
0.0
 10
5.9605336651
 20
3.8893007896
 30
0.0
 10
5.9623081943
 20
3.8904468163
 30
0.0
 10
5.963562606
 20
3.8910857759
 30
0.0
 10
5.9642025356
 20
3.8913749151
 30
0.0
  0
SPLINE
  5
4C3
100
AcDbEntity
  8
0
100
AcDbSpline
 62
7
  6
CONTINUOUS
 70
0
 71
3
 72
15
 73
11
 74
0
 42
0.0000001
 43
0.0000001
 44
0.0000000001
 40
0.0
 40
0.0
 40
0.0
 40
0.0
 40
0.1257642114
 40
0.2513915569
 40
0.3767997767
 40
0.5019357367
 40
0.6267954787
 40
0.7513922739
 40
0.8758063445
 40
1.0
 40
1.0
 40
1.0
 40
1.0
 10
5.9429051517
 20
3.8786108536
 30
0.0
 10
5.9429051517
 20
3.8793173166
 30
0.0
 10
5.9430395381
 20
3.880733004
 30
0.0
 10
5.943627494
 20
3.882777686
 30
0.0
 10
5.9445574314
 20
3.8846861416
 30
0.0
 10
5.9457726345
 20
3.8864191888
 30
0.0
 10
5.9472162925
 20
3.8879586888
 30
0.0
 10
5.9488386991
 20
3.8893002358
 30
0.0
 10
5.9505987136
 20
3.8904464321
 30
0.0
 10
5.9518432741
 20
3.8910856854
 30
0.0
 10
5.9524781352
 20
3.8913749151
 30
0.0
  0
SPLINE
  5
4C4
100
AcDbEntity
  8
0
100
AcDbSpline
 62
7
  6
CONTINUOUS
 70
0
 71
3
 72
15
 73
11
 74
0
 42
0.0000001
 43
0.0000001
 44
0.0000000001
 40
0.0
 40
0.0
 40
0.0
 40
0.0
 40
0.1262979712
 40
0.2523663272
 40
0.3780560956
 40
0.5032831795
 40
0.6280425452
 40
0.7523644868
 40
0.8763538824
 40
1.0
 40
1.0
 40
1.0
 40
1.0
 10
5.9321953102
 20
3.8786108536
 30
0.0
 10
5.9321953102
 20
3.8793172482
 30
0.0
 10
5.9323280944
 20
3.88073221
 30
0.0
 10
5.9329092074
 20
3.8827764142
 30
0.0
 10
5.9338285345
 20
3.8846847437
 30
0.0
 10
5.9350301146
 20
3.8864179292
 30
0.0
 10
5.93645778
 20
3.8879576787
 30
0.0
 10
5.938062331
 20
3.8892994873
 30
0.0
 10
5.939803033
 20
3.8904459109
 30
0.0
 10
5.9410344881
 20
3.8910855624
 30
0.0
 10
5.9416626074
 20
3.8913749151
 30
0.0
  0
SPLINE
  5
4C5
100
AcDbEntity
  8
0
100
AcDbSpline
 62
7
  6
CONTINUOUS
 70
0
 71
3
 72
15
 73
11
 74
0
 42
0.0000001
 43
0.0000001
 44
0.0000000001
 40
0.0
 40
0.0
 40
0.0
 40
0.0
 40
0.1304895779
 40
0.2599361572
 40
0.3876731974
 40
0.5134398668
 40
0.6373064528
 40
0.7594921603
 40
0.8803250553
 40
1.0
 40
1.0
 40
1.0
 40
1.0
 10
6.6625175956
 20
3.6431108536
 30
0.0
 10
6.6625175956
 20
3.6423850571
 30
0.0
 10
6.662380232
 20
3.6409356386
 30
0.0
 10
6.6617826861
 20
3.63885233
 30
0.0
 10
6.6608486788
 20
3.6369271166
 30
0.0
 10
6.6596445847
 20
3.6351985074
 30
0.0
 10
6.6582328416
 20
3.6336789769
 30
0.0
 10
6.6566644616
 20
3.6323659492
 30
0.0
 10
6.6549791162
 20
3.631250542
 30
0.0
 10
6.6537922372
 20
3.6306281332
 30
0.0
 10
6.6531889714
 20
3.630346792
 30
0.0
  0
SPLINE
  5
4C6
100
AcDbEntity
  8
0
100
AcDbSpline
 62
7
  6
CONTINUOUS
 70
0
 71
3
 72
15
 73
11
 74
0
 42
0.0000001
 43
0.0000001
 44
0.0000000001
 40
0.0
 40
0.0
 40
0.0
 40
0.0
 40
0.1269658221
 40
0.2535867232
 40
0.3796303352
 40
0.5049732
 40
0.6296081596
 40
0.7535861302
 40
0.8770424436
 40
1.0
 40
1.0
 40
1.0
 40
1.0
 10
5.9224499352
 20
3.8786108536
 30
0.0
 10
5.9224499352
 20
3.8793171641
 30
0.0
 10
5.9225807294
 20
3.8807312322
 30
0.0
 10
5.9231533329
 20
3.8827748405
 30
0.0
 10
5.9240594514
 20
3.8846830024
 30
0.0
 10
5.9252440611
 20
3.8864163487
 30
0.0
 10
5.9266517991
 20
3.8879564025
 30
0.0
 10
5.9282341019
 20
3.889298536
 30
0.0
 10
5.929950743
 20
3.8904452451
 30
0.0
 10
5.9311658736
 20
3.8910854047
 30
0.0
 10
5.9317855968
 20
3.8913749151
 30
0.0
  0
SPLINE
  5
4C7
100
AcDbEntity
  8
0
100
AcDbSpline
 62
7
  6
CONTINUOUS
 70
0
 71
3
 72
16
 73
12
 74
0
 42
0.0000001
 43
0.0000001
 44
0.0000000001
 40
0.0
 40
0.0
 40
0.0
 40
0.0
 40
0.127752576
 40
0.1915377603
 40
0.2551420731
 40
0.3815977611
 40
0.5070673262
 40
0.6315398368
 40
0.7550899517
 40
0.8778889692
 40
1.0
 40
1.0
 40
1.0
 40
1.0
 10
5.9136957381
 20
3.8786108536
 30
0.0
 10
5.9136957381
 20
3.8793170651
 30
0.0
 10
5.913792353
 20
3.8803790196
 30
0.0
 10
5.9141064521
 20
3.8817552962
 30
0.0
 10
5.9145359623
 20
3.883092881
 30
0.0
 10
5.9152770259
 20
3.8846810689
 30
0.0
 10
5.9164412996
 20
3.8864144055
 30
0.0
 10
5.9178252419
 20
3.8879548621
 30
0.0
 10
5.9193809546
 20
3.8892973687
 30
0.0
 10
5.921068849
 20
3.8904444258
 30
0.0
 10
5.9222644791
 20
3.8910852098
 30
0.0
 10
5.9228741757
 20
3.8913749151
 30
0.0
  0
SPLINE
  5
4C8
100
AcDbEntity
  8
0
100
AcDbSpline
 62
7
  6
CONTINUOUS
 70
0
 71
3
 72
16
 73
12
 74
0
 42
0.0000001
 43
0.0000001
 44
0.0000000001
 40
0.0
 40
0.0
 40
0.0
 40
0.0
 40
0.1318128587
 40
0.1973689497
 40
0.2624623668
 40
0.3908659202
 40
0.5168200494
 40
0.6404046043
 40
0.761889467
 40
0.8816673992
 40
1.0
 40
1.0
 40
1.0
 40
1.0
 10
6.6691719003
 20
3.6431108536
 30
0.0
 10
6.6691719003
 20
3.6423852296
 30
0.0
 10
6.6690714272
 20
3.6412954067
 30
0.0
 10
6.6687455919
 20
3.6398864445
 30
0.0
 10
6.6683041021
 20
3.6385286874
 30
0.0
 10
6.6675505802
 20
3.6369304067
 30
0.0
 10
6.6663799825
 20
3.6352016194
 30
0.0
 10
6.6650069828
 20
3.6336814224
 30
0.0
 10
6.6634814023
 20
3.6323677721
 30
0.0
 10
6.6618419148
 20
3.6312518146
 30
0.0
 10
6.6606860336
 20
3.6306284363
 30
0.0
 10
6.6600986504
 20
3.630346792
 30
0.0
  0
SPLINE
  5
4C9
100
AcDbEntity
  8
0
100
AcDbSpline
 62
7
  6
CONTINUOUS
 70
0
 71
3
 72
16
 73
12
 74
0
 42
0.0000001
 43
0.0000001
 44
0.0000000001
 40
0.0
 40
0.0
 40
0.0
 40
0.0
 40
0.1286888622
 40
0.1928894244
 40
0.2568523793
 40
0.3838100392
 40
0.5094489558
 40
0.633752135
 40
0.7568205235
 40
0.8788665549
 40
1.0
 40
1.0
 40
1.0
 40
1.0
 10
5.9059567134
 20
3.8786108536
 30
0.0
 10
5.9059567134
 20
3.8793169524
 30
0.0
 10
5.9060512941
 20
3.8803783395
 30
0.0
 10
5.9063591481
 20
3.8817548556
 30
0.0
 10
5.9067798008
 20
3.8830915916
 30
0.0
 10
5.9075052486
 20
3.8846786516
 30
0.0
 10
5.908646005
 20
3.8864121762
 30
0.0
 10
5.9100023084
 20
3.8879530267
 30
0.0
 10
5.911527164
 20
3.8892959785
 30
0.0
 10
5.9131816964
 20
3.8904434392
 30
0.0
 10
5.914354702
 20
3.8910849741
 30
0.0
 10
5.9149527697
 20
3.8913749151
 30
0.0
  0
SPLINE
  5
4CA
100
AcDbEntity
  8
0
100
AcDbSpline
 62
7
  6
CONTINUOUS
 70
0
 71
3
 72
16
 73
12
 74
0
 42
0.0000001
 43
0.0000001
 44
0.0000000001
 40
0.0
 40
0.0
 40
0.0
 40
0.0
 40
0.1297587488
 40
0.194434614
 40
0.2588086247
 40
0.3863439359
 40
0.5121811701
 40
0.6362942252
 40
0.758812154
 40
0.8799931895
 40
1.0
 40
1.0
 40
1.0
 40
1.0
 10
5.8992540734
 20
3.8786108536
 30
0.0
 10
5.8992540734
 20
3.8793168272
 30
0.0
 10
5.899346353
 20
3.8803775824
 30
0.0
 10
5.8996471172
 20
3.8817543633
 30
0.0
 10
5.9000577348
 20
3.883090145
 30
0.0
 10
5.9007654975
 20
3.8846759115
 30
0.0
 10
5.9018795537
 20
3.8864096182
 30
0.0
 10
5.9032044619
 20
3.8879508962
 30
0.0
 10
5.9046942654
 20
3.8892943475
 30
0.0
 10
5.9063109059
 20
3.8904422713
 30
0.0
 10
5.9074582218
 20
3.8910846936
 30
0.0
 10
5.9080430907
 20
3.8913749151
 30
0.0
  0
SPLINE
  5
4CB
100
AcDbEntity
  8
0
100
AcDbSpline
 62
7
  6
CONTINUOUS
 70
0
 71
3
 72
16
 73
12
 74
0
 42
0.0000001
 43
0.0000001
 44
0.0000000001
 40
0.0
 40
0.0
 40
0.0
 40
0.0
 40
0.1332972881
 40
0.1995064221
 40
0.2651581761
 40
0.3943260955
 40
0.5205147781
 40
0.6438105839
 40
0.764536244
 40
0.8831543637
 40
1.0
 40
1.0
 40
1.0
 40
1.0
 10
6.6747706699
 20
3.6431108536
 30
0.0
 10
6.6747706699
 20
3.6423854134
 30
0.0
 10
6.6746734868
 20
3.6412965133
 30
0.0
 10
6.6743577197
 20
3.6398871546
 30
0.0
 10
6.6739303757
 20
3.6385307328
 30
0.0
 10
6.6732015065
 20
3.6369341867
 30
0.0
 10
6.6720676073
 20
3.6352050443
 30
0.0
 10
6.6707371821
 20
3.6336842053
 30
0.0
 10
6.6692586064
 20
3.6323698634
 30
0.0
 10
6.667669477
 20
3.6312532951
 30
0.0
 10
6.6665476218
 20
3.6306287913
 30
0.0
 10
6.6659776634
 20
3.630346792
 30
0.0
  0
SPLINE
  5
4CC
100
AcDbEntity
  8
0
100
AcDbSpline
 62
7
  6
CONTINUOUS
 70
0
 71
3
 72
16
 73
12
 74
0
 42
0.0000001
 43
0.0000001
 44
0.0000000001
 40
0.0
 40
0.0
 40
0.0
 40
0.0
 40
0.1309613784
 40
0.1961723369
 40
0.2610099596
 40
0.3891997162
 40
0.5152660183
 40
0.6391697578
 40
0.7610690502
 40
0.8812719664
 40
1.0
 40
1.0
 40
1.0
 40
1.0
 10
5.8936061895
 20
3.8786108536
 30
0.0
 10
5.8936061895
 20
3.8793166909
 30
0.0
 10
5.8936959103
 20
3.8803767563
 30
0.0
 10
5.8939887595
 20
3.8817538237
 30
0.0
 10
5.8943881994
 20
3.8830885526
 30
0.0
 10
5.8950762731
 20
3.8846728602
 30
0.0
 10
5.89616052
 20
3.8864067305
 30
0.0
 10
5.8974503567
 20
3.8879484587
 30
0.0
 10
5.8989009997
 20
3.8892924587
 30
0.0
 10
5.9004753137
 20
3.8904409044
 30
0.0
 10
5.9015939406
 20
3.891084363
 30
0.0
 10
5.9021640777
 20
3.8913749151
 30
0.0
  0
SPLINE
  5
4CD
100
AcDbEntity
  8
0
100
AcDbSpline
 62
7
  6
CONTINUOUS
 70
0
 71
3
 72
17
 73
13
 74
0
 42
0.0000001
 43
0.0000001
 44
0.0000000001
 40
0.0
 40
0.0
 40
0.0
 40
0.0
 40
0.132286449
 40
0.1980875094
 40
0.2634368821
 40
0.3923502014
 40
0.5186697816
 40
0.5808591752
 40
0.6424055506
 40
0.7636108782
 40
0.8827137662
 40
1.0
 40
1.0
 40
1.0
 40
1.0
 10
5.8890285421
 20
3.8786108536
 30
0.0
 10
5.8890285421
 20
3.8793165449
 30
0.0
 10
5.8891154575
 20
3.8803758709
 30
0.0
 10
5.8893995855
 20
3.88175324
 30
0.0
 10
5.8897867543
 20
3.883086838
 30
0.0
 10
5.8904531284
 20
3.8846694285
 30
0.0
 10
5.8913342115
 20
3.8861223958
 30
0.0
 10
5.8921398959
 20
3.8871865914
 30
0.0
 10
5.8929958226
 20
3.8881749484
 30
0.0
 10
5.8941633261
 20
3.8892903743
 30
0.0
 10
5.895690903
 20
3.8904392948
 30
0.0
 10
5.8967779318
 20
3.8910839761
 30
0.0
 10
5.8973318446
 20
3.8913749151
 30
0.0
  0
SPLINE
  5
4CE
100
AcDbEntity
  8
0
100
AcDbSpline
 62
7
  6
CONTINUOUS
 70
0
 71
3
 72
16
 73
12
 74
0
 42
0.0000001
 43
0.0000001
 44
0.0000000001
 40
0.0
 40
0.0
 40
0.0
 40
0.0
 40
0.1349243477
 40
0.2018508122
 40
0.2681174456
 40
0.3981325065
 40
0.5245890973
 40
0.6475757776
 40
0.767469028
 40
0.884805512
 40
1.0
 40
1.0
 40
1.0
 40
1.0
 10
6.6792985586
 20
3.6431108536
 30
0.0
 10
6.6792985586
 20
3.6423856066
 30
0.0
 10
6.6792049288
 20
3.6412976794
 30
0.0
 10
6.6789000967
 20
3.6398879073
 30
0.0
 10
6.6784880689
 20
3.6385329143
 30
0.0
 10
6.6777858773
 20
3.6369382823
 30
0.0
 10
6.6766918428
 20
3.6352088243
 30
0.0
 10
6.6754076978
 20
3.6336873312
 30
0.0
 10
6.6739802211
 20
3.6323722504
 30
0.0
 10
6.6724458234
 20
3.6312550083
 30
0.0
 10
6.6713609361
 20
3.6306292058
 30
0.0
 10
6.6708098965
 20
3.630346792
 30
0.0
  0
SPLINE
  5
4CF
100
AcDbEntity
  8
0
100
AcDbSpline
 62
7
  6
CONTINUOUS
 70
0
 71
3
 72
15
 73
11
 74
0
 42
0.0000001
 43
0.0000001
 44
0.0000000001
 40
0.0
 40
0.0
 40
0.0
 40
0.0
 40
0.1337713365
 40
0.2660670487
 40
0.395812247
 40
0.5224490279
 40
0.6458967762
 40
0.7663704126
 40
0.8842864807
 40
1.0
 40
1.0
 40
1.0
 40
1.0
 10
5.8855336783
 20
3.8786108536
 30
0.0
 10
5.8855336783
 20
3.8793163908
 30
0.0
 10
5.8856449915
 20
3.8807222
 30
0.0
 10
5.8861337418
 20
3.8827598824
 30
0.0
 10
5.8869089431
 20
3.8846657776
 30
0.0
 10
5.8879246378
 20
3.8863999995
 30
0.0
 10
5.8891336613
 20
3.8879426082
 30
0.0
 10
5.8904940604
 20
3.8892878297
 30
0.0
 10
5.8919708497
 20
3.8904374859
 30
0.0
 10
5.8930233958
 20
3.8910835254
 30
0.0
 10
5.8935596364
 20
3.8913749151
 30
0.0
  0
SPLINE
  5
4D0
100
AcDbEntity
  8
0
100
AcDbSpline
 62
7
  6
CONTINUOUS
 70
0
 71
3
 72
15
 73
11
 74
0
 42
0.0000001
 43
0.0000001
 44
0.0000000001
 40
0.0
 40
0.0
 40
0.0
 40
0.0
 40
0.1353593835
 40
0.2689904323
 40
0.3996240537
 40
0.5265930886
 40
0.6497864086
 40
0.7694441578
 40
0.8860392775
 40
1.0
 40
1.0
 40
1.0
 40
1.0
 10
5.8831311772
 20
3.8786108536
 30
0.0
 10
5.8831311772
 20
3.8793162303
 30
0.0
 10
5.8832381136
 20
3.8807203157
 30
0.0
 10
5.8837079032
 20
3.882756664
 30
0.0
 10
5.8844533309
 20
3.8846619052
 30
0.0
 10
5.8854304316
 20
3.8863961355
 30
0.0
 10
5.8865939392
 20
3.8879391808
 30
0.0
 10
5.8879034768
 20
3.889285043
 30
0.0
 10
5.8893253103
 20
3.890435382
 30
0.0
 10
5.8903406244
 20
3.8910830019
 30
0.0
 10
5.8908577923
 20
3.8913749151
 30
0.0
  0
SPLINE
  5
4D1
100
AcDbEntity
  8
0
100
AcDbSpline
 62
7
  6
CONTINUOUS
 70
0
 71
3
 72
18
 73
14
 74
0
 42
0.0000001
 43
0.0000001
 44
0.0000000001
 40
0.0
 40
0.0
 40
0.0
 40
0.0
 40
0.1366750337
 40
0.2043742288
 40
0.2713040087
 40
0.4022344256
 40
0.5289798217
 40
0.5908226617
 40
0.6516901614
 40
0.7116266106
 40
0.7707193146
 40
0.8866379327
 40
1.0
 40
1.0
 40
1.0
 40
1.0
 10
6.6827431555
 20
3.6431108536
 30
0.0
 10
6.6827431555
 20
3.6423858069
 30
0.0
 10
6.6826533277
 20
3.6412988913
 30
0.0
 10
6.6823602704
 20
3.6398886975
 30
0.0
 10
6.6819646646
 20
3.6385352022
 30
0.0
 10
6.6812911617
 20
3.6369427566
 30
0.0
 10
6.6804078001
 20
3.635489253
 30
0.0
 10
6.6796082148
 20
3.6344338045
 30
0.0
 10
6.6789737199
 20
3.6337006242
 30
0.0
 10
6.6783050088
 20
3.6330189073
 30
0.0
 10
6.6773797286
 20
3.6321829166
 30
0.0
 10
6.6761577996
 20
3.6312569159
 30
0.0
 10
6.6751127834
 20
3.6306296887
 30
0.0
 10
6.6745821047
 20
3.630346792
 30
0.0
  0
SPLINE
  5
4D2
100
AcDbEntity
  8
0
100
AcDbSpline
 62
7
  6
CONTINUOUS
 70
0
 71
3
 72
17
 73
13
 74
0
 42
0.0000001
 43
0.0000001
 44
0.0000000001
 40
0.0
 40
0.0
 40
0.0
 40
0.0
 40
0.1370479393
 40
0.2049793584
 40
0.2721869021
 40
0.4037671978
 40
0.5310878259
 40
0.5931141514
 40
0.6540618986
 40
0.7728255221
 40
0.8879701315
 40
1.0
 40
1.0
 40
1.0
 40
1.0
 10
5.8818276239
 20
3.8786108536
 30
0.0
 10
5.8818276239
 20
3.8793160652
 30
0.0
 10
5.8819047444
 20
3.8803729449
 30
0.0
 10
5.8821581463
 20
3.8817512999
 30
0.0
 10
5.8825022796
 20
3.8830810211
 30
0.0
 10
5.883093059
 20
3.8846578139
 30
0.0
 10
5.8838798322
 20
3.8861156528
 30
0.0
 10
5.8846007951
 20
3.8871838428
 30
0.0
 10
5.8853614158
 20
3.8881690135
 30
0.0
 10
5.8863986971
 20
3.8892819824
 30
0.0
 10
5.8877615587
 20
3.8904329536
 30
0.0
 10
5.8887369727
 20
3.8910823949
 30
0.0
 10
5.8892337179
 20
3.8913749151
 30
0.0
  0
SPLINE
  5
4D3
100
AcDbEntity
  8
0
100
AcDbSpline
 62
7
  6
CONTINUOUS
 70
0
 71
3
 72
17
 73
13
 74
0
 42
0.0000001
 43
0.0000001
 44
0.0000000001
 40
0.0
 40
0.0
 40
0.0
 40
0.0
 40
0.1385850321
 40
0.2071306479
 40
0.2747905352
 40
0.4067431318
 40
0.5338379164
 40
0.5955961675
 40
0.6562129309
 40
0.7742219989
 40
0.8886210212
 40
1.0
 40
1.0
 40
1.0
 40
1.0
 10
6.6850950195
 20
3.6431108536
 30
0.0
 10
6.6850950195
 20
3.6423860123
 30
0.0
 10
6.6850092302
 20
3.6413001386
 30
0.0
 10
6.6847287486
 20
3.639889513
 30
0.0
 10
6.6843506392
 20
3.6385375977
 30
0.0
 10
6.683707547
 20
3.6369474079
 30
0.0
 10
6.682861635
 20
3.6354918837
 30
0.0
 10
6.6820953105
 20
3.6344348399
 30
0.0
 10
6.681292959
 20
3.6334659012
 30
0.0
 10
6.6802076844
 20
3.6323779467
 30
0.0
 10
6.6787953872
 20
3.6312592766
 30
0.0
 10
6.6777928793
 20
3.6306302509
 30
0.0
 10
6.6772839488
 20
3.630346792
 30
0.0
  0
SPLINE
  5
4D4
100
AcDbEntity
  8
0
100
AcDbSpline
 62
7
  6
CONTINUOUS
 70
0
 71
3
 72
17
 73
13
 74
0
 42
0.0000001
 43
0.0000001
 44
0.0000000001
 40
0.0
 40
0.0
 40
0.0
 40
0.0
 40
0.1406171371
 40
0.2100651271
 40
0.2785052527
 40
0.4115563634
 40
0.5390346137
 40
0.600706481
 40
0.6610573555
 40
0.7780289574
 40
0.8907820754
 40
1.0
 40
1.0
 40
1.0
 40
1.0
 10
6.6863477042
 20
3.6431108536
 30
0.0
 10
6.6863477042
 20
3.6423862205
 30
0.0
 10
6.6862661738
 20
3.6413014067
 30
0.0
 10
6.685999038
 20
3.6398903477
 30
0.0
 10
6.6856394273
 20
3.6385400661
 30
0.0
 10
6.6850284518
 20
3.6369522921
 30
0.0
 10
6.6842223567
 20
3.6354947002
 30
0.0
 10
6.6834914608
 20
3.6344359762
 30
0.0
 10
6.6827284297
 20
3.6334683348
 30
0.0
 10
6.6816964483
 20
3.6323813931
 30
0.0
 10
6.6803511463
 20
3.6312618842
 30
0.0
 10
6.6793938751
 20
3.6306309055
 30
0.0
 10
6.6789080232
 20
3.630346792
 30
0.0
  0
ENDSEC
  0
SECTION
  2
OBJECTS
  0
DICTIONARY
  5
C
100
AcDbDictionary
280
0
281
1
  3
ACAD_GROUP
350
D
  3
ACAD_MLINESTYLE
350
17
  3
ACAD_LAYOUT
350
1A
  3
ACAD_PLOTSETTINGS
350
19
  3
ACAD_PLOTSTYLENAME
350
E
  0
DICTIONARY
  5
D
102
{ACAD_REACTORS
330
C
102
}
100
AcDbDictionary
280
0
281
1
  0
ACDBDICTIONARYWDFLT
  5
E
102
{ACAD_REACTORS
330
C
102
}
100
AcDbDictionary
281
1
  3
Normal
350
F
100
AcDbDictionaryWithDefault
340
F
  0
DICTIONARY
  5
17
102
{ACAD_REACTORS
330
C
102
}
100
AcDbDictionary
280
0
281
1
  3
Standard
350
18
  0
DICTIONARY
  5
19
102
{ACAD_REACTORS
330
C
102
}
100
AcDbDictionary
281
1
  0
DICTIONARY
  5
1A
102
{ACAD_REACTORS
330
C
102
}
100
AcDbDictionary
281
1
  3
Model
350
4D5
  3
Layout1
350
4D6
  0
ACDBPLACEHOLDER
  5
F
102
{ACAD_REACTORS
330
E
102
}
  0
MLINESTYLE
  5
18
102
{ACAD_REACTORS
330
17
102
}
100
AcDbMlineStyle
  2
STANDARD
 70
0
  3

 62
256
 51
90.0
 52
90.0
 71
2
 49
0.5
 62
256
  6
BYLAYER
 49
-0.5
 62
256
  6
BYLAYER
  0
LAYOUT
  5
4D5
102
{ACAD_REACTORS
330
1A
102
}
100
AcDbPlotSettings
  1

  2
none_device
  4
ANSI_A_(11.00_x_8.50_Inches)
  6

 40
0.0
 41
0.0
 42
0.0
 43
0.0
 44
279.4
 45
215.9
 46
0.0
 47
0.0
 48
0.0
 49
0.0
140
0.0
141
0.0
142
1.0
143
1.0
 70
1024
 72
0
 73
0
 74
0
  7

 75
0
147
1.0
148
0.0
149
0.0
100
AcDbLayout
  1
Model
 70
0
 71
0
 10
0.0
 20
0.0
 11
11.0
 21
8.5
 12
0.0
 22
0.0
 32
0.0
 14
0.0
 24
0.0
 34
0.0
 15
0.0
 25
0.0
 35
0.0
146
0.0
 13
0.0
 23
0.0
 33
0.0
 16
1.0
 26
0.0
 36
0.0
 17
0.0
 27
1.0
 37
0.0
 76
0
330
203
345
0
346
0
  0
LAYOUT
  5
4D6
102
{ACAD_REACTORS
330
1A
102
}
100
AcDbPlotSettings
  1

  2
none_device
  4
ANSI_A_(11.00_x_8.50_Inches)
  6

 40
0.0
 41
0.0
 42
0.0
 43
0.0
 44
279.4
 45
215.9
 46
0.0
 47
0.0
 48
0.0
 49
0.0
140
0.0
141
0.0
142
1.0
143
1.0
 70
0
 72
0
 73
0
 74
0
  7

 75
0
147
1.0
148
0.0
149
0.0
100
AcDbLayout
  1
Layout1
 70
0
 71
1
 10
0.0
 20
0.0
 11
11.0
 21
8.5
 12
0.0
 22
0.0
 32
0.0
 14
0.0
 24
0.0
 34
0.0
 15
0.0
 25
0.0
 35
0.0
146
0.0
 13
0.0
 23
0.0
 33
0.0
 16
1.0
 26
0.0
 36
0.0
 17
0.0
 27
1.0
 37
0.0
 76
0
330
204
345
0
346
0
  0
ENDSEC
  0
EOF
