999
DXF file: 3230-5623_Top.dxf
999
Pro/ENGINEER 2023134 by Parametric Technology Corporation
  0
SECTION
  2
HEADER
  9
$ACADVER
  1
AC1032
  9
$DWGCODEPAGE
  3
ANSI_1252
  9
$EXTMAX
 10
11.0
 20
8.5
 30
0.0
  9
$EXTMIN
 10
0.0
 20
0.0
 30
0.0
  9
$LIMMIN
 10
0.0
 20
0.0
  9
$LIMMAX
 10
11.0
 20
8.5
  9
$VIEWCTR
 10
5.5
 20
4.25
  9
$VIEWSIZE
 40
8.5
  9
$CLAYER
  8
0
  9
$LTSCALE
 40
0.605
  9
$CELTYPE
  6
BYLAYER
  9
$DIMSCALE
 40
1.0
  9
$DIMASZ
 40
0.1
  9
$DIMEXO
 40
0.0625
  9
$DIMDLI
 40
0.418
  9
$DIMEXE
 40
0.125
  9
$DIMCEN
 40
0.099
  9
$DIMLFAC
 40
1.0
  9
$DIMBLK
  1
_FILLED
  9
$DIMALT
 70
1
  9
$DIMALTD
 70
2
  9
$DIMALTTD
 70
2
  9
$DIMALTF
 40
25.4
  9
$DIMTXT
 40
0.08
  9
$DIMTOL
 70
1
  9
$DIMLIM
 70
0
  9
$DIMTFAC
 40
1.0
  9
$DIMTP
 40
0.001
  9
$DIMTM
 40
0.001
  9
$DIMGAP
 40
0.09
  9
$DIMDSEP
 70
46
  9
$AUNITS
 70
0
  9
$PDMODE
 70
3
  9
$PDSIZE
 40
0.3125
  9
$HANDSEED
  5
435
  9
$TILEMODE
 70
1
  9
$MEASUREMENT
 70
0
  9
$INSUNITS
 70
1
  0
ENDSEC
  0
SECTION
  2
CLASSES
  0
CLASS
  1
ACDBDICTIONARYWDFLT
  2
AcDbDictionaryWithDefault
  3
AutoCAD 2000
 90
0
 91
1
280
0
281
0
  0
CLASS
  1
ACDBPLACEHOLDER
  2
AcDbPlaceHolder
  3
AutoCAD 2000
 90
0
 91
1
280
0
281
0
  0
CLASS
  1
LAYOUT
  2
AcDbLayout
  3
AutoCAD 2000
 90
0
 91
0
280
0
281
0
  0
ENDSEC
  0
SECTION
  2
TABLES
  0
TABLE
  2
VPORT
  5
8
100
AcDbSymbolTable
 70
2
  0
VPORT
  5
1F4
100
AcDbSymbolTableRecord
100
AcDbViewportTableRecord
  2
*ACTIVE
 70
0
 10
0.0
 20
0.0
 11
1.0
 21
1.0
 12
5.5
 22
4.25
 13
0.0
 23
0.0
 14
1.0
 24
1.0
 15
0.0
 25
0.0
 16
0.0
 26
0.0
 36
1.0
 17
0.0
 27
0.0
 37
0.0
 40
8.5
 41
1.2941176471
 42
50.0
 43
0.0
 44
0.0
 50
0.0
 51
0.0
 71
0
 72
100
 73
1
 74
1
 75
0
 76
0
 77
0
 78
0
  0
ENDTAB
  0
TABLE
  2
LTYPE
  5
5
100
AcDbSymbolTable
 70
6
  0
LTYPE
  5
14
100
AcDbSymbolTableRecord
100
AcDbLinetypeTableRecord
  2
BYBLOCK
 70
0
  3

 72
65
 73
0
 40
0.0
  0
LTYPE
  5
15
100
AcDbSymbolTableRecord
100
AcDbLinetypeTableRecord
  2
BYLAYER
 70
0
  3

 72
65
 73
0
 40
0.0
  0
LTYPE
  5
16
100
AcDbSymbolTableRecord
100
AcDbLinetypeTableRecord
  2
CONTINUOUS
 70
64
  3
Solid line
 72
65
 73
0
 40
0.0
  0
LTYPE
  5
1F5
100
AcDbSymbolTableRecord
100
AcDbLinetypeTableRecord
  2
CENTER
 70
64
  3
____ _ ____ _ ____ _ ____ _ ____ _ ____ _ ____
 72
65
 73
4
 40
0.6
 49
0.375
 74
0
 49
-0.075
 74
0
 49
0.075
 74
0
 49
-0.075
 74
0
  0
LTYPE
  5
1F6
100
AcDbSymbolTableRecord
100
AcDbLinetypeTableRecord
  2
HIDDEN
 70
64
  3
- - - - - - - - - - - - - - - - - - - -
 72
65
 73
2
 40
0.2
 49
0.1
 74
0
 49
-0.1
 74
0
  0
LTYPE
  5
1F7
100
AcDbSymbolTableRecord
100
AcDbLinetypeTableRecord
  2
PHANTOM
 70
64
  3
_____ _ _ _____ _ _ _____ _ _ _____
 72
65
 73
6
 40
0.8
 49
0.45
 74
0
 49
-0.05
 74
0
 49
0.1
 74
0
 49
-0.05
 74
0
 49
0.1
 74
0
 49
-0.05
 74
0
  0
LTYPE
  5
1F8
100
AcDbSymbolTableRecord
100
AcDbLinetypeTableRecord
  2
DOT
 70
64
  3
. . . . . . . . . . . . . . . . . . . .
 72
65
 73
2
 40
0.2
 49
0.1
 74
0
 49
-0.1
 74
0
  0
LTYPE
  5
1F9
100
AcDbSymbolTableRecord
100
AcDbLinetypeTableRecord
  2
DASHED
 70
64
  3
- - - - - - - - - - - - - - - - - - - -
 72
65
 73
2
 40
0.2
 49
0.1
 74
0
 49
-0.1
 74
0
  0
ENDTAB
  0
TABLE
  2
LAYER
  5
2
100
AcDbSymbolTable
 70
36
  0
LAYER
  5
10
100
AcDbSymbolTableRecord
100
AcDbLayerTableRecord
  2
0
 70
0
 62
7
  6
CONTINUOUS
370
-3
390
F
  0
LAYER
  5
1FA
100
AcDbSymbolTableRecord
100
AcDbLayerTableRecord
  2
DEFAULT_1
 70
0
 62
7
  6
CENTER
370
-3
390
F
  0
LAYER
  5
1FB
100
AcDbSymbolTableRecord
100
AcDbLayerTableRecord
  2
DEFAULT_2
 70
0
 62
8
  6
HIDDEN
370
-3
390
F
  0
LAYER
  5
1FC
100
AcDbSymbolTableRecord
100
AcDbLayerTableRecord
  2
DEFAULT_3
 70
0
 62
7
  6
PHANTOM
370
-3
390
F
  0
LAYER
  5
1FD
100
AcDbSymbolTableRecord
100
AcDbLayerTableRecord
  2
DEFAULT_COORDINATE_SYSTEM
 70
0
 62
7
  6
CONTINUOUS
370
-3
390
F
  0
LAYER
  5
1FE
100
AcDbSymbolTableRecord
100
AcDbLayerTableRecord
  2
DEFAULT_DATUM_AXES
 70
0
 62
7
  6
CONTINUOUS
370
-3
390
F
  0
LAYER
  5
1FF
100
AcDbSymbolTableRecord
100
AcDbLayerTableRecord
  2
DEFAULT_DATUM_CURVES
 70
0
 62
7
  6
CONTINUOUS
370
-3
390
F
  0
LAYER
  5
200
100
AcDbSymbolTableRecord
100
AcDbLayerTableRecord
  2
DEFAULT_DATUM_PLANES
 70
0
 62
7
  6
CONTINUOUS
370
-3
390
F
  0
ENDTAB
  0
TABLE
  2
STYLE
  5
3
100
AcDbSymbolTable
 70
1
  0
STYLE
  5
11
100
AcDbSymbolTableRecord
100
AcDbTextStyleTableRecord
  2
STANDARD
 70
0
 40
0.0
 41
0.8
 50
0.0
 71
0
 42
0.2
  3
txt
  4

  0
STYLE
  5
201
100
AcDbSymbolTableRecord
100
AcDbTextStyleTableRecord
  2
TEXTSTYLE_1
 70
0
 40
0.0
 41
0.8
 50
0.0
 71
0
 42
0.2
  3
gdt
  4

  0
ENDTAB
  0
TABLE
  2
VIEW
  5
6
100
AcDbSymbolTable
 70
0
  0
ENDTAB
  0
TABLE
  2
UCS
  5
7
100
AcDbSymbolTable
 70
0
  0
ENDTAB
  0
TABLE
  2
APPID
  5
9
100
AcDbSymbolTable
 70
1
  0
APPID
  5
202
100
AcDbSymbolTableRecord
100
AcDbRegAppTableRecord
  2
ACAD
 70
0
  0
ENDTAB
  0
TABLE
  2
BLOCK_RECORD
  5
1
100
AcDbSymbolTable
 70
0
  0
BLOCK_RECORD
  5
203
100
AcDbSymbolTableRecord
100
AcDbBlockTableRecord
  2
*Model_Space
  0
BLOCK_RECORD
  5
204
100
AcDbSymbolTableRecord
100
AcDbBlockTableRecord
  2
*Paper_Space
  0
BLOCK_RECORD
  5
205
100
AcDbSymbolTableRecord
100
AcDbBlockTableRecord
  2
_FILLED
  0
ENDTAB
  0
TABLE
  2
DIMSTYLE
  5
A
100
AcDbSymbolTable
 70
1
100
AcDbDimStyleTable
 71
0
  0
DIMSTYLE
105
206
100
AcDbSymbolTableRecord
100
AcDbDimStyleTableRecord
  2
STANDARD
 70
0
  3

  4

 40
1.0
 41
0.1
 42
0.0625
 43
0.38
 44
0.125
 45
0.0
 46
0.0
 47
0.001
 48
0.001
140
0.08
141
0.09
142
0.0
143
25.4
144
1.0
145
0.0
146
1.0
147
0.09
 71
1
 72
0
 73
1
 74
1
 75
0
 76
0
 77
0
 78
4
 79
1
170
1
171
2
172
0
173
0
174
0
175
0
176
0
177
0
178
0
270
2
179
3
271
3
272
3
273
2
274
2
275
0
280
0
281
0
282
0
283
1
284
4
285
0
286
0
287
3
288
0
340
11
278
46
341
205
342
205
343
205
344
205
  0
ENDTAB
  0
ENDSEC
  0
SECTION
  2
BLOCKS
  0
BLOCK
  5
20
100
AcDbEntity
  8
0
100
AcDbBlockBegin
  2
*Model_Space
 70
0
 10
0.0
 20
0.0
 30
0.0
  3
*Model_Space
  1

  0
ENDBLK
  5
21
100
AcDbEntity
  8
0
100
AcDbBlockEnd
  0
BLOCK
  5
1C
100
AcDbEntity
  8
0
100
AcDbBlockBegin
  2
*Paper_Space
 70
0
 10
0.0
 20
0.0
 30
0.0
  3
*Paper_Space
  1

  0
ENDBLK
  5
1D
100
AcDbEntity
  8
0
100
AcDbBlockEnd
  0
BLOCK
  5
207
100
AcDbEntity
  8
0
100
AcDbBlockBegin
  2
_FILLED
 70
64
 10
0.0
 20
0.0
  3
_FILLED
  1

  0
SOLID
  5
208
100
AcDbEntity
  8
0
  6
BYBLOCK
 62
0
100
AcDbTrace
 10
0.0
 20
0.0
 11
-1.0
 21
0.2
 12
-1.0
 22
-0.2
 13
-1.0
 23
-0.2
  0
ENDBLK
  5
209
100
AcDbEntity
  8
0
  6
BYBLOCK
 62
0
100
AcDbBlockEnd
  0
ENDSEC
  0
SECTION
  2
ENTITIES
  0
MTEXT
  5
20A
100
AcDbEntity
  8
0
100
AcDbMText
 62
2
  6
CONTINUOUS
  7
STANDARD
 71
2
 72
1
 10
5.5253208705
 20
2.70658392
 30
0.0
 11
1.0
 21
0.0
 31
0.0
 73
2
 44
0.9
  1
SCALE 0.500
 40
0.08
 41
0.704
  0
LINE
  5
20B
100
AcDbEntity
  8
0
100
AcDbLine
 62
7
  6
CONTINUOUS
 10
0.0
 20
0.0
 11
0.0
 21
8.5
  0
LINE
  5
20C
100
AcDbEntity
  8
0
100
AcDbLine
 62
7
  6
CONTINUOUS
 10
0.0
 20
0.0
 11
11.0
 21
0.0
  0
LINE
  5
20D
100
AcDbEntity
  8
0
100
AcDbLine
 62
7
  6
CONTINUOUS
 10
0.0
 20
8.5
 11
11.0
 21
8.5
  0
LINE
  5
20E
100
AcDbEntity
  8
0
100
AcDbLine
 62
7
  6
CONTINUOUS
 10
11.0
 20
0.0
 11
11.0
 21
8.5
  0
LINE
  5
20F
100
AcDbEntity
  8
0
100
AcDbLine
 62
7
  6
CONTINUOUS
 10
4.8170818446
 20
5.3939190189
 11
4.8085931825
 21
5.3878815285
  0
LINE
  5
210
100
AcDbEntity
  8
0
100
AcDbLine
 62
7
  6
CONTINUOUS
 10
4.8219140777
 20
5.414046718
 11
4.8131210711
 21
5.408461764
  0
LINE
  5
211
100
AcDbEntity
  8
0
100
AcDbLine
 62
7
  6
CONTINUOUS
 10
5.3144500957
 20
5.6987130658
 11
5.3061524873
 21
5.6936218942
  0
LINE
  5
212
100
AcDbEntity
  8
0
100
AcDbLine
 62
7
  6
CONTINUOUS
 10
4.8277930907
 20
5.4338939333
 11
4.8187198407
 21
5.4287768237
  0
LINE
  5
213
100
AcDbEntity
  8
0
100
AcDbLine
 62
7
  6
CONTINUOUS
 10
5.3345523907
 20
5.6923928123
 11
5.3259997026
 21
5.6877428812
  0
LINE
  5
214
100
AcDbEntity
  8
0
100
AcDbLine
 62
7
  6
CONTINUOUS
 10
4.8347027697
 20
5.4534062649
 11
4.8253741455
 21
5.4487710253
  0
LINE
  5
215
100
AcDbEntity
  8
0
100
AcDbLine
 62
7
  6
CONTINUOUS
 10
5.3542963597
 20
5.6850291476
 11
5.3455120341
 21
5.6808332022
  0
LINE
  5
216
100
AcDbEntity
  8
0
100
AcDbLine
 62
7
  6
CONTINUOUS
 10
4.8426241757
 20
5.4725302309
 11
4.8330657464
 21
5.4683895662
  0
LINE
  5
217
100
AcDbEntity
  8
0
100
AcDbLine
 62
7
  6
CONTINUOUS
 10
5.3736278859
 20
5.6766422551
 11
5.3646360001
 21
5.6729117961
  0
LINE
  5
218
100
AcDbEntity
  8
0
100
AcDbLine
 62
7
  6
CONTINUOUS
 10
4.8515355968
 20
5.4912134137
 11
4.8417735614
 21
5.4875786732
  0
LINE
  5
219
100
AcDbEntity
  8
0
100
AcDbLine
 62
7
  6
CONTINUOUS
 10
5.3924939828
 20
5.6672551225
 11
5.383319183
 21
5.664000375
  0
LINE
  5
21A
100
AcDbEntity
  8
0
100
AcDbLine
 62
7
  6
CONTINUOUS
 10
4.8614126074
 20
5.5094046042
 11
4.8514737228
 21
5.5062857504
  0
LINE
  5
21B
100
AcDbEntity
  8
0
100
AcDbLine
 62
7
  6
CONTINUOUS
 10
5.4108429399
 20
5.6568934796
 11
5.4015103734
 21
5.6541233645
  0
LINE
  5
21C
100
AcDbEntity
  8
0
100
AcDbLine
 62
7
  6
CONTINUOUS
 10
4.8133096364
 20
5.249864198
 11
4.8075484307
 21
5.2411856507
  0
LINE
  5
21D
100
AcDbEntity
  8
0
100
AcDbLine
 62
7
  6
CONTINUOUS
 10
4.8106077923
 20
5.2703867414
 11
4.804400282
 21
5.2620216059
  0
LINE
  5
21E
100
AcDbEntity
  8
0
100
AcDbLine
 62
7
  6
CONTINUOUS
 10
5.1684144827
 20
5.7126547946
 11
5.1624925107
 21
5.7049281796
  0
LINE
  5
21F
100
AcDbEntity
  8
0
100
AcDbLine
 62
7
  6
CONTINUOUS
 10
4.8089837179
 20
5.291022563
 11
4.8023469175
 21
5.2829937676
  0
LINE
  5
220
100
AcDbEntity
  8
0
100
AcDbLine
 62
7
  6
CONTINUOUS
 10
5.1894465682
 20
5.7139583479
 11
5.1831283322
 21
5.7065522539
  0
LINE
  5
221
100
AcDbEntity
  8
0
100
AcDbLine
 62
7
  6
CONTINUOUS
 10
4.8084418647
 20
5.3117151013
 11
4.8013939651
 21
5.3040446524
  0
LINE
  5
222
100
AcDbEntity
  8
0
100
AcDbLine
 62
7
  6
CONTINUOUS
 10
5.2105180526
 20
5.7141593804
 11
5.2038208705
 21
5.7070941071
  0
LINE
  5
223
100
AcDbEntity
  8
0
100
AcDbLine
 62
7
  6
CONTINUOUS
 10
4.8089837179
 20
5.3324076397
 11
4.8015440369
 21
5.3251165614
  0
LINE
  5
224
100
AcDbEntity
  8
0
100
AcDbLine
 62
7
  6
CONTINUOUS
 10
5.2315711805
 20
5.713257341
 11
5.2245134089
 21
5.7065522539
  0
LINE
  5
225
100
AcDbEntity
  8
0
100
AcDbLine
 62
7
  6
CONTINUOUS
 10
4.8106077923
 20
5.3530434612
 11
4.8027967216
 21
5.3461517379
  0
LINE
  5
226
100
AcDbEntity
  8
0
100
AcDbLine
 62
7
  6
CONTINUOUS
 10
5.2525482468
 20
5.7112547024
 11
5.2451492304
 21
5.7049281796
  0
LINE
  5
227
100
AcDbEntity
  8
0
100
AcDbLine
 62
7
  6
CONTINUOUS
 10
4.8133096364
 20
5.3735660046
 11
4.8051485855
 21
5.367092526
  0
LINE
  5
228
100
AcDbEntity
  8
0
100
AcDbLine
 62
7
  6
CONTINUOUS
 10
5.2733917547
 20
5.7081569534
 11
5.2656717738
 21
5.7022263355
  0
LINE
  5
229
100
AcDbEntity
  8
0
100
AcDbLine
 62
7
  6
CONTINUOUS
 10
5.2940445736
 20
5.7039725849
 11
5.2860247881
 21
5.6984541272
  0
LINE
  5
22A
100
AcDbEntity
  8
0
100
AcDbLine
 62
7
  6
CONTINUOUS
 10
4.8347027697
 20
5.1700239377
 11
4.8308718316
 21
5.1603372154
  0
LINE
  5
22B
100
AcDbEntity
  8
0
100
AcDbLine
 62
7
  6
CONTINUOUS
 10
4.8277930907
 20
5.1895362693
 11
4.8234604389
 21
5.1800633181
  0
LINE
  5
22C
100
AcDbEntity
  8
0
100
AcDbLine
 62
7
  6
CONTINUOUS
 10
5.0858281476
 20
5.6965318984
 11
5.0816420385
 21
5.6877428812
  0
LINE
  5
22D
100
AcDbEntity
  8
0
100
AcDbLine
 62
7
  6
CONTINUOUS
 10
4.8219140777
 20
5.2093834846
 11
4.8170915876
 21
5.2001502692
  0
LINE
  5
22E
100
AcDbEntity
  8
0
100
AcDbLine
 62
7
  6
CONTINUOUS
 10
5.1061296076
 20
5.7021797824
 11
5.1014892538
 21
5.6936218942
  0
LINE
  5
22F
100
AcDbEntity
  8
0
100
AcDbLine
 62
7
  6
CONTINUOUS
 10
4.8170818446
 20
5.2295111837
 11
4.8117827345
 21
5.2205430118
  0
LINE
  5
230
100
AcDbEntity
  8
0
100
AcDbLine
 62
7
  6
CONTINUOUS
 10
5.1266988326
 20
5.7067574297
 11
5.1216169529
 21
5.6984541272
  0
LINE
  5
231
100
AcDbEntity
  8
0
100
AcDbLine
 62
7
  6
CONTINUOUS
 10
5.1474794437
 20
5.7102522936
 11
5.1419699673
 21
5.7022263355
  0
LINE
  5
232
100
AcDbEntity
  8
0
100
AcDbLine
 62
7
  6
CONTINUOUS
 10
4.8614126074
 20
5.1140255984
 11
4.8591441717
 21
5.103858845
  0
LINE
  5
233
100
AcDbEntity
  8
0
100
AcDbLine
 62
7
  6
CONTINUOUS
 10
5.0083986608
 20
5.6635906616
 11
5.0061313676
 21
5.6541233645
  0
LINE
  5
234
100
AcDbEntity
  8
0
100
AcDbLine
 62
7
  6
CONTINUOUS
 10
4.8515355968
 20
5.1322167889
 11
4.8487381832
 21
5.1221826894
  0
LINE
  5
235
100
AcDbEntity
  8
0
100
AcDbLine
 62
7
  6
CONTINUOUS
 10
5.0270822241
 20
5.6733360366
 11
5.0243225581
 21
5.664000375
  0
LINE
  5
236
100
AcDbEntity
  8
0
100
AcDbLine
 62
7
  6
CONTINUOUS
 10
4.8426241757
 20
5.1508999717
 11
4.8393054517
 21
5.141026029
  0
LINE
  5
237
100
AcDbEntity
  8
0
100
AcDbLine
 62
7
  6
CONTINUOUS
 10
5.0462502157
 20
5.6820902337
 11
5.043005741
 21
5.6729117961
  0
LINE
  5
238
100
AcDbEntity
  8
0
100
AcDbLine
 62
7
  6
CONTINUOUS
 10
5.0658500975
 20
5.6898292584
 11
5.0621297069
 21
5.6808332022
  0
LINE
  5
239
100
AcDbEntity
  8
0
100
AcDbLine
 62
7
  6
CONTINUOUS
 10
4.8965536729
 20
5.0628950308
 11
4.8959035961
 21
5.0524985854
  0
LINE
  5
23A
100
AcDbEntity
  8
0
100
AcDbLine
 62
7
  6
CONTINUOUS
 10
4.9557591674
 20
5.6286877207
 11
4.9550008
 21
5.6189822989
  0
LINE
  5
23B
100
AcDbEntity
  8
0
100
AcDbLine
 62
7
  6
CONTINUOUS
 10
4.8839525356
 20
5.0793171526
 11
4.8827592418
 21
5.0689689777
  0
LINE
  5
23C
100
AcDbEntity
  8
0
100
AcDbLine
 62
7
  6
CONTINUOUS
 10
4.9726881925
 20
5.6412358672
 11
4.9714229219
 21
5.6315834362
  0
LINE
  5
23D
100
AcDbEntity
  8
0
100
AcDbLine
 62
7
  6
CONTINUOUS
 10
4.8722281352
 20
5.0963762611
 11
4.8704948951
 21
5.0861047201
  0
LINE
  5
23E
100
AcDbEntity
  8
0
100
AcDbLine
 62
7
  6
CONTINUOUS
 10
4.9902507362
 20
5.6528808202
 11
4.9884820303
 21
5.6433078367
  0
LINE
  5
23F
100
AcDbEntity
  8
0
100
AcDbLine
 62
7
  6
CONTINUOUS
 10
4.9392606766
 20
5.017891239
 11
4.9402449657
 21
5.0075210968
  0
LINE
  5
240
100
AcDbEntity
  8
0
100
AcDbLine
 62
7
  6
CONTINUOUS
 10
4.9242456944
 20
5.0321399252
 11
4.9246859032
 21
5.0217324811
  0
LINE
  5
241
100
AcDbEntity
  8
0
100
AcDbLine
 62
7
  6
CONTINUOUS
 10
4.9239854146
 20
5.6010218029
 11
4.9242456944
 21
5.5912902775
  0
LINE
  5
242
100
AcDbEntity
  8
0
100
AcDbLine
 62
7
  6
CONTINUOUS
 10
4.9099970083
 20
5.0471549074
 11
4.9098919303
 21
5.0367386877
  0
LINE
  5
243
100
AcDbEntity
  8
0
100
AcDbLine
 62
7
  6
CONTINUOUS
 10
4.9395100622
 20
5.6152707743
 11
4.9392606766
 21
5.6055389636
  0
LINE
  5
244
100
AcDbEntity
  8
0
100
AcDbLine
 62
7
  6
CONTINUOUS
 10
5.0730893504
 20
4.9310373903
 11
5.0788208705
 21
4.934153507
  0
LINE
  5
245
100
AcDbEntity
  8
0
100
AcDbLine
 62
7
  6
CONTINUOUS
 10
5.0533453814
 20
4.938401055
 11
5.0621297069
 21
4.9425970004
  0
LINE
  5
246
100
AcDbEntity
  8
0
100
AcDbLine
 62
7
  6
CONTINUOUS
 10
5.0340138552
 20
4.9467879476
 11
5.043005741
 21
4.9505184065
  0
LINE
  5
247
100
AcDbEntity
  8
0
100
AcDbLine
 62
7
  6
CONTINUOUS
 10
5.0151477583
 20
4.9561750801
 11
5.0243225581
 21
4.9594298276
  0
LINE
  5
248
100
AcDbEntity
  8
0
100
AcDbLine
 62
7
  6
CONTINUOUS
 10
4.9967988012
 20
4.9665367231
 11
5.0061313676
 21
4.9693068381
  0
LINE
  5
249
100
AcDbEntity
  8
0
100
AcDbLine
 62
7
  6
CONTINUOUS
 10
4.9092277765
 20
5.585979862
 11
4.9099970083
 21
5.5762752952
  0
LINE
  5
24A
100
AcDbEntity
  8
0
100
AcDbLine
 62
7
  6
CONTINUOUS
 10
5.0788208705
 20
5.3117151013
 11
5.0788208705
 21
3.3117151013
  0
LINE
  5
24B
100
AcDbEntity
  8
0
100
AcDbLine
 62
7
  6
CONTINUOUS
 10
5.5986580232
 20
5.3324076397
 11
5.6052948236
 21
5.340436435
  0
LINE
  5
24C
100
AcDbEntity
  8
0
100
AcDbLine
 62
7
  6
CONTINUOUS
 10
5.5991998763
 20
5.3117151013
 11
5.606247776
 21
5.3193855502
  0
LINE
  5
24D
100
AcDbEntity
  8
0
100
AcDbLine
 62
7
  6
CONTINUOUS
 10
5.5986580232
 20
5.291022563
 11
5.6060977042
 21
5.2983136412
  0
LINE
  5
24E
100
AcDbEntity
  8
0
100
AcDbLine
 62
7
  6
CONTINUOUS
 10
5.5970339488
 20
5.2703867414
 11
5.6048450195
 21
5.2772784647
  0
LINE
  5
24F
100
AcDbEntity
  8
0
100
AcDbLine
 62
7
  6
CONTINUOUS
 10
5.5943321047
 20
5.249864198
 11
5.6024931555
 21
5.2563376766
  0
LINE
  5
250
100
AcDbEntity
  8
0
100
AcDbLine
 62
7
  6
CONTINUOUS
 10
5.5905598965
 20
5.2295111837
 11
5.5990485586
 21
5.2355486742
  0
LINE
  5
251
100
AcDbEntity
  8
0
100
AcDbLine
 62
7
  6
CONTINUOUS
 10
5.5857276634
 20
5.2093834846
 11
5.5945206699
 21
5.2149684386
  0
LINE
  5
252
100
AcDbEntity
  8
0
100
AcDbLine
 62
7
  6
CONTINUOUS
 10
5.5798486504
 20
5.1895362693
 11
5.5889219003
 21
5.1946533789
  0
LINE
  5
253
100
AcDbEntity
  8
0
100
AcDbLine
 62
7
  6
CONTINUOUS
 10
5.5729389714
 20
5.1700239377
 11
5.5822675956
 21
5.1746591773
  0
LINE
  5
254
100
AcDbEntity
  8
0
100
AcDbLine
 62
7
  6
CONTINUOUS
 10
5.5650175653
 20
5.1508999717
 11
5.5745759947
 21
5.1550406365
  0
LINE
  5
255
100
AcDbEntity
  8
0
100
AcDbLine
 62
7
  6
CONTINUOUS
 10
5.5561061442
 20
5.1322167889
 11
5.5658681797
 21
5.1358515294
  0
LINE
  5
256
100
AcDbEntity
  8
0
100
AcDbLine
 62
7
  6
CONTINUOUS
 10
5.5462291337
 20
5.1140255984
 11
5.5561680183
 21
5.1171444522
  0
LINE
  5
257
100
AcDbEntity
  8
0
100
AcDbLine
 62
7
  6
CONTINUOUS
 10
4.9714229219
 20
4.9918467664
 11
4.9734857939
 21
4.9816363191
  0
LINE
  5
258
100
AcDbEntity
  8
0
100
AcDbLine
 62
7
  6
CONTINUOUS
 10
4.8821731143
 20
5.5536840475
 11
4.8839525356
 21
5.54411305
  0
LINE
  5
259
100
AcDbEntity
  8
0
100
AcDbLine
 62
7
  6
CONTINUOUS
 10
4.9550008
 20
5.0044479037
 11
4.9565264714
 21
4.9941434871
  0
LINE
  5
25A
100
AcDbEntity
  8
0
100
AcDbLine
 62
7
  6
CONTINUOUS
 10
4.8952775976
 20
5.5701861804
 11
4.8965536729
 21
5.5605351719
  0
LINE
  5
25B
100
AcDbEntity
  8
0
100
AcDbLine
 62
7
  6
CONTINUOUS
 10
5.5798486504
 20
5.4338939333
 11
5.5841813022
 21
5.4433668845
  0
LINE
  5
25C
100
AcDbEntity
  8
0
100
AcDbLine
 62
7
  6
CONTINUOUS
 10
5.5857276634
 20
5.414046718
 11
5.5905501534
 21
5.4232799334
  0
LINE
  5
25D
100
AcDbEntity
  8
0
100
AcDbLine
 62
7
  6
CONTINUOUS
 10
5.5905598965
 20
5.3939190189
 11
5.5958590066
 21
5.4028871908
  0
LINE
  5
25E
100
AcDbEntity
  8
0
100
AcDbLine
 62
7
  6
CONTINUOUS
 10
5.5943321047
 20
5.3735660046
 11
5.6000933104
 21
5.3822445519
  0
LINE
  5
25F
100
AcDbEntity
  8
0
100
AcDbLine
 62
7
  6
CONTINUOUS
 10
5.5970339488
 20
5.3530434612
 11
5.603241459
 21
5.3614085967
  0
LINE
  5
260
100
AcDbEntity
  8
0
100
AcDbLine
 62
7
  6
CONTINUOUS
 10
5.0243225581
 20
4.9594298276
 11
5.0279572986
 21
4.9496677921
  0
LINE
  5
261
100
AcDbEntity
  8
0
100
AcDbLine
 62
7
  6
CONTINUOUS
 10
4.8482808493
 20
5.5003882136
 11
4.8515355968
 21
5.4912134137
  0
LINE
  5
262
100
AcDbEntity
  8
0
100
AcDbLine
 62
7
  6
CONTINUOUS
 10
5.0061313676
 20
4.9693068381
 11
5.0092502214
 21
4.9593679536
  0
LINE
  5
263
100
AcDbEntity
  8
0
100
AcDbLine
 62
7
  6
CONTINUOUS
 10
4.8586424923
 20
5.5187371706
 11
4.8614126074
 21
5.5094046042
  0
LINE
  5
264
100
AcDbEntity
  8
0
100
AcDbLine
 62
7
  6
CONTINUOUS
 10
4.9884820303
 20
4.9801223659
 11
4.9910764488
 21
4.9700338741
  0
LINE
  5
265
100
AcDbEntity
  8
0
100
AcDbLine
 62
7
  6
CONTINUOUS
 10
4.8699502452
 20
5.5365186946
 11
4.8722281352
 21
5.5270539415
  0
LINE
  5
266
100
AcDbEntity
  8
0
100
AcDbLine
 62
7
  6
CONTINUOUS
 10
5.3992430803
 20
4.959839541
 11
5.4015103734
 21
4.9693068381
  0
LINE
  5
267
100
AcDbEntity
  8
0
100
AcDbLine
 62
7
  6
CONTINUOUS
 10
5.5561061442
 20
5.4912134137
 11
5.5589035579
 21
5.5012475132
  0
LINE
  5
268
100
AcDbEntity
  8
0
100
AcDbLine
 62
7
  6
CONTINUOUS
 10
5.380559517
 20
4.950094166
 11
5.383319183
 21
4.9594298276
  0
LINE
  5
269
100
AcDbEntity
  8
0
100
AcDbLine
 62
7
  6
CONTINUOUS
 10
5.5650175653
 20
5.4725302309
 11
5.5683362894
 21
5.4824041737
  0
LINE
  5
26A
100
AcDbEntity
  8
0
100
AcDbLine
 62
7
  6
CONTINUOUS
 10
5.3613915254
 20
4.9413399689
 11
5.3646360001
 21
4.9505184065
  0
LINE
  5
26B
100
AcDbEntity
  8
0
100
AcDbLine
 62
7
  6
CONTINUOUS
 10
5.5729389714
 20
5.4534062649
 11
5.5767699095
 21
5.4630929872
  0
LINE
  5
26C
100
AcDbEntity
  8
0
100
AcDbLine
 62
7
  6
CONTINUOUS
 10
5.3417916436
 20
4.9336009442
 11
5.3455120341
 21
4.9425970004
  0
LINE
  5
26D
100
AcDbEntity
  8
0
100
AcDbLine
 62
7
  6
CONTINUOUS
 10
5.0621297069
 20
4.9425970004
 11
5.0667649466
 21
4.9332683763
  0
LINE
  5
26E
100
AcDbEntity
  8
0
100
AcDbLine
 62
7
  6
CONTINUOUS
 10
4.8305068242
 20
5.4621905905
 11
4.8347027697
 21
5.4534062649
  0
LINE
  5
26F
100
AcDbEntity
  8
0
100
AcDbLine
 62
7
  6
CONTINUOUS
 10
5.043005741
 20
4.9505184065
 11
5.0471464057
 21
4.9409599772
  0
LINE
  5
270
100
AcDbEntity
  8
0
100
AcDbLine
 62
7
  6
CONTINUOUS
 10
4.8388937168
 20
5.4815221166
 11
4.8426241757
 21
5.4725302309
  0
LINE
  5
271
100
AcDbEntity
  8
0
100
AcDbLine
 62
7
  6
CONTINUOUS
 10
5.3288208705
 20
5.3117151013
 11
5.3288208705
 21
3.3117151013
  0
LINE
  5
272
100
AcDbEntity
  8
0
100
AcDbLine
 62
7
  6
CONTINUOUS
 10
5.4518825736
 20
4.9947424819
 11
5.4526409411
 21
5.0044479037
  0
LINE
  5
273
100
AcDbEntity
  8
0
100
AcDbLine
 62
7
  6
CONTINUOUS
 10
5.5236892055
 20
5.54411305
 11
5.5248824993
 21
5.554461225
  0
LINE
  5
274
100
AcDbEntity
  8
0
100
AcDbLine
 62
7
  6
CONTINUOUS
 10
5.4349535485
 20
4.9821943354
 11
5.4362188192
 21
4.9918467664
  0
LINE
  5
275
100
AcDbEntity
  8
0
100
AcDbLine
 62
7
  6
CONTINUOUS
 10
5.5354136059
 20
5.5270539415
 11
5.537146846
 21
5.5373254825
  0
LINE
  5
276
100
AcDbEntity
  8
0
100
AcDbLine
 62
7
  6
CONTINUOUS
 10
5.4173910049
 20
4.9705493824
 11
5.4191597107
 21
4.9801223659
  0
LINE
  5
277
100
AcDbEntity
  8
0
100
AcDbLine
 62
7
  6
CONTINUOUS
 10
5.5462291337
 20
5.5094046042
 11
5.5484975694
 21
5.5195713576
  0
LINE
  5
278
100
AcDbEntity
  8
0
100
AcDbLine
 62
7
  6
CONTINUOUS
 10
4.811563387
 20
5.4019388044
 11
4.8170818446
 21
5.3939190189
  0
LINE
  5
279
100
AcDbEntity
  8
0
100
AcDbLine
 62
7
  6
CONTINUOUS
 10
4.816822906
 20
5.4223443264
 11
4.8219140777
 21
5.414046718
  0
LINE
  5
27A
100
AcDbEntity
  8
0
100
AcDbLine
 62
7
  6
CONTINUOUS
 10
4.8231431596
 20
5.4424466215
 11
4.8277930907
 21
5.4338939333
  0
LINE
  5
27B
100
AcDbEntity
  8
0
100
AcDbLine
 62
7
  6
CONTINUOUS
 10
5.4984139646
 20
5.0374503406
 11
5.4976447328
 21
5.0471549074
  0
LINE
  5
27C
100
AcDbEntity
  8
0
100
AcDbLine
 62
7
  6
CONTINUOUS
 10
5.4833960467
 20
5.5912902775
 11
5.4829558379
 21
5.6016977215
  0
LINE
  5
27D
100
AcDbEntity
  8
0
100
AcDbLine
 62
7
  6
CONTINUOUS
 10
5.4836563265
 20
5.0224083997
 11
5.4833960467
 21
5.0321399252
  0
LINE
  5
27E
100
AcDbEntity
  8
0
100
AcDbLine
 62
7
  6
CONTINUOUS
 10
5.4976447328
 20
5.5762752952
 11
5.4977498108
 21
5.586691515
  0
LINE
  5
27F
100
AcDbEntity
  8
0
100
AcDbLine
 62
7
  6
CONTINUOUS
 10
5.4681316788
 20
5.0081594283
 11
5.4683810644
 21
5.017891239
  0
LINE
  5
280
100
AcDbEntity
  8
0
100
AcDbLine
 62
7
  6
CONTINUOUS
 10
5.5110880681
 20
5.5605351719
 11
5.511738145
 21
5.5709316172
  0
LINE
  5
281
100
AcDbEntity
  8
0
100
AcDbLine
 62
7
  6
CONTINUOUS
 10
4.8042812695
 20
5.3604424775
 11
4.8106077923
 21
5.3530434612
  0
LINE
  5
282
100
AcDbEntity
  8
0
100
AcDbLine
 62
7
  6
CONTINUOUS
 10
4.8073790185
 20
5.3812859854
 11
4.8133096364
 21
5.3735660046
  0
LINE
  5
283
100
AcDbEntity
  8
0
100
AcDbLine
 62
7
  6
CONTINUOUS
 10
5.4683810644
 20
5.6055389636
 11
5.4673967754
 21
5.6159091058
  0
LINE
  5
284
100
AcDbEntity
  8
0
100
AcDbLine
 62
7
  6
CONTINUOUS
 10
4.8015776239
 20
5.2973407989
 11
4.8089837179
 21
5.291022563
  0
LINE
  5
285
100
AcDbEntity
  8
0
100
AcDbLine
 62
7
  6
CONTINUOUS
 10
4.8013765915
 20
5.3184122834
 11
4.8084418647
 21
5.3117151013
  0
LINE
  5
286
100
AcDbEntity
  8
0
100
AcDbLine
 62
7
  6
CONTINUOUS
 10
4.8022786308
 20
5.3394654113
 11
4.8089837179
 21
5.3324076397
  0
LINE
  5
287
100
AcDbEntity
  8
0
100
AcDbLine
 62
7
  6
CONTINUOUS
 10
5.5254686267
 20
5.0697461551
 11
5.5236892055
 21
5.0793171526
  0
LINE
  5
288
100
AcDbEntity
  8
0
100
AcDbLine
 62
7
  6
CONTINUOUS
 10
5.4526409411
 20
5.6189822989
 11
5.4511152696
 21
5.6292867155
  0
LINE
  5
289
100
AcDbEntity
  8
0
100
AcDbLine
 62
7
  6
CONTINUOUS
 10
5.5123641435
 20
5.0532440222
 11
5.5110880681
 21
5.0628950308
  0
LINE
  5
28A
100
AcDbEntity
  8
0
100
AcDbLine
 62
7
  6
CONTINUOUS
 10
4.8087785421
 20
5.2345930633
 11
4.8170818446
 21
5.2295111837
  0
LINE
  5
28B
100
AcDbEntity
  8
0
100
AcDbLine
 62
7
  6
CONTINUOUS
 10
4.8052836783
 20
5.2553736744
 11
4.8133096364
 21
5.249864198
  0
LINE
  5
28C
100
AcDbEntity
  8
0
100
AcDbLine
 62
7
  6
CONTINUOUS
 10
4.8028811772
 20
5.2763087135
 11
4.8106077923
 21
5.2703867414
  0
LINE
  5
28D
100
AcDbEntity
  8
0
100
AcDbLine
 62
7
  6
CONTINUOUS
 10
5.5593608918
 20
5.123041989
 11
5.5561061442
 21
5.1322167889
  0
LINE
  5
28E
100
AcDbEntity
  8
0
100
AcDbLine
 62
7
  6
CONTINUOUS
 10
5.4015103734
 20
5.6541233645
 11
5.3983915196
 21
5.664062249
  0
LINE
  5
28F
100
AcDbEntity
  8
0
100
AcDbLine
 62
7
  6
CONTINUOUS
 10
5.5489992488
 20
5.104693032
 11
5.5462291337
 21
5.1140255984
  0
LINE
  5
290
100
AcDbEntity
  8
0
100
AcDbLine
 62
7
  6
CONTINUOUS
 10
5.4191597107
 20
5.6433078367
 11
5.4165652922
 21
5.6533963285
  0
LINE
  5
291
100
AcDbEntity
  8
0
100
AcDbLine
 62
7
  6
CONTINUOUS
 10
5.5376914959
 20
5.086911508
 11
5.5354136059
 21
5.0963762611
  0
LINE
  5
292
100
AcDbEntity
  8
0
100
AcDbLine
 62
7
  6
CONTINUOUS
 10
5.4362188192
 20
5.6315834362
 11
5.4341559472
 21
5.6417938835
  0
LINE
  5
293
100
AcDbEntity
  8
0
100
AcDbLine
 62
7
  6
CONTINUOUS
 10
5.3646360001
 20
4.9505184065
 11
5.3745099429
 21
4.9471996825
  0
LINE
  5
294
100
AcDbEntity
  8
0
100
AcDbLine
 62
7
  6
CONTINUOUS
 10
4.8334457381
 20
5.1541444465
 11
4.8426241757
 21
5.1508999717
  0
LINE
  5
295
100
AcDbEntity
  8
0
100
AcDbLine
 62
7
  6
CONTINUOUS
 10
5.3455120341
 20
4.9425970004
 11
5.3551987564
 21
4.9387660623
  0
LINE
  5
296
100
AcDbEntity
  8
0
100
AcDbLine
 62
7
  6
CONTINUOUS
 10
4.8257067134
 20
5.1737443283
 11
4.8347027697
 21
5.1700239377
  0
LINE
  5
297
100
AcDbEntity
  8
0
100
AcDbLine
 62
7
  6
CONTINUOUS
 10
5.3288208705
 20
4.9343970014
 11
5.3354726537
 21
4.9313546696
  0
LINE
  5
298
100
AcDbEntity
  8
0
100
AcDbLine
 62
7
  6
CONTINUOUS
 10
4.8190040734
 20
5.1937223784
 11
4.8277930907
 21
5.1895362693
  0
LINE
  5
299
100
AcDbEntity
  8
0
100
AcDbLine
 62
7
  6
CONTINUOUS
 10
4.8133561895
 20
5.2140238384
 11
4.8219140777
 21
5.2093834846
  0
LINE
  5
29A
100
AcDbEntity
  8
0
100
AcDbLine
 62
7
  6
CONTINUOUS
 10
5.3455120341
 20
5.6808332022
 11
5.3408767945
 21
5.6901618264
  0
LINE
  5
29B
100
AcDbEntity
  8
0
100
AcDbLine
 62
7
  6
CONTINUOUS
 10
5.5771349168
 20
5.1612396121
 11
5.5729389714
 21
5.1700239377
  0
LINE
  5
29C
100
AcDbEntity
  8
0
100
AcDbLine
 62
7
  6
CONTINUOUS
 10
5.3646360001
 20
5.6729117961
 11
5.3604953354
 21
5.6824702254
  0
LINE
  5
29D
100
AcDbEntity
  8
0
100
AcDbLine
 62
7
  6
CONTINUOUS
 10
5.5687480243
 20
5.141908086
 11
5.5650175653
 21
5.1508999717
  0
LINE
  5
29E
100
AcDbEntity
  8
0
100
AcDbLine
 62
7
  6
CONTINUOUS
 10
5.383319183
 20
5.664000375
 11
5.3796844424
 21
5.6737624105
  0
LINE
  5
29F
100
AcDbEntity
  8
0
100
AcDbLine
 62
7
  6
CONTINUOUS
 10
5.4526409411
 20
5.0044479037
 11
5.4630373864
 21
5.0037978269
  0
LINE
  5
2A0
100
AcDbEntity
  8
0
100
AcDbLine
 62
7
  6
CONTINUOUS
 10
5.4362188192
 20
4.9918467664
 11
5.4465669942
 21
4.9906534726
  0
LINE
  5
2A1
100
AcDbEntity
  8
0
100
AcDbLine
 62
7
  6
CONTINUOUS
 10
4.8743001046
 20
5.0805824233
 11
4.8839525356
 21
5.0793171526
  0
LINE
  5
2A2
100
AcDbEntity
  8
0
100
AcDbLine
 62
7
  6
CONTINUOUS
 10
5.4191597107
 20
4.9801223659
 11
5.4294312517
 21
4.9783891259
  0
LINE
  5
2A3
100
AcDbEntity
  8
0
100
AcDbLine
 62
7
  6
CONTINUOUS
 10
4.8626551517
 20
5.098144967
 11
4.8722281352
 21
5.0963762611
  0
LINE
  5
2A4
100
AcDbEntity
  8
0
100
AcDbLine
 62
7
  6
CONTINUOUS
 10
5.4015103734
 20
4.9693068381
 11
5.4116771269
 21
4.9670384025
  0
LINE
  5
2A5
100
AcDbEntity
  8
0
100
AcDbLine
 62
7
  6
CONTINUOUS
 10
4.8519453102
 20
5.1162928916
 11
4.8614126074
 21
5.1140255984
  0
LINE
  5
2A6
100
AcDbEntity
  8
0
100
AcDbLine
 62
7
  6
CONTINUOUS
 10
5.383319183
 20
4.9594298276
 11
5.3933532825
 21
4.956632414
  0
LINE
  5
2A7
100
AcDbEntity
  8
0
100
AcDbLine
 62
7
  6
CONTINUOUS
 10
4.8421999352
 20
5.1349764548
 11
4.8515355968
 21
5.1322167889
  0
LINE
  5
2A8
100
AcDbEntity
  8
0
100
AcDbLine
 62
7
  6
CONTINUOUS
 10
5.5960783541
 20
5.2214913982
 11
5.5905598965
 21
5.2295111837
  0
LINE
  5
2A9
100
AcDbEntity
  8
0
100
AcDbLine
 62
7
  6
CONTINUOUS
 10
5.3061524873
 20
5.6936218942
 11
5.3005675332
 21
5.7024149007
  0
LINE
  5
2AA
100
AcDbEntity
  8
0
100
AcDbLine
 62
7
  6
CONTINUOUS
 10
5.5908188351
 20
5.2010858762
 11
5.5857276634
 21
5.2093834846
  0
LINE
  5
2AB
100
AcDbEntity
  8
0
100
AcDbLine
 62
7
  6
CONTINUOUS
 10
5.3259997026
 20
5.6877428812
 11
5.3208825929
 21
5.6968161311
  0
LINE
  5
2AC
100
AcDbEntity
  8
0
100
AcDbLine
 62
7
  6
CONTINUOUS
 10
5.5844985815
 20
5.1809835812
 11
5.5798486504
 21
5.1895362693
  0
LINE
  5
2AD
100
AcDbEntity
  8
0
100
AcDbLine
 62
7
  6
CONTINUOUS
 10
5.9863208705
 20
5.0692151013
 11
5.9863208705
 21
5.5542151013
  0
LINE
  5
2AE
100
AcDbEntity
  8
0
100
AcDbLine
 62
7
  6
CONTINUOUS
 10
6.0043208705
 20
5.5542151013
 11
6.0043208705
 21
5.0692151013
  0
LINE
  5
2AF
100
AcDbEntity
  8
0
100
AcDbLine
 62
7
  6
CONTINUOUS
 10
6.0193208705
 20
5.5691392406
 11
6.0193208705
 21
5.5687043874
  0
LINE
  5
2B0
100
AcDbEntity
  8
0
100
AcDbLine
 62
7
  6
CONTINUOUS
 10
6.0193208705
 20
5.5676149407
 11
6.0193208705
 21
5.5663136906
  0
LINE
  5
2B1
100
AcDbEntity
  8
0
100
AcDbLine
 62
7
  6
CONTINUOUS
 10
6.0193208705
 20
5.5641430884
 11
6.0193208705
 21
5.5619853448
  0
LINE
  5
2B2
100
AcDbEntity
  8
0
100
AcDbLine
 62
7
  6
CONTINUOUS
 10
6.0193208705
 20
5.5587501067
 11
6.0193208705
 21
5.5557522913
  0
LINE
  5
2B3
100
AcDbEntity
  8
0
100
AcDbLine
 62
7
  6
CONTINUOUS
 10
6.0193208705
 20
5.5514770395
 11
6.0193208705
 21
5.5476619675
  0
LINE
  5
2B4
100
AcDbEntity
  8
0
100
AcDbLine
 62
7
  6
CONTINUOUS
 10
6.0193208705
 20
5.5423792392
 11
6.0193208705
 21
5.5377759455
  0
LINE
  5
2B5
100
AcDbEntity
  8
0
100
AcDbLine
 62
7
  6
CONTINUOUS
 10
6.0193208705
 20
5.5315259455
 11
6.0193208705
 21
5.526169464
  0
LINE
  5
2B6
100
AcDbEntity
  8
0
100
AcDbLine
 62
7
  6
CONTINUOUS
 10
6.0193208705
 20
5.5189997585
 11
6.0193208705
 21
5.5129308553
  0
LINE
  5
2B7
100
AcDbEntity
  8
0
100
AcDbLine
 62
7
  6
CONTINUOUS
 10
6.0193208705
 20
5.5048960102
 11
6.0193208705
 21
5.4981608732
  0
LINE
  5
2B8
100
AcDbEntity
  8
0
100
AcDbLine
 62
7
  6
CONTINUOUS
 10
6.0193208705
 20
5.4893220385
 11
6.0193208705
 21
5.4819719263
  0
LINE
  5
2B9
100
AcDbEntity
  8
0
100
AcDbLine
 62
7
  6
CONTINUOUS
 10
6.0193208705
 20
5.4723963707
 11
6.0193208705
 21
5.464487222
  0
LINE
  5
2BA
100
AcDbEntity
  8
0
100
AcDbLine
 62
7
  6
CONTINUOUS
 10
6.0193208705
 20
5.4542478215
 11
6.0193208705
 21
5.4458398297
  0
LINE
  5
2BB
100
AcDbEntity
  8
0
100
AcDbLine
 62
7
  6
CONTINUOUS
 10
6.0193208705
 20
5.4350145122
 11
6.0193208705
 21
5.4261716673
  0
LINE
  5
2BC
100
AcDbEntity
  8
0
100
AcDbLine
 62
7
  6
CONTINUOUS
 10
6.0193208705
 20
5.4148428199
 11
6.0193208705
 21
5.4056324212
  0
LINE
  5
2BD
100
AcDbEntity
  8
0
100
AcDbLine
 62
7
  6
CONTINUOUS
 10
6.0193208705
 20
5.3938862634
 11
6.0193208705
 21
5.3843784076
  0
LINE
  5
2BE
100
AcDbEntity
  8
0
100
AcDbLine
 62
7
  6
CONTINUOUS
 10
6.0193208705
 20
5.3723043348
 11
6.0193208705
 21
5.3625713824
  0
LINE
  5
2BF
100
AcDbEntity
  8
0
100
AcDbLine
 62
7
  6
CONTINUOUS
 10
6.0193208705
 20
5.3502612855
 11
6.0193208705
 21
5.3403773102
  0
LINE
  5
2C0
100
AcDbEntity
  8
0
100
AcDbLine
 62
7
  6
CONTINUOUS
 10
6.0193208705
 20
5.3279248765
 11
6.0193208705
 21
5.3179651013
  0
LINE
  5
2C1
100
AcDbEntity
  8
0
100
AcDbLine
 62
7
  6
CONTINUOUS
 10
6.0193208705
 20
5.3054651013
 11
6.0193208705
 21
5.2955053261
  0
LINE
  5
2C2
100
AcDbEntity
  8
0
100
AcDbLine
 62
7
  6
CONTINUOUS
 10
6.0193208705
 20
5.2830528924
 11
6.0193208705
 21
5.2731689171
  0
LINE
  5
2C3
100
AcDbEntity
  8
0
100
AcDbLine
 62
7
  6
CONTINUOUS
 10
6.0193208705
 20
5.2608588202
 11
6.0193208705
 21
5.2511258678
  0
LINE
  5
2C4
100
AcDbEntity
  8
0
100
AcDbLine
 62
7
  6
CONTINUOUS
 10
6.0193208705
 20
5.239051795
 11
6.0193208705
 21
5.2295439392
  0
LINE
  5
2C5
100
AcDbEntity
  8
0
100
AcDbLine
 62
7
  6
CONTINUOUS
 10
6.0193208705
 20
5.2177977814
 11
6.0193208705
 21
5.2085873827
  0
LINE
  5
2C6
100
AcDbEntity
  8
0
100
AcDbLine
 62
7
  6
CONTINUOUS
 10
6.0193208705
 20
5.1972585354
 11
6.0193208705
 21
5.1884156904
  0
LINE
  5
2C7
100
AcDbEntity
  8
0
100
AcDbLine
 62
7
  6
CONTINUOUS
 10
6.0193208705
 20
5.1775903729
 11
6.0193208705
 21
5.1691823811
  0
LINE
  5
2C8
100
AcDbEntity
  8
0
100
AcDbLine
 62
7
  6
CONTINUOUS
 10
6.0193208705
 20
5.1589429806
 11
6.0193208705
 21
5.1510338319
  0
LINE
  5
2C9
100
AcDbEntity
  8
0
100
AcDbLine
 62
7
  6
CONTINUOUS
 10
6.0193208705
 20
5.1414582764
 11
6.0193208705
 21
5.1341081641
  0
LINE
  5
2CA
100
AcDbEntity
  8
0
100
AcDbLine
 62
7
  6
CONTINUOUS
 10
6.0193208705
 20
5.1252693294
 11
6.0193208705
 21
5.1185341924
  0
LINE
  5
2CB
100
AcDbEntity
  8
0
100
AcDbLine
 62
7
  6
CONTINUOUS
 10
6.0193208705
 20
5.1104993473
 11
6.0193208705
 21
5.1044304441
  0
LINE
  5
2CC
100
AcDbEntity
  8
0
100
AcDbLine
 62
7
  6
CONTINUOUS
 10
6.0193208705
 20
5.0972607386
 11
6.0193208705
 21
5.0919042571
  0
LINE
  5
2CD
100
AcDbEntity
  8
0
100
AcDbLine
 62
7
  6
CONTINUOUS
 10
6.0193208705
 20
5.0856542571
 11
6.0193208705
 21
5.0810509634
  0
LINE
  5
2CE
100
AcDbEntity
  8
0
100
AcDbLine
 62
7
  6
CONTINUOUS
 10
6.0193208705
 20
5.0757682351
 11
6.0193208705
 21
5.0719531631
  0
LINE
  5
2CF
100
AcDbEntity
  8
0
100
AcDbLine
 62
7
  6
CONTINUOUS
 10
6.0193208705
 20
5.0676779113
 11
6.0193208705
 21
5.0646800959
  0
LINE
  5
2D0
100
AcDbEntity
  8
0
100
AcDbLine
 62
7
  6
CONTINUOUS
 10
6.0193208705
 20
5.0614448578
 11
6.0193208705
 21
5.0592871142
  0
LINE
  5
2D1
100
AcDbEntity
  8
0
100
AcDbLine
 62
7
  6
CONTINUOUS
 10
6.0193208705
 20
5.057116512
 11
6.0193208705
 21
5.055815262
  0
LINE
  5
2D2
100
AcDbEntity
  8
0
100
AcDbLine
 62
7
  6
CONTINUOUS
 10
6.0193208705
 20
5.0547258152
 11
6.0193208705
 21
5.054290962
  0
LINE
  5
2D3
100
AcDbEntity
  8
0
100
AcDbLine
 62
7
  6
CONTINUOUS
 10
5.5354136059
 20
5.0963762611
 11
5.5455020978
 21
5.0989706796
  0
LINE
  5
2D4
100
AcDbEntity
  8
0
100
AcDbLine
 62
7
  6
CONTINUOUS
 10
4.9790172773
 20
4.977844476
 11
4.9884820303
 21
4.9801223659
  0
LINE
  5
2D5
100
AcDbEntity
  8
0
100
AcDbLine
 62
7
  6
CONTINUOUS
 10
5.5236892055
 20
5.0793171526
 11
5.5338996528
 21
5.0813800247
  0
LINE
  5
2D6
100
AcDbEntity
  8
0
100
AcDbLine
 62
7
  6
CONTINUOUS
 10
4.9618519243
 20
4.9900673451
 11
4.9714229219
 21
4.9918467664
  0
LINE
  5
2D7
100
AcDbEntity
  8
0
100
AcDbLine
 62
7
  6
CONTINUOUS
 10
5.5110880681
 20
5.0628950308
 11
5.5213924848
 21
5.0644207022
  0
LINE
  5
2D8
100
AcDbEntity
  8
0
100
AcDbLine
 62
7
  6
CONTINUOUS
 10
4.9453497915
 20
5.0031718283
 11
4.9550008
 21
5.0044479037
  0
LINE
  5
2D9
100
AcDbEntity
  8
0
100
AcDbLine
 62
7
  6
CONTINUOUS
 10
5.4976447328
 20
5.0471549074
 11
5.5080148751
 21
5.0481391965
  0
LINE
  5
2DA
100
AcDbEntity
  8
0
100
AcDbLine
 62
7
  6
CONTINUOUS
 10
4.9295561099
 20
5.0171220073
 11
4.9392606766
 21
5.017891239
  0
LINE
  5
2DB
100
AcDbEntity
  8
0
100
AcDbLine
 62
7
  6
CONTINUOUS
 10
5.4833960467
 20
5.0321399252
 11
5.4938034907
 21
5.032580134
  0
LINE
  5
2DC
100
AcDbEntity
  8
0
100
AcDbLine
 62
7
  6
CONTINUOUS
 10
4.9145141689
 20
5.0318796454
 11
4.9242456944
 21
5.0321399252
  0
LINE
  5
2DD
100
AcDbEntity
  8
0
100
AcDbLine
 62
7
  6
CONTINUOUS
 10
6.4393208705
 20
5.054290962
 11
6.0193208705
 21
5.054290962
  0
LINE
  5
2DE
100
AcDbEntity
  8
0
100
AcDbLine
 62
7
  6
CONTINUOUS
 10
6.4393208705
 20
5.0547258152
 11
6.0193208705
 21
5.0547258152
  0
LINE
  5
2DF
100
AcDbEntity
  8
0
100
AcDbLine
 62
7
  6
CONTINUOUS
 10
6.4393208705
 20
5.055815262
 11
6.0193208705
 21
5.055815262
  0
LINE
  5
2E0
100
AcDbEntity
  8
0
100
AcDbLine
 62
7
  6
CONTINUOUS
 10
6.4393208705
 20
5.057116512
 11
6.0193208705
 21
5.057116512
  0
LINE
  5
2E1
100
AcDbEntity
  8
0
100
AcDbLine
 62
7
  6
CONTINUOUS
 10
6.4393208705
 20
5.0592871142
 11
6.0193208705
 21
5.0592871142
  0
LINE
  5
2E2
100
AcDbEntity
  8
0
100
AcDbLine
 62
7
  6
CONTINUOUS
 10
6.4393208705
 20
5.0614448578
 11
6.0193208705
 21
5.0614448578
  0
LINE
  5
2E3
100
AcDbEntity
  8
0
100
AcDbLine
 62
7
  6
CONTINUOUS
 10
6.4393208705
 20
5.0646800959
 11
6.0193208705
 21
5.0646800959
  0
LINE
  5
2E4
100
AcDbEntity
  8
0
100
AcDbLine
 62
7
  6
CONTINUOUS
 10
6.4393208705
 20
5.0676779113
 11
6.0193208705
 21
5.0676779113
  0
LINE
  5
2E5
100
AcDbEntity
  8
0
100
AcDbLine
 62
7
  6
CONTINUOUS
 10
5.9863208705
 20
5.0692151013
 11
5.5250668118
 21
5.0692151013
  0
LINE
  5
2E6
100
AcDbEntity
  8
0
100
AcDbLine
 62
7
  6
CONTINUOUS
 10
6.4393208705
 20
5.0719531631
 11
6.0193208705
 21
5.0719531631
  0
LINE
  5
2E7
100
AcDbEntity
  8
0
100
AcDbLine
 62
7
  6
CONTINUOUS
 10
6.4393208705
 20
5.0757682351
 11
6.0193208705
 21
5.0757682351
  0
LINE
  5
2E8
100
AcDbEntity
  8
0
100
AcDbLine
 62
7
  6
CONTINUOUS
 10
6.4393208705
 20
5.0810509634
 11
6.0193208705
 21
5.0810509634
  0
LINE
  5
2E9
100
AcDbEntity
  8
0
100
AcDbLine
 62
7
  6
CONTINUOUS
 10
6.4393208705
 20
5.0856542571
 11
6.0193208705
 21
5.0856542571
  0
LINE
  5
2EA
100
AcDbEntity
  8
0
100
AcDbLine
 62
7
  6
CONTINUOUS
 10
6.4393208705
 20
5.0919042571
 11
6.0193208705
 21
5.0919042571
  0
LINE
  5
2EB
100
AcDbEntity
  8
0
100
AcDbLine
 62
7
  6
CONTINUOUS
 10
6.4393208705
 20
5.0972607386
 11
6.0193208705
 21
5.0972607386
  0
LINE
  5
2EC
100
AcDbEntity
  8
0
100
AcDbLine
 62
7
  6
CONTINUOUS
 10
6.4393208705
 20
5.1044304441
 11
6.0193208705
 21
5.1044304441
  0
LINE
  5
2ED
100
AcDbEntity
  8
0
100
AcDbLine
 62
7
  6
CONTINUOUS
 10
6.4393208705
 20
5.1104993473
 11
6.0193208705
 21
5.1104993473
  0
LINE
  5
2EE
100
AcDbEntity
  8
0
100
AcDbLine
 62
7
  6
CONTINUOUS
 10
5.4683810644
 20
5.017891239
 11
5.4787972842
 21
5.017786161
  0
LINE
  5
2EF
100
AcDbEntity
  8
0
100
AcDbLine
 62
7
  6
CONTINUOUS
 10
4.9002651975
 20
5.047404293
 11
4.9099970083
 21
5.0471549074
  0
LINE
  5
2F0
100
AcDbEntity
  8
0
100
AcDbLine
 62
7
  6
CONTINUOUS
 10
4.8868482511
 20
5.0636533982
 11
4.8965536729
 21
5.0628950308
  0
LINE
  5
2F1
100
AcDbEntity
  8
0
100
AcDbLine
 62
7
  6
CONTINUOUS
 10
5.6053631103
 20
5.2839647913
 11
5.5986580232
 21
5.291022563
  0
LINE
  5
2F2
100
AcDbEntity
  8
0
100
AcDbLine
 62
7
  6
CONTINUOUS
 10
5.2451492304
 20
5.7049281796
 11
5.2382575072
 21
5.7127392503
  0
LINE
  5
2F3
100
AcDbEntity
  8
0
100
AcDbLine
 62
7
  6
CONTINUOUS
 10
5.6033604716
 20
5.2629877251
 11
5.5970339488
 21
5.2703867414
  0
LINE
  5
2F4
100
AcDbEntity
  8
0
100
AcDbLine
 62
7
  6
CONTINUOUS
 10
5.2656717738
 20
5.7022263355
 11
5.2591982953
 21
5.7103873863
  0
LINE
  5
2F5
100
AcDbEntity
  8
0
100
AcDbLine
 62
7
  6
CONTINUOUS
 10
5.6002627226
 20
5.2421442172
 11
5.5943321047
 21
5.249864198
  0
LINE
  5
2F6
100
AcDbEntity
  8
0
100
AcDbLine
 62
7
  6
CONTINUOUS
 10
5.2860247881
 20
5.6984541272
 11
5.2799872977
 21
5.7069427893
  0
LINE
  5
2F7
100
AcDbEntity
  8
0
100
AcDbLine
 62
7
  6
CONTINUOUS
 10
6.4393208705
 20
5.1185341924
 11
6.0193208705
 21
5.1185341924
  0
LINE
  5
2F8
100
AcDbEntity
  8
0
100
AcDbLine
 62
7
  6
CONTINUOUS
 10
6.4393208705
 20
5.1252693294
 11
6.0193208705
 21
5.1252693294
  0
LINE
  5
2F9
100
AcDbEntity
  8
0
100
AcDbLine
 62
7
  6
CONTINUOUS
 10
6.007083252
 20
5.1341081641
 11
6.4515584891
 21
5.1341081641
  0
LINE
  5
2FA
100
AcDbEntity
  8
0
100
AcDbLine
 62
7
  6
CONTINUOUS
 10
6.4393208705
 20
5.1414582764
 11
6.0193208705
 21
5.1414582764
  0
LINE
  5
2FB
100
AcDbEntity
  8
0
100
AcDbLine
 62
7
  6
CONTINUOUS
 10
6.007083252
 20
5.1502634767
 11
6.4515584891
 21
5.1502634767
  0
LINE
  5
2FC
100
AcDbEntity
  8
0
100
AcDbLine
 62
7
  6
CONTINUOUS
 10
6.4393208705
 20
5.1510338319
 11
6.0193208705
 21
5.1510338319
  0
LINE
  5
2FD
100
AcDbEntity
  8
0
100
AcDbLine
 62
7
  6
CONTINUOUS
 10
6.4393208705
 20
5.1589429806
 11
6.0193208705
 21
5.1589429806
  0
LINE
  5
2FE
100
AcDbEntity
  8
0
100
AcDbLine
 62
7
  6
CONTINUOUS
 10
6.007083252
 20
5.1676475336
 11
6.4515584891
 21
5.1676475336
  0
LINE
  5
2FF
100
AcDbEntity
  8
0
100
AcDbLine
 62
7
  6
CONTINUOUS
 10
6.4393208705
 20
5.1691823811
 11
6.0193208705
 21
5.1691823811
  0
LINE
  5
300
100
AcDbEntity
  8
0
100
AcDbLine
 62
7
  6
CONTINUOUS
 10
6.4393208705
 20
5.1775903729
 11
6.0193208705
 21
5.1775903729
  0
LINE
  5
301
100
AcDbEntity
  8
0
100
AcDbLine
 62
7
  6
CONTINUOUS
 10
6.007083252
 20
5.1861280316
 11
6.4515584891
 21
5.1861280316
  0
LINE
  5
302
100
AcDbEntity
  8
0
100
AcDbLine
 62
7
  6
CONTINUOUS
 10
6.4393208705
 20
5.1884156904
 11
6.0193208705
 21
5.1884156904
  0
LINE
  5
303
100
AcDbEntity
  8
0
100
AcDbLine
 62
7
  6
CONTINUOUS
 10
6.4393208705
 20
5.1972585354
 11
6.0193208705
 21
5.1972585354
  0
LINE
  5
304
100
AcDbEntity
  8
0
100
AcDbLine
 62
7
  6
CONTINUOUS
 10
6.007083252
 20
5.2055643232
 11
6.4515584891
 21
5.2055643232
  0
LINE
  5
305
100
AcDbEntity
  8
0
100
AcDbLine
 62
7
  6
CONTINUOUS
 10
6.4393208705
 20
5.2085873827
 11
6.0193208705
 21
5.2085873827
  0
LINE
  5
306
100
AcDbEntity
  8
0
100
AcDbLine
 62
7
  6
CONTINUOUS
 10
6.4393208705
 20
5.2177977814
 11
6.0193208705
 21
5.2177977814
  0
LINE
  5
307
100
AcDbEntity
  8
0
100
AcDbLine
 62
7
  6
CONTINUOUS
 10
6.007083252
 20
5.2258084862
 11
6.4515584891
 21
5.2258084862
  0
LINE
  5
308
100
AcDbEntity
  8
0
100
AcDbLine
 62
7
  6
CONTINUOUS
 10
5.1831283322
 20
5.7065522539
 11
5.1750995368
 21
5.7131890544
  0
LINE
  5
309
100
AcDbEntity
  8
0
100
AcDbLine
 62
7
  6
CONTINUOUS
 10
5.6060641171
 20
5.3260894037
 11
5.5986580232
 21
5.3324076397
  0
LINE
  5
30A
100
AcDbEntity
  8
0
100
AcDbLine
 62
7
  6
CONTINUOUS
 10
5.2038208705
 20
5.7070941071
 11
5.1961504216
 21
5.7141420067
  0
LINE
  5
30B
100
AcDbEntity
  8
0
100
AcDbLine
 62
7
  6
CONTINUOUS
 10
5.6062651496
 20
5.3050179193
 11
5.5991998763
 21
5.3117151013
  0
LINE
  5
30C
100
AcDbEntity
  8
0
100
AcDbLine
 62
7
  6
CONTINUOUS
 10
5.2245134089
 20
5.7065522539
 11
5.2172223306
 21
5.7139919349
  0
LINE
  5
30D
100
AcDbEntity
  8
0
100
AcDbLine
 62
7
  6
CONTINUOUS
 10
6.2143208705
 20
5.2454651013
 11
6.2143208705
 21
5.3779651013
  0
LINE
  5
30E
100
AcDbEntity
  8
0
100
AcDbLine
 62
7
  6
CONTINUOUS
 10
6.2293208705
 20
5.2492151013
 11
6.2293208705
 21
5.3742151013
  0
LINE
  5
30F
100
AcDbEntity
  8
0
100
AcDbLine
 62
7
  6
CONTINUOUS
 10
6.4393208705
 20
5.2295439392
 11
6.0193208705
 21
5.2295439392
  0
LINE
  5
310
100
AcDbEntity
  8
0
100
AcDbLine
 62
7
  6
CONTINUOUS
 10
6.4393208705
 20
5.239051795
 11
6.0193208705
 21
5.239051795
  0
LINE
  5
311
100
AcDbEntity
  8
0
100
AcDbLine
 62
7
  6
CONTINUOUS
 10
6.4543208705
 20
5.2454651013
 11
6.2143208705
 21
5.2454651013
  0
LINE
  5
312
100
AcDbEntity
  8
0
100
AcDbLine
 62
7
  6
CONTINUOUS
 10
6.007083252
 20
5.2467064504
 11
6.2143208705
 21
5.2467064504
  0
LINE
  5
313
100
AcDbEntity
  8
0
100
AcDbLine
 62
7
  6
CONTINUOUS
 10
6.4393208705
 20
5.2492151013
 11
6.2293208705
 21
5.2492151013
  0
LINE
  5
314
100
AcDbEntity
  8
0
100
AcDbLine
 62
7
  6
CONTINUOUS
 10
6.2143208705
 20
5.2511258678
 11
6.0193208705
 21
5.2511258678
  0
LINE
  5
315
100
AcDbEntity
  8
0
100
AcDbLine
 62
7
  6
CONTINUOUS
 10
6.2143208705
 20
5.2608588202
 11
6.0193208705
 21
5.2608588202
  0
LINE
  5
316
100
AcDbEntity
  8
0
100
AcDbLine
 62
7
  6
CONTINUOUS
 10
6.4543208705
 20
5.2642151013
 11
6.2143208705
 21
5.2642151013
  0
LINE
  5
317
100
AcDbEntity
  8
0
100
AcDbLine
 62
7
  6
CONTINUOUS
 10
6.007083252
 20
5.2680991697
 11
6.2143208705
 21
5.2680991697
  0
LINE
  5
318
100
AcDbEntity
  8
0
100
AcDbLine
 62
7
  6
CONTINUOUS
 10
6.2143208705
 20
5.2731689171
 11
6.0193208705
 21
5.2731689171
  0
LINE
  5
319
100
AcDbEntity
  8
0
100
AcDbLine
 62
7
  6
CONTINUOUS
 10
6.2143208705
 20
5.2830528924
 11
6.0193208705
 21
5.2830528924
  0
LINE
  5
31A
100
AcDbEntity
  8
0
100
AcDbLine
 62
7
  6
CONTINUOUS
 10
6.007083252
 20
5.2898238326
 11
6.2143208705
 21
5.2898238326
  0
LINE
  5
31B
100
AcDbEntity
  8
0
100
AcDbLine
 62
7
  6
CONTINUOUS
 10
6.2143208705
 20
5.2955053261
 11
6.0193208705
 21
5.2955053261
  0
LINE
  5
31C
100
AcDbEntity
  8
0
100
AcDbLine
 62
7
  6
CONTINUOUS
 10
6.2143208705
 20
5.3054651013
 11
6.0193208705
 21
5.3054651013
  0
LINE
  5
31D
100
AcDbEntity
  8
0
100
AcDbLine
 62
7
  6
CONTINUOUS
 10
6.2143208705
 20
5.3117151013
 11
6.007083252
 21
5.3117151013
  0
LINE
  5
31E
100
AcDbEntity
  8
0
100
AcDbLine
 62
7
  6
CONTINUOUS
 10
6.2143208705
 20
5.3179651013
 11
6.0193208705
 21
5.3179651013
  0
LINE
  5
31F
100
AcDbEntity
  8
0
100
AcDbLine
 62
7
  6
CONTINUOUS
 10
6.2143208705
 20
5.3279248765
 11
6.0193208705
 21
5.3279248765
  0
LINE
  5
320
100
AcDbEntity
  8
0
100
AcDbLine
 62
7
  6
CONTINUOUS
 10
6.007083252
 20
5.33360637
 11
6.2143208705
 21
5.33360637
  0
LINE
  5
321
100
AcDbEntity
  8
0
100
AcDbLine
 62
7
  6
CONTINUOUS
 10
5.5942855516
 20
5.4094063642
 11
5.5857276634
 21
5.414046718
  0
LINE
  5
322
100
AcDbEntity
  8
0
100
AcDbLine
 62
7
  6
CONTINUOUS
 10
5.1216169529
 20
5.6984541272
 11
5.112648781
 21
5.7037532373
  0
LINE
  5
323
100
AcDbEntity
  8
0
100
AcDbLine
 62
7
  6
CONTINUOUS
 10
5.598863199
 20
5.3888371393
 11
5.5905598965
 21
5.3939190189
  0
LINE
  5
324
100
AcDbEntity
  8
0
100
AcDbLine
 62
7
  6
CONTINUOUS
 10
5.1419699673
 20
5.7022263355
 11
5.1332914199
 21
5.7079875412
  0
LINE
  5
325
100
AcDbEntity
  8
0
100
AcDbLine
 62
7
  6
CONTINUOUS
 10
5.6023580628
 20
5.3680565282
 11
5.5943321047
 21
5.3735660046
  0
LINE
  5
326
100
AcDbEntity
  8
0
100
AcDbLine
 62
7
  6
CONTINUOUS
 10
5.1624925107
 20
5.7049281796
 11
5.1541273752
 21
5.7111356898
  0
LINE
  5
327
100
AcDbEntity
  8
0
100
AcDbLine
 62
7
  6
CONTINUOUS
 10
5.6047605639
 20
5.3471214892
 11
5.5970339488
 21
5.3530434612
  0
LINE
  5
328
100
AcDbEntity
  8
0
100
AcDbLine
 62
7
  6
CONTINUOUS
 10
6.2143208705
 20
5.3403773102
 11
6.0193208705
 21
5.3403773102
  0
LINE
  5
329
100
AcDbEntity
  8
0
100
AcDbLine
 62
7
  6
CONTINUOUS
 10
6.2143208705
 20
5.3502612855
 11
6.0193208705
 21
5.3502612855
  0
LINE
  5
32A
100
AcDbEntity
  8
0
100
AcDbLine
 62
7
  6
CONTINUOUS
 10
6.007083252
 20
5.3553310329
 11
6.2143208705
 21
5.3553310329
  0
LINE
  5
32B
100
AcDbEntity
  8
0
100
AcDbLine
 62
7
  6
CONTINUOUS
 10
6.4543208705
 20
5.3592151013
 11
6.2143208705
 21
5.3592151013
  0
LINE
  5
32C
100
AcDbEntity
  8
0
100
AcDbLine
 62
7
  6
CONTINUOUS
 10
6.2143208705
 20
5.3625713824
 11
6.0193208705
 21
5.3625713824
  0
LINE
  5
32D
100
AcDbEntity
  8
0
100
AcDbLine
 62
7
  6
CONTINUOUS
 10
6.2143208705
 20
5.3723043348
 11
6.0193208705
 21
5.3723043348
  0
LINE
  5
32E
100
AcDbEntity
  8
0
100
AcDbLine
 62
7
  6
CONTINUOUS
 10
6.4393208705
 20
5.3742151013
 11
6.2293208705
 21
5.3742151013
  0
LINE
  5
32F
100
AcDbEntity
  8
0
100
AcDbLine
 62
7
  6
CONTINUOUS
 10
6.007083252
 20
5.3767237522
 11
6.2143208705
 21
5.3767237522
  0
LINE
  5
330
100
AcDbEntity
  8
0
100
AcDbLine
 62
7
  6
CONTINUOUS
 10
6.2143208705
 20
5.3779651013
 11
6.4543208705
 21
5.3779651013
  0
LINE
  5
331
100
AcDbEntity
  8
0
100
AcDbLine
 62
7
  6
CONTINUOUS
 10
6.4393208705
 20
5.3843784076
 11
6.0193208705
 21
5.3843784076
  0
LINE
  5
332
100
AcDbEntity
  8
0
100
AcDbLine
 62
7
  6
CONTINUOUS
 10
6.4393208705
 20
5.3938862634
 11
6.0193208705
 21
5.3938862634
  0
LINE
  5
333
100
AcDbEntity
  8
0
100
AcDbLine
 62
7
  6
CONTINUOUS
 10
6.007083252
 20
5.3976217164
 11
6.4515584891
 21
5.3976217164
  0
LINE
  5
334
100
AcDbEntity
  8
0
100
AcDbLine
 62
7
  6
CONTINUOUS
 10
6.4393208705
 20
5.4056324212
 11
6.0193208705
 21
5.4056324212
  0
LINE
  5
335
100
AcDbEntity
  8
0
100
AcDbLine
 62
7
  6
CONTINUOUS
 10
6.4393208705
 20
5.4148428199
 11
6.0193208705
 21
5.4148428199
  0
LINE
  5
336
100
AcDbEntity
  8
0
100
AcDbLine
 62
7
  6
CONTINUOUS
 10
6.007083252
 20
5.4178658795
 11
6.4515584891
 21
5.4178658795
  0
LINE
  5
337
100
AcDbEntity
  8
0
100
AcDbLine
 62
7
  6
CONTINUOUS
 10
6.4393208705
 20
5.4261716673
 11
6.0193208705
 21
5.4261716673
  0
LINE
  5
338
100
AcDbEntity
  8
0
100
AcDbLine
 62
7
  6
CONTINUOUS
 10
6.4393208705
 20
5.4350145122
 11
6.0193208705
 21
5.4350145122
  0
LINE
  5
339
100
AcDbEntity
  8
0
100
AcDbLine
 62
7
  6
CONTINUOUS
 10
6.007083252
 20
5.437302171
 11
6.4515584891
 21
5.437302171
  0
LINE
  5
33A
100
AcDbEntity
  8
0
100
AcDbLine
 62
7
  6
CONTINUOUS
 10
6.4393208705
 20
5.4458398297
 11
6.0193208705
 21
5.4458398297
  0
LINE
  5
33B
100
AcDbEntity
  8
0
100
AcDbLine
 62
7
  6
CONTINUOUS
 10
5.574196003
 20
5.4692857562
 11
5.5650175653
 21
5.4725302309
  0
LINE
  5
33C
100
AcDbEntity
  8
0
100
AcDbLine
 62
7
  6
CONTINUOUS
 10
5.0621297069
 20
5.6808332022
 11
5.0524429846
 21
5.6846641403
  0
LINE
  5
33D
100
AcDbEntity
  8
0
100
AcDbLine
 62
7
  6
CONTINUOUS
 10
5.5819350276
 20
5.4496858743
 11
5.5729389714
 21
5.4534062649
  0
LINE
  5
33E
100
AcDbEntity
  8
0
100
AcDbLine
 62
7
  6
CONTINUOUS
 10
5.0816420385
 20
5.6877428812
 11
5.0721690874
 21
5.692075533
  0
LINE
  5
33F
100
AcDbEntity
  8
0
100
AcDbLine
 62
7
  6
CONTINUOUS
 10
5.5886376677
 20
5.4297078242
 11
5.5798486504
 21
5.4338939333
  0
LINE
  5
340
100
AcDbEntity
  8
0
100
AcDbLine
 62
7
  6
CONTINUOUS
 10
5.1014892538
 20
5.6936218942
 11
5.0922560385
 21
5.6984443842
  0
LINE
  5
341
100
AcDbEntity
  8
0
100
AcDbLine
 62
7
  6
CONTINUOUS
 10
6.4393208705
 20
5.5691392406
 11
6.4393208705
 21
5.5687043874
  0
LINE
  5
342
100
AcDbEntity
  8
0
100
AcDbLine
 62
7
  6
CONTINUOUS
 10
6.4393208705
 20
5.5676149407
 11
6.4393208705
 21
5.5663136906
  0
LINE
  5
343
100
AcDbEntity
  8
0
100
AcDbLine
 62
7
  6
CONTINUOUS
 10
6.4393208705
 20
5.5641430884
 11
6.4393208705
 21
5.5619853448
  0
LINE
  5
344
100
AcDbEntity
  8
0
100
AcDbLine
 62
7
  6
CONTINUOUS
 10
6.4393208705
 20
5.5587501067
 11
6.4393208705
 21
5.5557522913
  0
LINE
  5
345
100
AcDbEntity
  8
0
100
AcDbLine
 62
7
  6
CONTINUOUS
 10
6.4393208705
 20
5.5514770395
 11
6.4393208705
 21
5.5476619675
  0
LINE
  5
346
100
AcDbEntity
  8
0
100
AcDbLine
 62
7
  6
CONTINUOUS
 10
6.4393208705
 20
5.5423792392
 11
6.4393208705
 21
5.5377759455
  0
LINE
  5
347
100
AcDbEntity
  8
0
100
AcDbLine
 62
7
  6
CONTINUOUS
 10
6.4393208705
 20
5.5315259455
 11
6.4393208705
 21
5.526169464
  0
LINE
  5
348
100
AcDbEntity
  8
0
100
AcDbLine
 62
7
  6
CONTINUOUS
 10
6.4393208705
 20
5.5189997585
 11
6.4393208705
 21
5.5129308553
  0
LINE
  5
349
100
AcDbEntity
  8
0
100
AcDbLine
 62
7
  6
CONTINUOUS
 10
6.4393208705
 20
5.5048960102
 11
6.4393208705
 21
5.4981608732
  0
LINE
  5
34A
100
AcDbEntity
  8
0
100
AcDbLine
 62
7
  6
CONTINUOUS
 10
6.4393208705
 20
5.4893220385
 11
6.4393208705
 21
5.4819719263
  0
LINE
  5
34B
100
AcDbEntity
  8
0
100
AcDbLine
 62
7
  6
CONTINUOUS
 10
6.4393208705
 20
5.4723963707
 11
6.4393208705
 21
5.464487222
  0
LINE
  5
34C
100
AcDbEntity
  8
0
100
AcDbLine
 62
7
  6
CONTINUOUS
 10
6.4393208705
 20
5.4542478215
 11
6.4393208705
 21
5.4458398297
  0
LINE
  5
34D
100
AcDbEntity
  8
0
100
AcDbLine
 62
7
  6
CONTINUOUS
 10
6.4393208705
 20
5.4350145122
 11
6.4393208705
 21
5.4261716673
  0
LINE
  5
34E
100
AcDbEntity
  8
0
100
AcDbLine
 62
7
  6
CONTINUOUS
 10
6.4393208705
 20
5.4148428199
 11
6.4393208705
 21
5.4056324212
  0
LINE
  5
34F
100
AcDbEntity
  8
0
100
AcDbLine
 62
7
  6
CONTINUOUS
 10
6.4393208705
 20
5.3938862634
 11
6.4393208705
 21
5.3843784076
  0
LINE
  5
350
100
AcDbEntity
  8
0
100
AcDbLine
 62
7
  6
CONTINUOUS
 10
6.4393208705
 20
5.239051795
 11
6.4393208705
 21
5.2295439392
  0
LINE
  5
351
100
AcDbEntity
  8
0
100
AcDbLine
 62
7
  6
CONTINUOUS
 10
6.4393208705
 20
5.2177977814
 11
6.4393208705
 21
5.2085873827
  0
LINE
  5
352
100
AcDbEntity
  8
0
100
AcDbLine
 62
7
  6
CONTINUOUS
 10
6.4393208705
 20
5.1972585354
 11
6.4393208705
 21
5.1884156904
  0
LINE
  5
353
100
AcDbEntity
  8
0
100
AcDbLine
 62
7
  6
CONTINUOUS
 10
6.4393208705
 20
5.1775903729
 11
6.4393208705
 21
5.1691823811
  0
LINE
  5
354
100
AcDbEntity
  8
0
100
AcDbLine
 62
7
  6
CONTINUOUS
 10
6.4393208705
 20
5.1589429806
 11
6.4393208705
 21
5.1510338319
  0
LINE
  5
355
100
AcDbEntity
  8
0
100
AcDbLine
 62
7
  6
CONTINUOUS
 10
6.4393208705
 20
5.1414582764
 11
6.4393208705
 21
5.1341081641
  0
LINE
  5
356
100
AcDbEntity
  8
0
100
AcDbLine
 62
7
  6
CONTINUOUS
 10
6.4393208705
 20
5.1252693294
 11
6.4393208705
 21
5.1185341924
  0
LINE
  5
357
100
AcDbEntity
  8
0
100
AcDbLine
 62
7
  6
CONTINUOUS
 10
6.4393208705
 20
5.1104993473
 11
6.4393208705
 21
5.1044304441
  0
LINE
  5
358
100
AcDbEntity
  8
0
100
AcDbLine
 62
7
  6
CONTINUOUS
 10
6.4393208705
 20
5.0972607386
 11
6.4393208705
 21
5.0919042571
  0
LINE
  5
359
100
AcDbEntity
  8
0
100
AcDbLine
 62
7
  6
CONTINUOUS
 10
6.4393208705
 20
5.0856542571
 11
6.4393208705
 21
5.0810509634
  0
LINE
  5
35A
100
AcDbEntity
  8
0
100
AcDbLine
 62
7
  6
CONTINUOUS
 10
6.4393208705
 20
5.0757682351
 11
6.4393208705
 21
5.0719531631
  0
LINE
  5
35B
100
AcDbEntity
  8
0
100
AcDbLine
 62
7
  6
CONTINUOUS
 10
6.4393208705
 20
5.0676779113
 11
6.4393208705
 21
5.0646800959
  0
LINE
  5
35C
100
AcDbEntity
  8
0
100
AcDbLine
 62
7
  6
CONTINUOUS
 10
6.4393208705
 20
5.0614448578
 11
6.4393208705
 21
5.0592871142
  0
LINE
  5
35D
100
AcDbEntity
  8
0
100
AcDbLine
 62
7
  6
CONTINUOUS
 10
6.4393208705
 20
5.057116512
 11
6.4393208705
 21
5.055815262
  0
LINE
  5
35E
100
AcDbEntity
  8
0
100
AcDbLine
 62
7
  6
CONTINUOUS
 10
6.4393208705
 20
5.0547258152
 11
6.4393208705
 21
5.054290962
  0
LINE
  5
35F
100
AcDbEntity
  8
0
100
AcDbLine
 62
7
  6
CONTINUOUS
 10
6.4393208705
 20
5.2492151013
 11
6.4393208705
 21
5.3742151013
  0
LINE
  5
360
100
AcDbEntity
  8
0
100
AcDbLine
 62
7
  6
CONTINUOUS
 10
6.4543208705
 20
5.5542151013
 11
6.4543208705
 21
5.3779651013
  0
LINE
  5
361
100
AcDbEntity
  8
0
100
AcDbLine
 62
7
  6
CONTINUOUS
 10
6.4543208705
 20
5.2454651013
 11
6.4543208705
 21
5.0692151013
  0
LINE
  5
362
100
AcDbEntity
  8
0
100
AcDbLine
 62
7
  6
CONTINUOUS
 10
6.4543208705
 20
5.2642151013
 11
6.4543208705
 21
5.3592151013
  0
LINE
  5
363
100
AcDbEntity
  8
0
100
AcDbLine
 62
7
  6
CONTINUOUS
 10
6.4393208705
 20
5.4542478215
 11
6.0193208705
 21
5.4542478215
  0
LINE
  5
364
100
AcDbEntity
  8
0
100
AcDbLine
 62
7
  6
CONTINUOUS
 10
6.007083252
 20
5.455782669
 11
6.4515584891
 21
5.455782669
  0
LINE
  5
365
100
AcDbEntity
  8
0
100
AcDbLine
 62
7
  6
CONTINUOUS
 10
6.4393208705
 20
5.464487222
 11
6.0193208705
 21
5.464487222
  0
LINE
  5
366
100
AcDbEntity
  8
0
100
AcDbLine
 62
7
  6
CONTINUOUS
 10
6.4393208705
 20
5.4723963707
 11
6.0193208705
 21
5.4723963707
  0
LINE
  5
367
100
AcDbEntity
  8
0
100
AcDbLine
 62
7
  6
CONTINUOUS
 10
6.007083252
 20
5.4731667259
 11
6.4515584891
 21
5.4731667259
  0
LINE
  5
368
100
AcDbEntity
  8
0
100
AcDbLine
 62
7
  6
CONTINUOUS
 10
6.4393208705
 20
5.4819719263
 11
6.0193208705
 21
5.4819719263
  0
LINE
  5
369
100
AcDbEntity
  8
0
100
AcDbLine
 62
7
  6
CONTINUOUS
 10
6.4515584891
 20
5.4893220385
 11
6.007083252
 21
5.4893220385
  0
LINE
  5
36A
100
AcDbEntity
  8
0
100
AcDbLine
 62
7
  6
CONTINUOUS
 10
6.4393208705
 20
5.4981608732
 11
6.0193208705
 21
5.4981608732
  0
LINE
  5
36B
100
AcDbEntity
  8
0
100
AcDbLine
 62
7
  6
CONTINUOUS
 10
6.4393208705
 20
5.5048960102
 11
6.0193208705
 21
5.5048960102
  0
LINE
  5
36C
100
AcDbEntity
  8
0
100
AcDbLine
 62
7
  6
CONTINUOUS
 10
6.4393208705
 20
5.5129308553
 11
6.0193208705
 21
5.5129308553
  0
LINE
  5
36D
100
AcDbEntity
  8
0
100
AcDbLine
 62
7
  6
CONTINUOUS
 10
6.4393208705
 20
5.5189997585
 11
6.0193208705
 21
5.5189997585
  0
LINE
  5
36E
100
AcDbEntity
  8
0
100
AcDbLine
 62
7
  6
CONTINUOUS
 10
6.4393208705
 20
5.526169464
 11
6.0193208705
 21
5.526169464
  0
LINE
  5
36F
100
AcDbEntity
  8
0
100
AcDbLine
 62
7
  6
CONTINUOUS
 10
6.4393208705
 20
5.5315259455
 11
6.0193208705
 21
5.5315259455
  0
LINE
  5
370
100
AcDbEntity
  8
0
100
AcDbLine
 62
7
  6
CONTINUOUS
 10
6.4393208705
 20
5.5377759455
 11
6.0193208705
 21
5.5377759455
  0
LINE
  5
371
100
AcDbEntity
  8
0
100
AcDbLine
 62
7
  6
CONTINUOUS
 10
6.4393208705
 20
5.5423792392
 11
6.0193208705
 21
5.5423792392
  0
LINE
  5
372
100
AcDbEntity
  8
0
100
AcDbLine
 62
7
  6
CONTINUOUS
 10
6.4393208705
 20
5.5476619675
 11
6.0193208705
 21
5.5476619675
  0
LINE
  5
373
100
AcDbEntity
  8
0
100
AcDbLine
 62
7
  6
CONTINUOUS
 10
6.4393208705
 20
5.5514770395
 11
6.0193208705
 21
5.5514770395
  0
LINE
  5
374
100
AcDbEntity
  8
0
100
AcDbLine
 62
7
  6
CONTINUOUS
 10
5.9863208705
 20
5.5542151013
 11
5.5249002806
 21
5.5542151013
  0
LINE
  5
375
100
AcDbEntity
  8
0
100
AcDbLine
 62
7
  6
CONTINUOUS
 10
6.4393208705
 20
5.5557522913
 11
6.0193208705
 21
5.5557522913
  0
LINE
  5
376
100
AcDbEntity
  8
0
100
AcDbLine
 62
7
  6
CONTINUOUS
 10
6.4393208705
 20
5.5587501067
 11
6.0193208705
 21
5.5587501067
  0
LINE
  5
377
100
AcDbEntity
  8
0
100
AcDbLine
 62
7
  6
CONTINUOUS
 10
5.52079349
 20
5.5597768044
 11
5.5110880681
 21
5.5605351719
  0
LINE
  5
378
100
AcDbEntity
  8
0
100
AcDbLine
 62
7
  6
CONTINUOUS
 10
5.5333416364
 20
5.5428477793
 11
5.5236892055
 21
5.54411305
  0
LINE
  5
379
100
AcDbEntity
  8
0
100
AcDbLine
 62
7
  6
CONTINUOUS
 10
4.9884820303
 20
5.6433078367
 11
4.9782104894
 21
5.6450410768
  0
LINE
  5
37A
100
AcDbEntity
  8
0
100
AcDbLine
 62
7
  6
CONTINUOUS
 10
5.5449865894
 20
5.5252852356
 11
5.5354136059
 21
5.5270539415
  0
LINE
  5
37B
100
AcDbEntity
  8
0
100
AcDbLine
 62
7
  6
CONTINUOUS
 10
5.0061313676
 20
5.6541233645
 11
4.9959646142
 21
5.6563918001
  0
LINE
  5
37C
100
AcDbEntity
  8
0
100
AcDbLine
 62
7
  6
CONTINUOUS
 10
5.5556964308
 20
5.507137311
 11
5.5462291337
 21
5.5094046042
  0
LINE
  5
37D
100
AcDbEntity
  8
0
100
AcDbLine
 62
7
  6
CONTINUOUS
 10
5.0243225581
 20
5.664000375
 11
5.0142884586
 21
5.6667977886
  0
LINE
  5
37E
100
AcDbEntity
  8
0
100
AcDbLine
 62
7
  6
CONTINUOUS
 10
5.5654418058
 20
5.4884537478
 11
5.5561061442
 21
5.4912134137
  0
LINE
  5
37F
100
AcDbEntity
  8
0
100
AcDbLine
 62
7
  6
CONTINUOUS
 10
5.043005741
 20
5.6729117961
 11
5.0331317982
 21
5.6762305202
  0
LINE
  5
380
100
AcDbEntity
  8
0
100
AcDbLine
 62
7
  6
CONTINUOUS
 10
4.8722281352
 20
5.5270539415
 11
4.8621396433
 21
5.524459523
  0
LINE
  5
381
100
AcDbEntity
  8
0
100
AcDbLine
 62
7
  6
CONTINUOUS
 10
5.4286244638
 20
5.6455857266
 11
5.4191597107
 21
5.6433078367
  0
LINE
  5
382
100
AcDbEntity
  8
0
100
AcDbLine
 62
7
  6
CONTINUOUS
 10
4.8839525356
 20
5.54411305
 11
4.8737420883
 21
5.5420501779
  0
LINE
  5
383
100
AcDbEntity
  8
0
100
AcDbLine
 62
7
  6
CONTINUOUS
 10
5.4457898167
 20
5.6333628575
 11
5.4362188192
 21
5.6315834362
  0
LINE
  5
384
100
AcDbEntity
  8
0
100
AcDbLine
 62
7
  6
CONTINUOUS
 10
4.8965536729
 20
5.5605351719
 11
4.8862492563
 21
5.5590095004
  0
LINE
  5
385
100
AcDbEntity
  8
0
100
AcDbLine
 62
7
  6
CONTINUOUS
 10
5.4622919496
 20
5.6202583743
 11
5.4526409411
 21
5.6189822989
  0
LINE
  5
386
100
AcDbEntity
  8
0
100
AcDbLine
 62
7
  6
CONTINUOUS
 10
4.9099970083
 20
5.5762752952
 11
4.899626866
 21
5.5752910061
  0
LINE
  5
387
100
AcDbEntity
  8
0
100
AcDbLine
 62
7
  6
CONTINUOUS
 10
5.4780856312
 20
5.6063081953
 11
5.4683810644
 21
5.6055389636
  0
LINE
  5
388
100
AcDbEntity
  8
0
100
AcDbLine
 62
7
  6
CONTINUOUS
 10
4.9242456944
 20
5.5912902775
 11
4.9138382503
 21
5.5908500686
  0
LINE
  5
389
100
AcDbEntity
  8
0
100
AcDbLine
 62
7
  6
CONTINUOUS
 10
5.4931275722
 20
5.5915505572
 11
5.4833960467
 21
5.5912902775
  0
LINE
  5
38A
100
AcDbEntity
  8
0
100
AcDbLine
 62
7
  6
CONTINUOUS
 10
6.4393208705
 20
5.5619853448
 11
6.0193208705
 21
5.5619853448
  0
LINE
  5
38B
100
AcDbEntity
  8
0
100
AcDbLine
 62
7
  6
CONTINUOUS
 10
6.4393208705
 20
5.5641430884
 11
6.0193208705
 21
5.5641430884
  0
LINE
  5
38C
100
AcDbEntity
  8
0
100
AcDbLine
 62
7
  6
CONTINUOUS
 10
6.4393208705
 20
5.5663136906
 11
6.0193208705
 21
5.5663136906
  0
LINE
  5
38D
100
AcDbEntity
  8
0
100
AcDbLine
 62
7
  6
CONTINUOUS
 10
6.4393208705
 20
5.5676149407
 11
6.0193208705
 21
5.5676149407
  0
LINE
  5
38E
100
AcDbEntity
  8
0
100
AcDbLine
 62
7
  6
CONTINUOUS
 10
6.4393208705
 20
5.5687043874
 11
6.0193208705
 21
5.5687043874
  0
LINE
  5
38F
100
AcDbEntity
  8
0
100
AcDbLine
 62
7
  6
CONTINUOUS
 10
6.4393208705
 20
5.5691392406
 11
6.0193208705
 21
5.5691392406
  0
LINE
  5
390
100
AcDbEntity
  8
0
100
AcDbLine
 62
7
  6
CONTINUOUS
 10
4.9392606766
 20
5.6055389636
 11
4.9288444569
 21
5.6056440416
  0
LINE
  5
391
100
AcDbEntity
  8
0
100
AcDbLine
 62
7
  6
CONTINUOUS
 10
5.5073765436
 20
5.5760259096
 11
5.4976447328
 21
5.5762752952
  0
LINE
  5
392
100
AcDbEntity
  8
0
100
AcDbLine
 62
7
  6
CONTINUOUS
 10
4.9550008
 20
5.6189822989
 11
4.9446043547
 21
5.6196323757
  0
LINE
  5
393
100
AcDbEntity
  8
0
100
AcDbLine
 62
7
  6
CONTINUOUS
 10
4.9714229219
 20
5.6315834362
 11
4.9610747469
 21
5.63277673
  0
ARC
  5
394
100
AcDbEntity
  8
0
100
AcDbCircle
 62
7
  6
CONTINUOUS
 10
5.2038208705
 20
3.3117151013
 40
0.125
100
AcDbArc
 50
180.0
 51
360.0
  0
ARC
  5
395
100
AcDbEntity
  8
0
100
AcDbCircle
 62
7
  6
CONTINUOUS
 10
5.2038208705
 20
5.3117151013
 40
0.6075
100
AcDbArc
 50
281.8765101202
 51
336.4617870126
  0
ARC
  5
396
100
AcDbEntity
  8
0
100
AcDbCircle
 62
7
  6
CONTINUOUS
 10
5.2038208705
 20
5.3117151013
 40
0.6075
100
AcDbArc
 50
23.538212987
 51
258.1234898798
  0
ARC
  5
397
100
AcDbEntity
  8
0
100
AcDbCircle
 62
7
  6
CONTINUOUS
 10
5.2038208705
 20
5.3117151013
 40
0.5911495252
100
AcDbArc
 50
282.2079215376
 51
335.776932966
  0
ARC
  5
398
100
AcDbEntity
  8
0
100
AcDbCircle
 62
7
  6
CONTINUOUS
 10
5.2038208705
 20
5.3117151013
 40
0.5911495252
100
AcDbArc
 50
24.2230670338
 51
257.7920784623
  0
ARC
  5
399
100
AcDbEntity
  8
0
100
AcDbCircle
 62
7
  6
CONTINUOUS
 10
5.2038208705
 20
5.3117151013
 40
0.4633735967
100
AcDbArc
 50
285.6599171394
 51
328.4205534687
  0
ARC
  5
39A
100
AcDbEntity
  8
0
100
AcDbCircle
 62
7
  6
CONTINUOUS
 10
5.2038208705
 20
5.3117151013
 40
0.4633735967
100
AcDbArc
 50
31.5794465313
 51
254.3400828606
  0
ARC
  5
39B
100
AcDbEntity
  8
0
100
AcDbCircle
 62
7
  6
CONTINUOUS
 10
5.2038208705
 20
5.3117151013
 40
0.4025
100
AcDbArc
 50
288.1000501655
 51
289.0830087864
  0
ARC
  5
39C
100
AcDbEntity
  8
0
100
AcDbCircle
 62
7
  6
CONTINUOUS
 10
5.2038208705
 20
5.3117151013
 40
0.4025
100
AcDbArc
 50
289.0919526821
 51
356.0466137287
  0
ARC
  5
39D
100
AcDbEntity
  8
0
100
AcDbCircle
 62
7
  6
CONTINUOUS
 10
5.2038208705
 20
5.3117151013
 40
0.4025
100
AcDbArc
 50
356.0541624306
 51
8.0466137287
  0
ARC
  5
39E
100
AcDbEntity
  8
0
100
AcDbCircle
 62
7
  6
CONTINUOUS
 10
5.2038208705
 20
5.3117151013
 40
0.4025
100
AcDbArc
 50
8.0563758488
 51
17.0466137287
  0
ARC
  5
39F
100
AcDbEntity
  8
0
100
AcDbCircle
 62
7
  6
CONTINUOUS
 10
5.2038208705
 20
5.3117151013
 40
0.4025
100
AcDbArc
 50
17.0562765514
 51
29.0466137287
  0
ARC
  5
3A0
100
AcDbEntity
  8
0
100
AcDbCircle
 62
7
  6
CONTINUOUS
 10
5.2038208705
 20
5.3117151013
 40
0.4025
100
AcDbArc
 50
29.0544727446
 51
109.0830087864
  0
ARC
  5
3A1
100
AcDbEntity
  8
0
100
AcDbCircle
 62
7
  6
CONTINUOUS
 10
5.2038208705
 20
5.3117151013
 40
0.4025
100
AcDbArc
 50
109.0919526821
 51
176.0466137287
  0
ARC
  5
3A2
100
AcDbEntity
  8
0
100
AcDbCircle
 62
7
  6
CONTINUOUS
 10
5.2038208705
 20
5.3117151013
 40
0.4025
100
AcDbArc
 50
176.0541624306
 51
188.0466137287
  0
ARC
  5
3A3
100
AcDbEntity
  8
0
100
AcDbCircle
 62
7
  6
CONTINUOUS
 10
5.2038208705
 20
5.3117151013
 40
0.4025
100
AcDbArc
 50
188.0563758488
 51
197.0466137287
  0
ARC
  5
3A4
100
AcDbEntity
  8
0
100
AcDbCircle
 62
7
  6
CONTINUOUS
 10
5.2038208705
 20
5.3117151013
 40
0.4025
100
AcDbArc
 50
197.0562765514
 51
209.0466137287
  0
ARC
  5
3A5
100
AcDbEntity
  8
0
100
AcDbCircle
 62
7
  6
CONTINUOUS
 10
5.2038208705
 20
5.3117151013
 40
0.4025
100
AcDbArc
 50
209.0544727446
 51
251.8999498345
  0
ARC
  5
3A6
100
AcDbEntity
  8
0
100
AcDbCircle
 62
7
  6
CONTINUOUS
 10
5.2038208705
 20
5.3117151013
 40
0.3875
100
AcDbArc
 50
288.8193576237
 51
251.1806423763
  0
ARC
  5
3A7
100
AcDbEntity
  8
0
100
AcDbCircle
 62
7
  6
CONTINUOUS
 10
5.2038208705
 20
5.3117151013
 40
0.13
100
AcDbArc
 50
344.2736850829
 51
195.7263149171
  0
ARC
  5
3A8
100
AcDbEntity
  8
0
100
AcDbCircle
 62
7
  6
CONTINUOUS
 10
5.2038208705
 20
5.3117151013
 40
0.128
100
AcDbArc
 50
347.8070913116
 51
192.1929086884
  0
ARC
  5
3A9
100
AcDbEntity
  8
0
100
AcDbCircle
 62
7
  6
CONTINUOUS
 10
5.2038208705
 20
5.3117151013
 40
0.125
100
AcDbArc
 50
0.0
 51
180.0
  0
ARC
  5
3AA
100
AcDbEntity
  8
0
100
AcDbCircle
 62
7
  6
CONTINUOUS
 10
6.4393208705
 20
5.0692151013
 40
0.015
100
AcDbArc
 50
324.6706264269
 51
360.0
  0
ARC
  5
3AB
100
AcDbEntity
  8
0
100
AcDbCircle
 62
7
  6
CONTINUOUS
 10
6.4393208705
 20
5.5542151013
 40
0.015
100
AcDbArc
 50
0.0
 51
35.3293735731
  0
ARC
  5
3AC
100
AcDbEntity
  8
0
100
AcDbCircle
 62
7
  6
CONTINUOUS
 10
6.0193208705
 20
5.0692151013
 40
0.015
100
AcDbArc
 50
180.0
 51
215.3293735732
  0
ARC
  5
3AD
100
AcDbEntity
  8
0
100
AcDbCircle
 62
7
  6
CONTINUOUS
 10
6.0193208705
 20
5.5542151013
 40
0.015
100
AcDbArc
 50
144.6706264268
 51
180.0
  0
ARC
  5
3AE
100
AcDbEntity
  8
0
100
AcDbCircle
 62
7
  6
CONTINUOUS
 10
6.4393208705
 20
5.3592151013
 40
0.015
100
AcDbArc
 50
0.0
 51
90.0
  0
ARC
  5
3AF
100
AcDbEntity
  8
0
100
AcDbCircle
 62
7
  6
CONTINUOUS
 10
6.2293208705
 20
5.3592151013
 40
0.015
100
AcDbArc
 50
90.0
 51
180.0
  0
ARC
  5
3B0
100
AcDbEntity
  8
0
100
AcDbCircle
 62
7
  6
CONTINUOUS
 10
6.4393208705
 20
5.2642151013
 40
0.015
100
AcDbArc
 50
270.0
 51
360.0
  0
ARC
  5
3B1
100
AcDbEntity
  8
0
100
AcDbCircle
 62
7
  6
CONTINUOUS
 10
6.2293208705
 20
5.2642151013
 40
0.015
100
AcDbArc
 50
180.0
 51
270.0
  0
ARC
  5
3B2
100
AcDbEntity
  8
0
100
AcDbCircle
 62
7
  6
CONTINUOUS
 10
6.4396137362
 20
5.0690071623
 40
0.014640822
100
AcDbArc
 50
317.4763586564
 51
324.6717534616
  0
SPLINE
  5
3B3
100
AcDbEntity
  8
0
100
AcDbSpline
 62
7
  6
CONTINUOUS
 70
0
 71
3
 72
14
 73
10
 74
0
 42
0.0000001
 43
0.0000001
 44
0.0000000001
 40
0.0
 40
0.0
 40
0.0
 40
0.0
 40
0.3170523033
 40
0.4637288922
 40
0.5983321289
 40
0.7194272147
 40
0.826566897
 40
0.9199261182
 40
1.0
 40
1.0
 40
1.0
 40
1.0
 10
6.4393208705
 20
5.1185341924
 30
0.0
 10
6.4406180254
 20
5.1185341924
 30
0.0
 10
6.4425154994
 20
5.1185631787
 30
0.0
 10
6.4449615456
 20
5.1186619249
 30
0.0
 10
6.4466051209
 20
5.1187571594
 30
0.0
 10
6.4480853079
 20
5.1188712025
 30
0.0
 10
6.4493948255
 20
5.1190001936
 30
0.0
 10
6.4505342064
 20
5.119140817
 30
0.0
 10
6.4512357267
 20
5.1192484216
 30
0.0
 10
6.4515584891
 20
5.1193045476
 30
0.0
  0
SPLINE
  5
3B4
100
AcDbEntity
  8
0
100
AcDbSpline
 62
7
  6
CONTINUOUS
 70
0
 71
3
 72
15
 73
11
 74
0
 42
0.0000001
 43
0.0000001
 44
0.0000000001
 40
0.0
 40
0.0
 40
0.0
 40
0.0
 40
0.1597206544
 40
0.3144774489
 40
0.4602475765
 40
0.5943642184
 40
0.7154835151
 40
0.8232365709
 40
0.9178783431
 40
1.0
 40
1.0
 40
1.0
 40
1.0
 10
6.4393208705
 20
5.1044304441
 30
0.0
 10
6.4399800172
 20
5.1044304441
 30
0.0
 10
6.4412779226
 20
5.1044508754
 30
0.0
 10
6.4431754729
 20
5.1045411628
 30
0.0
 10
6.4449637446
 20
5.1046851647
 30
0.0
 10
6.4466080723
 20
5.1048750631
 30
0.0
 10
6.448089092
 20
5.1051025454
 30
0.0
 10
6.4493996065
 20
5.1053599353
 30
0.0
 10
6.4505401822
 20
5.1056406765
 30
0.0
 10
6.4512382586
 20
5.1058543439
 30
0.0
 10
6.4515584891
 20
5.1059652916
 30
0.0
  0
SPLINE
  5
3B5
100
AcDbEntity
  8
0
100
AcDbSpline
 62
7
  6
CONTINUOUS
 70
0
 71
3
 72
15
 73
11
 74
0
 42
0.0000001
 43
0.0000001
 44
0.0000000001
 40
0.0
 40
0.0
 40
0.0
 40
0.0
 40
0.1575860757
 40
0.3104651421
 40
0.4548395205
 40
0.5882214205
 40
0.7094043386
 40
0.8181312151
 40
0.9147617182
 40
1.0
 40
1.0
 40
1.0
 40
1.0
 10
6.4393208705
 20
5.0919042571
 30
0.0
 10
6.4399801191
 20
5.0919042571
 30
0.0
 10
6.4412791408
 20
5.0919347532
 30
0.0
 10
6.4431778466
 20
5.0920694933
 30
0.0
 10
6.4449672677
 20
5.0922844092
 30
0.0
 10
6.446612735
 20
5.0925678643
 30
0.0
 10
6.4480949357
 20
5.0929074997
 30
0.0
 10
6.4494067479
 20
5.0932919545
 30
0.0
 10
6.4505487359
 20
5.0937115178
 30
0.0
 10
6.4512416524
 20
5.0940283031
 30
0.0
 10
6.4515584891
 20
5.0941919159
 30
0.0
  0
SPLINE
  5
3B6
100
AcDbEntity
  8
0
100
AcDbSpline
 62
7
  6
CONTINUOUS
 70
0
 71
3
 72
15
 73
11
 74
0
 42
0.0000001
 43
0.0000001
 44
0.0000000001
 40
0.0
 40
0.0
 40
0.0
 40
0.0
 40
0.1548743632
 40
0.3053764509
 40
0.4479996137
 40
0.580483131
 40
0.7017871872
 40
0.8117788772
 40
0.9109186256
 40
1.0
 40
1.0
 40
1.0
 40
1.0
 10
6.4393208705
 20
5.0810509634
 30
0.0
 10
6.4399802568
 20
5.0810509634
 30
0.0
 10
6.4412807907
 20
5.0810913412
 30
0.0
 10
6.4431810341
 20
5.0812696946
 30
0.0
 10
6.4449719288
 20
5.0815541906
 30
0.0
 10
6.4466187654
 20
5.0819294586
 30
0.0
 10
6.4481022601
 20
5.0823791891
 30
0.0
 10
6.4494153107
 20
5.0828884274
 30
0.0
 10
6.4505584256
 20
5.0834443705
 30
0.0
 10
6.4512452111
 20
5.083860243
 30
0.0
 10
6.4515584891
 20
5.0840740229
 30
0.0
  0
SPLINE
  5
3B7
100
AcDbEntity
  8
0
100
AcDbSpline
 62
7
  6
CONTINUOUS
 70
0
 71
3
 72
15
 73
11
 74
0
 42
0.0000001
 43
0.0000001
 44
0.0000000001
 40
0.0
 40
0.0
 40
0.0
 40
0.0
 40
0.1517840534
 40
0.2995887791
 40
0.4402460163
 40
0.5717525013
 40
0.693246551
 40
0.8047122334
 40
0.9066846972
 40
1.0
 40
1.0
 40
1.0
 40
1.0
 10
6.4393208705
 20
5.0719531631
 30
0.0
 10
6.4399804266
 20
5.0719531631
 30
0.0
 10
6.4412828207
 20
5.0720031754
 30
0.0
 10
6.4431849122
 20
5.0722240079
 30
0.0
 10
6.4449774925
 20
5.0725762643
 30
0.0
 10
6.4466257633
 20
5.0730409254
 30
0.0
 10
6.4481104412
 20
5.0735978218
 30
0.0
 10
6.4494244001
 20
5.0742284667
 30
0.0
 10
6.450568075
 20
5.0749169971
 30
0.0
 10
6.4512484947
 20
5.0754272269
 30
0.0
 10
6.4515584891
 20
5.0756886161
 30
0.0
  0
SPLINE
  5
3B8
100
AcDbEntity
  8
0
100
AcDbSpline
 62
7
  6
CONTINUOUS
 70
0
 71
3
 72
14
 73
10
 74
0
 42
0.0000001
 43
0.0000001
 44
0.0000000001
 40
0.0
 40
0.0
 40
0.0
 40
0.0
 40
0.148541778
 40
0.2935346566
 40
0.4321770997
 40
0.5627362642
 40
0.6845244121
 40
0.7976215531
 40
1.0
 40
1.0
 40
1.0
 40
1.0
 10
6.4393208705
 20
5.0646800959
 30
0.0
 10
6.4399806231
 20
5.0646800959
 30
0.0
 10
6.4412851687
 20
5.0647394307
 30
0.0
 10
6.4431893291
 20
5.0650012983
 30
0.0
 10
6.4449837168
 20
5.0654190077
 30
0.0
 10
6.4466332524
 20
5.0659698549
 30
0.0
 10
6.4481191385
 20
5.0666303003
 30
0.0
 10
6.4498089604
 20
5.0675910301
 30
0.0
 10
6.4509221283
 20
5.0684646811
 30
0.0
 10
6.4515584891
 20
5.0690995132
 30
0.0
  0
SPLINE
  5
3B9
100
AcDbEntity
  8
0
100
AcDbSpline
 62
7
  6
CONTINUOUS
 70
0
 71
3
 72
14
 73
10
 74
0
 42
0.0000001
 43
0.0000001
 44
0.0000000001
 40
0.0
 40
0.0
 40
0.0
 40
0.0
 40
0.2869693014
 40
0.4235827109
 40
0.5532133643
 40
0.675332393
 40
0.7900876681
 40
0.8980519567
 40
1.0
 40
1.0
 40
1.0
 40
1.0
 10
6.4393208705
 20
5.0592871142
 30
0.0
 10
6.4406249415
 20
5.0592871142
 30
0.0
 10
6.4425584001
 20
5.0594863733
 30
0.0
 10
6.4449900549
 20
5.0601367946
 30
0.0
 10
6.4466411153
 20
5.0607701346
 30
0.0
 10
6.4481272004
 20
5.0615288521
 30
0.0
 10
6.4494416166
 20
5.062387663
 30
0.0
 10
6.4505847281
 20
5.063324772
 30
0.0
 10
6.451253649
 20
5.0640080034
 30
0.0
 10
6.4515584891
 20
5.0643568616
 30
0.0
  0
SPLINE
  5
3BA
100
AcDbEntity
  8
0
100
AcDbSpline
 62
7
  6
CONTINUOUS
 70
0
 71
3
 72
15
 73
11
 74
0
 42
0.0000001
 43
0.0000001
 44
0.0000000001
 40
0.0
 40
0.0
 40
0.0
 40
0.0
 40
0.1419295122
 40
0.2812180533
 40
0.4158213637
 40
0.5445346958
 40
0.6669662757
 40
0.7833025677
 40
0.8940834587
 40
1.0
 40
1.0
 40
1.0
 40
1.0
 10
6.4393208705
 20
5.055815262
 30
0.0
 10
6.4399810722
 20
5.055815262
 30
0.0
 10
6.4412905075
 20
5.0558920223
 30
0.0
 10
6.4431991685
 20
5.0562304133
 30
0.0
 10
6.4449969757
 20
5.0567698842
 30
0.0
 10
6.4466486694
 20
5.0574809853
 30
0.0
 10
6.4481350288
 20
5.0583325545
 30
0.0
 10
6.4494490417
 20
5.059296032
 30
0.0
 10
6.4505913279
 20
5.0603469037
 30
0.0
 10
6.4512555373
 20
5.0611082237
 30
0.0
 10
6.4515584891
 20
5.0614967554
 30
0.0
  0
SPLINE
  5
3BB
100
AcDbEntity
  8
0
100
AcDbSpline
 62
7
  6
CONTINUOUS
 70
0
 71
3
 72
15
 73
11
 74
0
 42
0.0000001
 43
0.0000001
 44
0.0000000001
 40
0.0
 40
0.0
 40
0.0
 40
0.0
 40
0.1388580538
 40
0.2755202797
 40
0.4083051497
 40
0.5362454803
 40
0.6590616801
 40
0.7769527438
 40
0.8904021822
 40
1.0
 40
1.0
 40
1.0
 40
1.0
 10
6.4393208705
 20
5.054290962
 30
0.0
 10
6.439981311
 20
5.054290962
 30
0.0
 10
6.4412933365
 20
5.0543756866
 30
0.0
 10
6.4432042493
 20
5.0547489217
 30
0.0
 10
6.445003569
 20
5.0553436981
 30
0.0
 10
6.4466558979
 20
5.0561273079
 30
0.0
 10
6.4481421543
 20
5.0570652278
 30
0.0
 10
6.4494555161
 20
5.0581258895
 30
0.0
 10
6.4505968185
 20
5.0592822774
 30
0.0
 10
6.4512570499
 20
5.0601156867
 30
0.0
 10
6.4515584891
 20
5.060540962
 30
0.0
  0
SPLINE
  5
3BC
100
AcDbEntity
  8
0
100
AcDbSpline
 62
7
  6
CONTINUOUS
 70
0
 71
3
 72
14
 73
10
 74
0
 42
0.0000001
 43
0.0000001
 44
0.0000000001
 40
0.0
 40
0.0
 40
0.0
 40
0.0
 40
0.0800738796
 40
0.173433103
 40
0.2805727778
 40
0.4016678619
 40
0.5362710794
 40
0.6829477036
 40
1.0
 40
1.0
 40
1.0
 40
1.0
 10
6.4515584891
 20
5.504125655
 30
0.0
 10
6.4512357267
 20
5.504181781
 30
0.0
 10
6.4505342065
 20
5.5042893856
 30
0.0
 10
6.4493948256
 20
5.504430009
 30
0.0
 10
6.4480853079
 20
5.5045590001
 30
0.0
 10
6.4466051211
 20
5.5046730432
 30
0.0
 10
6.4449615457
 20
5.5047682777
 30
0.0
 10
6.4425154994
 20
5.5048670239
 30
0.0
 10
6.4406180254
 20
5.5048960102
 30
0.0
 10
6.4393208705
 20
5.5048960102
 30
0.0
  0
SPLINE
  5
3BD
100
AcDbEntity
  8
0
100
AcDbSpline
 62
7
  6
CONTINUOUS
 70
0
 71
3
 72
15
 73
11
 74
0
 42
0.0000001
 43
0.0000001
 44
0.0000000001
 40
0.0
 40
0.0
 40
0.0
 40
0.0
 40
0.082121657
 40
0.1767634285
 40
0.2845164833
 40
0.4056357781
 40
0.5397524138
 40
0.6855225444
 40
0.8402793404
 40
1.0
 40
1.0
 40
1.0
 40
1.0
 10
6.4515584891
 20
5.517464911
 30
0.0
 10
6.4512382586
 20
5.5175758587
 30
0.0
 10
6.4505401823
 20
5.5177895262
 30
0.0
 10
6.4493996065
 20
5.5180702674
 30
0.0
 10
6.448089092
 20
5.5183276572
 30
0.0
 10
6.4466080724
 20
5.5185551395
 30
0.0
 10
6.4449637447
 20
5.5187450379
 30
0.0
 10
6.443175473
 20
5.5188890398
 30
0.0
 10
6.4412779226
 20
5.5189793272
 30
0.0
 10
6.4399800172
 20
5.5189997585
 30
0.0
 10
6.4393208705
 20
5.5189997585
 30
0.0
  0
SPLINE
  5
3BE
100
AcDbEntity
  8
0
100
AcDbSpline
 62
7
  6
CONTINUOUS
 70
0
 71
3
 72
15
 73
11
 74
0
 42
0.0000001
 43
0.0000001
 44
0.0000000001
 40
0.0
 40
0.0
 40
0.0
 40
0.0
 40
0.0852382796
 40
0.1818687848
 40
0.2905956538
 40
0.4117785703
 40
0.5451604514
 40
0.6895348647
 40
0.842413953
 40
1.0
 40
1.0
 40
1.0
 40
1.0
 10
6.4515584891
 20
5.5292382867
 30
0.0
 10
6.4512416524
 20
5.5294018995
 30
0.0
 10
6.450548736
 20
5.5297186848
 30
0.0
 10
6.4494067479
 20
5.5301382481
 30
0.0
 10
6.4480949357
 20
5.5305227029
 30
0.0
 10
6.4466127351
 20
5.5308623383
 30
0.0
 10
6.4449672678
 20
5.5311457934
 30
0.0
 10
6.4431778466
 20
5.5313607093
 30
0.0
 10
6.4412791407
 20
5.5314954494
 30
0.0
 10
6.439980119
 20
5.5315259455
 30
0.0
 10
6.4393208705
 20
5.5315259455
 30
0.0
  0
SPLINE
  5
3BF
100
AcDbEntity
  8
0
100
AcDbSpline
 62
7
  6
CONTINUOUS
 70
0
 71
3
 72
15
 73
11
 74
0
 42
0.0000001
 43
0.0000001
 44
0.0000000001
 40
0.0
 40
0.0
 40
0.0
 40
0.0
 40
0.0890813721
 40
0.1882211228
 40
0.2982128052
 40
0.4195168598
 40
0.5520003585
 40
0.6946235557
 40
0.8451256651
 40
1.0
 40
1.0
 40
1.0
 40
1.0
 10
6.4515584891
 20
5.5393561797
 30
0.0
 10
6.4512452111
 20
5.5395699596
 30
0.0
 10
6.4505584256
 20
5.5399858321
 30
0.0
 10
6.4494153108
 20
5.5405417752
 30
0.0
 10
6.4481022602
 20
5.5410510135
 30
0.0
 10
6.4466187656
 20
5.5415007439
 30
0.0
 10
6.444971929
 20
5.541876012
 30
0.0
 10
6.4431810341
 20
5.542160508
 30
0.0
 10
6.4412807905
 20
5.5423388614
 30
0.0
 10
6.4399802567
 20
5.5423792392
 30
0.0
 10
6.4393208705
 20
5.5423792392
 30
0.0
  0
SPLINE
  5
3C0
100
AcDbEntity
  8
0
100
AcDbSpline
 62
7
  6
CONTINUOUS
 70
0
 71
3
 72
15
 73
11
 74
0
 42
0.0000001
 43
0.0000001
 44
0.0000000001
 40
0.0
 40
0.0
 40
0.0
 40
0.0
 40
0.0933153005
 40
0.1952877665
 40
0.3067534414
 40
0.4282474895
 40
0.5597539562
 40
0.7004112274
 40
0.8482159743
 40
1.0
 40
1.0
 40
1.0
 40
1.0
 10
6.4515584891
 20
5.5477415865
 30
0.0
 10
6.4512484947
 20
5.5480029757
 30
0.0
 10
6.450568075
 20
5.5485132056
 30
0.0
 10
6.4494244001
 20
5.5492017359
 30
0.0
 10
6.4481104413
 20
5.5498323808
 30
0.0
 10
6.4466257635
 20
5.5503892771
 30
0.0
 10
6.4449774926
 20
5.5508539383
 30
0.0
 10
6.4431849122
 20
5.5512061947
 30
0.0
 10
6.4412828206
 20
5.5514270272
 30
0.0
 10
6.4399804265
 20
5.5514770395
 30
0.0
 10
6.4393208705
 20
5.5514770395
 30
0.0
  0
SPLINE
  5
3C1
100
AcDbEntity
  8
0
100
AcDbSpline
 62
7
  6
CONTINUOUS
 70
0
 71
3
 72
14
 73
10
 74
0
 42
0.0000001
 43
0.0000001
 44
0.0000000001
 40
0.0
 40
0.0
 40
0.0
 40
0.0
 40
0.2023784468
 40
0.3154755803
 40
0.4372637267
 40
0.5678228731
 40
0.7064653498
 40
0.8514582491
 40
1.0
 40
1.0
 40
1.0
 40
1.0
 10
6.4515584891
 20
5.5543306894
 30
0.0
 10
6.4509221283
 20
5.5549655215
 30
0.0
 10
6.4498089604
 20
5.5558391725
 30
0.0
 10
6.4481191386
 20
5.5567999023
 30
0.0
 10
6.4466332525
 20
5.5574603476
 30
0.0
 10
6.444983717
 20
5.5580111949
 30
0.0
 10
6.4431893291
 20
5.5584289044
 30
0.0
 10
6.4412851686
 20
5.5586907719
 30
0.0
 10
6.439980623
 20
5.5587501067
 30
0.0
 10
6.4393208705
 20
5.5587501067
 30
0.0
  0
SPLINE
  5
3C2
100
AcDbEntity
  8
0
100
AcDbSpline
 62
7
  6
CONTINUOUS
 70
0
 71
3
 72
14
 73
10
 74
0
 42
0.0000001
 43
0.0000001
 44
0.0000000001
 40
0.0
 40
0.0
 40
0.0
 40
0.0
 40
0.1019480408
 40
0.2099123318
 40
0.3246675994
 40
0.4467866265
 40
0.5764172622
 40
0.7130307049
 40
1.0
 40
1.0
 40
1.0
 40
1.0
 10
6.4515584891
 20
5.5590733411
 30
0.0
 10
6.451253649
 20
5.5594221992
 30
0.0
 10
6.4505847281
 20
5.5601054306
 30
0.0
 10
6.4494416166
 20
5.5610425396
 30
0.0
 10
6.4481272005
 20
5.5619013505
 30
0.0
 10
6.4466411155
 20
5.5626600679
 30
0.0
 10
6.444990055
 20
5.563293408
 30
0.0
 10
6.4425584002
 20
5.5639438293
 30
0.0
 10
6.4406249415
 20
5.5641430884
 30
0.0
 10
6.4393208705
 20
5.5641430884
 30
0.0
  0
SPLINE
  5
3C3
100
AcDbEntity
  8
0
100
AcDbSpline
 62
7
  6
CONTINUOUS
 70
0
 71
3
 72
15
 73
11
 74
0
 42
0.0000001
 43
0.0000001
 44
0.0000000001
 40
0.0
 40
0.0
 40
0.0
 40
0.0
 40
0.1059165388
 40
0.2166974322
 40
0.3330337166
 40
0.4554652951
 40
0.5841786097
 40
0.7187819529
 40
0.8580705136
 40
1.0
 40
1.0
 40
1.0
 40
1.0
 10
6.4515584891
 20
5.5619334472
 30
0.0
 10
6.4512555373
 20
5.5623219789
 30
0.0
 10
6.4505913279
 20
5.5630832989
 30
0.0
 10
6.4494490418
 20
5.5641341706
 30
0.0
 10
6.4481350289
 20
5.5650976481
 30
0.0
 10
6.4466486695
 20
5.5659492172
 30
0.0
 10
6.4449969758
 20
5.5666603184
 30
0.0
 10
6.4431991685
 20
5.5671997894
 30
0.0
 10
6.4412905073
 20
5.5675381803
 30
0.0
 10
6.4399810721
 20
5.5676149407
 30
0.0
 10
6.4393208705
 20
5.5676149407
 30
0.0
  0
SPLINE
  5
3C4
100
AcDbEntity
  8
0
100
AcDbSpline
 62
7
  6
CONTINUOUS
 70
0
 71
3
 72
15
 73
11
 74
0
 42
0.0000001
 43
0.0000001
 44
0.0000000001
 40
0.0
 40
0.0
 40
0.0
 40
0.0
 40
0.1095978152
 40
0.2230472559
 40
0.3409383122
 40
0.4637545106
 40
0.5916948241
 40
0.7244797258
 40
0.8611419706
 40
1.0
 40
1.0
 40
1.0
 40
1.0
 10
6.4515584891
 20
5.5628892406
 30
0.0
 10
6.4512570499
 20
5.5633145159
 30
0.0
 10
6.4505968186
 20
5.5641479252
 30
0.0
 10
6.4494555161
 20
5.5653043131
 30
0.0
 10
6.4481421544
 20
5.5663649748
 30
0.0
 10
6.4466558981
 20
5.5673028946
 30
0.0
 10
6.4450035691
 20
5.5680865044
 30
0.0
 10
6.4432042493
 20
5.5686812809
 30
0.0
 10
6.4412933363
 20
5.569054516
 30
0.0
 10
6.4399813109
 20
5.5691392406
 30
0.0
 10
6.4393208705
 20
5.5691392406
 30
0.0
  0
SPLINE
  5
3C5
100
AcDbEntity
  8
0
100
AcDbSpline
 62
7
  6
CONTINUOUS
 70
0
 71
3
 72
14
 73
10
 74
0
 42
0.0000001
 43
0.0000001
 44
0.0000000001
 40
0.0
 40
0.0
 40
0.0
 40
0.0
 40
0.0800738798
 40
0.1734331018
 40
0.2805727781
 40
0.4016678616
 40
0.5362710803
 40
0.6829476944
 40
1.0
 40
1.0
 40
1.0
 40
1.0
 10
6.007083252
 20
5.1193045476
 30
0.0
 10
6.0074060144
 20
5.1192484216
 30
0.0
 10
6.0081075346
 20
5.119140817
 30
0.0
 10
6.0092469155
 20
5.1190001936
 30
0.0
 10
6.0105564331
 20
5.1188712025
 30
0.0
 10
6.01203662
 20
5.1187571595
 30
0.0
 10
6.0136801953
 20
5.1186619249
 30
0.0
 10
6.0161262416
 20
5.1185631787
 30
0.0
 10
6.0180237156
 20
5.1185341924
 30
0.0
 10
6.0193208705
 20
5.1185341924
 30
0.0
  0
SPLINE
  5
3C6
100
AcDbEntity
  8
0
100
AcDbSpline
 62
7
  6
CONTINUOUS
 70
0
 71
3
 72
15
 73
11
 74
0
 42
0.0000001
 43
0.0000001
 44
0.0000000001
 40
0.0
 40
0.0
 40
0.0
 40
0.0
 40
0.0821216572
 40
0.1767634294
 40
0.2845164861
 40
0.4056357831
 40
0.5397524275
 40
0.6855225549
 40
0.8402793497
 40
1.0
 40
1.0
 40
1.0
 40
1.0
 10
6.007083252
 20
5.1059652916
 30
0.0
 10
6.0074034825
 20
5.1058543439
 30
0.0
 10
6.0081015588
 20
5.1056406765
 30
0.0
 10
6.0092421346
 20
5.1053599353
 30
0.0
 10
6.0105526491
 20
5.1051025454
 30
0.0
 10
6.0120336688
 20
5.1048750631
 30
0.0
 10
6.0136779965
 20
5.1046851647
 30
0.0
 10
6.0154662682
 20
5.1045411628
 30
0.0
 10
6.0173638185
 20
5.1044508754
 30
0.0
 10
6.0186617239
 20
5.1044304441
 30
0.0
 10
6.0193208705
 20
5.1044304441
 30
0.0
  0
SPLINE
  5
3C7
100
AcDbEntity
  8
0
100
AcDbSpline
 62
7
  6
CONTINUOUS
 70
0
 71
3
 72
15
 73
11
 74
0
 42
0.0000001
 43
0.0000001
 44
0.0000000001
 40
0.0
 40
0.0
 40
0.0
 40
0.0
 40
0.0852382798
 40
0.1818687836
 40
0.2905956542
 40
0.41177857
 40
0.5451604524
 40
0.6895348556
 40
0.8424139376
 40
1.0
 40
1.0
 40
1.0
 40
1.0
 10
6.007083252
 20
5.0941919159
 30
0.0
 10
6.0074000887
 20
5.0940283031
 30
0.0
 10
6.0080930051
 20
5.0937115178
 30
0.0
 10
6.0092349931
 20
5.0932919545
 30
0.0
 10
6.0105468053
 20
5.0929074997
 30
0.0
 10
6.0120290059
 20
5.0925678643
 30
0.0
 10
6.0136744733
 20
5.0922844092
 30
0.0
 10
6.0154638944
 20
5.0920694933
 30
0.0
 10
6.0173626003
 20
5.0919347532
 30
0.0
 10
6.018661622
 20
5.0919042571
 30
0.0
 10
6.0193208705
 20
5.0919042571
 30
0.0
  0
SPLINE
  5
3C8
100
AcDbEntity
  8
0
100
AcDbSpline
 62
7
  6
CONTINUOUS
 70
0
 71
3
 72
15
 73
11
 74
0
 42
0.0000001
 43
0.0000001
 44
0.0000000001
 40
0.0
 40
0.0
 40
0.0
 40
0.0
 40
0.0890813723
 40
0.1882211215
 40
0.2982128056
 40
0.4195168595
 40
0.5520003595
 40
0.6946235468
 40
0.84512565
 40
1.0
 40
1.0
 40
1.0
 40
1.0
 10
6.007083252
 20
5.0840740229
 30
0.0
 10
6.0073965299
 20
5.083860243
 30
0.0
 10
6.0080833155
 20
5.0834443706
 30
0.0
 10
6.0092264303
 20
5.0828884274
 30
0.0
 10
6.0105394809
 20
5.0823791892
 30
0.0
 10
6.0120229755
 20
5.0819294587
 30
0.0
 10
6.0136698121
 20
5.0815541906
 30
0.0
 10
6.0154607069
 20
5.0812696946
 30
0.0
 10
6.0173609504
 20
5.0810913412
 30
0.0
 10
6.0186614843
 20
5.0810509634
 30
0.0
 10
6.0193208705
 20
5.0810509634
 30
0.0
  0
SPLINE
  5
3C9
100
AcDbEntity
  8
0
100
AcDbSpline
 62
7
  6
CONTINUOUS
 70
0
 71
3
 72
15
 73
11
 74
0
 42
0.0000001
 43
0.0000001
 44
0.0000000001
 40
0.0
 40
0.0
 40
0.0
 40
0.0
 40
0.0933153007
 40
0.1952877652
 40
0.3067534417
 40
0.4282474892
 40
0.5597539571
 40
0.7004112186
 40
0.8482159595
 40
1.0
 40
1.0
 40
1.0
 40
1.0
 10
6.007083252
 20
5.0756886161
 30
0.0
 10
6.0073932464
 20
5.0754272269
 30
0.0
 10
6.0080736661
 20
5.0749169971
 30
0.0
 10
6.0092173409
 20
5.0742284667
 30
0.0
 10
6.0105312998
 20
5.0735978218
 30
0.0
 10
6.0120159776
 20
5.0730409255
 30
0.0
 10
6.0136642484
 20
5.0725762643
 30
0.0
 10
6.0154568288
 20
5.0722240079
 30
0.0
 10
6.0173589204
 20
5.0720031754
 30
0.0
 10
6.0186613146
 20
5.0719531631
 30
0.0
 10
6.0193208705
 20
5.0719531631
 30
0.0
  0
SPLINE
  5
3CA
100
AcDbEntity
  8
0
100
AcDbSpline
 62
7
  6
CONTINUOUS
 70
0
 71
3
 72
14
 73
10
 74
0
 42
0.0000001
 43
0.0000001
 44
0.0000000001
 40
0.0
 40
0.0
 40
0.0
 40
0.0
 40
0.2023784455
 40
0.3154755806
 40
0.4372637264
 40
0.567822874
 40
0.7064653412
 40
0.8514582346
 40
1.0
 40
1.0
 40
1.0
 40
1.0
 10
6.007083252
 20
5.0690995132
 30
0.0
 10
6.0077196127
 20
5.0684646811
 30
0.0
 10
6.0088327807
 20
5.0675910301
 30
0.0
 10
6.0105226025
 20
5.0666303003
 30
0.0
 10
6.0120084885
 20
5.065969855
 30
0.0
 10
6.0136580241
 20
5.0654190077
 30
0.0
 10
6.0154524119
 20
5.0650012983
 30
0.0
 10
6.0173565724
 20
5.0647394307
 30
0.0
 10
6.018661118
 20
5.0646800959
 30
0.0
 10
6.0193208705
 20
5.0646800959
 30
0.0
  0
SPLINE
  5
3CB
100
AcDbEntity
  8
0
100
AcDbSpline
 62
7
  6
CONTINUOUS
 70
0
 71
3
 72
14
 73
10
 74
0
 42
0.0000001
 43
0.0000001
 44
0.0000000001
 40
0.0
 40
0.0
 40
0.0
 40
0.0
 40
0.101948041
 40
0.2099123304
 40
0.3246675997
 40
0.4467866262
 40
0.5764172632
 40
0.7130306965
 40
1.0
 40
1.0
 40
1.0
 40
1.0
 10
6.007083252
 20
5.0643568616
 30
0.0
 10
6.0073880921
 20
5.0640080034
 30
0.0
 10
6.008057013
 20
5.063324772
 30
0.0
 10
6.0092001245
 20
5.0623876631
 30
0.0
 10
6.0105145406
 20
5.0615288521
 30
0.0
 10
6.0120006256
 20
5.0607701347
 30
0.0
 10
6.013651686
 20
5.0601367946
 30
0.0
 10
6.0160833408
 20
5.0594863733
 30
0.0
 10
6.0180167995
 20
5.0592871142
 30
0.0
 10
6.0193208705
 20
5.0592871142
 30
0.0
  0
SPLINE
  5
3CC
100
AcDbEntity
  8
0
100
AcDbSpline
 62
7
  6
CONTINUOUS
 70
0
 71
3
 72
15
 73
11
 74
0
 42
0.0000001
 43
0.0000001
 44
0.0000000001
 40
0.0
 40
0.0
 40
0.0
 40
0.0
 40
0.105916539
 40
0.2166974308
 40
0.333033717
 40
0.4554652948
 40
0.5841786106
 40
0.7187819446
 40
0.8580704998
 40
1.0
 40
1.0
 40
1.0
 40
1.0
 10
6.007083252
 20
5.0614967554
 30
0.0
 10
6.0073862038
 20
5.0611082237
 30
0.0
 10
6.0080504131
 20
5.0603469037
 30
0.0
 10
6.0091926993
 20
5.059296032
 30
0.0
 10
6.0105067122
 20
5.0583325545
 30
0.0
 10
6.0119930715
 20
5.0574809854
 30
0.0
 10
6.0136447653
 20
5.0567698842
 30
0.0
 10
6.0154425725
 20
5.0562304133
 30
0.0
 10
6.0173512336
 20
5.0558920223
 30
0.0
 10
6.0186606689
 20
5.055815262
 30
0.0
 10
6.0193208705
 20
5.055815262
 30
0.0
  0
SPLINE
  5
3CD
100
AcDbEntity
  8
0
100
AcDbSpline
 62
7
  6
CONTINUOUS
 70
0
 71
3
 72
15
 73
11
 74
0
 42
0.0000001
 43
0.0000001
 44
0.0000000001
 40
0.0
 40
0.0
 40
0.0
 40
0.0
 40
0.1095978155
 40
0.2230472546
 40
0.3409383126
 40
0.4637545103
 40
0.5916948249
 40
0.7244797182
 40
0.861141958
 40
1.0
 40
1.0
 40
1.0
 40
1.0
 10
6.007083252
 20
5.060540962
 30
0.0
 10
6.0073846911
 20
5.0601156867
 30
0.0
 10
6.0080449225
 20
5.0592822774
 30
0.0
 10
6.009186225
 20
5.0581258895
 30
0.0
 10
6.0104995867
 20
5.0570652278
 30
0.0
 10
6.011985843
 20
5.056127308
 30
0.0
 10
6.0136381719
 20
5.0553436982
 30
0.0
 10
6.0154374917
 20
5.0547489217
 30
0.0
 10
6.0173484047
 20
5.0543756866
 30
0.0
 10
6.0186604301
 20
5.054290962
 30
0.0
 10
6.0193208705
 20
5.054290962
 30
0.0
  0
SPLINE
  5
3CE
100
AcDbEntity
  8
0
100
AcDbSpline
 62
7
  6
CONTINUOUS
 70
0
 71
3
 72
15
 73
11
 74
0
 42
0.0000001
 43
0.0000001
 44
0.0000000001
 40
0.0
 40
0.0
 40
0.0
 40
0.0
 40
0.1388580164
 40
0.2755202495
 40
0.4083051282
 40
0.5362454704
 40
0.6590616727
 40
0.7769527402
 40
0.8904021807
 40
1.0
 40
1.0
 40
1.0
 40
1.0
 10
6.0193208705
 20
5.5691392406
 30
0.0
 10
6.0186604302
 20
5.5691392406
 30
0.0
 10
6.0173484049
 20
5.569054516
 30
0.0
 10
6.0154374922
 20
5.568681281
 30
0.0
 10
6.0136381724
 20
5.5680865046
 30
0.0
 10
6.0119858433
 20
5.5673028948
 30
0.0
 10
6.0104995868
 20
5.5663649749
 30
0.0
 10
6.009186225
 20
5.5653043132
 30
0.0
 10
6.0080449225
 20
5.5641479252
 30
0.0
 10
6.0073846912
 20
5.5633145159
 30
0.0
 10
6.007083252
 20
5.5628892406
 30
0.0
  0
SPLINE
  5
3CF
100
AcDbEntity
  8
0
100
AcDbSpline
 62
7
  6
CONTINUOUS
 70
0
 71
3
 72
15
 73
11
 74
0
 42
0.0000001
 43
0.0000001
 44
0.0000000001
 40
0.0
 40
0.0
 40
0.0
 40
0.0
 40
0.1419294737
 40
0.2812180221
 40
0.4158213418
 40
0.5445346858
 40
0.6669662684
 40
0.7833025641
 40
0.8940834573
 40
1.0
 40
1.0
 40
1.0
 40
1.0
 10
6.0193208705
 20
5.5676149407
 30
0.0
 10
6.0186606691
 20
5.5676149407
 30
0.0
 10
6.0173512339
 20
5.5675381803
 30
0.0
 10
6.015442573
 20
5.5671997894
 30
0.0
 10
6.0136447657
 20
5.5666603186
 30
0.0
 10
6.0119930719
 20
5.5659492174
 30
0.0
 10
6.0105067124
 20
5.5650976482
 30
0.0
 10
6.0091926994
 20
5.5641341706
 30
0.0
 10
6.0080504132
 20
5.5630832989
 30
0.0
 10
6.0073862038
 20
5.5623219789
 30
0.0
 10
6.007083252
 20
5.5619334472
 30
0.0
  0
SPLINE
  5
3D0
100
AcDbEntity
  8
0
100
AcDbSpline
 62
7
  6
CONTINUOUS
 70
0
 71
3
 72
14
 73
10
 74
0
 42
0.0000001
 43
0.0000001
 44
0.0000000001
 40
0.0
 40
0.0
 40
0.0
 40
0.0
 40
0.2869692697
 40
0.4235826888
 40
0.5532133544
 40
0.6753323858
 40
0.7900876646
 40
0.8980519554
 40
1.0
 40
1.0
 40
1.0
 40
1.0
 10
6.0193208705
 20
5.5641430884
 30
0.0
 10
6.0180167997
 20
5.5641430884
 30
0.0
 10
6.0160833412
 20
5.5639438293
 30
0.0
 10
6.0136516865
 20
5.5632934082
 30
0.0
 10
6.0120006259
 20
5.5626600681
 30
0.0
 10
6.0105145407
 20
5.5619013506
 30
0.0
 10
6.0092001245
 20
5.5610425396
 30
0.0
 10
6.008057013
 20
5.5601054306
 30
0.0
 10
6.0073880921
 20
5.5594221992
 30
0.0
 10
6.007083252
 20
5.5590733411
 30
0.0
  0
SPLINE
  5
3D1
100
AcDbEntity
  8
0
100
AcDbSpline
 62
7
  6
CONTINUOUS
 70
0
 71
3
 72
14
 73
10
 74
0
 42
0.0000001
 43
0.0000001
 44
0.0000000001
 40
0.0
 40
0.0
 40
0.0
 40
0.0
 40
0.1485417377
 40
0.2935346243
 40
0.4321770774
 40
0.5627362542
 40
0.6845244049
 40
0.7976215497
 40
1.0
 40
1.0
 40
1.0
 40
1.0
 10
6.0193208705
 20
5.5587501067
 30
0.0
 10
6.0186611181
 20
5.5587501067
 30
0.0
 10
6.0173565727
 20
5.5586907719
 30
0.0
 10
6.0154524124
 20
5.5584289044
 30
0.0
 10
6.0136580245
 20
5.558011195
 30
0.0
 10
6.0120084889
 20
5.5574603478
 30
0.0
 10
6.0105226027
 20
5.5567999024
 30
0.0
 10
6.0088327807
 20
5.5558391725
 30
0.0
 10
6.0077196127
 20
5.5549655215
 30
0.0
 10
6.007083252
 20
5.5543306894
 30
0.0
  0
SPLINE
  5
3D2
100
AcDbEntity
  8
0
100
AcDbSpline
 62
7
  6
CONTINUOUS
 70
0
 71
3
 72
15
 73
11
 74
0
 42
0.0000001
 43
0.0000001
 44
0.0000000001
 40
0.0
 40
0.0
 40
0.0
 40
0.0
 40
0.1517840122
 40
0.2995887463
 40
0.4402459937
 40
0.5717524913
 40
0.6932465439
 40
0.8047122301
 40
0.906684696
 40
1.0
 40
1.0
 40
1.0
 40
1.0
 10
6.0193208705
 20
5.5514770395
 30
0.0
 10
6.0186613147
 20
5.5514770395
 30
0.0
 10
6.0173589207
 20
5.5514270273
 30
0.0
 10
6.0154568293
 20
5.5512061948
 30
0.0
 10
6.0136642489
 20
5.5508539384
 30
0.0
 10
6.0120159779
 20
5.5503892772
 30
0.0
 10
6.0105312999
 20
5.5498323808
 30
0.0
 10
6.009217341
 20
5.549201736
 30
0.0
 10
6.0080736661
 20
5.5485132056
 30
0.0
 10
6.0073932464
 20
5.5480029757
 30
0.0
 10
6.007083252
 20
5.5477415865
 30
0.0
  0
SPLINE
  5
3D3
100
AcDbEntity
  8
0
100
AcDbSpline
 62
7
  6
CONTINUOUS
 70
0
 71
3
 72
15
 73
11
 74
0
 42
0.0000001
 43
0.0000001
 44
0.0000000001
 40
0.0
 40
0.0
 40
0.0
 40
0.0
 40
0.1548743212
 40
0.3053764175
 40
0.4479995909
 40
0.580483121
 40
0.7017871801
 40
0.8117788739
 40
0.9109186244
 40
1.0
 40
1.0
 40
1.0
 40
1.0
 10
6.0193208705
 20
5.5423792392
 30
0.0
 10
6.0186614844
 20
5.5423792392
 30
0.0
 10
6.0173609507
 20
5.5423388614
 30
0.0
 10
6.0154607074
 20
5.5421605081
 30
0.0
 10
6.0136698125
 20
5.5418760121
 30
0.0
 10
6.0120229758
 20
5.541500744
 30
0.0
 10
6.0105394811
 20
5.5410510135
 30
0.0
 10
6.0092264304
 20
5.5405417752
 30
0.0
 10
6.0080833155
 20
5.5399858321
 30
0.0
 10
6.00739653
 20
5.5395699596
 30
0.0
 10
6.007083252
 20
5.5393561797
 30
0.0
  0
SPLINE
  5
3D4
100
AcDbEntity
  8
0
100
AcDbSpline
 62
7
  6
CONTINUOUS
 70
0
 71
3
 72
15
 73
11
 74
0
 42
0.0000001
 43
0.0000001
 44
0.0000000001
 40
0.0
 40
0.0
 40
0.0
 40
0.0
 40
0.157586033
 40
0.3104651082
 40
0.4548394975
 40
0.5882214105
 40
0.7094043315
 40
0.818131212
 40
0.9147617171
 40
1.0
 40
1.0
 40
1.0
 40
1.0
 10
6.0193208705
 20
5.5315259455
 30
0.0
 10
6.0186616221
 20
5.5315259455
 30
0.0
 10
6.0173626006
 20
5.5314954494
 30
0.0
 10
6.0154638948
 20
5.5313607093
 30
0.0
 10
6.0136744737
 20
5.5311457935
 30
0.0
 10
6.0120290063
 20
5.5308623384
 30
0.0
 10
6.0105468055
 20
5.530522703
 30
0.0
 10
6.0092349932
 20
5.5301382482
 30
0.0
 10
6.0080930051
 20
5.5297186848
 30
0.0
 10
6.0074000887
 20
5.5294018995
 30
0.0
 10
6.007083252
 20
5.5292382867
 30
0.0
  0
SPLINE
  5
3D5
100
AcDbEntity
  8
0
100
AcDbSpline
 62
7
  6
CONTINUOUS
 70
0
 71
3
 72
15
 73
11
 74
0
 42
0.0000001
 43
0.0000001
 44
0.0000000001
 40
0.0
 40
0.0
 40
0.0
 40
0.0
 40
0.1597206556
 40
0.314477452
 40
0.4602475826
 40
0.5943642205
 40
0.7154835154
 40
0.8232365712
 40
0.9178783428
 40
1.0
 40
1.0
 40
1.0
 40
1.0
 10
6.0193208705
 20
5.5189997585
 30
0.0
 10
6.0186617239
 20
5.5189997585
 30
0.0
 10
6.0173638185
 20
5.5189793272
 30
0.0
 10
6.0154662681
 20
5.5188890398
 30
0.0
 10
6.0136779964
 20
5.5187450379
 30
0.0
 10
6.0120336687
 20
5.5185551395
 30
0.0
 10
6.0105526491
 20
5.5183276572
 30
0.0
 10
6.0092421346
 20
5.5180702674
 30
0.0
 10
6.0081015588
 20
5.5177895262
 30
0.0
 10
6.0074034825
 20
5.5175758587
 30
0.0
 10
6.007083252
 20
5.517464911
 30
0.0
  0
SPLINE
  5
3D6
100
AcDbEntity
  8
0
100
AcDbSpline
 62
7
  6
CONTINUOUS
 70
0
 71
3
 72
14
 73
10
 74
0
 42
0.0000001
 43
0.0000001
 44
0.0000000001
 40
0.0
 40
0.0
 40
0.0
 40
0.0
 40
0.3170522687
 40
0.4637288689
 40
0.5983321188
 40
0.7194272076
 40
0.8265668939
 40
0.9199261171
 40
1.0
 40
1.0
 40
1.0
 40
1.0
 10
6.0193208705
 20
5.5048960102
 30
0.0
 10
6.0180237158
 20
5.5048960102
 30
0.0
 10
6.016126242
 20
5.5048670239
 30
0.0
 10
6.0136801958
 20
5.5047682777
 30
0.0
 10
6.0120366204
 20
5.5046730432
 30
0.0
 10
6.0105564333
 20
5.5045590001
 30
0.0
 10
6.0092469156
 20
5.504430009
 30
0.0
 10
6.0081075346
 20
5.5042893856
 30
0.0
 10
6.0074060144
 20
5.504181781
 30
0.0
 10
6.007083252
 20
5.504125655
 30
0.0
  0
SPLINE
  5
3D7
100
AcDbEntity
  8
0
100
AcDbSpline
 62
7
  6
CONTINUOUS
 70
0
 71
3
 72
15
 73
11
 74
0
 42
0.0000001
 43
0.0000001
 44
0.0000000001
 40
0.0
 40
0.0
 40
0.0
 40
0.0
 40
0.1304565051
 40
0.2600760137
 40
0.3882114476
 40
0.514453832
 40
0.6386590994
 40
0.7608650455
 40
0.8812482651
 40
1.0
 40
1.0
 40
1.0
 40
1.0
 10
6.4393208705
 20
5.3843784076
 30
0.0
 10
6.4399142703
 20
5.3843784076
 30
0.0
 10
6.4410989735
 20
5.3842940528
 30
0.0
 10
6.4428306156
 20
5.3839216088
 30
0.0
 10
6.4444775184
 20
5.383324196
 30
0.0
 10
6.4460108351
 20
5.3825304615
 30
0.0
 10
6.4474134564
 20
5.3815717017
 30
0.0
 10
6.4486775414
 20
5.380477625
 30
0.0
 10
6.4498014276
 20
5.3792745575
 30
0.0
 10
6.4504632679
 20
5.3784089209
 30
0.0
 10
6.4507711573
 20
5.3779651013
 30
0.0
  0
SPLINE
  5
3D8
100
AcDbEntity
  8
0
100
AcDbSpline
 62
7
  6
CONTINUOUS
 70
0
 71
3
 72
15
 73
11
 74
0
 42
0.0000001
 43
0.0000001
 44
0.0000000001
 40
0.0
 40
0.0
 40
0.0
 40
0.0
 40
0.0933153005
 40
0.1952877665
 40
0.3067534414
 40
0.4282474895
 40
0.5597539562
 40
0.7004112274
 40
0.8482159743
 40
1.0
 40
1.0
 40
1.0
 40
1.0
 10
6.4515584891
 20
5.3976217164
 30
0.0
 10
6.4512484947
 20
5.3973603272
 30
0.0
 10
6.450568075
 20
5.3968500974
 30
0.0
 10
6.4494244001
 20
5.3961615671
 30
0.0
 10
6.4481104413
 20
5.3955309222
 30
0.0
 10
6.4466257635
 20
5.3949740259
 30
0.0
 10
6.4449774926
 20
5.3945093647
 30
0.0
 10
6.4431849122
 20
5.3941571083
 30
0.0
 10
6.4412828206
 20
5.3939362757
 30
0.0
 10
6.4399804265
 20
5.3938862634
 30
0.0
 10
6.4393208705
 20
5.3938862634
 30
0.0
  0
SPLINE
  5
3D9
100
AcDbEntity
  8
0
100
AcDbSpline
 62
7
  6
CONTINUOUS
 70
0
 71
3
 72
16
 73
12
 74
0
 42
0.0000001
 43
0.0000001
 44
0.0000000001
 40
0.0
 40
0.0
 40
0.0
 40
0.0
 40
0.1293067
 40
0.1937798161
 40
0.2579956273
 40
0.3853362633
 40
0.5111484939
 40
0.6353855653
 40
0.7581484712
 40
0.8796231892
 40
1.0
 40
1.0
 40
1.0
 40
1.0
 10
6.4393208705
 20
5.4056324212
 30
0.0
 10
6.4399821942
 20
5.4056324212
 30
0.0
 10
6.4409757446
 20
5.4055496631
 30
0.0
 10
6.4422683509
 20
5.4052797464
 30
0.0
 10
6.4435259104
 20
5.40491029
 30
0.0
 10
6.4450256071
 20
5.4042719496
 30
0.0
 10
6.446678202
 20
5.4032630115
 30
0.0
 10
6.4481625047
 20
5.4020578673
 30
0.0
 10
6.4494725827
 20
5.4006972132
 30
0.0
 10
6.4506102429
 20
5.3992153727
 30
0.0
 10
6.4512605471
 20
5.3981604734
 30
0.0
 10
6.4515584891
 20
5.3976217164
 30
0.0
  0
SPLINE
  5
3DA
100
AcDbEntity
  8
0
100
AcDbSpline
 62
7
  6
CONTINUOUS
 70
0
 71
3
 72
15
 73
11
 74
0
 42
0.0000001
 43
0.0000001
 44
0.0000000001
 40
0.0
 40
0.0
 40
0.0
 40
0.0
 40
0.0890813721
 40
0.1882211228
 40
0.2982128052
 40
0.4195168598
 40
0.5520003585
 40
0.6946235557
 40
0.8451256651
 40
1.0
 40
1.0
 40
1.0
 40
1.0
 10
6.4515584891
 20
5.4178658795
 30
0.0
 10
6.4512452111
 20
5.4176520995
 30
0.0
 10
6.4505584256
 20
5.4172362271
 30
0.0
 10
6.4494153108
 20
5.4166802839
 30
0.0
 10
6.4481022602
 20
5.4161710457
 30
0.0
 10
6.4466187656
 20
5.4157213152
 30
0.0
 10
6.444971929
 20
5.4153460471
 30
0.0
 10
6.4431810341
 20
5.4150615511
 30
0.0
 10
6.4412807905
 20
5.4148831977
 30
0.0
 10
6.4399802567
 20
5.4148428199
 30
0.0
 10
6.4393208705
 20
5.4148428199
 30
0.0
  0
SPLINE
  5
3DB
100
AcDbEntity
  8
0
100
AcDbSpline
 62
7
  6
CONTINUOUS
 70
0
 71
3
 72
17
 73
13
 74
0
 42
0.0000001
 43
0.0000001
 44
0.0000000001
 40
0.0
 40
0.0
 40
0.0
 40
0.0
 40
0.0639410614
 40
0.1278371362
 40
0.1916023987
 40
0.2552026125
 40
0.3816656019
 40
0.5071546634
 40
0.6316439234
 40
0.7552001656
 40
0.8779465856
 40
1.0
 40
1.0
 40
1.0
 40
1.0
 10
6.4393208705
 20
5.4261716673
 30
0.0
 10
6.439652036
 20
5.4261716673
 30
0.0
 10
6.4403144856
 20
5.4261431143
 30
0.0
 10
6.4412997591
 20
5.4260156625
 30
0.0
 10
6.4422691112
 20
5.4258058286
 30
0.0
 10
6.4435278436
 20
5.4254222785
 30
0.0
 10
6.4450294371
 20
5.4247590601
 30
0.0
 10
6.4466818244
 20
5.4237123062
 30
0.0
 10
6.4481655934
 20
5.4224624745
 30
0.0
 10
6.4494750049
 20
5.4210517165
 30
0.0
 10
6.450612035
 20
5.4195155125
 30
0.0
 10
6.4512609942
 20
5.4184236439
 30
0.0
 10
6.4515584891
 20
5.4178658795
 30
0.0
  0
SPLINE
  5
3DC
100
AcDbEntity
  8
0
100
AcDbSpline
 62
7
  6
CONTINUOUS
 70
0
 71
3
 72
15
 73
11
 74
0
 42
0.0000001
 43
0.0000001
 44
0.0000000001
 40
0.0
 40
0.0
 40
0.0
 40
0.0
 40
0.0852382796
 40
0.1818687848
 40
0.2905956538
 40
0.4117785703
 40
0.5451604514
 40
0.6895348647
 40
0.842413953
 40
1.0
 40
1.0
 40
1.0
 40
1.0
 10
6.4515584891
 20
5.437302171
 30
0.0
 10
6.4512416524
 20
5.4371385582
 30
0.0
 10
6.450548736
 20
5.4368217729
 30
0.0
 10
6.4494067479
 20
5.4364022095
 30
0.0
 10
6.4480949357
 20
5.4360177547
 30
0.0
 10
6.4466127351
 20
5.4356781194
 30
0.0
 10
6.4449672678
 20
5.4353946643
 30
0.0
 10
6.4431778466
 20
5.4351797484
 30
0.0
 10
6.4412791407
 20
5.4350450083
 30
0.0
 10
6.439980119
 20
5.4350145122
 30
0.0
 10
6.4393208705
 20
5.4350145122
 30
0.0
  0
SPLINE
  5
3DD
100
AcDbEntity
  8
0
100
AcDbSpline
 62
7
  6
CONTINUOUS
 70
0
 71
3
 72
16
 73
12
 74
0
 42
0.0000001
 43
0.0000001
 44
0.0000000001
 40
0.0
 40
0.0
 40
0.0
 40
0.0
 40
0.063337184
 40
0.1266559046
 40
0.1898954063
 40
0.2530426696
 40
0.3788777142
 40
0.5041721271
 40
0.6289128
 40
0.7531366492
 40
1.0
 40
1.0
 40
1.0
 40
1.0
 10
6.4393208705
 20
5.4458398297
 30
0.0
 10
6.4396520533
 20
5.4458398297
 30
0.0
 10
6.4403146937
 20
5.4458104653
 30
0.0
 10
6.4413001505
 20
5.4456794039
 30
0.0
 10
6.4422696572
 20
5.4454636342
 30
0.0
 10
6.443529427
 20
5.4450689813
 30
0.0
 10
6.4450324537
 20
5.4443861325
 30
0.0
 10
6.4466846083
 20
5.4433097226
 30
0.0
 10
6.4481680553
 20
5.4420245927
 30
0.0
 10
6.4499084725
 20
5.4400967028
 30
0.0
 10
6.4509639722
 20
5.4384479306
 30
0.0
 10
6.4515584891
 20
5.437302171
 30
0.0
  0
SPLINE
  5
3DE
100
AcDbEntity
  8
0
100
AcDbSpline
 62
7
  6
CONTINUOUS
 70
0
 71
3
 72
15
 73
11
 74
0
 42
0.0000001
 43
0.0000001
 44
0.0000000001
 40
0.0
 40
0.0
 40
0.0
 40
0.0
 40
0.0821216544
 40
0.1767634184
 40
0.2845164711
 40
0.405635757
 40
0.539752364
 40
0.6855224812
 40
0.8402792656
 40
1.0
 40
1.0
 40
1.0
 40
1.0
 10
6.4515584891
 20
5.455782669
 30
0.0
 10
6.4512382586
 20
5.4556717213
 30
0.0
 10
6.4505401823
 20
5.4554580539
 30
0.0
 10
6.4493996066
 20
5.4551773127
 30
0.0
 10
6.4480890922
 20
5.4549199228
 30
0.0
 10
6.4466080727
 20
5.4546924406
 30
0.0
 10
6.4449637452
 20
5.4545025422
 30
0.0
 10
6.4431754738
 20
5.4543585403
 30
0.0
 10
6.4412779232
 20
5.4542682529
 30
0.0
 10
6.4399800175
 20
5.4542478215
 30
0.0
 10
6.4393208705
 20
5.4542478215
 30
0.0
  0
SPLINE
  5
3DF
100
AcDbEntity
  8
0
100
AcDbSpline
 62
7
  6
CONTINUOUS
 70
0
 71
3
 72
15
 73
11
 74
0
 42
0.0000001
 43
0.0000001
 44
0.0000000001
 40
0.0
 40
0.0
 40
0.0
 40
0.0
 40
0.1256485957
 40
0.2511844598
 40
0.3765376441
 40
0.5016609124
 40
0.6265483994
 40
0.7512139743
 40
0.8756922646
 40
1.0
 40
1.0
 40
1.0
 40
1.0
 10
6.4393208705
 20
5.464487222
 30
0.0
 10
6.4399826018
 20
5.464487222
 30
0.0
 10
6.4413084901
 20
5.4643670745
 30
0.0
 10
6.4432300266
 20
5.4638403357
 30
0.0
 10
6.4450344548
 20
5.463003945
 30
0.0
 10
6.4466866823
 20
5.461906051
 30
0.0
 10
6.4481695947
 20
5.4605959043
 30
0.0
 10
6.4494780953
 20
5.4591175146
 30
0.0
 10
6.4506142802
 20
5.4575079154
 30
0.0
 10
6.4512615484
 20
5.456366123
 30
0.0
 10
6.4515584891
 20
5.455782669
 30
0.0
  0
SPLINE
  5
3E0
100
AcDbEntity
  8
0
100
AcDbSpline
 62
7
  6
CONTINUOUS
 70
0
 71
3
 72
14
 73
10
 74
0
 42
0.0000001
 43
0.0000001
 44
0.0000000001
 40
0.0
 40
0.0
 40
0.0
 40
0.0
 40
0.0800738796
 40
0.173433103
 40
0.2805727778
 40
0.4016678619
 40
0.5362710794
 40
0.6829477036
 40
1.0
 40
1.0
 40
1.0
 40
1.0
 10
6.4515584891
 20
5.4731667259
 30
0.0
 10
6.4512357267
 20
5.4731105999
 30
0.0
 10
6.4505342065
 20
5.4730029953
 30
0.0
 10
6.4493948256
 20
5.4728623719
 30
0.0
 10
6.4480853079
 20
5.4727333808
 30
0.0
 10
6.4466051211
 20
5.4726193377
 30
0.0
 10
6.4449615457
 20
5.4725241032
 30
0.0
 10
6.4425154994
 20
5.472425357
 30
0.0
 10
6.4406180254
 20
5.4723963707
 30
0.0
 10
6.4393208705
 20
5.4723963707
 30
0.0
  0
SPLINE
  5
3E1
100
AcDbEntity
  8
0
100
AcDbSpline
 62
7
  6
CONTINUOUS
 70
0
 71
3
 72
15
 73
11
 74
0
 42
0.0000001
 43
0.0000001
 44
0.0000000001
 40
0.0
 40
0.0
 40
0.0
 40
0.0
 40
0.1251229021
 40
0.2502220862
 40
0.3752930389
 40
0.5003208048
 40
0.6253031067
 40
0.7502393264
 40
0.8751411569
 40
1.0
 40
1.0
 40
1.0
 40
1.0
 10
6.4393208705
 20
5.4819719263
 30
0.0
 10
6.4399826637
 20
5.4819719263
 30
0.0
 10
6.4413092109
 20
5.4818502846
 30
0.0
 10
6.4432311949
 20
5.4813171395
 30
0.0
 10
6.4450357602
 20
5.4804707604
 30
0.0
 10
6.4466878816
 20
5.4793599705
 30
0.0
 10
6.4481705779
 20
5.4780346101
 30
0.0
 10
6.4494788419
 20
5.4765391651
 30
0.0
 10
6.450614817
 20
5.4749110527
 30
0.0
 10
6.4512616799
 20
5.4737566648
 30
0.0
 10
6.4515584891
 20
5.4731667259
 30
0.0
  0
SPLINE
  5
3E2
100
AcDbEntity
  8
0
100
AcDbSpline
 62
7
  6
CONTINUOUS
 70
0
 71
3
 72
15
 73
11
 74
0
 42
0.0000001
 43
0.0000001
 44
0.0000000001
 40
0.0
 40
0.0
 40
0.0
 40
0.0
 40
0.12494765
 40
0.2499013678
 40
0.3748784694
 40
0.4998746738
 40
0.6248887736
 40
0.7499152133
 40
0.8749579762
 40
1.0
 40
1.0
 40
1.0
 40
1.0
 10
6.4393208705
 20
5.4981608732
 30
0.0
 10
6.4399826846
 20
5.4981608732
 30
0.0
 10
6.4413094535
 20
5.4980387315
 30
0.0
 10
6.4432315869
 20
5.4975034435
 30
0.0
 10
6.4450361966
 20
5.4966537253
 30
0.0
 10
6.4466882808
 20
5.4955386262
 30
0.0
 10
6.4481709038
 20
5.4942081827
 30
0.0
 10
6.4494790885
 20
5.4927070395
 30
0.0
 10
6.4506149938
 20
5.4910727413
 30
0.0
 10
6.4512617231
 20
5.4899141446
 30
0.0
 10
6.4515584891
 20
5.4893220385
 30
0.0
  0
SPLINE
  5
3E3
100
AcDbEntity
  8
0
100
AcDbSpline
 62
7
  6
CONTINUOUS
 70
0
 71
3
 72
15
 73
11
 74
0
 42
0.0000001
 43
0.0000001
 44
0.0000000001
 40
0.0
 40
0.0
 40
0.0
 40
0.0
 40
0.1251229021
 40
0.2502220862
 40
0.3752930389
 40
0.5003208048
 40
0.6253031067
 40
0.7502393264
 40
0.8751411569
 40
1.0
 40
1.0
 40
1.0
 40
1.0
 10
6.4393208705
 20
5.5129308553
 30
0.0
 10
6.4399826637
 20
5.5129308553
 30
0.0
 10
6.4413092109
 20
5.5128092137
 30
0.0
 10
6.4432311949
 20
5.5122760686
 30
0.0
 10
6.4450357602
 20
5.5114296894
 30
0.0
 10
6.4466878816
 20
5.5103188996
 30
0.0
 10
6.4481705779
 20
5.5089935391
 30
0.0
 10
6.4494788419
 20
5.5074980942
 30
0.0
 10
6.450614817
 20
5.5058699818
 30
0.0
 10
6.4512616799
 20
5.5047155939
 30
0.0
 10
6.4515584891
 20
5.504125655
 30
0.0
  0
SPLINE
  5
3E4
100
AcDbEntity
  8
0
100
AcDbSpline
 62
7
  6
CONTINUOUS
 70
0
 71
3
 72
15
 73
11
 74
0
 42
0.0000001
 43
0.0000001
 44
0.0000000001
 40
0.0
 40
0.0
 40
0.0
 40
0.0
 40
0.1256485957
 40
0.2511844598
 40
0.3765376441
 40
0.5016609124
 40
0.6265483994
 40
0.7512139743
 40
0.8756922646
 40
1.0
 40
1.0
 40
1.0
 40
1.0
 10
6.4393208705
 20
5.526169464
 30
0.0
 10
6.4399826018
 20
5.526169464
 30
0.0
 10
6.4413084901
 20
5.5260493165
 30
0.0
 10
6.4432300266
 20
5.5255225777
 30
0.0
 10
6.4450344548
 20
5.524686187
 30
0.0
 10
6.4466866823
 20
5.5235882929
 30
0.0
 10
6.4481695947
 20
5.5222781463
 30
0.0
 10
6.4494780953
 20
5.5207997565
 30
0.0
 10
6.4506142802
 20
5.5191901573
 30
0.0
 10
6.4512615484
 20
5.518048365
 30
0.0
 10
6.4515584891
 20
5.517464911
 30
0.0
  0
SPLINE
  5
3E5
100
AcDbEntity
  8
0
100
AcDbSpline
 62
7
  6
CONTINUOUS
 70
0
 71
3
 72
16
 73
12
 74
0
 42
0.0000001
 43
0.0000001
 44
0.0000000001
 40
0.0
 40
0.0
 40
0.0
 40
0.0
 40
0.063337184
 40
0.1266559046
 40
0.1898954063
 40
0.2530426696
 40
0.3788777142
 40
0.5041721271
 40
0.6289128
 40
0.7531366492
 40
1.0
 40
1.0
 40
1.0
 40
1.0
 10
6.4393208705
 20
5.5377759455
 30
0.0
 10
6.4396520533
 20
5.5377759455
 30
0.0
 10
6.4403146937
 20
5.5377465811
 30
0.0
 10
6.4413001505
 20
5.5376155196
 30
0.0
 10
6.4422696572
 20
5.53739975
 30
0.0
 10
6.443529427
 20
5.537005097
 30
0.0
 10
6.4450324537
 20
5.5363222483
 30
0.0
 10
6.4466846083
 20
5.5352458384
 30
0.0
 10
6.4481680553
 20
5.5339607085
 30
0.0
 10
6.4499084725
 20
5.5320328185
 30
0.0
 10
6.4509639722
 20
5.5303840463
 30
0.0
 10
6.4515584891
 20
5.5292382867
 30
0.0
  0
SPLINE
  5
3E6
100
AcDbEntity
  8
0
100
AcDbSpline
 62
7
  6
CONTINUOUS
 70
0
 71
3
 72
17
 73
13
 74
0
 42
0.0000001
 43
0.0000001
 44
0.0000000001
 40
0.0
 40
0.0
 40
0.0
 40
0.0
 40
0.0639410614
 40
0.1278371362
 40
0.1916023987
 40
0.2552026125
 40
0.3816656019
 40
0.5071546634
 40
0.6316439234
 40
0.7552001656
 40
0.8779465856
 40
1.0
 40
1.0
 40
1.0
 40
1.0
 10
6.4393208705
 20
5.5476619675
 30
0.0
 10
6.439652036
 20
5.5476619675
 30
0.0
 10
6.4403144856
 20
5.5476334145
 30
0.0
 10
6.4412997591
 20
5.5475059627
 30
0.0
 10
6.4422691112
 20
5.5472961288
 30
0.0
 10
6.4435278436
 20
5.5469125787
 30
0.0
 10
6.4450294371
 20
5.5462493603
 30
0.0
 10
6.4466818244
 20
5.5452026064
 30
0.0
 10
6.4481655934
 20
5.5439527747
 30
0.0
 10
6.4494750049
 20
5.5425420167
 30
0.0
 10
6.450612035
 20
5.5410058127
 30
0.0
 10
6.4512609942
 20
5.5399139441
 30
0.0
 10
6.4515584891
 20
5.5393561797
 30
0.0
  0
SPLINE
  5
3E7
100
AcDbEntity
  8
0
100
AcDbSpline
 62
7
  6
CONTINUOUS
 70
0
 71
3
 72
16
 73
12
 74
0
 42
0.0000001
 43
0.0000001
 44
0.0000000001
 40
0.0
 40
0.0
 40
0.0
 40
0.0
 40
0.1293067
 40
0.1937798161
 40
0.2579956273
 40
0.3853362633
 40
0.5111484939
 40
0.6353855653
 40
0.7581484712
 40
0.8796231892
 40
1.0
 40
1.0
 40
1.0
 40
1.0
 10
6.4393208705
 20
5.5557522913
 30
0.0
 10
6.4399821942
 20
5.5557522913
 30
0.0
 10
6.4409757446
 20
5.5556695332
 30
0.0
 10
6.4422683509
 20
5.5553996165
 30
0.0
 10
6.4435259104
 20
5.5550301601
 30
0.0
 10
6.4450256071
 20
5.5543918197
 30
0.0
 10
6.446678202
 20
5.5533828816
 30
0.0
 10
6.4481625047
 20
5.5521777374
 30
0.0
 10
6.4494725827
 20
5.5508170833
 30
0.0
 10
6.4506102429
 20
5.5493352428
 30
0.0
 10
6.4512605471
 20
5.5482803435
 30
0.0
 10
6.4515584891
 20
5.5477415865
 30
0.0
  0
SPLINE
  5
3E8
100
AcDbEntity
  8
0
100
AcDbSpline
 62
7
  6
CONTINUOUS
 70
0
 71
3
 72
17
 73
13
 74
0
 42
0.0000001
 43
0.0000001
 44
0.0000000001
 40
0.0
 40
0.0
 40
0.0
 40
0.0
 40
0.1312104403
 40
0.1965336057
 40
0.2614890583
 40
0.389884017
 40
0.5160790166
 40
0.5783489095
 40
0.6400573389
 40
0.7618306758
 40
0.8817190525
 40
1.0
 40
1.0
 40
1.0
 40
1.0
 10
6.4393208705
 20
5.5619853448
 30
0.0
 10
6.4399819981
 20
5.5619853448
 30
0.0
 10
6.4409745549
 20
5.5619064426
 30
0.0
 10
6.4422675638
 20
5.5616485345
 30
0.0
 10
6.4435235834
 20
5.5612960132
 30
0.0
 10
6.4450209632
 20
5.5606876274
 30
0.0
 10
6.446404802
 20
5.5598809791
 30
0.0
 10
6.447426171
 20
5.5591409558
 30
0.0
 10
6.4483814881
 20
5.5583520096
 30
0.0
 10
6.44946957
 20
5.5572728911
 30
0.0
 10
6.4506079013
 20
5.5558567803
 30
0.0
 10
6.4512599614
 20
5.5548465124
 30
0.0
 10
6.4515584891
 20
5.5543306894
 30
0.0
  0
SPLINE
  5
3E9
100
AcDbEntity
  8
0
100
AcDbSpline
 62
7
  6
CONTINUOUS
 70
0
 71
3
 72
15
 73
11
 74
0
 42
0.0000001
 43
0.0000001
 44
0.0000000001
 40
0.0
 40
0.0
 40
0.0
 40
0.0
 40
0.1334719891
 40
0.2655632307
 40
0.3952403701
 40
0.5219339132
 40
0.6455178355
 40
0.7661599188
 40
0.8841952404
 40
1.0
 40
1.0
 40
1.0
 40
1.0
 10
6.4393208705
 20
5.5663136906
 30
0.0
 10
6.4399817811
 20
5.5663136906
 30
0.0
 10
6.4412988825
 20
5.5662148924
 30
0.0
 10
6.4432139595
 20
5.5657803411
 30
0.0
 10
6.44501569
 20
5.5650885914
 30
0.0
 10
6.4466685568
 20
5.5641783181
 30
0.0
 10
6.4481539782
 20
5.5630900021
 30
0.0
 10
6.4494656783
 20
5.5618603899
 30
0.0
 10
6.4506049844
 20
5.5605207036
 30
0.0
 10
6.4512592094
 20
5.5595624744
 30
0.0
 10
6.4515584891
 20
5.5590733411
 30
0.0
  0
SPLINE
  5
3EA
100
AcDbEntity
  8
0
100
AcDbSpline
 62
7
  6
CONTINUOUS
 70
0
 71
3
 72
17
 73
13
 74
0
 42
0.0000001
 43
0.0000001
 44
0.0000000001
 40
0.0
 40
0.0
 40
0.0
 40
0.0
 40
0.1360054232
 40
0.2034797865
 40
0.2703179392
 40
0.4014366383
 40
0.5286864219
 40
0.5908123462
 40
0.6519328771
 40
0.7712520197
 40
0.8871136533
 40
1.0
 40
1.0
 40
1.0
 40
1.0
 10
6.4393208705
 20
5.5687043874
 30
0.0
 10
6.4399815497
 20
5.5687043874
 30
0.0
 10
6.440971818
 20
5.5686349561
 30
0.0
 10
6.4422657377
 20
5.5684068477
 30
0.0
 10
6.4435180853
 20
5.5680961129
 30
0.0
 10
6.44500987
 20
5.5675612489
 30
0.0
 10
6.4463982723
 20
5.5668469443
 30
0.0
 10
6.4474234829
 20
5.5661902187
 30
0.0
 10
6.4483756237
 20
5.5654949984
 30
0.0
 10
6.4494611058
 20
5.5645443358
 30
0.0
 10
6.4506013081
 20
5.5632915037
 30
0.0
 10
6.4512582545
 20
5.5623923282
 30
0.0
 10
6.4515584891
 20
5.5619334472
 30
0.0
  0
SPLINE
  5
3EB
100
AcDbEntity
  8
0
100
AcDbSpline
 62
7
  6
CONTINUOUS
 70
0
 71
3
 72
15
 73
11
 74
0
 42
0.0000001
 43
0.0000001
 44
0.0000000001
 40
0.0
 40
0.0
 40
0.0
 40
0.0
 40
0.1187517326
 40
0.2391349562
 40
0.3613408881
 40
0.4855461519
 40
0.6117885387
 40
0.7399239966
 40
0.8695435201
 40
1.0
 40
1.0
 40
1.0
 40
1.0
 10
6.4507711573
 20
5.2454651013
 30
0.0
 10
6.4504632679
 20
5.2450212818
 30
0.0
 10
6.4498014276
 20
5.2441556451
 30
0.0
 10
6.4486775414
 20
5.2429525777
 30
0.0
 10
6.4474134565
 20
5.2418585009
 30
0.0
 10
6.4460108352
 20
5.2408997413
 30
0.0
 10
6.4444775185
 20
5.2401060066
 30
0.0
 10
6.4428306155
 20
5.2395085938
 30
0.0
 10
6.4410989733
 20
5.2391361497
 30
0.0
 10
6.4399142702
 20
5.239051795
 30
0.0
 10
6.4393208705
 20
5.239051795
 30
0.0
  0
SPLINE
  5
3EC
100
AcDbEntity
  8
0
100
AcDbSpline
 62
7
  6
CONTINUOUS
 70
0
 71
3
 72
15
 73
11
 74
0
 42
0.0000001
 43
0.0000001
 44
0.0000000001
 40
0.0
 40
0.0
 40
0.0
 40
0.0
 40
0.1517840534
 40
0.2995887791
 40
0.4402460163
 40
0.5717525013
 40
0.693246551
 40
0.8047122334
 40
0.9066846972
 40
1.0
 40
1.0
 40
1.0
 40
1.0
 10
6.4393208705
 20
5.2295439392
 30
0.0
 10
6.4399804266
 20
5.2295439392
 30
0.0
 10
6.4412828207
 20
5.2294939269
 30
0.0
 10
6.4431849122
 20
5.2292730943
 30
0.0
 10
6.4449774925
 20
5.228920838
 30
0.0
 10
6.4466257633
 20
5.2284561768
 30
0.0
 10
6.4481104412
 20
5.2278992804
 30
0.0
 10
6.4494244001
 20
5.2272686356
 30
0.0
 10
6.450568075
 20
5.2265801052
 30
0.0
 10
6.4512484947
 20
5.2260698754
 30
0.0
 10
6.4515584891
 20
5.2258084862
 30
0.0
  0
SPLINE
  5
3ED
100
AcDbEntity
  8
0
100
AcDbSpline
 62
7
  6
CONTINUOUS
 70
0
 71
3
 72
16
 73
12
 74
0
 42
0.0000001
 43
0.0000001
 44
0.0000000001
 40
0.0
 40
0.0
 40
0.0
 40
0.0
 40
0.120376808
 40
0.2418515286
 40
0.3646144269
 40
0.4888514969
 40
0.6146637112
 40
0.7420043784
 40
0.8062202037
 40
0.8706933237
 40
1.0
 40
1.0
 40
1.0
 40
1.0
 10
6.4515584891
 20
5.2258084862
 30
0.0
 10
6.4512605471
 20
5.2252697293
 30
0.0
 10
6.4506102429
 20
5.2242148299
 30
0.0
 10
6.4494725827
 20
5.2227329895
 30
0.0
 10
6.4481625047
 20
5.2213723354
 30
0.0
 10
6.4466782022
 20
5.2201671913
 30
0.0
 10
6.4450256072
 20
5.2191582531
 30
0.0
 10
6.4435259104
 20
5.2185199126
 30
0.0
 10
6.4422683506
 20
5.2181504562
 30
0.0
 10
6.4409757444
 20
5.2178805395
 30
0.0
 10
6.4399821941
 20
5.2177977814
 30
0.0
 10
6.4393208705
 20
5.2177977814
 30
0.0
  0
SPLINE
  5
3EE
100
AcDbEntity
  8
0
100
AcDbSpline
 62
7
  6
CONTINUOUS
 70
0
 71
3
 72
15
 73
11
 74
0
 42
0.0000001
 43
0.0000001
 44
0.0000000001
 40
0.0
 40
0.0
 40
0.0
 40
0.0
 40
0.1548743632
 40
0.3053764509
 40
0.4479996137
 40
0.580483131
 40
0.7017871872
 40
0.8117788772
 40
0.9109186256
 40
1.0
 40
1.0
 40
1.0
 40
1.0
 10
6.4393208705
 20
5.2085873827
 30
0.0
 10
6.4399802568
 20
5.2085873827
 30
0.0
 10
6.4412807907
 20
5.2085470049
 30
0.0
 10
6.4431810341
 20
5.2083686515
 30
0.0
 10
6.4449719288
 20
5.2080841555
 30
0.0
 10
6.4466187654
 20
5.2077088875
 30
0.0
 10
6.4481022601
 20
5.207259157
 30
0.0
 10
6.4494153107
 20
5.2067499187
 30
0.0
 10
6.4505584256
 20
5.2061939756
 30
0.0
 10
6.4512452111
 20
5.2057781031
 30
0.0
 10
6.4515584891
 20
5.2055643232
 30
0.0
  0
SPLINE
  5
3EF
100
AcDbEntity
  8
0
100
AcDbSpline
 62
7
  6
CONTINUOUS
 70
0
 71
3
 72
17
 73
13
 74
0
 42
0.0000001
 43
0.0000001
 44
0.0000000001
 40
0.0
 40
0.0
 40
0.0
 40
0.0
 40
0.1220534115
 40
0.2447998341
 40
0.3683560688
 40
0.4928453274
 40
0.6183343726
 40
0.7447973931
 40
0.8083976209
 40
0.872162887
 40
0.936058948
 40
1.0
 40
1.0
 40
1.0
 40
1.0
 10
6.4515584891
 20
5.2055643232
 30
0.0
 10
6.4512609942
 20
5.2050065588
 30
0.0
 10
6.450612035
 20
5.2039146901
 30
0.0
 10
6.4494750049
 20
5.2023784861
 30
0.0
 10
6.4481655935
 20
5.2009677281
 30
0.0
 10
6.4466818246
 20
5.1997178966
 30
0.0
 10
6.4450294372
 20
5.1986711426
 30
0.0
 10
6.4435278436
 20
5.1980079241
 30
0.0
 10
6.442269111
 20
5.1976243739
 30
0.0
 10
6.4412997588
 20
5.1974145401
 30
0.0
 10
6.4403144855
 20
5.1972870883
 30
0.0
 10
6.4396520359
 20
5.1972585354
 30
0.0
 10
6.4393208705
 20
5.1972585354
 30
0.0
  0
SPLINE
  5
3F0
100
AcDbEntity
  8
0
100
AcDbSpline
 62
7
  6
CONTINUOUS
 70
0
 71
3
 72
15
 73
11
 74
0
 42
0.0000001
 43
0.0000001
 44
0.0000000001
 40
0.0
 40
0.0
 40
0.0
 40
0.0
 40
0.1575860757
 40
0.3104651421
 40
0.4548395205
 40
0.5882214205
 40
0.7094043386
 40
0.8181312151
 40
0.9147617182
 40
1.0
 40
1.0
 40
1.0
 40
1.0
 10
6.4393208705
 20
5.1884156904
 30
0.0
 10
6.4399801191
 20
5.1884156904
 30
0.0
 10
6.4412791408
 20
5.1883851943
 30
0.0
 10
6.4431778466
 20
5.1882504542
 30
0.0
 10
6.4449672677
 20
5.1880355384
 30
0.0
 10
6.446612735
 20
5.1877520832
 30
0.0
 10
6.4480949357
 20
5.1874124479
 30
0.0
 10
6.4494067479
 20
5.1870279931
 30
0.0
 10
6.4505487359
 20
5.1866084297
 30
0.0
 10
6.4512416524
 20
5.1862916444
 30
0.0
 10
6.4515584891
 20
5.1861280316
 30
0.0
  0
SPLINE
  5
3F1
100
AcDbEntity
  8
0
100
AcDbSpline
 62
7
  6
CONTINUOUS
 70
0
 71
3
 72
17
 73
13
 74
0
 42
0.0000001
 43
0.0000001
 44
0.0000000001
 40
0.0
 40
0.0
 40
0.0
 40
0.0
 40
0.1128863443
 40
0.2287479787
 40
0.3480671155
 40
0.4091876462
 40
0.4713135687
 40
0.5985633365
 40
0.7296820587
 40
0.7965202202
 40
0.8639945884
 40
1.0
 40
1.0
 40
1.0
 40
1.0
 10
6.007083252
 20
5.33360637
 30
0.0
 10
6.0073834865
 20
5.334065251
 30
0.0
 10
6.0080404329
 20
5.3349644265
 30
0.0
 10
6.0091806353
 20
5.3362172585
 30
0.0
 10
6.0102661173
 20
5.3371679212
 30
0.0
 10
6.0112182581
 20
5.3378631414
 30
0.0
 10
6.0122434686
 20
5.338519867
 30
0.0
 10
6.0136318709
 20
5.3392341716
 30
0.0
 10
6.0151236557
 20
5.3397690357
 30
0.0
 10
6.0163760034
 20
5.3400797705
 30
0.0
 10
6.0176699232
 20
5.3403078789
 30
0.0
 10
6.0186601914
 20
5.3403773102
 30
0.0
 10
6.0193208705
 20
5.3403773102
 30
0.0
  0
SPLINE
  5
3F2
100
AcDbEntity
  8
0
100
AcDbSpline
 62
7
  6
CONTINUOUS
 70
0
 71
3
 72
15
 73
11
 74
0
 42
0.0000001
 43
0.0000001
 44
0.0000000001
 40
0.0
 40
0.0
 40
0.0
 40
0.0
 40
0.1419294737
 40
0.2812180221
 40
0.4158213418
 40
0.5445346858
 40
0.6669662684
 40
0.7833025641
 40
0.8940834573
 40
1.0
 40
1.0
 40
1.0
 40
1.0
 10
6.0193208705
 20
5.3279248765
 30
0.0
 10
6.0186606691
 20
5.3279248765
 30
0.0
 10
6.0173512339
 20
5.3280016368
 30
0.0
 10
6.015442573
 20
5.3283400277
 30
0.0
 10
6.0136447657
 20
5.3288794986
 30
0.0
 10
6.0119930719
 20
5.3295905998
 30
0.0
 10
6.0105067124
 20
5.330442169
 30
0.0
 10
6.0091926994
 20
5.3314056465
 30
0.0
 10
6.0080504132
 20
5.3324565183
 30
0.0
 10
6.0073862038
 20
5.3332178382
 30
0.0
 10
6.007083252
 20
5.33360637
 30
0.0
  0
SPLINE
  5
3F3
100
AcDbEntity
  8
0
100
AcDbSpline
 62
7
  6
CONTINUOUS
 70
0
 71
3
 72
15
 73
11
 74
0
 42
0.0000001
 43
0.0000001
 44
0.0000000001
 40
0.0
 40
0.0
 40
0.0
 40
0.0
 40
0.138858042
 40
0.2755202818
 40
0.4083051751
 40
0.5362454897
 40
0.6590616874
 40
0.7769527454
 40
0.8904021845
 40
1.0
 40
1.0
 40
1.0
 40
1.0
 10
6.0193208705
 20
5.3179651013
 30
0.0
 10
6.0186604301
 20
5.3179651013
 30
0.0
 10
6.0173484047
 20
5.3178803767
 30
0.0
 10
6.0154374917
 20
5.3175071416
 30
0.0
 10
6.0136381719
 20
5.3169123651
 30
0.0
 10
6.011985843
 20
5.3161287553
 30
0.0
 10
6.0104995867
 20
5.3151908355
 30
0.0
 10
6.009186225
 20
5.3141301738
 30
0.0
 10
6.0080449225
 20
5.3129737859
 30
0.0
 10
6.0073846911
 20
5.3121403766
 30
0.0
 10
6.007083252
 20
5.3117151013
 30
0.0
  0
SPLINE
  5
3F4
100
AcDbEntity
  8
0
100
AcDbSpline
 62
7
  6
CONTINUOUS
 70
0
 71
3
 72
15
 73
11
 74
0
 42
0.0000001
 43
0.0000001
 44
0.0000000001
 40
0.0
 40
0.0
 40
0.0
 40
0.0
 40
0.1095978193
 40
0.2230472598
 40
0.3409383273
 40
0.4637545297
 40
0.5916948719
 40
0.7244797509
 40
0.861141984
 40
1.0
 40
1.0
 40
1.0
 40
1.0
 10
6.007083252
 20
5.3117151013
 30
0.0
 10
6.0073846912
 20
5.311289826
 30
0.0
 10
6.0080449225
 20
5.3104564167
 30
0.0
 10
6.009186225
 20
5.3093000287
 30
0.0
 10
6.0104995868
 20
5.3082393671
 30
0.0
 10
6.0119858433
 20
5.3073014471
 30
0.0
 10
6.0136381724
 20
5.3065178373
 30
0.0
 10
6.0154374922
 20
5.3059230609
 30
0.0
 10
6.0173484049
 20
5.3055498259
 30
0.0
 10
6.0186604302
 20
5.3054651013
 30
0.0
 10
6.0193208705
 20
5.3054651013
 30
0.0
  0
SPLINE
  5
3F5
100
AcDbEntity
  8
0
100
AcDbSpline
 62
7
  6
CONTINUOUS
 70
0
 71
3
 72
15
 73
11
 74
0
 42
0.0000001
 43
0.0000001
 44
0.0000000001
 40
0.0
 40
0.0
 40
0.0
 40
0.0
 40
0.105916539
 40
0.2166974308
 40
0.333033717
 40
0.4554652948
 40
0.5841786106
 40
0.7187819446
 40
0.8580704998
 40
1.0
 40
1.0
 40
1.0
 40
1.0
 10
6.007083252
 20
5.2898238326
 30
0.0
 10
6.0073862038
 20
5.2902123643
 30
0.0
 10
6.0080504131
 20
5.2909736843
 30
0.0
 10
6.0091926993
 20
5.292024556
 30
0.0
 10
6.0105067122
 20
5.2929880336
 30
0.0
 10
6.0119930715
 20
5.2938396027
 30
0.0
 10
6.0136447653
 20
5.2945507038
 30
0.0
 10
6.0154425725
 20
5.2950901748
 30
0.0
 10
6.0173512336
 20
5.2954285657
 30
0.0
 10
6.0186606689
 20
5.2955053261
 30
0.0
 10
6.0193208705
 20
5.2955053261
 30
0.0
  0
SPLINE
  5
3F6
100
AcDbEntity
  8
0
100
AcDbSpline
 62
7
  6
CONTINUOUS
 70
0
 71
3
 72
17
 73
13
 74
0
 42
0.0000001
 43
0.0000001
 44
0.0000000001
 40
0.0
 40
0.0
 40
0.0
 40
0.0
 40
0.1360053861
 40
0.2034797416
 40
0.2703179091
 40
0.4014366168
 40
0.5286864119
 40
0.5908123383
 40
0.6519328697
 40
0.7712520159
 40
0.8871136518
 40
1.0
 40
1.0
 40
1.0
 40
1.0
 10
6.0193208705
 20
5.2830528924
 30
0.0
 10
6.0186601915
 20
5.2830528924
 30
0.0
 10
6.0176699235
 20
5.2831223236
 30
0.0
 10
6.0163760039
 20
5.283350432
 30
0.0
 10
6.0151236562
 20
5.2836611667
 30
0.0
 10
6.0136318714
 20
5.2841960308
 30
0.0
 10
6.0122434689
 20
5.2849103354
 30
0.0
 10
6.0112182583
 20
5.2855670611
 30
0.0
 10
6.0102661174
 20
5.2862622814
 30
0.0
 10
6.0091806353
 20
5.287212944
 30
0.0
 10
6.008040433
 20
5.2884657761
 30
0.0
 10
6.0073834866
 20
5.2893649516
 30
0.0
 10
6.007083252
 20
5.2898238326
 30
0.0
  0
SPLINE
  5
3F7
100
AcDbEntity
  8
0
100
AcDbSpline
 62
7
  6
CONTINUOUS
 70
0
 71
3
 72
14
 73
10
 74
0
 42
0.0000001
 43
0.0000001
 44
0.0000000001
 40
0.0
 40
0.0
 40
0.0
 40
0.0
 40
0.101948041
 40
0.2099123304
 40
0.3246675997
 40
0.4467866262
 40
0.5764172632
 40
0.7130306965
 40
1.0
 40
1.0
 40
1.0
 40
1.0
 10
6.007083252
 20
5.2680991697
 30
0.0
 10
6.0073880921
 20
5.2684480279
 30
0.0
 10
6.008057013
 20
5.2691312593
 30
0.0
 10
6.0092001245
 20
5.2700683682
 30
0.0
 10
6.0105145406
 20
5.2709271792
 30
0.0
 10
6.0120006256
 20
5.2716858966
 30
0.0
 10
6.013651686
 20
5.2723192367
 30
0.0
 10
6.0160833408
 20
5.272969658
 30
0.0
 10
6.0180167995
 20
5.2731689171
 30
0.0
 10
6.0193208705
 20
5.2731689171
 30
0.0
  0
SPLINE
  5
3F8
100
AcDbEntity
  8
0
100
AcDbSpline
 62
7
  6
CONTINUOUS
 70
0
 71
3
 72
15
 73
11
 74
0
 42
0.0000001
 43
0.0000001
 44
0.0000000001
 40
0.0
 40
0.0
 40
0.0
 40
0.0
 40
0.1334719528
 40
0.2655632011
 40
0.3952403488
 40
0.5219339032
 40
0.645517828
 40
0.766159915
 40
0.884195239
 40
1.0
 40
1.0
 40
1.0
 40
1.0
 10
6.0193208705
 20
5.2608588202
 30
0.0
 10
6.0186599601
 20
5.2608588202
 30
0.0
 10
6.0173428589
 20
5.2609576184
 30
0.0
 10
6.015427782
 20
5.2613921696
 30
0.0
 10
6.0136260514
 20
5.2620839193
 30
0.0
 10
6.0119731845
 20
5.2629941926
 30
0.0
 10
6.0104877629
 20
5.2640825086
 30
0.0
 10
6.0091760628
 20
5.2653121209
 30
0.0
 10
6.0080367567
 20
5.2666518072
 30
0.0
 10
6.0073825317
 20
5.2676100364
 30
0.0
 10
6.007083252
 20
5.2680991697
 30
0.0
  0
SPLINE
  5
3F9
100
AcDbEntity
  8
0
100
AcDbSpline
 62
7
  6
CONTINUOUS
 70
0
 71
3
 72
14
 73
10
 74
0
 42
0.0000001
 43
0.0000001
 44
0.0000000001
 40
0.0
 40
0.0
 40
0.0
 40
0.0
 40
0.2023784455
 40
0.3154755806
 40
0.4372637264
 40
0.567822874
 40
0.7064653412
 40
0.8514582346
 40
1.0
 40
1.0
 40
1.0
 40
1.0
 10
6.007083252
 20
5.2467064504
 30
0.0
 10
6.0077196127
 20
5.2473412825
 30
0.0
 10
6.0088327807
 20
5.2482149335
 30
0.0
 10
6.0105226025
 20
5.2491756634
 30
0.0
 10
6.0120084885
 20
5.2498361087
 30
0.0
 10
6.0136580241
 20
5.2503869559
 30
0.0
 10
6.0154524119
 20
5.2508046654
 30
0.0
 10
6.0173565724
 20
5.2510665329
 30
0.0
 10
6.018661118
 20
5.2511258678
 30
0.0
 10
6.0193208705
 20
5.2511258678
 30
0.0
  0
SPLINE
  5
3FA
100
AcDbEntity
  8
0
100
AcDbSpline
 62
7
  6
CONTINUOUS
 70
0
 71
3
 72
17
 73
13
 74
0
 42
0.0000001
 43
0.0000001
 44
0.0000000001
 40
0.0
 40
0.0
 40
0.0
 40
0.0
 40
0.1312104045
 40
0.1965335622
 40
0.261489029
 40
0.3898839958
 40
0.5160790067
 40
0.5783489016
 40
0.6400573314
 40
0.761830672
 40
0.881719051
 40
1.0
 40
1.0
 40
1.0
 40
1.0
 10
6.0193208705
 20
5.239051795
 30
0.0
 10
6.0186597431
 20
5.239051795
 30
0.0
 10
6.0176671865
 20
5.2391306971
 30
0.0
 10
6.0163741779
 20
5.2393886051
 30
0.0
 10
6.0151181581
 20
5.2397411264
 30
0.0
 10
6.0136207781
 20
5.2403495122
 30
0.0
 10
6.0122369393
 20
5.2411561606
 30
0.0
 10
6.0112155701
 20
5.2418961839
 30
0.0
 10
6.0102602531
 20
5.2426851302
 30
0.0
 10
6.0091721711
 20
5.2437642487
 30
0.0
 10
6.0080338398
 20
5.2451803594
 30
0.0
 10
6.0073817797
 20
5.2461906274
 30
0.0
 10
6.007083252
 20
5.2467064504
 30
0.0
  0
SPLINE
  5
3FB
100
AcDbEntity
  8
0
100
AcDbSpline
 62
7
  6
CONTINUOUS
 70
0
 71
3
 72
15
 73
11
 74
0
 42
0.0000001
 43
0.0000001
 44
0.0000000001
 40
0.0
 40
0.0
 40
0.0
 40
0.0
 40
0.0933153007
 40
0.1952877652
 40
0.3067534417
 40
0.4282474892
 40
0.5597539571
 40
0.7004112186
 40
0.8482159595
 40
1.0
 40
1.0
 40
1.0
 40
1.0
 10
6.007083252
 20
5.2258084862
 30
0.0
 10
6.0073932464
 20
5.2260698754
 30
0.0
 10
6.0080736661
 20
5.2265801052
 30
0.0
 10
6.0092173409
 20
5.2272686356
 30
0.0
 10
6.0105312998
 20
5.2278992804
 30
0.0
 10
6.0120159776
 20
5.2284561768
 30
0.0
 10
6.0136642484
 20
5.2289208379
 30
0.0
 10
6.0154568288
 20
5.2292730943
 30
0.0
 10
6.0173589204
 20
5.2294939269
 30
0.0
 10
6.0186613146
 20
5.2295439392
 30
0.0
 10
6.0193208705
 20
5.2295439392
 30
0.0
  0
SPLINE
  5
3FC
100
AcDbEntity
  8
0
100
AcDbSpline
 62
7
  6
CONTINUOUS
 70
0
 71
3
 72
16
 73
12
 74
0
 42
0.0000001
 43
0.0000001
 44
0.0000000001
 40
0.0
 40
0.0
 40
0.0
 40
0.0
 40
0.1293066647
 40
0.1937797732
 40
0.2579955983
 40
0.3853362422
 40
0.511148484
 40
0.6353855578
 40
0.7581484673
 40
0.8796231876
 40
1.0
 40
1.0
 40
1.0
 40
1.0
 10
6.0193208705
 20
5.2177977814
 30
0.0
 10
6.018659547
 20
5.2177977814
 30
0.0
 10
6.0176659969
 20
5.2178805394
 30
0.0
 10
6.0163733907
 20
5.2181504561
 30
0.0
 10
6.0151158311
 20
5.2185199125
 30
0.0
 10
6.0136161343
 20
5.2191582529
 30
0.0
 10
6.0119635392
 20
5.220167191
 30
0.0
 10
6.0104792365
 20
5.2213723352
 30
0.0
 10
6.0091691585
 20
5.2227329894
 30
0.0
 10
6.0080314982
 20
5.2242148299
 30
0.0
 10
6.007381194
 20
5.2252697292
 30
0.0
 10
6.007083252
 20
5.2258084862
 30
0.0
  0
SPLINE
  5
3FD
100
AcDbEntity
  8
0
100
AcDbSpline
 62
7
  6
CONTINUOUS
 70
0
 71
3
 72
15
 73
11
 74
0
 42
0.0000001
 43
0.0000001
 44
0.0000000001
 40
0.0
 40
0.0
 40
0.0
 40
0.0
 40
0.0890813723
 40
0.1882211215
 40
0.2982128056
 40
0.4195168595
 40
0.5520003595
 40
0.6946235468
 40
0.84512565
 40
1.0
 40
1.0
 40
1.0
 40
1.0
 10
6.007083252
 20
5.2055643232
 30
0.0
 10
6.0073965299
 20
5.2057781031
 30
0.0
 10
6.0080833155
 20
5.2061939755
 30
0.0
 10
6.0092264303
 20
5.2067499187
 30
0.0
 10
6.0105394809
 20
5.2072591569
 30
0.0
 10
6.0120229755
 20
5.2077088874
 30
0.0
 10
6.0136698121
 20
5.2080841555
 30
0.0
 10
6.0154607069
 20
5.2083686515
 30
0.0
 10
6.0173609504
 20
5.2085470049
 30
0.0
 10
6.0186614843
 20
5.2085873827
 30
0.0
 10
6.0193208705
 20
5.2085873827
 30
0.0
  0
SPLINE
  5
3FE
100
AcDbEntity
  8
0
100
AcDbSpline
 62
7
  6
CONTINUOUS
 70
0
 71
3
 72
17
 73
13
 74
0
 42
0.0000001
 43
0.0000001
 44
0.0000000001
 40
0.0
 40
0.0
 40
0.0
 40
0.0
 40
0.0639410509
 40
0.1278371014
 40
0.1916023562
 40
0.2552025838
 40
0.3816655809
 40
0.5071546535
 40
0.6316439158
 40
0.7552001617
 40
0.8779465841
 40
1.0
 40
1.0
 40
1.0
 40
1.0
 10
6.0193208705
 20
5.1972585354
 30
0.0
 10
6.0189897052
 20
5.1972585354
 30
0.0
 10
6.0183272557
 20
5.1972870883
 30
0.0
 10
6.0173419825
 20
5.1974145401
 30
0.0
 10
6.0163726304
 20
5.1976243739
 30
0.0
 10
6.0151138979
 20
5.1980079239
 30
0.0
 10
6.0136123043
 20
5.1986711423
 30
0.0
 10
6.0119599168
 20
5.1997178963
 30
0.0
 10
6.0104761477
 20
5.200967728
 30
0.0
 10
6.0091667362
 20
5.202378486
 30
0.0
 10
6.0080297061
 20
5.2039146901
 30
0.0
 10
6.0073807469
 20
5.2050065587
 30
0.0
 10
6.007083252
 20
5.2055643232
 30
0.0
  0
SPLINE
  5
3FF
100
AcDbEntity
  8
0
100
AcDbSpline
 62
7
  6
CONTINUOUS
 70
0
 71
3
 72
15
 73
11
 74
0
 42
0.0000001
 43
0.0000001
 44
0.0000000001
 40
0.0
 40
0.0
 40
0.0
 40
0.0
 40
0.0852382798
 40
0.1818687836
 40
0.2905956542
 40
0.41177857
 40
0.5451604524
 40
0.6895348556
 40
0.8424139376
 40
1.0
 40
1.0
 40
1.0
 40
1.0
 10
6.007083252
 20
5.1861280316
 30
0.0
 10
6.0074000887
 20
5.1862916444
 30
0.0
 10
6.0080930051
 20
5.1866084297
 30
0.0
 10
6.0092349931
 20
5.1870279931
 30
0.0
 10
6.0105468053
 20
5.1874124479
 30
0.0
 10
6.0120290059
 20
5.1877520832
 30
0.0
 10
6.0136744733
 20
5.1880355383
 30
0.0
 10
6.0154638944
 20
5.1882504542
 30
0.0
 10
6.0173626003
 20
5.1883851943
 30
0.0
 10
6.018661622
 20
5.1884156904
 30
0.0
 10
6.0193208705
 20
5.1884156904
 30
0.0
  0
SPLINE
  5
400
100
AcDbEntity
  8
0
100
AcDbSpline
 62
7
  6
CONTINUOUS
 70
0
 71
3
 72
16
 73
12
 74
0
 42
0.0000001
 43
0.0000001
 44
0.0000000001
 40
0.0
 40
0.0
 40
0.0
 40
0.0
 40
0.0633371736
 40
0.12665587
 40
0.1898953642
 40
0.2530426411
 40
0.3788776933
 40
0.5041721171
 40
0.6289127924
 40
0.7531366453
 40
1.0
 40
1.0
 40
1.0
 40
1.0
 10
6.0193208705
 20
5.1775903729
 30
0.0
 10
6.0189896878
 20
5.1775903729
 30
0.0
 10
6.0183270476
 20
5.1776197372
 30
0.0
 10
6.0173415911
 20
5.1777507987
 30
0.0
 10
6.0163720844
 20
5.1779665683
 30
0.0
 10
6.0151123145
 20
5.1783612212
 30
0.0
 10
6.0136092876
 20
5.1790440699
 30
0.0
 10
6.0119571329
 20
5.1801204799
 30
0.0
 10
6.0104736858
 20
5.1814056098
 30
0.0
 10
6.0087332686
 20
5.1833334998
 30
0.0
 10
6.0076777689
 20
5.184982272
 30
0.0
 10
6.007083252
 20
5.1861280316
 30
0.0
  0
SPLINE
  5
401
100
AcDbEntity
  8
0
100
AcDbSpline
 62
7
  6
CONTINUOUS
 70
0
 71
3
 72
15
 73
11
 74
0
 42
0.0000001
 43
0.0000001
 44
0.0000000001
 40
0.0
 40
0.0
 40
0.0
 40
0.0
 40
0.0821216546
 40
0.1767634171
 40
0.2845164715
 40
0.4056357566
 40
0.539752365
 40
0.685522472
 40
0.8402792501
 40
1.0
 40
1.0
 40
1.0
 40
1.0
 10
6.007083252
 20
5.1676475336
 30
0.0
 10
6.0074034825
 20
5.1677584813
 30
0.0
 10
6.0081015588
 20
5.1679721487
 30
0.0
 10
6.0092421345
 20
5.1682528899
 30
0.0
 10
6.0105526489
 20
5.1685102798
 30
0.0
 10
6.0120336683
 20
5.168737762
 30
0.0
 10
6.0136779958
 20
5.1689276604
 30
0.0
 10
6.0154662672
 20
5.1690716623
 30
0.0
 10
6.0173638178
 20
5.1691619497
 30
0.0
 10
6.0186617235
 20
5.1691823811
 30
0.0
 10
6.0193208705
 20
5.1691823811
 30
0.0
  0
SPLINE
  5
402
100
AcDbEntity
  8
0
100
AcDbSpline
 62
7
  6
CONTINUOUS
 70
0
 71
3
 72
15
 73
11
 74
0
 42
0.0000001
 43
0.0000001
 44
0.0000000001
 40
0.0
 40
0.0
 40
0.0
 40
0.0
 40
0.1256485613
 40
0.2511844314
 40
0.3765376232
 40
0.5016609025
 40
0.6265483918
 40
0.7512139703
 40
0.875692263
 40
1.0
 40
1.0
 40
1.0
 40
1.0
 10
6.0193208705
 20
5.1589429806
 30
0.0
 10
6.0186591394
 20
5.1589429806
 30
0.0
 10
6.0173332513
 20
5.159063128
 30
0.0
 10
6.0154117148
 20
5.1595898667
 30
0.0
 10
6.0136072865
 20
5.1604262574
 30
0.0
 10
6.011955059
 20
5.1615241515
 30
0.0
 10
6.0104721465
 20
5.1628342982
 30
0.0
 10
6.0091636458
 20
5.164312688
 30
0.0
 10
6.0080274609
 20
5.1659222872
 30
0.0
 10
6.0073801927
 20
5.1670640796
 30
0.0
 10
6.007083252
 20
5.1676475336
 30
0.0
  0
SPLINE
  5
403
100
AcDbEntity
  8
0
100
AcDbSpline
 62
7
  6
CONTINUOUS
 70
0
 71
3
 72
14
 73
10
 74
0
 42
0.0000001
 43
0.0000001
 44
0.0000000001
 40
0.0
 40
0.0
 40
0.0
 40
0.0
 40
0.0800738798
 40
0.1734331018
 40
0.2805727781
 40
0.4016678616
 40
0.5362710803
 40
0.6829476944
 40
1.0
 40
1.0
 40
1.0
 40
1.0
 10
6.007083252
 20
5.1502634767
 30
0.0
 10
6.0074060144
 20
5.1503196027
 30
0.0
 10
6.0081075346
 20
5.1504272073
 30
0.0
 10
6.0092469155
 20
5.1505678307
 30
0.0
 10
6.0105564331
 20
5.1506968218
 30
0.0
 10
6.01203662
 20
5.1508108649
 30
0.0
 10
6.0136801953
 20
5.1509060994
 30
0.0
 10
6.0161262416
 20
5.1510048456
 30
0.0
 10
6.0180237156
 20
5.1510338319
 30
0.0
 10
6.0193208705
 20
5.1510338319
 30
0.0
  0
SPLINE
  5
404
100
AcDbEntity
  8
0
100
AcDbSpline
 62
7
  6
CONTINUOUS
 70
0
 71
3
 72
15
 73
11
 74
0
 42
0.0000001
 43
0.0000001
 44
0.0000000001
 40
0.0
 40
0.0
 40
0.0
 40
0.0
 40
0.1251228679
 40
0.2502220579
 40
0.3752930181
 40
0.5003207948
 40
0.6253030991
 40
0.7502393224
 40
0.8751411553
 40
1.0
 40
1.0
 40
1.0
 40
1.0
 10
6.0193208705
 20
5.1414582764
 30
0.0
 10
6.0186590775
 20
5.1414582764
 30
0.0
 10
6.0173325305
 20
5.141579918
 30
0.0
 10
6.0154105466
 20
5.1421130629
 30
0.0
 10
6.0136059811
 20
5.142959442
 30
0.0
 10
6.0119538596
 20
5.144070232
 30
0.0
 10
6.0104711633
 20
5.1453955924
 30
0.0
 10
6.0091628992
 20
5.1468910374
 30
0.0
 10
6.0080269241
 20
5.1485191499
 30
0.0
 10
6.0073800612
 20
5.1496735378
 30
0.0
 10
6.007083252
 20
5.1502634767
 30
0.0
  0
SPLINE
  5
405
100
AcDbEntity
  8
0
100
AcDbSpline
 62
7
  6
CONTINUOUS
 70
0
 71
3
 72
16
 73
12
 74
0
 42
0.0000001
 43
0.0000001
 44
0.0000000001
 40
0.0
 40
0.0
 40
0.0
 40
0.0
 40
0.2468633505
 40
0.3710871921
 40
0.4958278637
 40
0.6211222604
 40
0.7469573359
 40
0.8101046131
 40
0.8733441185
 40
0.9366628253
 40
1.0
 40
1.0
 40
1.0
 40
1.0
 10
6.4515584891
 20
5.1861280316
 30
0.0
 10
6.4509639722
 20
5.1849822721
 30
0.0
 10
6.4499084726
 20
5.1833334999
 30
0.0
 10
6.4481680554
 20
5.1814056099
 30
0.0
 10
6.4466846084
 20
5.1801204802
 30
0.0
 10
6.4450324539
 20
5.1790440701
 30
0.0
 10
6.443529427
 20
5.1783612213
 30
0.0
 10
6.4422696569
 20
5.1779665683
 30
0.0
 10
6.4413001502
 20
5.1777507987
 30
0.0
 10
6.4403146935
 20
5.1776197372
 30
0.0
 10
6.4396520532
 20
5.1775903729
 30
0.0
 10
6.4393208705
 20
5.1775903729
 30
0.0
  0
SPLINE
  5
406
100
AcDbEntity
  8
0
100
AcDbSpline
 62
7
  6
CONTINUOUS
 70
0
 71
3
 72
15
 73
11
 74
0
 42
0.0000001
 43
0.0000001
 44
0.0000000001
 40
0.0
 40
0.0
 40
0.0
 40
0.0
 40
0.1249476159
 40
0.2499013396
 40
0.3748784486
 40
0.4998746639
 40
0.624888766
 40
0.7499152093
 40
0.8749579747
 40
1.0
 40
1.0
 40
1.0
 40
1.0
 10
6.0193208705
 20
5.1252693294
 30
0.0
 10
6.0186590567
 20
5.1252693294
 30
0.0
 10
6.0173322879
 20
5.1253914711
 30
0.0
 10
6.0154101546
 20
5.1259267589
 30
0.0
 10
6.0136055447
 20
5.1267764771
 30
0.0
 10
6.0119534604
 20
5.1278915763
 30
0.0
 10
6.0104708373
 20
5.1292220198
 30
0.0
 10
6.0091626526
 20
5.130723163
 30
0.0
 10
6.0080267473
 20
5.1323574613
 30
0.0
 10
6.007380018
 20
5.133516058
 30
0.0
 10
6.007083252
 20
5.1341081641
 30
0.0
  0
SPLINE
  5
407
100
AcDbEntity
  8
0
100
AcDbSpline
 62
7
  6
CONTINUOUS
 70
0
 71
3
 72
15
 73
11
 74
0
 42
0.0000001
 43
0.0000001
 44
0.0000000001
 40
0.0
 40
0.0
 40
0.0
 40
0.0
 40
0.1597207635
 40
0.3144775257
 40
0.4602476077
 40
0.5943642338
 40
0.7154835213
 40
0.8232365816
 40
0.9178783435
 40
1.0
 40
1.0
 40
1.0
 40
1.0
 10
6.4393208705
 20
5.1691823811
 30
0.0
 10
6.4399800177
 20
5.1691823811
 30
0.0
 10
6.4412779234
 20
5.1691619497
 30
0.0
 10
6.4431754738
 20
5.1690716623
 30
0.0
 10
6.4449637451
 20
5.1689276604
 30
0.0
 10
6.4466080726
 20
5.1687377621
 30
0.0
 10
6.4480890921
 20
5.1685102798
 30
0.0
 10
6.4493996066
 20
5.1682528899
 30
0.0
 10
6.4505401823
 20
5.1679721487
 30
0.0
 10
6.4512382586
 20
5.1677584813
 30
0.0
 10
6.4515584891
 20
5.1676475336
 30
0.0
  0
SPLINE
  5
408
100
AcDbEntity
  8
0
100
AcDbSpline
 62
7
  6
CONTINUOUS
 70
0
 71
3
 72
15
 73
11
 74
0
 42
0.0000001
 43
0.0000001
 44
0.0000000001
 40
0.0
 40
0.0
 40
0.0
 40
0.0
 40
0.1251228679
 40
0.2502220579
 40
0.3752930181
 40
0.5003207948
 40
0.6253030991
 40
0.7502393224
 40
0.8751411553
 40
1.0
 40
1.0
 40
1.0
 40
1.0
 10
6.0193208705
 20
5.1104993473
 30
0.0
 10
6.0186590775
 20
5.1104993473
 30
0.0
 10
6.0173325305
 20
5.1106209889
 30
0.0
 10
6.0154105466
 20
5.1111541339
 30
0.0
 10
6.0136059811
 20
5.112000513
 30
0.0
 10
6.0119538596
 20
5.1131113029
 30
0.0
 10
6.0104711633
 20
5.1144366634
 30
0.0
 10
6.0091628992
 20
5.1159321084
 30
0.0
 10
6.0080269241
 20
5.1175602208
 30
0.0
 10
6.0073800612
 20
5.1187146087
 30
0.0
 10
6.007083252
 20
5.1193045476
 30
0.0
  0
SPLINE
  5
409
100
AcDbEntity
  8
0
100
AcDbSpline
 62
7
  6
CONTINUOUS
 70
0
 71
3
 72
15
 73
11
 74
0
 42
0.0000001
 43
0.0000001
 44
0.0000000001
 40
0.0
 40
0.0
 40
0.0
 40
0.0
 40
0.1256485613
 40
0.2511844314
 40
0.3765376232
 40
0.5016609025
 40
0.6265483918
 40
0.7512139703
 40
0.875692263
 40
1.0
 40
1.0
 40
1.0
 40
1.0
 10
6.0193208705
 20
5.0972607386
 30
0.0
 10
6.0186591394
 20
5.0972607386
 30
0.0
 10
6.0173332513
 20
5.0973808861
 30
0.0
 10
6.0154117148
 20
5.0979076248
 30
0.0
 10
6.0136072865
 20
5.0987440155
 30
0.0
 10
6.011955059
 20
5.0998419095
 30
0.0
 10
6.0104721465
 20
5.1011520562
 30
0.0
 10
6.0091636458
 20
5.102630446
 30
0.0
 10
6.0080274609
 20
5.1042400453
 30
0.0
 10
6.0073801927
 20
5.1053818376
 30
0.0
 10
6.007083252
 20
5.1059652916
 30
0.0
  0
SPLINE
  5
40A
100
AcDbEntity
  8
0
100
AcDbSpline
 62
7
  6
CONTINUOUS
 70
0
 71
3
 72
15
 73
11
 74
0
 42
0.0000001
 43
0.0000001
 44
0.0000000001
 40
0.0
 40
0.0
 40
0.0
 40
0.0
 40
0.1243077326
 40
0.2487860255
 40
0.3734515928
 40
0.4983390784
 40
0.6234623307
 40
0.7488155458
 40
0.8743514273
 40
1.0
 40
1.0
 40
1.0
 40
1.0
 10
6.4515584891
 20
5.1676475336
 30
0.0
 10
6.4512615484
 20
5.1670640796
 30
0.0
 10
6.4506142802
 20
5.1659222873
 30
0.0
 10
6.4494780953
 20
5.1643126881
 30
0.0
 10
6.4481695947
 20
5.1628342983
 30
0.0
 10
6.4466866824
 20
5.1615241518
 30
0.0
 10
6.445034455
 20
5.1604262577
 30
0.0
 10
6.4432300266
 20
5.1595898669
 30
0.0
 10
6.44130849
 20
5.1590631281
 30
0.0
 10
6.4399826017
 20
5.1589429806
 30
0.0
 10
6.4393208705
 20
5.1589429806
 30
0.0
  0
SPLINE
  5
40B
100
AcDbEntity
  8
0
100
AcDbSpline
 62
7
  6
CONTINUOUS
 70
0
 71
3
 72
16
 73
12
 74
0
 42
0.0000001
 43
0.0000001
 44
0.0000000001
 40
0.0
 40
0.0
 40
0.0
 40
0.0
 40
0.0633371736
 40
0.12665587
 40
0.1898953642
 40
0.2530426411
 40
0.3788776933
 40
0.5041721171
 40
0.6289127924
 40
0.7531366453
 40
1.0
 40
1.0
 40
1.0
 40
1.0
 10
6.0193208705
 20
5.0856542571
 30
0.0
 10
6.0189896878
 20
5.0856542571
 30
0.0
 10
6.0183270476
 20
5.0856836215
 30
0.0
 10
6.0173415911
 20
5.0858146829
 30
0.0
 10
6.0163720844
 20
5.0860304525
 30
0.0
 10
6.0151123145
 20
5.0864251054
 30
0.0
 10
6.0136092876
 20
5.0871079542
 30
0.0
 10
6.0119571329
 20
5.0881843641
 30
0.0
 10
6.0104736858
 20
5.089469494
 30
0.0
 10
6.0087332686
 20
5.091397384
 30
0.0
 10
6.0076777689
 20
5.0930461563
 30
0.0
 10
6.007083252
 20
5.0941919159
 30
0.0
  0
SPLINE
  5
40C
100
AcDbEntity
  8
0
100
AcDbSpline
 62
7
  6
CONTINUOUS
 70
0
 71
3
 72
14
 73
10
 74
0
 42
0.0000001
 43
0.0000001
 44
0.0000000001
 40
0.0
 40
0.0
 40
0.0
 40
0.0
 40
0.3170523033
 40
0.4637288922
 40
0.5983321289
 40
0.7194272147
 40
0.826566897
 40
0.9199261182
 40
1.0
 40
1.0
 40
1.0
 40
1.0
 10
6.4393208705
 20
5.1510338319
 30
0.0
 10
6.4406180254
 20
5.1510338319
 30
0.0
 10
6.4425154994
 20
5.1510048456
 30
0.0
 10
6.4449615456
 20
5.1509060994
 30
0.0
 10
6.4466051209
 20
5.1508108649
 30
0.0
 10
6.4480853079
 20
5.1506968218
 30
0.0
 10
6.4493948255
 20
5.1505678307
 30
0.0
 10
6.4505342064
 20
5.1504272073
 30
0.0
 10
6.4512357267
 20
5.1503196027
 30
0.0
 10
6.4515584891
 20
5.1502634767
 30
0.0
  0
SPLINE
  5
40D
100
AcDbEntity
  8
0
100
AcDbSpline
 62
7
  6
CONTINUOUS
 70
0
 71
3
 72
17
 73
13
 74
0
 42
0.0000001
 43
0.0000001
 44
0.0000000001
 40
0.0
 40
0.0
 40
0.0
 40
0.0
 40
0.0639410509
 40
0.1278371014
 40
0.1916023562
 40
0.2552025838
 40
0.3816655809
 40
0.5071546535
 40
0.6316439158
 40
0.7552001617
 40
0.8779465841
 40
1.0
 40
1.0
 40
1.0
 40
1.0
 10
6.0193208705
 20
5.0757682351
 30
0.0
 10
6.0189897052
 20
5.0757682351
 30
0.0
 10
6.0183272557
 20
5.0757967881
 30
0.0
 10
6.0173419825
 20
5.0759242398
 30
0.0
 10
6.0163726304
 20
5.0761340736
 30
0.0
 10
6.0151138979
 20
5.0765176237
 30
0.0
 10
6.0136123043
 20
5.0771808421
 30
0.0
 10
6.0119599168
 20
5.0782275961
 30
0.0
 10
6.0104761477
 20
5.0794774278
 30
0.0
 10
6.0091667362
 20
5.0808881858
 30
0.0
 10
6.0080297061
 20
5.0824243899
 30
0.0
 10
6.0073807469
 20
5.0835162585
 30
0.0
 10
6.007083252
 20
5.0840740229
 30
0.0
  0
SPLINE
  5
40E
100
AcDbEntity
  8
0
100
AcDbSpline
 62
7
  6
CONTINUOUS
 70
0
 71
3
 72
15
 73
11
 74
0
 42
0.0000001
 43
0.0000001
 44
0.0000000001
 40
0.0
 40
0.0
 40
0.0
 40
0.0
 40
0.1248588402
 40
0.2497606734
 40
0.3746968855
 40
0.499679186
 40
0.6247069359
 40
0.7497779194
 40
0.8748771208
 40
1.0
 40
1.0
 40
1.0
 40
1.0
 10
6.4515584891
 20
5.1502634767
 30
0.0
 10
6.4512616799
 20
5.1496735378
 30
0.0
 10
6.450614817
 20
5.1485191499
 30
0.0
 10
6.4494788419
 20
5.1468910375
 30
0.0
 10
6.448170578
 20
5.1453955926
 30
0.0
 10
6.4466878818
 20
5.1440702323
 30
0.0
 10
6.4450357604
 20
5.1429594423
 30
0.0
 10
6.4432311949
 20
5.142113063
 30
0.0
 10
6.4413092108
 20
5.141579918
 30
0.0
 10
6.4399826636
 20
5.1414582764
 30
0.0
 10
6.4393208705
 20
5.1414582764
 30
0.0
  0
SPLINE
  5
40F
100
AcDbEntity
  8
0
100
AcDbSpline
 62
7
  6
CONTINUOUS
 70
0
 71
3
 72
16
 73
12
 74
0
 42
0.0000001
 43
0.0000001
 44
0.0000000001
 40
0.0
 40
0.0
 40
0.0
 40
0.0
 40
0.1293066647
 40
0.1937797732
 40
0.2579955983
 40
0.3853362422
 40
0.511148484
 40
0.6353855578
 40
0.7581484673
 40
0.8796231876
 40
1.0
 40
1.0
 40
1.0
 40
1.0
 10
6.0193208705
 20
5.0676779113
 30
0.0
 10
6.018659547
 20
5.0676779113
 30
0.0
 10
6.0176659969
 20
5.0677606693
 30
0.0
 10
6.0163733907
 20
5.068030586
 30
0.0
 10
6.0151158311
 20
5.0684000423
 30
0.0
 10
6.0136161343
 20
5.0690383827
 30
0.0
 10
6.0119635392
 20
5.0700473209
 30
0.0
 10
6.0104792365
 20
5.0712524651
 30
0.0
 10
6.0091691585
 20
5.0726131192
 30
0.0
 10
6.0080314982
 20
5.0740949597
 30
0.0
 10
6.007381194
 20
5.0751498591
 30
0.0
 10
6.007083252
 20
5.0756886161
 30
0.0
  0
SPLINE
  5
410
100
AcDbEntity
  8
0
100
AcDbSpline
 62
7
  6
CONTINUOUS
 70
0
 71
3
 72
17
 73
13
 74
0
 42
0.0000001
 43
0.0000001
 44
0.0000000001
 40
0.0
 40
0.0
 40
0.0
 40
0.0
 40
0.1312104045
 40
0.1965335622
 40
0.261489029
 40
0.3898839958
 40
0.5160790067
 40
0.5783489016
 40
0.6400573314
 40
0.761830672
 40
0.881719051
 40
1.0
 40
1.0
 40
1.0
 40
1.0
 10
6.0193208705
 20
5.0614448578
 30
0.0
 10
6.0186597431
 20
5.0614448578
 30
0.0
 10
6.0176671865
 20
5.06152376
 30
0.0
 10
6.0163741779
 20
5.061781668
 30
0.0
 10
6.0151181581
 20
5.0621341892
 30
0.0
 10
6.0136207781
 20
5.062742575
 30
0.0
 10
6.0122369393
 20
5.0635492234
 30
0.0
 10
6.0112155701
 20
5.0642892468
 30
0.0
 10
6.0102602531
 20
5.065078193
 30
0.0
 10
6.0091721711
 20
5.0661573115
 30
0.0
 10
6.0080338398
 20
5.0675734223
 30
0.0
 10
6.0073817797
 20
5.0685836902
 30
0.0
 10
6.007083252
 20
5.0690995132
 30
0.0
  0
SPLINE
  5
411
100
AcDbEntity
  8
0
100
AcDbSpline
 62
7
  6
CONTINUOUS
 70
0
 71
3
 72
15
 73
11
 74
0
 42
0.0000001
 43
0.0000001
 44
0.0000000001
 40
0.0
 40
0.0
 40
0.0
 40
0.0
 40
0.1250420209
 40
0.2500847865
 40
0.3751112186
 40
0.500125317
 40
0.6251215055
 40
0.7500986378
 40
0.8750523728
 40
1.0
 40
1.0
 40
1.0
 40
1.0
 10
6.4515584891
 20
5.1341081641
 30
0.0
 10
6.4512617231
 20
5.133516058
 30
0.0
 10
6.4506149938
 20
5.1323574613
 30
0.0
 10
6.4494790885
 20
5.1307231632
 30
0.0
 10
6.4481709039
 20
5.1292220199
 30
0.0
 10
6.446688281
 20
5.1278915766
 30
0.0
 10
6.4450361967
 20
5.1267764774
 30
0.0
 10
6.4432315869
 20
5.1259267591
 30
0.0
 10
6.4413094534
 20
5.1253914712
 30
0.0
 10
6.4399826845
 20
5.1252693294
 30
0.0
 10
6.4393208705
 20
5.1252693294
 30
0.0
  0
SPLINE
  5
412
100
AcDbEntity
  8
0
100
AcDbSpline
 62
7
  6
CONTINUOUS
 70
0
 71
3
 72
15
 73
11
 74
0
 42
0.0000001
 43
0.0000001
 44
0.0000000001
 40
0.0
 40
0.0
 40
0.0
 40
0.0
 40
0.1334719528
 40
0.2655632011
 40
0.3952403488
 40
0.5219339032
 40
0.645517828
 40
0.766159915
 40
0.884195239
 40
1.0
 40
1.0
 40
1.0
 40
1.0
 10
6.0193208705
 20
5.057116512
 30
0.0
 10
6.0186599601
 20
5.057116512
 30
0.0
 10
6.0173428589
 20
5.0572153102
 30
0.0
 10
6.015427782
 20
5.0576498614
 30
0.0
 10
6.0136260514
 20
5.0583416111
 30
0.0
 10
6.0119731845
 20
5.0592518844
 30
0.0
 10
6.0104877629
 20
5.0603402004
 30
0.0
 10
6.0091760628
 20
5.0615698127
 30
0.0
 10
6.0080367567
 20
5.062909499
 30
0.0
 10
6.0073825317
 20
5.0638677282
 30
0.0
 10
6.007083252
 20
5.0643568616
 30
0.0
  0
SPLINE
  5
413
100
AcDbEntity
  8
0
100
AcDbSpline
 62
7
  6
CONTINUOUS
 70
0
 71
3
 72
17
 73
13
 74
0
 42
0.0000001
 43
0.0000001
 44
0.0000000001
 40
0.0
 40
0.0
 40
0.0
 40
0.0
 40
0.1360053861
 40
0.2034797416
 40
0.2703179091
 40
0.4014366168
 40
0.5286864119
 40
0.5908123383
 40
0.6519328697
 40
0.7712520159
 40
0.8871136518
 40
1.0
 40
1.0
 40
1.0
 40
1.0
 10
6.0193208705
 20
5.0547258152
 30
0.0
 10
6.0186601915
 20
5.0547258152
 30
0.0
 10
6.0176699235
 20
5.0547952464
 30
0.0
 10
6.0163760039
 20
5.0550233548
 30
0.0
 10
6.0151236562
 20
5.0553340895
 30
0.0
 10
6.0136318714
 20
5.0558689536
 30
0.0
 10
6.0122434689
 20
5.0565832582
 30
0.0
 10
6.0112182583
 20
5.0572399839
 30
0.0
 10
6.0102661174
 20
5.0579352042
 30
0.0
 10
6.0091806353
 20
5.0588858668
 30
0.0
 10
6.008040433
 20
5.0601386989
 30
0.0
 10
6.0073834866
 20
5.0610378744
 30
0.0
 10
6.007083252
 20
5.0614967554
 30
0.0
  0
SPLINE
  5
414
100
AcDbEntity
  8
0
100
AcDbSpline
 62
7
  6
CONTINUOUS
 70
0
 71
3
 72
15
 73
11
 74
0
 42
0.0000001
 43
0.0000001
 44
0.0000000001
 40
0.0
 40
0.0
 40
0.0
 40
0.0
 40
0.1248588402
 40
0.2497606734
 40
0.3746968855
 40
0.499679186
 40
0.6247069359
 40
0.7497779194
 40
0.8748771208
 40
1.0
 40
1.0
 40
1.0
 40
1.0
 10
6.4515584891
 20
5.1193045476
 30
0.0
 10
6.4512616799
 20
5.1187146087
 30
0.0
 10
6.450614817
 20
5.1175602208
 30
0.0
 10
6.4494788419
 20
5.1159321085
 30
0.0
 10
6.448170578
 20
5.1144366635
 30
0.0
 10
6.4466878818
 20
5.1131113032
 30
0.0
 10
6.4450357604
 20
5.1120005132
 30
0.0
 10
6.4432311949
 20
5.111154134
 30
0.0
 10
6.4413092108
 20
5.110620989
 30
0.0
 10
6.4399826636
 20
5.1104993473
 30
0.0
 10
6.4393208705
 20
5.1104993473
 30
0.0
  0
SPLINE
  5
415
100
AcDbEntity
  8
0
100
AcDbSpline
 62
7
  6
CONTINUOUS
 70
0
 71
3
 72
15
 73
11
 74
0
 42
0.0000001
 43
0.0000001
 44
0.0000000001
 40
0.0
 40
0.0
 40
0.0
 40
0.0
 40
0.1243077326
 40
0.2487860255
 40
0.3734515928
 40
0.4983390784
 40
0.6234623307
 40
0.7488155458
 40
0.8743514273
 40
1.0
 40
1.0
 40
1.0
 40
1.0
 10
6.4515584891
 20
5.1059652916
 30
0.0
 10
6.4512615484
 20
5.1053818376
 30
0.0
 10
6.4506142802
 20
5.1042400453
 30
0.0
 10
6.4494780953
 20
5.1026304461
 30
0.0
 10
6.4481695947
 20
5.1011520564
 30
0.0
 10
6.4466866824
 20
5.0998419098
 30
0.0
 10
6.445034455
 20
5.0987440157
 30
0.0
 10
6.4432300266
 20
5.0979076249
 30
0.0
 10
6.44130849
 20
5.0973808861
 30
0.0
 10
6.4399826017
 20
5.0972607386
 30
0.0
 10
6.4393208705
 20
5.0972607386
 30
0.0
  0
SPLINE
  5
416
100
AcDbEntity
  8
0
100
AcDbSpline
 62
7
  6
CONTINUOUS
 70
0
 71
3
 72
17
 73
13
 74
0
 42
0.0000001
 43
0.0000001
 44
0.0000000001
 40
0.0
 40
0.0
 40
0.0
 40
0.0
 40
0.1128863443
 40
0.2287479787
 40
0.3480671155
 40
0.4091876462
 40
0.4713135687
 40
0.5985633365
 40
0.7296820587
 40
0.7965202202
 40
0.8639945884
 40
1.0
 40
1.0
 40
1.0
 40
1.0
 10
6.007083252
 20
5.5619334472
 30
0.0
 10
6.0073834865
 20
5.5623923282
 30
0.0
 10
6.0080404329
 20
5.5632915037
 30
0.0
 10
6.0091806353
 20
5.5645443357
 30
0.0
 10
6.0102661173
 20
5.5654949984
 30
0.0
 10
6.0112182581
 20
5.5661902186
 30
0.0
 10
6.0122434686
 20
5.5668469442
 30
0.0
 10
6.0136318709
 20
5.5675612488
 30
0.0
 10
6.0151236557
 20
5.5680961129
 30
0.0
 10
6.0163760034
 20
5.5684068477
 30
0.0
 10
6.0176699232
 20
5.5686349561
 30
0.0
 10
6.0186601914
 20
5.5687043874
 30
0.0
 10
6.0193208705
 20
5.5687043874
 30
0.0
  0
SPLINE
  5
417
100
AcDbEntity
  8
0
100
AcDbSpline
 62
7
  6
CONTINUOUS
 70
0
 71
3
 72
15
 73
11
 74
0
 42
0.0000001
 43
0.0000001
 44
0.0000000001
 40
0.0
 40
0.0
 40
0.0
 40
0.0
 40
0.1158047571
 40
0.2338400796
 40
0.3544821571
 40
0.4780660774
 40
0.6047596049
 40
0.7344367672
 40
0.8665280222
 40
1.0
 40
1.0
 40
1.0
 40
1.0
 10
6.007083252
 20
5.5590733411
 30
0.0
 10
6.0073825317
 20
5.5595624744
 30
0.0
 10
6.0080367567
 20
5.5605207036
 30
0.0
 10
6.0091760627
 20
5.5618603898
 30
0.0
 10
6.0104877628
 20
5.563090002
 30
0.0
 10
6.0119731841
 20
5.5641783179
 30
0.0
 10
6.0136260509
 20
5.5650885913
 30
0.0
 10
6.0154277815
 20
5.5657803411
 30
0.0
 10
6.0173428586
 20
5.5662148923
 30
0.0
 10
6.01865996
 20
5.5663136906
 30
0.0
 10
6.0193208705
 20
5.5663136906
 30
0.0
  0
SPLINE
  5
418
100
AcDbEntity
  8
0
100
AcDbSpline
 62
7
  6
CONTINUOUS
 70
0
 71
3
 72
16
 73
12
 74
0
 42
0.0000001
 43
0.0000001
 44
0.0000000001
 40
0.0
 40
0.0
 40
0.0
 40
0.0
 40
0.2468633505
 40
0.3710871921
 40
0.4958278637
 40
0.6211222604
 40
0.7469573359
 40
0.8101046131
 40
0.8733441185
 40
0.9366628253
 40
1.0
 40
1.0
 40
1.0
 40
1.0
 10
6.4515584891
 20
5.0941919159
 30
0.0
 10
6.4509639722
 20
5.0930461563
 30
0.0
 10
6.4499084726
 20
5.0913973841
 30
0.0
 10
6.4481680554
 20
5.0894694942
 30
0.0
 10
6.4466846084
 20
5.0881843644
 30
0.0
 10
6.4450324539
 20
5.0871079544
 30
0.0
 10
6.443529427
 20
5.0864251056
 30
0.0
 10
6.4422696569
 20
5.0860304526
 30
0.0
 10
6.4413001502
 20
5.085814683
 30
0.0
 10
6.4403146935
 20
5.0856836215
 30
0.0
 10
6.4396520532
 20
5.0856542571
 30
0.0
 10
6.4393208705
 20
5.0856542571
 30
0.0
  0
SPLINE
  5
419
100
AcDbEntity
  8
0
100
AcDbSpline
 62
7
  6
CONTINUOUS
 70
0
 71
3
 72
17
 73
13
 74
0
 42
0.0000001
 43
0.0000001
 44
0.0000000001
 40
0.0
 40
0.0
 40
0.0
 40
0.0
 40
0.118280945
 40
0.2381693225
 40
0.3599426536
 40
0.4216510828
 40
0.4839209739
 40
0.6101159582
 40
0.7385109397
 40
0.8034664007
 40
0.8687895708
 40
1.0
 40
1.0
 40
1.0
 40
1.0
 10
6.007083252
 20
5.5543306894
 30
0.0
 10
6.0073817797
 20
5.5548465124
 30
0.0
 10
6.0080338398
 20
5.5558567803
 30
0.0
 10
6.0091721711
 20
5.557272891
 30
0.0
 10
6.0102602529
 20
5.5583520095
 30
0.0
 10
6.0112155699
 20
5.5591409557
 30
0.0
 10
6.0122369389
 20
5.559880979
 30
0.0
 10
6.0136207777
 20
5.5606876274
 30
0.0
 10
6.0151181575
 20
5.5612960132
 30
0.0
 10
6.0163741774
 20
5.5616485345
 30
0.0
 10
6.0176671862
 20
5.5619064426
 30
0.0
 10
6.018659743
 20
5.5619853448
 30
0.0
 10
6.0193208705
 20
5.5619853448
 30
0.0
  0
SPLINE
  5
41A
100
AcDbEntity
  8
0
100
AcDbSpline
 62
7
  6
CONTINUOUS
 70
0
 71
3
 72
16
 73
12
 74
0
 42
0.0000001
 43
0.0000001
 44
0.0000000001
 40
0.0
 40
0.0
 40
0.0
 40
0.0
 40
0.1203768083
 40
0.2418515271
 40
0.3646144272
 40
0.4888514966
 40
0.614663712
 40
0.7420043707
 40
0.8062201902
 40
0.870693311
 40
1.0
 40
1.0
 40
1.0
 40
1.0
 10
6.007083252
 20
5.5477415865
 30
0.0
 10
6.0073811939
 20
5.5482803435
 30
0.0
 10
6.0080314982
 20
5.5493352428
 30
0.0
 10
6.0091691584
 20
5.5508170833
 30
0.0
 10
6.0104792363
 20
5.5521777374
 30
0.0
 10
6.0119635389
 20
5.5533828815
 30
0.0
 10
6.0136161338
 20
5.5543918196
 30
0.0
 10
6.0151158306
 20
5.5550301601
 30
0.0
 10
6.0163733903
 20
5.5553996165
 30
0.0
 10
6.0176659966
 20
5.5556695332
 30
0.0
 10
6.0186595469
 20
5.5557522913
 30
0.0
 10
6.0193208705
 20
5.5557522913
 30
0.0
  0
SPLINE
  5
41B
100
AcDbEntity
  8
0
100
AcDbSpline
 62
7
  6
CONTINUOUS
 70
0
 71
3
 72
17
 73
13
 74
0
 42
0.0000001
 43
0.0000001
 44
0.0000000001
 40
0.0
 40
0.0
 40
0.0
 40
0.0
 40
0.1220534115
 40
0.2447998341
 40
0.3683560688
 40
0.4928453274
 40
0.6183343726
 40
0.7447973931
 40
0.8083976209
 40
0.872162887
 40
0.936058948
 40
1.0
 40
1.0
 40
1.0
 40
1.0
 10
6.4515584891
 20
5.0840740229
 30
0.0
 10
6.4512609942
 20
5.0835162585
 30
0.0
 10
6.450612035
 20
5.0824243899
 30
0.0
 10
6.4494750049
 20
5.0808881859
 30
0.0
 10
6.4481655935
 20
5.0794774279
 30
0.0
 10
6.4466818246
 20
5.0782275964
 30
0.0
 10
6.4450294372
 20
5.0771808423
 30
0.0
 10
6.4435278436
 20
5.0765176239
 30
0.0
 10
6.442269111
 20
5.0761340737
 30
0.0
 10
6.4412997588
 20
5.0759242399
 30
0.0
 10
6.4403144855
 20
5.0757967881
 30
0.0
 10
6.4396520359
 20
5.0757682351
 30
0.0
 10
6.4393208705
 20
5.0757682351
 30
0.0
  0
SPLINE
  5
41C
100
AcDbEntity
  8
0
100
AcDbSpline
 62
7
  6
CONTINUOUS
 70
0
 71
3
 72
17
 73
13
 74
0
 42
0.0000001
 43
0.0000001
 44
0.0000000001
 40
0.0
 40
0.0
 40
0.0
 40
0.0
 40
0.1220534117
 40
0.2447998327
 40
0.3683560691
 40
0.4928453271
 40
0.6183343735
 40
0.7447973855
 40
0.8083976076
 40
0.8721628745
 40
0.9360589437
 40
1.0
 40
1.0
 40
1.0
 40
1.0
 10
6.007083252
 20
5.5393561797
 30
0.0
 10
6.0073807469
 20
5.5399139441
 30
0.0
 10
6.008029706
 20
5.5410058127
 30
0.0
 10
6.0091667362
 20
5.5425420167
 30
0.0
 10
6.0104761475
 20
5.5439527747
 30
0.0
 10
6.0119599165
 20
5.5452026062
 30
0.0
 10
6.0136123038
 20
5.5462493602
 30
0.0
 10
6.0151138974
 20
5.5469125787
 30
0.0
 10
6.0163726299
 20
5.5472961289
 30
0.0
 10
6.0173419821
 20
5.5475059627
 30
0.0
 10
6.0183272555
 20
5.5476334145
 30
0.0
 10
6.0189897051
 20
5.5476619675
 30
0.0
 10
6.0193208705
 20
5.5476619675
 30
0.0
  0
SPLINE
  5
41D
100
AcDbEntity
  8
0
100
AcDbSpline
 62
7
  6
CONTINUOUS
 70
0
 71
3
 72
16
 73
12
 74
0
 42
0.0000001
 43
0.0000001
 44
0.0000000001
 40
0.0
 40
0.0
 40
0.0
 40
0.0
 40
0.246863349
 40
0.3710871924
 40
0.4958278634
 40
0.6211222613
 40
0.7469573283
 40
0.8101045999
 40
0.8733441061
 40
0.9366628211
 40
1.0
 40
1.0
 40
1.0
 40
1.0
 10
6.007083252
 20
5.5292382867
 30
0.0
 10
6.0076777689
 20
5.5303840463
 30
0.0
 10
6.0087332685
 20
5.5320328185
 30
0.0
 10
6.0104736857
 20
5.5339607084
 30
0.0
 10
6.0119571326
 20
5.5352458382
 30
0.0
 10
6.0136092872
 20
5.5363222482
 30
0.0
 10
6.015112314
 20
5.537005097
 30
0.0
 10
6.016372084
 20
5.53739975
 30
0.0
 10
6.0173415907
 20
5.5376155196
 30
0.0
 10
6.0183270475
 20
5.5377465811
 30
0.0
 10
6.0189896878
 20
5.5377759455
 30
0.0
 10
6.0193208705
 20
5.5377759455
 30
0.0
  0
SPLINE
  5
41E
100
AcDbEntity
  8
0
100
AcDbSpline
 62
7
  6
CONTINUOUS
 70
0
 71
3
 72
16
 73
12
 74
0
 42
0.0000001
 43
0.0000001
 44
0.0000000001
 40
0.0
 40
0.0
 40
0.0
 40
0.0
 40
0.120376808
 40
0.2418515286
 40
0.3646144269
 40
0.4888514969
 40
0.6146637112
 40
0.7420043784
 40
0.8062202037
 40
0.8706933237
 40
1.0
 40
1.0
 40
1.0
 40
1.0
 10
6.4515584891
 20
5.0756886161
 30
0.0
 10
6.4512605471
 20
5.0751498591
 30
0.0
 10
6.4506102429
 20
5.0740949598
 30
0.0
 10
6.4494725827
 20
5.0726131193
 30
0.0
 10
6.4481625047
 20
5.0712524652
 30
0.0
 10
6.4466782022
 20
5.0700473211
 30
0.0
 10
6.4450256072
 20
5.069038383
 30
0.0
 10
6.4435259104
 20
5.0684000425
 30
0.0
 10
6.4422683506
 20
5.0680305861
 30
0.0
 10
6.4409757444
 20
5.0677606694
 30
0.0
 10
6.4399821941
 20
5.0676779113
 30
0.0
 10
6.4393208705
 20
5.0676779113
 30
0.0
  0
SPLINE
  5
41F
100
AcDbEntity
  8
0
100
AcDbSpline
 62
7
  6
CONTINUOUS
 70
0
 71
3
 72
15
 73
11
 74
0
 42
0.0000001
 43
0.0000001
 44
0.0000000001
 40
0.0
 40
0.0
 40
0.0
 40
0.0
 40
0.1243077328
 40
0.248786024
 40
0.3734515931
 40
0.4983390781
 40
0.6234623316
 40
0.7488155383
 40
0.874351415
 40
1.0
 40
1.0
 40
1.0
 40
1.0
 10
6.007083252
 20
5.517464911
 30
0.0
 10
6.0073801926
 20
5.518048365
 30
0.0
 10
6.0080274608
 20
5.5191901573
 30
0.0
 10
6.0091636458
 20
5.5207997565
 30
0.0
 10
6.0104721463
 20
5.5222781462
 30
0.0
 10
6.0119550587
 20
5.5235882928
 30
0.0
 10
6.0136072861
 20
5.5246861869
 30
0.0
 10
6.0154117143
 20
5.5255225777
 30
0.0
 10
6.017333251
 20
5.5260493165
 30
0.0
 10
6.0186591393
 20
5.526169464
 30
0.0
 10
6.0193208705
 20
5.526169464
 30
0.0
  0
SPLINE
  5
420
100
AcDbEntity
  8
0
100
AcDbSpline
 62
7
  6
CONTINUOUS
 70
0
 71
3
 72
15
 73
11
 74
0
 42
0.0000001
 43
0.0000001
 44
0.0000000001
 40
0.0
 40
0.0
 40
0.0
 40
0.0
 40
0.1248588405
 40
0.2497606719
 40
0.3746968858
 40
0.4996791858
 40
0.6247069368
 40
0.7497779119
 40
0.8748771085
 40
1.0
 40
1.0
 40
1.0
 40
1.0
 10
6.007083252
 20
5.504125655
 30
0.0
 10
6.0073800612
 20
5.5047155939
 30
0.0
 10
6.008026924
 20
5.5058699818
 30
0.0
 10
6.0091628992
 20
5.5074980941
 30
0.0
 10
6.0104711631
 20
5.5089935391
 30
0.0
 10
6.0119538593
 20
5.5103188994
 30
0.0
 10
6.0136059807
 20
5.5114296894
 30
0.0
 10
6.0154105461
 20
5.5122760686
 30
0.0
 10
6.0173325302
 20
5.5128092136
 30
0.0
 10
6.0186590774
 20
5.5129308553
 30
0.0
 10
6.0193208705
 20
5.5129308553
 30
0.0
  0
SPLINE
  5
421
100
AcDbEntity
  8
0
100
AcDbSpline
 62
7
  6
CONTINUOUS
 70
0
 71
3
 72
17
 73
13
 74
0
 42
0.0000001
 43
0.0000001
 44
0.0000000001
 40
0.0
 40
0.0
 40
0.0
 40
0.0
 40
0.1182809448
 40
0.238169324
 40
0.3599426533
 40
0.4216510826
 40
0.4839209742
 40
0.6101159573
 40
0.7385109475
 40
0.8034664144
 40
0.8687895837
 40
1.0
 40
1.0
 40
1.0
 40
1.0
 10
6.4515584891
 20
5.0690995132
 30
0.0
 10
6.4512599614
 20
5.0685836902
 30
0.0
 10
6.4506079013
 20
5.0675734223
 30
0.0
 10
6.44946957
 20
5.0661573116
 30
0.0
 10
6.4483814881
 20
5.0650781931
 30
0.0
 10
6.4474261711
 20
5.0642892469
 30
0.0
 10
6.4464048021
 20
5.0635492236
 30
0.0
 10
6.4450209633
 20
5.0627425752
 30
0.0
 10
6.4435235834
 20
5.0621341894
 30
0.0
 10
6.4422675635
 20
5.061781668
 30
0.0
 10
6.4409745547
 20
5.06152376
 30
0.0
 10
6.439981998
 20
5.0614448578
 30
0.0
 10
6.4393208705
 20
5.0614448578
 30
0.0
  0
SPLINE
  5
422
100
AcDbEntity
  8
0
100
AcDbSpline
 62
7
  6
CONTINUOUS
 70
0
 71
3
 72
15
 73
11
 74
0
 42
0.0000001
 43
0.0000001
 44
0.0000000001
 40
0.0
 40
0.0
 40
0.0
 40
0.0
 40
0.1250420211
 40
0.250084785
 40
0.3751112189
 40
0.5001253167
 40
0.6251215063
 40
0.7500986303
 40
0.8750523606
 40
1.0
 40
1.0
 40
1.0
 40
1.0
 10
6.007083252
 20
5.4893220385
 30
0.0
 10
6.0073800179
 20
5.4899141446
 30
0.0
 10
6.0080267472
 20
5.4910727413
 30
0.0
 10
6.0091626526
 20
5.4927070395
 30
0.0
 10
6.0104708372
 20
5.4942081827
 30
0.0
 10
6.0119534601
 20
5.495538626
 30
0.0
 10
6.0136055443
 20
5.4966537252
 30
0.0
 10
6.015410154
 20
5.4975034435
 30
0.0
 10
6.0173322876
 20
5.4980387314
 30
0.0
 10
6.0186590566
 20
5.4981608732
 30
0.0
 10
6.0193208705
 20
5.4981608732
 30
0.0
  0
SPLINE
  5
423
100
AcDbEntity
  8
0
100
AcDbSpline
 62
7
  6
CONTINUOUS
 70
0
 71
3
 72
15
 73
11
 74
0
 42
0.0000001
 43
0.0000001
 44
0.0000000001
 40
0.0
 40
0.0
 40
0.0
 40
0.0
 40
0.1248588405
 40
0.2497606719
 40
0.3746968858
 40
0.4996791858
 40
0.6247069368
 40
0.7497779119
 40
0.8748771085
 40
1.0
 40
1.0
 40
1.0
 40
1.0
 10
6.007083252
 20
5.4731667259
 30
0.0
 10
6.0073800612
 20
5.4737566648
 30
0.0
 10
6.008026924
 20
5.4749110527
 30
0.0
 10
6.0091628992
 20
5.4765391651
 30
0.0
 10
6.0104711631
 20
5.47803461
 30
0.0
 10
6.0119538593
 20
5.4793599704
 30
0.0
 10
6.0136059807
 20
5.4804707603
 30
0.0
 10
6.0154105461
 20
5.4813171395
 30
0.0
 10
6.0173325302
 20
5.4818502846
 30
0.0
 10
6.0186590774
 20
5.4819719263
 30
0.0
 10
6.0193208705
 20
5.4819719263
 30
0.0
  0
SPLINE
  5
424
100
AcDbEntity
  8
0
100
AcDbSpline
 62
7
  6
CONTINUOUS
 70
0
 71
3
 72
14
 73
10
 74
0
 42
0.0000001
 43
0.0000001
 44
0.0000000001
 40
0.0
 40
0.0
 40
0.0
 40
0.0
 40
0.3170522687
 40
0.4637288689
 40
0.5983321188
 40
0.7194272076
 40
0.8265668939
 40
0.9199261171
 40
1.0
 40
1.0
 40
1.0
 40
1.0
 10
6.0193208705
 20
5.4723963707
 30
0.0
 10
6.0180237158
 20
5.4723963707
 30
0.0
 10
6.016126242
 20
5.472425357
 30
0.0
 10
6.0136801958
 20
5.4725241032
 30
0.0
 10
6.0120366204
 20
5.4726193377
 30
0.0
 10
6.0105564333
 20
5.4727333808
 30
0.0
 10
6.0092469156
 20
5.4728623719
 30
0.0
 10
6.0081075346
 20
5.4730029953
 30
0.0
 10
6.0074060144
 20
5.4731105999
 30
0.0
 10
6.007083252
 20
5.4731667259
 30
0.0
  0
SPLINE
  5
425
100
AcDbEntity
  8
0
100
AcDbSpline
 62
7
  6
CONTINUOUS
 70
0
 71
3
 72
15
 73
11
 74
0
 42
0.0000001
 43
0.0000001
 44
0.0000000001
 40
0.0
 40
0.0
 40
0.0
 40
0.0
 40
0.1243077328
 40
0.248786024
 40
0.3734515931
 40
0.4983390781
 40
0.6234623316
 40
0.7488155383
 40
0.874351415
 40
1.0
 40
1.0
 40
1.0
 40
1.0
 10
6.007083252
 20
5.455782669
 30
0.0
 10
6.0073801926
 20
5.456366123
 30
0.0
 10
6.0080274608
 20
5.4575079153
 30
0.0
 10
6.0091636458
 20
5.4591175145
 30
0.0
 10
6.0104721463
 20
5.4605959043
 30
0.0
 10
6.0119550587
 20
5.4619060508
 30
0.0
 10
6.0136072861
 20
5.4630039449
 30
0.0
 10
6.0154117143
 20
5.4638403357
 30
0.0
 10
6.017333251
 20
5.4643670745
 30
0.0
 10
6.0186591393
 20
5.464487222
 30
0.0
 10
6.0193208705
 20
5.464487222
 30
0.0
  0
SPLINE
  5
426
100
AcDbEntity
  8
0
100
AcDbSpline
 62
7
  6
CONTINUOUS
 70
0
 71
3
 72
15
 73
11
 74
0
 42
0.0000001
 43
0.0000001
 44
0.0000000001
 40
0.0
 40
0.0
 40
0.0
 40
0.0
 40
0.1597207202
 40
0.3144774913
 40
0.4602475845
 40
0.5943642238
 40
0.7154835143
 40
0.8232365785
 40
0.9178783424
 40
1.0
 40
1.0
 40
1.0
 40
1.0
 10
6.0193208705
 20
5.4542478215
 30
0.0
 10
6.0186617236
 20
5.4542478215
 30
0.0
 10
6.017363818
 20
5.4542682529
 30
0.0
 10
6.0154662677
 20
5.4543585403
 30
0.0
 10
6.0136779962
 20
5.4545025421
 30
0.0
 10
6.0120336687
 20
5.4546924405
 30
0.0
 10
6.010552649
 20
5.4549199228
 30
0.0
 10
6.0092421346
 20
5.4551773127
 30
0.0
 10
6.0081015588
 20
5.4554580539
 30
0.0
 10
6.0074034825
 20
5.4556717213
 30
0.0
 10
6.007083252
 20
5.455782669
 30
0.0
  0
SPLINE
  5
427
100
AcDbEntity
  8
0
100
AcDbSpline
 62
7
  6
CONTINUOUS
 70
0
 71
3
 72
16
 73
12
 74
0
 42
0.0000001
 43
0.0000001
 44
0.0000000001
 40
0.0
 40
0.0
 40
0.0
 40
0.0
 40
0.246863349
 40
0.3710871924
 40
0.4958278634
 40
0.6211222613
 40
0.7469573283
 40
0.8101045999
 40
0.8733441061
 40
0.9366628211
 40
1.0
 40
1.0
 40
1.0
 40
1.0
 10
6.007083252
 20
5.437302171
 30
0.0
 10
6.0076777689
 20
5.4384479305
 30
0.0
 10
6.0087332685
 20
5.4400967027
 30
0.0
 10
6.0104736857
 20
5.4420245927
 30
0.0
 10
6.0119571326
 20
5.4433097225
 30
0.0
 10
6.0136092872
 20
5.4443861324
 30
0.0
 10
6.015112314
 20
5.4450689812
 30
0.0
 10
6.016372084
 20
5.4454636342
 30
0.0
 10
6.0173415907
 20
5.4456794039
 30
0.0
 10
6.0183270475
 20
5.4458104654
 30
0.0
 10
6.0189896878
 20
5.4458398297
 30
0.0
 10
6.0193208705
 20
5.4458398297
 30
0.0
  0
SPLINE
  5
428
100
AcDbEntity
  8
0
100
AcDbSpline
 62
7
  6
CONTINUOUS
 70
0
 71
3
 72
15
 73
11
 74
0
 42
0.0000001
 43
0.0000001
 44
0.0000000001
 40
0.0
 40
0.0
 40
0.0
 40
0.0
 40
0.157586033
 40
0.3104651082
 40
0.4548394975
 40
0.5882214105
 40
0.7094043315
 40
0.818131212
 40
0.9147617171
 40
1.0
 40
1.0
 40
1.0
 40
1.0
 10
6.0193208705
 20
5.4350145122
 30
0.0
 10
6.0186616221
 20
5.4350145122
 30
0.0
 10
6.0173626006
 20
5.4350450083
 30
0.0
 10
6.0154638948
 20
5.4351797484
 30
0.0
 10
6.0136744737
 20
5.4353946642
 30
0.0
 10
6.0120290063
 20
5.4356781193
 30
0.0
 10
6.0105468055
 20
5.4360177547
 30
0.0
 10
6.0092349932
 20
5.4364022095
 30
0.0
 10
6.0080930051
 20
5.4368217729
 30
0.0
 10
6.0074000887
 20
5.4371385582
 30
0.0
 10
6.007083252
 20
5.437302171
 30
0.0
  0
SPLINE
  5
429
100
AcDbEntity
  8
0
100
AcDbSpline
 62
7
  6
CONTINUOUS
 70
0
 71
3
 72
17
 73
13
 74
0
 42
0.0000001
 43
0.0000001
 44
0.0000000001
 40
0.0
 40
0.0
 40
0.0
 40
0.0
 40
0.1220534117
 40
0.2447998327
 40
0.3683560691
 40
0.4928453271
 40
0.6183343735
 40
0.7447973855
 40
0.8083976076
 40
0.8721628745
 40
0.9360589437
 40
1.0
 40
1.0
 40
1.0
 40
1.0
 10
6.007083252
 20
5.4178658795
 30
0.0
 10
6.0073807469
 20
5.4184236439
 30
0.0
 10
6.008029706
 20
5.4195155125
 30
0.0
 10
6.0091667362
 20
5.4210517165
 30
0.0
 10
6.0104761475
 20
5.4224624745
 30
0.0
 10
6.0119599165
 20
5.423712306
 30
0.0
 10
6.0136123038
 20
5.42475906
 30
0.0
 10
6.0151138974
 20
5.4254222785
 30
0.0
 10
6.0163726299
 20
5.4258058287
 30
0.0
 10
6.0173419821
 20
5.4260156625
 30
0.0
 10
6.0183272555
 20
5.4261431143
 30
0.0
 10
6.0189897051
 20
5.4261716673
 30
0.0
 10
6.0193208705
 20
5.4261716673
 30
0.0
  0
SPLINE
  5
42A
100
AcDbEntity
  8
0
100
AcDbSpline
 62
7
  6
CONTINUOUS
 70
0
 71
3
 72
15
 73
11
 74
0
 42
0.0000001
 43
0.0000001
 44
0.0000000001
 40
0.0
 40
0.0
 40
0.0
 40
0.0
 40
0.1548743212
 40
0.3053764175
 40
0.4479995909
 40
0.580483121
 40
0.7017871801
 40
0.8117788739
 40
0.9109186244
 40
1.0
 40
1.0
 40
1.0
 40
1.0
 10
6.0193208705
 20
5.4148428199
 30
0.0
 10
6.0186614844
 20
5.4148428199
 30
0.0
 10
6.0173609507
 20
5.4148831977
 30
0.0
 10
6.0154607074
 20
5.415061551
 30
0.0
 10
6.0136698125
 20
5.4153460471
 30
0.0
 10
6.0120229758
 20
5.4157213151
 30
0.0
 10
6.0105394811
 20
5.4161710456
 30
0.0
 10
6.0092264304
 20
5.4166802839
 30
0.0
 10
6.0080833155
 20
5.4172362271
 30
0.0
 10
6.00739653
 20
5.4176520995
 30
0.0
 10
6.007083252
 20
5.4178658795
 30
0.0
  0
SPLINE
  5
42B
100
AcDbEntity
  8
0
100
AcDbSpline
 62
7
  6
CONTINUOUS
 70
0
 71
3
 72
16
 73
12
 74
0
 42
0.0000001
 43
0.0000001
 44
0.0000000001
 40
0.0
 40
0.0
 40
0.0
 40
0.0
 40
0.1203768083
 40
0.2418515271
 40
0.3646144272
 40
0.4888514966
 40
0.614663712
 40
0.7420043707
 40
0.8062201902
 40
0.870693311
 40
1.0
 40
1.0
 40
1.0
 40
1.0
 10
6.007083252
 20
5.3976217164
 30
0.0
 10
6.0073811939
 20
5.3981604734
 30
0.0
 10
6.0080314982
 20
5.3992153727
 30
0.0
 10
6.0091691584
 20
5.4006972131
 30
0.0
 10
6.0104792363
 20
5.4020578672
 30
0.0
 10
6.0119635389
 20
5.4032630114
 30
0.0
 10
6.0136161338
 20
5.4042719495
 30
0.0
 10
6.0151158306
 20
5.4049102899
 30
0.0
 10
6.0163733903
 20
5.4052797464
 30
0.0
 10
6.0176659966
 20
5.4055496631
 30
0.0
 10
6.0186595469
 20
5.4056324212
 30
0.0
 10
6.0193208705
 20
5.4056324212
 30
0.0
  0
SPLINE
  5
42C
100
AcDbEntity
  8
0
100
AcDbSpline
 62
7
  6
CONTINUOUS
 70
0
 71
3
 72
15
 73
11
 74
0
 42
0.0000001
 43
0.0000001
 44
0.0000000001
 40
0.0
 40
0.0
 40
0.0
 40
0.0
 40
0.1517840122
 40
0.2995887463
 40
0.4402459937
 40
0.5717524913
 40
0.6932465439
 40
0.8047122301
 40
0.906684696
 40
1.0
 40
1.0
 40
1.0
 40
1.0
 10
6.0193208705
 20
5.3938862634
 30
0.0
 10
6.0186613147
 20
5.3938862634
 30
0.0
 10
6.0173589207
 20
5.3939362757
 30
0.0
 10
6.0154568293
 20
5.3941571082
 30
0.0
 10
6.0136642489
 20
5.3945093646
 30
0.0
 10
6.0120159779
 20
5.3949740257
 30
0.0
 10
6.0105312999
 20
5.3955309221
 30
0.0
 10
6.009217341
 20
5.396161567
 30
0.0
 10
6.0080736661
 20
5.3968500974
 30
0.0
 10
6.0073932464
 20
5.3973603272
 30
0.0
 10
6.007083252
 20
5.3976217164
 30
0.0
  0
SPLINE
  5
42D
100
AcDbEntity
  8
0
100
AcDbSpline
 62
7
  6
CONTINUOUS
 70
0
 71
3
 72
17
 73
13
 74
0
 42
0.0000001
 43
0.0000001
 44
0.0000000001
 40
0.0
 40
0.0
 40
0.0
 40
0.0
 40
0.118280945
 40
0.2381693225
 40
0.3599426536
 40
0.4216510828
 40
0.4839209739
 40
0.6101159582
 40
0.7385109397
 40
0.8034664007
 40
0.8687895708
 40
1.0
 40
1.0
 40
1.0
 40
1.0
 10
6.007083252
 20
5.3767237522
 30
0.0
 10
6.0073817797
 20
5.3772395752
 30
0.0
 10
6.0080338398
 20
5.3782498431
 30
0.0
 10
6.0091721711
 20
5.3796659538
 30
0.0
 10
6.0102602529
 20
5.3807450723
 30
0.0
 10
6.0112155699
 20
5.3815340185
 30
0.0
 10
6.0122369389
 20
5.3822740418
 30
0.0
 10
6.0136207777
 20
5.3830806902
 30
0.0
 10
6.0151181575
 20
5.383689076
 30
0.0
 10
6.0163741774
 20
5.3840415974
 30
0.0
 10
6.0176671862
 20
5.3842995054
 30
0.0
 10
6.018659743
 20
5.3843784076
 30
0.0
 10
6.0193208705
 20
5.3843784076
 30
0.0
  0
SPLINE
  5
42E
100
AcDbEntity
  8
0
100
AcDbSpline
 62
7
  6
CONTINUOUS
 70
0
 71
3
 72
14
 73
10
 74
0
 42
0.0000001
 43
0.0000001
 44
0.0000000001
 40
0.0
 40
0.0
 40
0.0
 40
0.0
 40
0.1485417377
 40
0.2935346243
 40
0.4321770774
 40
0.5627362542
 40
0.6845244049
 40
0.7976215497
 40
1.0
 40
1.0
 40
1.0
 40
1.0
 10
6.0193208705
 20
5.3723043348
 30
0.0
 10
6.0186611181
 20
5.3723043348
 30
0.0
 10
6.0173565727
 20
5.3723636696
 30
0.0
 10
6.0154524124
 20
5.3726255371
 30
0.0
 10
6.0136580245
 20
5.3730432465
 30
0.0
 10
6.0120084889
 20
5.3735940938
 30
0.0
 10
6.0105226027
 20
5.3742545392
 30
0.0
 10
6.0088327807
 20
5.375215269
 30
0.0
 10
6.0077196127
 20
5.3760889201
 30
0.0
 10
6.007083252
 20
5.3767237522
 30
0.0
  0
SPLINE
  5
42F
100
AcDbEntity
  8
0
100
AcDbSpline
 62
7
  6
CONTINUOUS
 70
0
 71
3
 72
15
 73
11
 74
0
 42
0.0000001
 43
0.0000001
 44
0.0000000001
 40
0.0
 40
0.0
 40
0.0
 40
0.0
 40
0.1158047571
 40
0.2338400796
 40
0.3544821571
 40
0.4780660774
 40
0.6047596049
 40
0.7344367672
 40
0.8665280222
 40
1.0
 40
1.0
 40
1.0
 40
1.0
 10
6.007083252
 20
5.3553310329
 30
0.0
 10
6.0073825317
 20
5.3558201662
 30
0.0
 10
6.0080367567
 20
5.3567783954
 30
0.0
 10
6.0091760627
 20
5.3581180816
 30
0.0
 10
6.0104877628
 20
5.3593476939
 30
0.0
 10
6.0119731841
 20
5.3604360098
 30
0.0
 10
6.0136260509
 20
5.3613462831
 30
0.0
 10
6.0154277815
 20
5.3620380329
 30
0.0
 10
6.0173428586
 20
5.3624725842
 30
0.0
 10
6.01865996
 20
5.3625713824
 30
0.0
 10
6.0193208705
 20
5.3625713824
 30
0.0
  0
SPLINE
  5
430
100
AcDbEntity
  8
0
100
AcDbSpline
 62
7
  6
CONTINUOUS
 70
0
 71
3
 72
14
 73
10
 74
0
 42
0.0000001
 43
0.0000001
 44
0.0000000001
 40
0.0
 40
0.0
 40
0.0
 40
0.0
 40
0.2869692697
 40
0.4235826888
 40
0.5532133544
 40
0.6753323858
 40
0.7900876646
 40
0.8980519554
 40
1.0
 40
1.0
 40
1.0
 40
1.0
 10
6.0193208705
 20
5.3502612855
 30
0.0
 10
6.0180167997
 20
5.3502612855
 30
0.0
 10
6.0160833412
 20
5.3504605446
 30
0.0
 10
6.0136516865
 20
5.3511109658
 30
0.0
 10
6.0120006259
 20
5.3517443059
 30
0.0
 10
6.0105145407
 20
5.3525030234
 30
0.0
 10
6.0092001245
 20
5.3533618343
 30
0.0
 10
6.008057013
 20
5.3542989433
 30
0.0
 10
6.0073880921
 20
5.3549821747
 30
0.0
 10
6.007083252
 20
5.3553310329
 30
0.0
  0
SPLINE
  5
431
100
AcDbEntity
  8
0
100
AcDbSpline
 62
7
  6
CONTINUOUS
 70
0
 71
3
 72
15
 73
11
 74
0
 42
0.0000001
 43
0.0000001
 44
0.0000000001
 40
0.0
 40
0.0
 40
0.0
 40
0.0
 40
0.1158047568
 40
0.233840081
 40
0.3544821568
 40
0.4780660777
 40
0.6047596041
 40
0.7344367751
 40
0.8665280352
 40
1.0
 40
1.0
 40
1.0
 40
1.0
 10
6.4515584891
 20
5.0643568616
 30
0.0
 10
6.4512592094
 20
5.0638677282
 30
0.0
 10
6.4506049844
 20
5.0629094991
 30
0.0
 10
6.4494656783
 20
5.0615698128
 30
0.0
 10
6.4481539783
 20
5.0603402006
 30
0.0
 10
6.4466685569
 20
5.0592518847
 30
0.0
 10
6.4450156901
 20
5.0583416113
 30
0.0
 10
6.4432139595
 20
5.0576498615
 30
0.0
 10
6.4412988824
 20
5.0572153103
 30
0.0
 10
6.439981781
 20
5.057116512
 30
0.0
 10
6.4393208705
 20
5.057116512
 30
0.0
  0
SPLINE
  5
432
100
AcDbEntity
  8
0
100
AcDbSpline
 62
7
  6
CONTINUOUS
 70
0
 71
3
 72
17
 73
13
 74
0
 42
0.0000001
 43
0.0000001
 44
0.0000000001
 40
0.0
 40
0.0
 40
0.0
 40
0.0
 40
0.1128863441
 40
0.2287479801
 40
0.3480671152
 40
0.409187646
 40
0.471313569
 40
0.5985633356
 40
0.7296820667
 40
0.7965202343
 40
0.8639946017
 40
1.0
 40
1.0
 40
1.0
 40
1.0
 10
6.4515584891
 20
5.0614967554
 30
0.0
 10
6.4512582545
 20
5.0610378744
 30
0.0
 10
6.4506013081
 20
5.0601386989
 30
0.0
 10
6.4494611058
 20
5.0588858669
 30
0.0
 10
6.4483756238
 20
5.0579352042
 30
0.0
 10
6.447423483
 20
5.057239984
 30
0.0
 10
6.4463982725
 20
5.0565832584
 30
0.0
 10
6.4450098701
 20
5.0558689538
 30
0.0
 10
6.4435180853
 20
5.0553340897
 30
0.0
 10
6.4422657375
 20
5.0550233549
 30
0.0
 10
6.4409718177
 20
5.0547952465
 30
0.0
 10
6.4399815496
 20
5.0547258152
 30
0.0
 10
6.4393208705
 20
5.0547258152
 30
0.0
  0
ENDSEC
  0
SECTION
  2
OBJECTS
  0
DICTIONARY
  5
C
100
AcDbDictionary
280
0
281
1
  3
ACAD_GROUP
350
D
  3
ACAD_MLINESTYLE
350
17
  3
ACAD_LAYOUT
350
1A
  3
ACAD_PLOTSETTINGS
350
19
  3
ACAD_PLOTSTYLENAME
350
E
  0
DICTIONARY
  5
D
102
{ACAD_REACTORS
330
C
102
}
100
AcDbDictionary
280
0
281
1
  0
ACDBDICTIONARYWDFLT
  5
E
102
{ACAD_REACTORS
330
C
102
}
100
AcDbDictionary
281
1
  3
Normal
350
F
100
AcDbDictionaryWithDefault
340
F
  0
DICTIONARY
  5
17
102
{ACAD_REACTORS
330
C
102
}
100
AcDbDictionary
280
0
281
1
  3
Standard
350
18
  0
DICTIONARY
  5
19
102
{ACAD_REACTORS
330
C
102
}
100
AcDbDictionary
281
1
  0
DICTIONARY
  5
1A
102
{ACAD_REACTORS
330
C
102
}
100
AcDbDictionary
281
1
  3
Model
350
433
  3
Layout1
350
434
  0
ACDBPLACEHOLDER
  5
F
102
{ACAD_REACTORS
330
E
102
}
  0
MLINESTYLE
  5
18
102
{ACAD_REACTORS
330
17
102
}
100
AcDbMlineStyle
  2
STANDARD
 70
0
  3

 62
256
 51
90.0
 52
90.0
 71
2
 49
0.5
 62
256
  6
BYLAYER
 49
-0.5
 62
256
  6
BYLAYER
  0
LAYOUT
  5
433
102
{ACAD_REACTORS
330
1A
102
}
100
AcDbPlotSettings
  1

  2
none_device
  4
ANSI_A_(11.00_x_8.50_Inches)
  6

 40
0.0
 41
0.0
 42
0.0
 43
0.0
 44
279.4
 45
215.9
 46
0.0
 47
0.0
 48
0.0
 49
0.0
140
0.0
141
0.0
142
1.0
143
1.0
 70
1024
 72
0
 73
0
 74
0
  7

 75
0
147
1.0
148
0.0
149
0.0
100
AcDbLayout
  1
Model
 70
0
 71
0
 10
0.0
 20
0.0
 11
11.0
 21
8.5
 12
0.0
 22
0.0
 32
0.0
 14
0.0
 24
0.0
 34
0.0
 15
0.0
 25
0.0
 35
0.0
146
0.0
 13
0.0
 23
0.0
 33
0.0
 16
1.0
 26
0.0
 36
0.0
 17
0.0
 27
1.0
 37
0.0
 76
0
330
203
345
0
346
0
  0
LAYOUT
  5
434
102
{ACAD_REACTORS
330
1A
102
}
100
AcDbPlotSettings
  1

  2
none_device
  4
ANSI_A_(11.00_x_8.50_Inches)
  6

 40
0.0
 41
0.0
 42
0.0
 43
0.0
 44
279.4
 45
215.9
 46
0.0
 47
0.0
 48
0.0
 49
0.0
140
0.0
141
0.0
142
1.0
143
1.0
 70
0
 72
0
 73
0
 74
0
  7

 75
0
147
1.0
148
0.0
149
0.0
100
AcDbLayout
  1
Layout1
 70
0
 71
1
 10
0.0
 20
0.0
 11
11.0
 21
8.5
 12
0.0
 22
0.0
 32
0.0
 14
0.0
 24
0.0
 34
0.0
 15
0.0
 25
0.0
 35
0.0
146
0.0
 13
0.0
 23
0.0
 33
0.0
 16
1.0
 26
0.0
 36
0.0
 17
0.0
 27
1.0
 37
0.0
 76
0
330
204
345
0
346
0
  0
ENDSEC
  0
EOF
