999
DXF file: 3230c_RIGHT.dxf
999
Pro/ENGINEER 2023134 by Parametric Technology Corporation
  0
SECTION
  2
HEADER
  9
$ACADVER
  1
AC1032
  9
$DWGCODEPAGE
  3
ANSI_1252
  9
$EXTMAX
 10
11.0
 20
8.5
 30
0.0
  9
$EXTMIN
 10
0.0
 20
0.0
 30
0.0
  9
$LIMMIN
 10
0.0
 20
0.0
  9
$LIMMAX
 10
11.0
 20
8.5
  9
$VIEWCTR
 10
5.5
 20
4.25
  9
$VIEWSIZE
 40
8.5
  9
$CLAYER
  8
0
  9
$LTSCALE
 40
0.605
  9
$CELTYPE
  6
BYLAYER
  9
$DIMSCALE
 40
1.0
  9
$DIMASZ
 40
0.1
  9
$DIMEXO
 40
0.0625
  9
$DIMDLI
 40
0.418
  9
$DIMEXE
 40
0.125
  9
$DIMCEN
 40
0.099
  9
$DIMLFAC
 40
1.0
  9
$DIMBLK
  1
_FILLED
  9
$DIMALT
 70
1
  9
$DIMALTD
 70
2
  9
$DIMALTTD
 70
2
  9
$DIMALTF
 40
25.4
  9
$DIMTXT
 40
0.08
  9
$DIMTOL
 70
1
  9
$DIMLIM
 70
0
  9
$DIMTFAC
 40
1.0
  9
$DIMTP
 40
0.001
  9
$DIMTM
 40
0.001
  9
$DIMGAP
 40
0.09
  9
$DIMDSEP
 70
46
  9
$AUNITS
 70
0
  9
$PDMODE
 70
3
  9
$PDSIZE
 40
0.3125
  9
$HANDSEED
  5
4E2
  9
$TILEMODE
 70
1
  9
$MEASUREMENT
 70
0
  9
$INSUNITS
 70
1
  0
ENDSEC
  0
SECTION
  2
CLASSES
  0
CLASS
  1
ACDBDICTIONARYWDFLT
  2
AcDbDictionaryWithDefault
  3
AutoCAD 2000
 90
0
 91
1
280
0
281
0
  0
CLASS
  1
ACDBPLACEHOLDER
  2
AcDbPlaceHolder
  3
AutoCAD 2000
 90
0
 91
1
280
0
281
0
  0
CLASS
  1
LAYOUT
  2
AcDbLayout
  3
AutoCAD 2000
 90
0
 91
0
280
0
281
0
  0
ENDSEC
  0
SECTION
  2
TABLES
  0
TABLE
  2
VPORT
  5
8
100
AcDbSymbolTable
 70
2
  0
VPORT
  5
1F4
100
AcDbSymbolTableRecord
100
AcDbViewportTableRecord
  2
*ACTIVE
 70
0
 10
0.0
 20
0.0
 11
1.0
 21
1.0
 12
5.5
 22
4.25
 13
0.0
 23
0.0
 14
1.0
 24
1.0
 15
0.0
 25
0.0
 16
0.0
 26
0.0
 36
1.0
 17
0.0
 27
0.0
 37
0.0
 40
8.5
 41
1.2941176471
 42
50.0
 43
0.0
 44
0.0
 50
0.0
 51
0.0
 71
0
 72
100
 73
1
 74
1
 75
0
 76
0
 77
0
 78
0
  0
ENDTAB
  0
TABLE
  2
LTYPE
  5
5
100
AcDbSymbolTable
 70
6
  0
LTYPE
  5
14
100
AcDbSymbolTableRecord
100
AcDbLinetypeTableRecord
  2
BYBLOCK
 70
0
  3

 72
65
 73
0
 40
0.0
  0
LTYPE
  5
15
100
AcDbSymbolTableRecord
100
AcDbLinetypeTableRecord
  2
BYLAYER
 70
0
  3

 72
65
 73
0
 40
0.0
  0
LTYPE
  5
16
100
AcDbSymbolTableRecord
100
AcDbLinetypeTableRecord
  2
CONTINUOUS
 70
64
  3
Solid line
 72
65
 73
0
 40
0.0
  0
LTYPE
  5
1F5
100
AcDbSymbolTableRecord
100
AcDbLinetypeTableRecord
  2
CENTER
 70
64
  3
____ _ ____ _ ____ _ ____ _ ____ _ ____ _ ____
 72
65
 73
4
 40
0.6
 49
0.375
 74
0
 49
-0.075
 74
0
 49
0.075
 74
0
 49
-0.075
 74
0
  0
LTYPE
  5
1F6
100
AcDbSymbolTableRecord
100
AcDbLinetypeTableRecord
  2
HIDDEN
 70
64
  3
- - - - - - - - - - - - - - - - - - - -
 72
65
 73
2
 40
0.2
 49
0.1
 74
0
 49
-0.1
 74
0
  0
LTYPE
  5
1F7
100
AcDbSymbolTableRecord
100
AcDbLinetypeTableRecord
  2
PHANTOM
 70
64
  3
_____ _ _ _____ _ _ _____ _ _ _____
 72
65
 73
6
 40
0.8
 49
0.45
 74
0
 49
-0.05
 74
0
 49
0.1
 74
0
 49
-0.05
 74
0
 49
0.1
 74
0
 49
-0.05
 74
0
  0
LTYPE
  5
1F8
100
AcDbSymbolTableRecord
100
AcDbLinetypeTableRecord
  2
DOT
 70
64
  3
. . . . . . . . . . . . . . . . . . . .
 72
65
 73
2
 40
0.2
 49
0.1
 74
0
 49
-0.1
 74
0
  0
LTYPE
  5
1F9
100
AcDbSymbolTableRecord
100
AcDbLinetypeTableRecord
  2
DASHED
 70
64
  3
- - - - - - - - - - - - - - - - - - - -
 72
65
 73
2
 40
0.2
 49
0.1
 74
0
 49
-0.1
 74
0
  0
ENDTAB
  0
TABLE
  2
LAYER
  5
2
100
AcDbSymbolTable
 70
36
  0
LAYER
  5
10
100
AcDbSymbolTableRecord
100
AcDbLayerTableRecord
  2
0
 70
0
 62
7
  6
CONTINUOUS
370
-3
390
F
  0
LAYER
  5
1FA
100
AcDbSymbolTableRecord
100
AcDbLayerTableRecord
  2
DEFAULT_1
 70
0
 62
7
  6
CENTER
370
-3
390
F
  0
LAYER
  5
1FB
100
AcDbSymbolTableRecord
100
AcDbLayerTableRecord
  2
DEFAULT_2
 70
0
 62
8
  6
HIDDEN
370
-3
390
F
  0
LAYER
  5
1FC
100
AcDbSymbolTableRecord
100
AcDbLayerTableRecord
  2
DEFAULT_3
 70
0
 62
7
  6
PHANTOM
370
-3
390
F
  0
LAYER
  5
1FD
100
AcDbSymbolTableRecord
100
AcDbLayerTableRecord
  2
DEFAULT_COORDINATE_SYSTEM
 70
0
 62
7
  6
CONTINUOUS
370
-3
390
F
  0
LAYER
  5
1FE
100
AcDbSymbolTableRecord
100
AcDbLayerTableRecord
  2
DEFAULT_DATUM_AXES
 70
0
 62
7
  6
CONTINUOUS
370
-3
390
F
  0
LAYER
  5
1FF
100
AcDbSymbolTableRecord
100
AcDbLayerTableRecord
  2
DEFAULT_DATUM_CURVES
 70
0
 62
7
  6
CONTINUOUS
370
-3
390
F
  0
LAYER
  5
200
100
AcDbSymbolTableRecord
100
AcDbLayerTableRecord
  2
DEFAULT_DATUM_PLANES
 70
0
 62
7
  6
CONTINUOUS
370
-3
390
F
  0
ENDTAB
  0
TABLE
  2
STYLE
  5
3
100
AcDbSymbolTable
 70
1
  0
STYLE
  5
11
100
AcDbSymbolTableRecord
100
AcDbTextStyleTableRecord
  2
STANDARD
 70
0
 40
0.0
 41
0.8
 50
0.0
 71
0
 42
0.2
  3
txt
  4

  0
STYLE
  5
201
100
AcDbSymbolTableRecord
100
AcDbTextStyleTableRecord
  2
TEXTSTYLE_1
 70
0
 40
0.0
 41
0.8
 50
0.0
 71
0
 42
0.2
  3
gdt
  4

  0
ENDTAB
  0
TABLE
  2
VIEW
  5
6
100
AcDbSymbolTable
 70
0
  0
ENDTAB
  0
TABLE
  2
UCS
  5
7
100
AcDbSymbolTable
 70
0
  0
ENDTAB
  0
TABLE
  2
APPID
  5
9
100
AcDbSymbolTable
 70
1
  0
APPID
  5
202
100
AcDbSymbolTableRecord
100
AcDbRegAppTableRecord
  2
ACAD
 70
0
  0
ENDTAB
  0
TABLE
  2
BLOCK_RECORD
  5
1
100
AcDbSymbolTable
 70
0
  0
BLOCK_RECORD
  5
203
100
AcDbSymbolTableRecord
100
AcDbBlockTableRecord
  2
*Model_Space
  0
BLOCK_RECORD
  5
204
100
AcDbSymbolTableRecord
100
AcDbBlockTableRecord
  2
*Paper_Space
  0
BLOCK_RECORD
  5
205
100
AcDbSymbolTableRecord
100
AcDbBlockTableRecord
  2
_FILLED
  0
ENDTAB
  0
TABLE
  2
DIMSTYLE
  5
A
100
AcDbSymbolTable
 70
1
100
AcDbDimStyleTable
 71
0
  0
DIMSTYLE
105
206
100
AcDbSymbolTableRecord
100
AcDbDimStyleTableRecord
  2
STANDARD
 70
0
  3

  4

 40
1.0
 41
0.1
 42
0.0625
 43
0.38
 44
0.125
 45
0.0
 46
0.0
 47
0.001
 48
0.001
140
0.08
141
0.09
142
0.0
143
25.4
144
1.0
145
0.0
146
1.0
147
0.09
 71
1
 72
0
 73
1
 74
1
 75
0
 76
0
 77
0
 78
4
 79
1
170
1
171
2
172
0
173
0
174
0
175
0
176
0
177
0
178
0
270
2
179
3
271
3
272
3
273
2
274
2
275
0
280
0
281
0
282
0
283
1
284
4
285
0
286
0
287
3
288
0
340
11
278
46
341
205
342
205
343
205
344
205
  0
ENDTAB
  0
ENDSEC
  0
SECTION
  2
BLOCKS
  0
BLOCK
  5
20
100
AcDbEntity
  8
0
100
AcDbBlockBegin
  2
*Model_Space
 70
0
 10
0.0
 20
0.0
 30
0.0
  3
*Model_Space
  1

  0
ENDBLK
  5
21
100
AcDbEntity
  8
0
100
AcDbBlockEnd
  0
BLOCK
  5
1C
100
AcDbEntity
  8
0
100
AcDbBlockBegin
  2
*Paper_Space
 70
0
 10
0.0
 20
0.0
 30
0.0
  3
*Paper_Space
  1

  0
ENDBLK
  5
1D
100
AcDbEntity
  8
0
100
AcDbBlockEnd
  0
BLOCK
  5
207
100
AcDbEntity
  8
0
100
AcDbBlockBegin
  2
_FILLED
 70
64
 10
0.0
 20
0.0
  3
_FILLED
  1

  0
SOLID
  5
208
100
AcDbEntity
  8
0
  6
BYBLOCK
 62
0
100
AcDbTrace
 10
0.0
 20
0.0
 11
-1.0
 21
0.2
 12
-1.0
 22
-0.2
 13
-1.0
 23
-0.2
  0
ENDBLK
  5
209
100
AcDbEntity
  8
0
  6
BYBLOCK
 62
0
100
AcDbBlockEnd
  0
ENDSEC
  0
SECTION
  2
ENTITIES
  0
MTEXT
  5
20A
100
AcDbEntity
  8
0
100
AcDbMText
 62
2
  6
CONTINUOUS
  7
STANDARD
 71
3
 72
1
 10
5.4547297971
 20
1.325136983
 30
0.0
 11
1.0
 21
0.0
 31
0.0
 73
2
 44
0.9
  1
SCALE 0.500
 40
0.08
 41
0.704
  0
LINE
  5
20B
100
AcDbEntity
  8
0
100
AcDbLine
 62
7
  6
CONTINUOUS
 10
0.0
 20
0.0
 11
0.0
 21
8.5
  0
LINE
  5
20C
100
AcDbEntity
  8
0
100
AcDbLine
 62
7
  6
CONTINUOUS
 10
0.0
 20
0.0
 11
11.0
 21
0.0
  0
LINE
  5
20D
100
AcDbEntity
  8
0
100
AcDbLine
 62
7
  6
CONTINUOUS
 10
0.0
 20
8.5
 11
11.0
 21
8.5
  0
LINE
  5
20E
100
AcDbEntity
  8
0
100
AcDbLine
 62
7
  6
CONTINUOUS
 10
11.0
 20
0.0
 11
11.0
 21
8.5
  0
LINE
  5
20F
100
AcDbEntity
  8
0
100
AcDbLine
 62
7
  6
CONTINUOUS
 10
5.9456252115
 20
2.473003814
 11
7.0706252115
 21
2.473003814
  0
LINE
  5
210
100
AcDbEntity
  8
0
100
AcDbLine
 62
7
  6
CONTINUOUS
 10
5.9456252115
 20
2.5839777505
 11
7.0706252115
 21
2.5839777505
  0
LINE
  5
211
100
AcDbEntity
  8
0
100
AcDbLine
 62
7
  6
CONTINUOUS
 10
5.9456252115
 20
2.5863045793
 11
5.9458092906
 21
2.5863045793
  0
LINE
  5
212
100
AcDbEntity
  8
0
100
AcDbLine
 62
7
  6
CONTINUOUS
 10
7.0704411325
 20
2.5863045793
 11
7.0706252115
 21
2.5863045793
  0
LINE
  5
213
100
AcDbEntity
  8
0
100
AcDbLine
 62
7
  6
CONTINUOUS
 10
5.9572409283
 20
2.5987732618
 11
5.9581697986
 21
2.5987732618
  0
LINE
  5
214
100
AcDbEntity
  8
0
100
AcDbLine
 62
7
  6
CONTINUOUS
 10
7.0580806244
 20
2.5987732618
 11
7.0590094948
 21
2.5987732618
  0
LINE
  5
215
100
AcDbEntity
  8
0
100
AcDbLine
 62
7
  6
CONTINUOUS
 10
5.9595365245
 20
2.5989381903
 11
7.0567138986
 21
2.5989381903
  0
LINE
  5
216
100
AcDbEntity
  8
0
100
AcDbLine
 62
7
  6
CONTINUOUS
 10
6.1933422897
 20
2.6385042024
 11
6.8229081334
 21
2.6385042024
  0
LINE
  5
217
100
AcDbEntity
  8
0
100
AcDbLine
 62
7
  6
CONTINUOUS
 10
6.2571831984
 20
2.710198936
 11
6.7590672246
 21
2.710198936
  0
LINE
  5
218
100
AcDbEntity
  8
0
100
AcDbLine
 62
7
  6
CONTINUOUS
 10
6.7442287126
 20
2.723003814
 11
6.2720217105
 21
2.723003814
  0
LINE
  5
219
100
AcDbEntity
  8
0
100
AcDbLine
 62
7
  6
CONTINUOUS
 10
6.7431252115
 20
2.728003814
 11
6.2731252115
 21
2.728003814
  0
LINE
  5
21A
100
AcDbEntity
  8
0
100
AcDbLine
 62
7
  6
CONTINUOUS
 10
6.2581252115
 20
2.738003814
 11
6.2589855906
 21
2.738003814
  0
LINE
  5
21B
100
AcDbEntity
  8
0
100
AcDbLine
 62
7
  6
CONTINUOUS
 10
6.7572648325
 20
2.738003814
 11
6.7581252115
 21
2.738003814
  0
LINE
  5
21C
100
AcDbEntity
  8
0
100
AcDbLine
 62
7
  6
CONTINUOUS
 10
6.7581252115
 20
2.743003814
 11
6.2581252115
 21
2.743003814
  0
LINE
  5
21D
100
AcDbEntity
  8
0
100
AcDbLine
 62
7
  6
CONTINUOUS
 10
3.501053415
 20
5.4687549972
 11
3.4488635021
 21
5.0974044714
  0
LINE
  5
21E
100
AcDbEntity
  8
0
100
AcDbLine
 62
7
  6
CONTINUOUS
 10
3.5016384999
 20
5.4686727688
 11
3.4494485871
 21
5.0973222431
  0
LINE
  5
21F
100
AcDbEntity
  8
0
100
AcDbLine
 62
7
  6
CONTINUOUS
 10
3.5028517905
 20
5.468502252
 11
3.4506618776
 21
5.0971517262
  0
LINE
  5
220
100
AcDbEntity
  8
0
100
AcDbLine
 62
7
  6
CONTINUOUS
 10
3.5046014108
 20
5.4682563589
 11
3.4524114979
 21
5.0969058331
  0
LINE
  5
221
100
AcDbEntity
  8
0
100
AcDbLine
 62
7
  6
CONTINUOUS
 10
3.5070163072
 20
5.4679169673
 11
3.4548263944
 21
5.0965664415
  0
LINE
  5
222
100
AcDbEntity
  8
0
100
AcDbLine
 62
7
  6
CONTINUOUS
 10
3.509913613
 20
5.4675097775
 11
3.4577237001
 21
5.0961592518
  0
LINE
  5
223
100
AcDbEntity
  8
0
100
AcDbLine
 62
7
  6
CONTINUOUS
 10
3.5135068586
 20
5.4670047798
 11
3.4613169457
 21
5.095654254
  0
LINE
  5
224
100
AcDbEntity
  8
0
100
AcDbLine
 62
7
  6
CONTINUOUS
 10
3.5175239472
 20
5.4664402148
 11
3.4653340343
 21
5.095089689
  0
LINE
  5
225
100
AcDbEntity
  8
0
100
AcDbLine
 62
7
  6
CONTINUOUS
 10
3.522260937
 20
5.4657744743
 11
3.4700710241
 21
5.0944239485
  0
LINE
  5
226
100
AcDbEntity
  8
0
100
AcDbLine
 62
7
  6
CONTINUOUS
 10
3.5273591217
 20
5.4650579712
 11
3.4751692088
 21
5.0937074454
  0
LINE
  5
227
100
AcDbEntity
  8
0
100
AcDbLine
 62
7
  6
CONTINUOUS
 10
3.554885477
 20
5.6278109437
 11
3.5340095118
 21
5.4792707334
  0
LINE
  5
228
100
AcDbEntity
  8
0
100
AcDbLine
 62
7
  6
CONTINUOUS
 10
3.5331942359
 20
5.4642378994
 11
3.481004323
 21
5.0928873736
  0
LINE
  5
229
100
AcDbEntity
  8
0
100
AcDbLine
 62
7
  6
CONTINUOUS
 10
3.5393244184
 20
5.4633763584
 11
3.4871345055
 21
5.0920258326
  0
LINE
  5
22A
100
AcDbEntity
  8
0
100
AcDbLine
 62
7
  6
CONTINUOUS
 10
3.5462014616
 20
5.462409853
 11
3.4940115488
 21
5.0910593272
  0
LINE
  5
22B
100
AcDbEntity
  8
0
100
AcDbLine
 62
7
  6
CONTINUOUS
 10
3.5533046049
 20
5.4614115713
 11
3.501114692
 21
5.0900610455
  0
LINE
  5
22C
100
AcDbEntity
  8
0
100
AcDbLine
 62
7
  6
CONTINUOUS
 10
3.5611573476
 20
5.4603079403
 11
3.5089674347
 21
5.0889574145
  0
LINE
  5
22D
100
AcDbEntity
  8
0
100
AcDbLine
 62
7
  6
CONTINUOUS
 10
3.5691650444
 20
5.4591825319
 11
3.5169751316
 21
5.0878320061
  0
LINE
  5
22E
100
AcDbEntity
  8
0
100
AcDbLine
 62
7
  6
CONTINUOUS
 10
3.5779178603
 20
5.4579524039
 11
3.5257279474
 21
5.0866018781
  0
LINE
  5
22F
100
AcDbEntity
  8
0
100
AcDbLine
 62
7
  6
CONTINUOUS
 10
3.5867529923
 20
5.456710707
 11
3.5345630794
 21
5.0853601813
  0
LINE
  5
230
100
AcDbEntity
  8
0
100
AcDbLine
 62
7
  6
CONTINUOUS
 10
3.5422166002
 20
5.0711510339
 11
3.5980266004
 21
5.4682598199
  0
LINE
  5
231
100
AcDbEntity
  8
0
100
AcDbLine
 62
7
  6
CONTINUOUS
 10
3.5963215869
 20
5.4553659288
 11
3.544131674
 21
5.084015403
  0
LINE
  5
232
100
AcDbEntity
  8
0
100
AcDbLine
 62
7
  6
CONTINUOUS
 10
3.6058990669
 20
5.4540199017
 11
3.553709154
 21
5.082669376
  0
LINE
  5
233
100
AcDbEntity
  8
0
100
AcDbLine
 62
7
  6
CONTINUOUS
 10
3.5611430921
 20
5.0684910889
 11
3.6169530924
 21
5.4655998749
  0
LINE
  5
234
100
AcDbEntity
  8
0
100
AcDbLine
 62
7
  6
CONTINUOUS
 10
3.6161912895
 20
5.4525734242
 11
3.5640013766
 21
5.0812228984
  0
LINE
  5
235
100
AcDbEntity
  8
0
100
AcDbLine
 62
7
  6
CONTINUOUS
 10
3.6264188811
 20
5.4511360299
 11
3.5742289682
 21
5.0797855041
  0
LINE
  5
236
100
AcDbEntity
  8
0
100
AcDbLine
 62
7
  6
CONTINUOUS
 10
3.5813542991
 20
5.065650589
 11
3.6371642993
 21
5.462759375
  0
LINE
  5
237
100
AcDbEntity
  8
0
100
AcDbLine
 62
7
  6
CONTINUOUS
 10
3.6373356119
 20
5.4496017835
 11
3.585145699
 21
5.0782512577
  0
LINE
  5
238
100
AcDbEntity
  8
0
100
AcDbLine
 62
7
  6
CONTINUOUS
 10
3.6481148178
 20
5.4480868649
 11
3.5959249049
 21
5.0767363391
  0
LINE
  5
239
100
AcDbEntity
  8
0
100
AcDbLine
 62
7
  6
CONTINUOUS
 10
3.602655576
 20
5.0626568898
 11
3.6584655763
 21
5.4597656758
  0
LINE
  5
23A
100
AcDbEntity
  8
0
100
AcDbLine
 62
7
  6
CONTINUOUS
 10
3.6595509228
 20
5.4464796251
 11
3.6073610099
 21
5.0751290993
  0
LINE
  5
23B
100
AcDbEntity
  8
0
100
AcDbLine
 62
7
  6
CONTINUOUS
 10
3.6707779334
 20
5.4449017717
 11
3.6185880205
 21
5.0735512459
  0
LINE
  5
23C
100
AcDbEntity
  8
0
100
AcDbLine
 62
7
  6
CONTINUOUS
 10
3.6248417801
 20
5.0595388222
 11
3.6806517803
 21
5.4566476081
  0
LINE
  5
23D
100
AcDbEntity
  8
0
100
AcDbLine
 62
7
  6
CONTINUOUS
 10
3.6826232766
 20
5.4432370173
 11
3.6304333637
 21
5.0718864915
  0
LINE
  5
23E
100
AcDbEntity
  8
0
100
AcDbLine
 62
7
  6
CONTINUOUS
 10
3.6941899696
 20
5.4416114246
 11
3.6420000567
 21
5.0702608988
  0
LINE
  5
23F
100
AcDbEntity
  8
0
100
AcDbLine
 62
7
  6
CONTINUOUS
 10
3.6476992459
 20
5.0563264148
 11
3.7035092462
 21
5.4534352008
  0
LINE
  5
240
100
AcDbEntity
  8
0
100
AcDbLine
 62
7
  6
CONTINUOUS
 10
3.7063304739
 20
5.439905188
 11
3.654140561
 21
5.0685546622
  0
LINE
  5
241
100
AcDbEntity
  8
0
100
AcDbLine
 62
7
  6
CONTINUOUS
 10
3.7181254557
 20
5.4382475114
 11
3.6659355428
 21
5.0668969856
  0
LINE
  5
242
100
AcDbEntity
  8
0
100
AcDbLine
 62
7
  6
CONTINUOUS
 10
3.6710078437
 20
5.0530506051
 11
3.7268178439
 21
5.450159391
  0
LINE
  5
243
100
AcDbEntity
  8
0
100
AcDbLine
 62
7
  6
CONTINUOUS
 10
3.7304442014
 20
5.4365162246
 11
3.6782542885
 21
5.0651656988
  0
LINE
  5
244
100
AcDbEntity
  8
0
100
AcDbLine
 62
7
  6
CONTINUOUS
 10
3.7423538799
 20
5.4348424284
 11
3.6901639671
 21
5.0634919026
  0
LINE
  5
245
100
AcDbEntity
  8
0
100
AcDbLine
 62
7
  6
CONTINUOUS
 10
3.6945430988
 20
5.0497429407
 11
3.750353099
 21
5.4468517266
  0
LINE
  5
246
100
AcDbEntity
  8
0
100
AcDbLine
 62
7
  6
CONTINUOUS
 10
3.7547322308
 20
5.4331027646
 11
3.7025423179
 21
5.0617522389
  0
LINE
  5
247
100
AcDbEntity
  8
0
100
AcDbLine
 62
7
  6
CONTINUOUS
 10
3.7666419093
 20
5.4314289685
 11
3.7144519964
 21
5.0600784427
  0
LINE
  5
248
100
AcDbEntity
  8
0
100
AcDbLine
 62
7
  6
CONTINUOUS
 10
3.7180783539
 20
5.0464352763
 11
3.7738883542
 21
5.4435440622
  0
LINE
  5
249
100
AcDbEntity
  8
0
100
AcDbLine
 62
7
  6
CONTINUOUS
 10
3.778960655
 20
5.4296976817
 11
3.7267707422
 21
5.0583471559
  0
LINE
  5
24A
100
AcDbEntity
  8
0
100
AcDbLine
 62
7
  6
CONTINUOUS
 10
3.7907556368
 20
5.4280400051
 11
3.738565724
 21
5.0566894793
  0
LINE
  5
24B
100
AcDbEntity
  8
0
100
AcDbLine
 62
7
  6
CONTINUOUS
 10
3.7413869517
 20
5.0431594665
 11
3.7971969519
 21
5.4402682524
  0
LINE
  5
24C
100
AcDbEntity
  8
0
100
AcDbLine
 62
7
  6
CONTINUOUS
 10
3.8028961412
 20
5.4263337685
 11
3.7507062283
 21
5.0549832427
  0
LINE
  5
24D
100
AcDbEntity
  8
0
100
AcDbLine
 62
7
  6
CONTINUOUS
 10
3.8144628341
 20
5.4247081758
 11
3.7622729213
 21
5.05335765
  0
LINE
  5
24E
100
AcDbEntity
  8
0
100
AcDbLine
 62
7
  6
CONTINUOUS
 10
3.7642444175
 20
5.0399470591
 11
3.8200544178
 21
5.4370558451
  0
LINE
  5
24F
100
AcDbEntity
  8
0
100
AcDbLine
 62
7
  6
CONTINUOUS
 10
3.8263081774
 20
5.4230434214
 11
3.7741182645
 21
5.0516928956
  0
LINE
  5
250
100
AcDbEntity
  8
0
100
AcDbLine
 62
7
  6
CONTINUOUS
 10
3.8375351879
 20
5.4214655679
 11
3.7853452751
 21
5.0501150422
  0
LINE
  5
251
100
AcDbEntity
  8
0
100
AcDbLine
 62
7
  6
CONTINUOUS
 10
3.7864306216
 20
5.0368289915
 11
3.8422406218
 21
5.4339377775
  0
LINE
  5
252
100
AcDbEntity
  8
0
100
AcDbLine
 62
7
  6
CONTINUOUS
 10
3.8489712929
 20
5.4198583282
 11
3.7967813801
 21
5.0485078024
  0
LINE
  5
253
100
AcDbEntity
  8
0
100
AcDbLine
 62
7
  6
CONTINUOUS
 10
3.8597504988
 20
5.4183434096
 11
3.807560586
 21
5.0469928838
  0
LINE
  5
254
100
AcDbEntity
  8
0
100
AcDbLine
 62
7
  6
CONTINUOUS
 10
3.8077318985
 20
5.0338352923
 11
3.8635418988
 21
5.4309440782
  0
LINE
  5
255
100
AcDbEntity
  8
0
100
AcDbLine
 62
7
  6
CONTINUOUS
 10
3.8706672297
 20
5.4168091631
 11
3.8184773168
 21
5.0454586373
  0
LINE
  5
256
100
AcDbEntity
  8
0
100
AcDbLine
 62
7
  6
CONTINUOUS
 10
3.8808948212
 20
5.4153717689
 11
3.8287049084
 21
5.0440212431
  0
LINE
  5
257
100
AcDbEntity
  8
0
100
AcDbLine
 62
7
  6
CONTINUOUS
 10
3.8279431055
 20
5.0309947924
 11
3.8837531057
 21
5.4281035783
  0
LINE
  5
258
100
AcDbEntity
  8
0
100
AcDbLine
 62
7
  6
CONTINUOUS
 10
3.8911870438
 20
5.4139252913
 11
3.838997131
 21
5.0425747655
  0
LINE
  5
259
100
AcDbEntity
  8
0
100
AcDbLine
 62
7
  6
CONTINUOUS
 10
3.9007645238
 20
5.4125792643
 11
3.848574611
 21
5.0412287385
  0
LINE
  5
25A
100
AcDbEntity
  8
0
100
AcDbLine
 62
7
  6
CONTINUOUS
 10
3.8468695974
 20
5.0283348474
 11
3.9026795977
 21
5.4254436333
  0
LINE
  5
25B
100
AcDbEntity
  8
0
100
AcDbLine
 62
7
  6
CONTINUOUS
 10
3.9103331184
 20
5.411234486
 11
3.8581432056
 21
5.0398839602
  0
LINE
  5
25C
100
AcDbEntity
  8
0
100
AcDbLine
 62
7
  6
CONTINUOUS
 10
3.9191682504
 20
5.4099927892
 11
3.8669783376
 21
5.0386422634
  0
LINE
  5
25D
100
AcDbEntity
  8
0
100
AcDbLine
 62
7
  6
CONTINUOUS
 10
3.9279210663
 20
5.4087626611
 11
3.8757311534
 21
5.0374121354
  0
LINE
  5
25E
100
AcDbEntity
  8
0
100
AcDbLine
 62
7
  6
CONTINUOUS
 10
3.9359287632
 20
5.4076372527
 11
3.8837388503
 21
5.036286727
  0
LINE
  5
25F
100
AcDbEntity
  8
0
100
AcDbLine
 62
7
  6
CONTINUOUS
 10
3.9437815058
 20
5.4065336217
 11
3.891591593
 21
5.035183096
  0
LINE
  5
260
100
AcDbEntity
  8
0
100
AcDbLine
 62
7
  6
CONTINUOUS
 10
3.9508846491
 20
5.40553534
 11
3.8986947362
 21
5.0341848143
  0
LINE
  5
261
100
AcDbEntity
  8
0
100
AcDbLine
 62
7
  6
CONTINUOUS
 10
3.9577616923
 20
5.4045688346
 11
3.9055717795
 21
5.0332183089
  0
LINE
  5
262
100
AcDbEntity
  8
0
100
AcDbLine
 62
7
  6
CONTINUOUS
 10
3.9638918748
 20
5.4037072937
 11
3.911701962
 21
5.0323567679
  0
LINE
  5
263
100
AcDbEntity
  8
0
100
AcDbLine
 62
7
  6
CONTINUOUS
 10
3.9881277571
 20
5.566922712
 11
3.9672517919
 21
5.4183825017
  0
LINE
  5
264
100
AcDbEntity
  8
0
100
AcDbLine
 62
7
  6
CONTINUOUS
 10
3.969726989
 20
5.4028872219
 11
3.9175370762
 21
5.0315366961
  0
LINE
  5
265
100
AcDbEntity
  8
0
100
AcDbLine
 62
7
  6
CONTINUOUS
 10
3.9748251737
 20
5.4021707187
 11
3.9226352609
 21
5.0308201929
  0
LINE
  5
266
100
AcDbEntity
  8
0
100
AcDbLine
 62
7
  6
CONTINUOUS
 10
3.9795621635
 20
5.4015049782
 11
3.9273722507
 21
5.0301544524
  0
LINE
  5
267
100
AcDbEntity
  8
0
100
AcDbLine
 62
7
  6
CONTINUOUS
 10
3.9835792521
 20
5.4009404132
 11
3.9313893393
 21
5.0295898875
  0
LINE
  5
268
100
AcDbEntity
  8
0
100
AcDbLine
 62
7
  6
CONTINUOUS
 10
3.9871724977
 20
5.4004354155
 11
3.9349825849
 21
5.0290848897
  0
LINE
  5
269
100
AcDbEntity
  8
0
100
AcDbLine
 62
7
  6
CONTINUOUS
 10
3.9900698035
 20
5.4000282257
 11
3.9378798906
 21
5.0286777
  0
LINE
  5
26A
100
AcDbEntity
  8
0
100
AcDbLine
 62
7
  6
CONTINUOUS
 10
3.9924846999
 20
5.3996888342
 11
3.9402947871
 21
5.0283383084
  0
LINE
  5
26B
100
AcDbEntity
  8
0
100
AcDbLine
 62
7
  6
CONTINUOUS
 10
3.9942343202
 20
5.3994429411
 11
3.9420444074
 21
5.0280924153
  0
LINE
  5
26C
100
AcDbEntity
  8
0
100
AcDbLine
 62
7
  6
CONTINUOUS
 10
3.9954476108
 20
5.3992724242
 11
3.9432576979
 21
5.0279218984
  0
LINE
  5
26D
100
AcDbEntity
  8
0
100
AcDbLine
 62
7
  6
CONTINUOUS
 10
3.9960326958
 20
5.3991901959
 11
3.9438427829
 21
5.0278396701
  0
LINE
  5
26E
100
AcDbEntity
  8
0
100
AcDbLine
 62
7
  6
CONTINUOUS
 10
6.2581252115
 20
3.578003814
 11
6.7581252115
 21
3.578003814
  0
LINE
  5
26F
100
AcDbEntity
  8
0
100
AcDbLine
 62
7
  6
CONTINUOUS
 10
6.2731252115
 20
3.593003814
 11
6.7431252115
 21
3.593003814
  0
LINE
  5
270
100
AcDbEntity
  8
0
100
AcDbLine
 62
7
  6
CONTINUOUS
 10
6.7680500805
 20
3.608003814
 11
6.6381252115
 21
3.608003814
  0
LINE
  5
271
100
AcDbEntity
  8
0
100
AcDbLine
 62
7
  6
CONTINUOUS
 10
6.3781252115
 20
3.608003814
 11
6.2482003426
 21
3.608003814
  0
LINE
  5
272
100
AcDbEntity
  8
0
100
AcDbLine
 62
7
  6
CONTINUOUS
 10
6.7431252115
 20
3.608503814
 11
6.2731252115
 21
3.608503814
  0
LINE
  5
273
100
AcDbEntity
  8
0
100
AcDbLine
 62
7
  6
CONTINUOUS
 10
6.7580470743
 20
3.623503814
 11
6.7574562394
 21
3.623503814
  0
LINE
  5
274
100
AcDbEntity
  8
0
100
AcDbLine
 62
7
  6
CONTINUOUS
 10
6.7562310251
 20
3.623503814
 11
6.7544642103
 21
3.623503814
  0
LINE
  5
275
100
AcDbEntity
  8
0
100
AcDbLine
 62
7
  6
CONTINUOUS
 10
6.7520255813
 20
3.623503814
 11
6.7490998021
 21
3.623503814
  0
LINE
  5
276
100
AcDbEntity
  8
0
100
AcDbLine
 62
7
  6
CONTINUOUS
 10
6.7454712436
 20
3.623503814
 11
6.7414146767
 21
3.623503814
  0
LINE
  5
277
100
AcDbEntity
  8
0
100
AcDbLine
 62
7
  6
CONTINUOUS
 10
6.7366311338
 20
3.623503814
 11
6.7314828464
 21
3.623503814
  0
LINE
  5
278
100
AcDbEntity
  8
0
100
AcDbLine
 62
7
  6
CONTINUOUS
 10
6.7255903871
 20
3.623503814
 11
6.7193999598
 21
3.623503814
  0
LINE
  5
279
100
AcDbEntity
  8
0
100
AcDbLine
 62
7
  6
CONTINUOUS
 10
6.7124553319
 20
3.623503814
 11
6.705282382
 21
3.623503814
  0
LINE
  5
27A
100
AcDbEntity
  8
0
100
AcDbLine
 62
7
  6
CONTINUOUS
 10
6.697352466
 20
3.623503814
 11
6.6892660729
 21
3.623503814
  0
LINE
  5
27B
100
AcDbEntity
  8
0
100
AcDbLine
 62
7
  6
CONTINUOUS
 10
6.6804272381
 20
3.623503814
 11
6.6715052782
 21
3.623503814
  0
LINE
  5
27C
100
AcDbEntity
  8
0
100
AcDbLine
 62
7
  6
CONTINUOUS
 10
6.6618426475
 20
3.623503814
 11
6.6521710442
 21
3.623503814
  0
LINE
  5
27D
100
AcDbEntity
  8
0
100
AcDbLine
 62
7
  6
CONTINUOUS
 10
6.641777674
 20
3.623503814
 11
6.63144957
 21
3.623503814
  0
LINE
  5
27E
100
AcDbEntity
  8
0
100
AcDbLine
 62
7
  6
CONTINUOUS
 10
6.6204255542
 20
3.623503814
 11
6.6095404149
 21
3.623503814
  0
LINE
  5
27F
100
AcDbEntity
  8
0
100
AcDbLine
 62
7
  6
CONTINUOUS
 10
6.5979919207
 20
3.623503814
 11
6.5866545759
 21
3.623503814
  0
LINE
  5
280
100
AcDbEntity
  8
0
100
AcDbLine
 62
7
  6
CONTINUOUS
 10
6.5746928217
 20
3.623503814
 11
6.5630124562
 21
3.623503814
  0
LINE
  5
281
100
AcDbEntity
  8
0
100
AcDbLine
 62
7
  6
CONTINUOUS
 10
6.5507526402
 20
3.623503814
 11
6.5388417424
 21
3.623503814
  0
LINE
  5
282
100
AcDbEntity
  8
0
100
AcDbLine
 62
7
  6
CONTINUOUS
 10
6.5264019333
 20
3.623503814
 11
6.5143752115
 21
3.623503814
  0
LINE
  5
283
100
AcDbEntity
  8
0
100
AcDbLine
 62
7
  6
CONTINUOUS
 10
6.5018752115
 20
3.623503814
 11
6.4898484898
 21
3.623503814
  0
LINE
  5
284
100
AcDbEntity
  8
0
100
AcDbLine
 62
7
  6
CONTINUOUS
 10
6.4774086807
 20
3.623503814
 11
6.4654977828
 21
3.623503814
  0
LINE
  5
285
100
AcDbEntity
  8
0
100
AcDbLine
 62
7
  6
CONTINUOUS
 10
6.4532379668
 20
3.623503814
 11
6.4415576014
 21
3.623503814
  0
LINE
  5
286
100
AcDbEntity
  8
0
100
AcDbLine
 62
7
  6
CONTINUOUS
 10
6.4295958472
 20
3.623503814
 11
6.4182585023
 21
3.623503814
  0
LINE
  5
287
100
AcDbEntity
  8
0
100
AcDbLine
 62
7
  6
CONTINUOUS
 10
6.4067100082
 20
3.623503814
 11
6.3958248689
 21
3.623503814
  0
LINE
  5
288
100
AcDbEntity
  8
0
100
AcDbLine
 62
7
  6
CONTINUOUS
 10
6.3848008531
 20
3.623503814
 11
6.3744727491
 21
3.623503814
  0
LINE
  5
289
100
AcDbEntity
  8
0
100
AcDbLine
 62
7
  6
CONTINUOUS
 10
6.3640793789
 20
3.623503814
 11
6.3544077755
 21
3.623503814
  0
LINE
  5
28A
100
AcDbEntity
  8
0
100
AcDbLine
 62
7
  6
CONTINUOUS
 10
6.3447451449
 20
3.623503814
 11
6.335823185
 21
3.623503814
  0
LINE
  5
28B
100
AcDbEntity
  8
0
100
AcDbLine
 62
7
  6
CONTINUOUS
 10
6.3269843502
 20
3.623503814
 11
6.3188979571
 21
3.623503814
  0
LINE
  5
28C
100
AcDbEntity
  8
0
100
AcDbLine
 62
7
  6
CONTINUOUS
 10
6.310968041
 20
3.623503814
 11
6.3037950911
 21
3.623503814
  0
LINE
  5
28D
100
AcDbEntity
  8
0
100
AcDbLine
 62
7
  6
CONTINUOUS
 10
6.2968504632
 20
3.623503814
 11
6.2906600359
 21
3.623503814
  0
LINE
  5
28E
100
AcDbEntity
  8
0
100
AcDbLine
 62
7
  6
CONTINUOUS
 10
6.2847675767
 20
3.623503814
 11
6.2796192892
 21
3.623503814
  0
LINE
  5
28F
100
AcDbEntity
  8
0
100
AcDbLine
 62
7
  6
CONTINUOUS
 10
6.2748357463
 20
3.623503814
 11
6.2707791795
 21
3.623503814
  0
LINE
  5
290
100
AcDbEntity
  8
0
100
AcDbLine
 62
7
  6
CONTINUOUS
 10
6.267150621
 20
3.623503814
 11
6.2642248418
 21
3.623503814
  0
LINE
  5
291
100
AcDbEntity
  8
0
100
AcDbLine
 62
7
  6
CONTINUOUS
 10
6.2617862127
 20
3.623503814
 11
6.260019398
 21
3.623503814
  0
LINE
  5
292
100
AcDbEntity
  8
0
100
AcDbLine
 62
7
  6
CONTINUOUS
 10
6.2587941837
 20
3.623503814
 11
6.2582033487
 21
3.623503814
  0
LINE
  5
293
100
AcDbEntity
  8
0
100
AcDbLine
 62
7
  6
CONTINUOUS
 10
6.4566252115
 20
3.717003814
 11
6.5596252115
 21
3.717003814
  0
LINE
  5
294
100
AcDbEntity
  8
0
100
AcDbLine
 62
7
  6
CONTINUOUS
 10
6.5606252115
 20
3.721003814
 11
6.4556252115
 21
3.721003814
  0
LINE
  5
295
100
AcDbEntity
  8
0
100
AcDbLine
 62
7
  6
CONTINUOUS
 10
6.5706252115
 20
3.731003814
 11
6.4456252115
 21
3.731003814
  0
LINE
  5
296
100
AcDbEntity
  8
0
100
AcDbLine
 62
7
  6
CONTINUOUS
 10
6.4456252115
 20
4.036003814
 11
6.5706252115
 21
4.036003814
  0
LINE
  5
297
100
AcDbEntity
  8
0
100
AcDbLine
 62
7
  6
CONTINUOUS
 10
6.4556252115
 20
4.046003814
 11
6.5606252115
 21
4.046003814
  0
LINE
  5
298
100
AcDbEntity
  8
0
100
AcDbLine
 62
7
  6
CONTINUOUS
 10
6.4566252115
 20
4.050003814
 11
6.5596252115
 21
4.050003814
  0
LINE
  5
299
100
AcDbEntity
  8
0
100
AcDbLine
 62
7
  6
CONTINUOUS
 10
6.7680500805
 20
4.058003814
 11
6.7674110783
 21
4.058003814
  0
LINE
  5
29A
100
AcDbEntity
  8
0
100
AcDbLine
 62
7
  6
CONTINUOUS
 10
6.7618363825
 20
4.058003814
 11
6.7586720821
 21
4.058003814
  0
LINE
  5
29B
100
AcDbEntity
  8
0
100
AcDbLine
 62
7
  6
CONTINUOUS
 10
6.7661858641
 20
4.058003814
 11
6.7642750115
 21
4.058003814
  0
LINE
  5
29C
100
AcDbEntity
  8
0
100
AcDbLine
 62
7
  6
CONTINUOUS
 10
6.2488393447
 20
4.058003814
 11
6.2482003426
 21
4.058003814
  0
LINE
  5
29D
100
AcDbEntity
  8
0
100
AcDbLine
 62
7
  6
CONTINUOUS
 10
6.2519754115
 20
4.058003814
 11
6.250064559
 21
4.058003814
  0
LINE
  5
29E
100
AcDbEntity
  8
0
100
AcDbLine
 62
7
  6
CONTINUOUS
 10
6.2575783409
 20
4.058003814
 11
6.2544140406
 21
4.058003814
  0
LINE
  5
29F
100
AcDbEntity
  8
0
100
AcDbLine
 62
7
  6
CONTINUOUS
 10
6.2582033487
 20
4.058503814
 11
6.2587941837
 21
4.058503814
  0
LINE
  5
2A0
100
AcDbEntity
  8
0
100
AcDbLine
 62
7
  6
CONTINUOUS
 10
6.2642248418
 20
4.058503814
 11
6.267150621
 21
4.058503814
  0
LINE
  5
2A1
100
AcDbEntity
  8
0
100
AcDbLine
 62
7
  6
CONTINUOUS
 10
6.260019398
 20
4.058503814
 11
6.2617862127
 21
4.058503814
  0
LINE
  5
2A2
100
AcDbEntity
  8
0
100
AcDbLine
 62
7
  6
CONTINUOUS
 10
6.2796192892
 20
4.058503814
 11
6.2847675767
 21
4.058503814
  0
LINE
  5
2A3
100
AcDbEntity
  8
0
100
AcDbLine
 62
7
  6
CONTINUOUS
 10
6.2707791795
 20
4.058503814
 11
6.2748357463
 21
4.058503814
  0
LINE
  5
2A4
100
AcDbEntity
  8
0
100
AcDbLine
 62
7
  6
CONTINUOUS
 10
6.2906600359
 20
4.058503814
 11
6.2968504632
 21
4.058503814
  0
LINE
  5
2A5
100
AcDbEntity
  8
0
100
AcDbLine
 62
7
  6
CONTINUOUS
 10
6.3037950911
 20
4.058503814
 11
6.310968041
 21
4.058503814
  0
LINE
  5
2A6
100
AcDbEntity
  8
0
100
AcDbLine
 62
7
  6
CONTINUOUS
 10
6.3188979571
 20
4.058503814
 11
6.3269843502
 21
4.058503814
  0
LINE
  5
2A7
100
AcDbEntity
  8
0
100
AcDbLine
 62
7
  6
CONTINUOUS
 10
6.335823185
 20
4.058503814
 11
6.3447451449
 21
4.058503814
  0
LINE
  5
2A8
100
AcDbEntity
  8
0
100
AcDbLine
 62
7
  6
CONTINUOUS
 10
6.3544077755
 20
4.058503814
 11
6.3640793789
 21
4.058503814
  0
LINE
  5
2A9
100
AcDbEntity
  8
0
100
AcDbLine
 62
7
  6
CONTINUOUS
 10
6.3744727491
 20
4.058503814
 11
6.3848008531
 21
4.058503814
  0
LINE
  5
2AA
100
AcDbEntity
  8
0
100
AcDbLine
 62
7
  6
CONTINUOUS
 10
6.3958248689
 20
4.058503814
 11
6.4067100082
 21
4.058503814
  0
LINE
  5
2AB
100
AcDbEntity
  8
0
100
AcDbLine
 62
7
  6
CONTINUOUS
 10
6.4182585023
 20
4.058503814
 11
6.4295958472
 21
4.058503814
  0
LINE
  5
2AC
100
AcDbEntity
  8
0
100
AcDbLine
 62
7
  6
CONTINUOUS
 10
6.4415576014
 20
4.058503814
 11
6.4532379668
 21
4.058503814
  0
LINE
  5
2AD
100
AcDbEntity
  8
0
100
AcDbLine
 62
7
  6
CONTINUOUS
 10
6.4654977828
 20
4.058503814
 11
6.4774086807
 21
4.058503814
  0
LINE
  5
2AE
100
AcDbEntity
  8
0
100
AcDbLine
 62
7
  6
CONTINUOUS
 10
6.4898484898
 20
4.058503814
 11
6.5018752115
 21
4.058503814
  0
LINE
  5
2AF
100
AcDbEntity
  8
0
100
AcDbLine
 62
7
  6
CONTINUOUS
 10
6.5143752115
 20
4.058503814
 11
6.5264019333
 21
4.058503814
  0
LINE
  5
2B0
100
AcDbEntity
  8
0
100
AcDbLine
 62
7
  6
CONTINUOUS
 10
6.5388417424
 20
4.058503814
 11
6.5507526402
 21
4.058503814
  0
LINE
  5
2B1
100
AcDbEntity
  8
0
100
AcDbLine
 62
7
  6
CONTINUOUS
 10
6.5630124562
 20
4.058503814
 11
6.5746928217
 21
4.058503814
  0
LINE
  5
2B2
100
AcDbEntity
  8
0
100
AcDbLine
 62
7
  6
CONTINUOUS
 10
6.5866545759
 20
4.058503814
 11
6.5979919207
 21
4.058503814
  0
LINE
  5
2B3
100
AcDbEntity
  8
0
100
AcDbLine
 62
7
  6
CONTINUOUS
 10
6.6095404149
 20
4.058503814
 11
6.6204255542
 21
4.058503814
  0
LINE
  5
2B4
100
AcDbEntity
  8
0
100
AcDbLine
 62
7
  6
CONTINUOUS
 10
6.63144957
 20
4.058503814
 11
6.641777674
 21
4.058503814
  0
LINE
  5
2B5
100
AcDbEntity
  8
0
100
AcDbLine
 62
7
  6
CONTINUOUS
 10
6.6521710442
 20
4.058503814
 11
6.6618426475
 21
4.058503814
  0
LINE
  5
2B6
100
AcDbEntity
  8
0
100
AcDbLine
 62
7
  6
CONTINUOUS
 10
6.6715052782
 20
4.058503814
 11
6.6804272381
 21
4.058503814
  0
LINE
  5
2B7
100
AcDbEntity
  8
0
100
AcDbLine
 62
7
  6
CONTINUOUS
 10
6.6892660729
 20
4.058503814
 11
6.697352466
 21
4.058503814
  0
LINE
  5
2B8
100
AcDbEntity
  8
0
100
AcDbLine
 62
7
  6
CONTINUOUS
 10
6.705282382
 20
4.058503814
 11
6.7124553319
 21
4.058503814
  0
LINE
  5
2B9
100
AcDbEntity
  8
0
100
AcDbLine
 62
7
  6
CONTINUOUS
 10
6.7193999598
 20
4.058503814
 11
6.7255903871
 21
4.058503814
  0
LINE
  5
2BA
100
AcDbEntity
  8
0
100
AcDbLine
 62
7
  6
CONTINUOUS
 10
6.7314828464
 20
4.058503814
 11
6.7366311338
 21
4.058503814
  0
LINE
  5
2BB
100
AcDbEntity
  8
0
100
AcDbLine
 62
7
  6
CONTINUOUS
 10
6.7414146767
 20
4.058503814
 11
6.7454712436
 21
4.058503814
  0
LINE
  5
2BC
100
AcDbEntity
  8
0
100
AcDbLine
 62
7
  6
CONTINUOUS
 10
6.7490998021
 20
4.058503814
 11
6.7520255813
 21
4.058503814
  0
LINE
  5
2BD
100
AcDbEntity
  8
0
100
AcDbLine
 62
7
  6
CONTINUOUS
 10
6.7574562394
 20
4.058503814
 11
6.7580470743
 21
4.058503814
  0
LINE
  5
2BE
100
AcDbEntity
  8
0
100
AcDbLine
 62
7
  6
CONTINUOUS
 10
6.7544642103
 20
4.058503814
 11
6.7562310251
 21
4.058503814
  0
LINE
  5
2BF
100
AcDbEntity
  8
0
100
AcDbLine
 62
7
  6
CONTINUOUS
 10
6.7531252091
 20
4.073003814
 11
6.7469620837
 21
4.073003814
  0
LINE
  5
2C0
100
AcDbEntity
  8
0
100
AcDbLine
 62
7
  6
CONTINUOUS
 10
6.2692883393
 20
4.073003814
 11
6.2631252127
 21
4.073003814
  0
LINE
  5
2C1
100
AcDbEntity
  8
0
100
AcDbLine
 62
7
  6
CONTINUOUS
 10
6.2731252115
 20
4.073503814
 11
6.7431252115
 21
4.073503814
  0
LINE
  5
2C2
100
AcDbEntity
  8
0
100
AcDbLine
 62
7
  6
CONTINUOUS
 10
3.4615525498
 20
5.0804737284
 11
3.9269785421
 21
5.015062371
  0
LINE
  5
2C3
100
AcDbEntity
  8
0
100
AcDbLine
 62
7
  6
CONTINUOUS
 10
3.4488635021
 20
5.0974044714
 11
3.4494485871
 21
5.0973222431
  0
LINE
  5
2C4
100
AcDbEntity
  8
0
100
AcDbLine
 62
7
  6
CONTINUOUS
 10
3.4506618776
 20
5.0971517262
 11
3.4524114979
 21
5.0969058331
  0
LINE
  5
2C5
100
AcDbEntity
  8
0
100
AcDbLine
 62
7
  6
CONTINUOUS
 10
3.4548263944
 20
5.0965664415
 11
3.4577237001
 21
5.0961592518
  0
LINE
  5
2C6
100
AcDbEntity
  8
0
100
AcDbLine
 62
7
  6
CONTINUOUS
 10
3.4613169457
 20
5.095654254
 11
3.4653340343
 21
5.095089689
  0
LINE
  5
2C7
100
AcDbEntity
  8
0
100
AcDbLine
 62
7
  6
CONTINUOUS
 10
3.4700710241
 20
5.0944239485
 11
3.4751692088
 21
5.0937074454
  0
LINE
  5
2C8
100
AcDbEntity
  8
0
100
AcDbLine
 62
7
  6
CONTINUOUS
 10
3.481004323
 20
5.0928873736
 11
3.4871345055
 21
5.0920258326
  0
LINE
  5
2C9
100
AcDbEntity
  8
0
100
AcDbLine
 62
7
  6
CONTINUOUS
 10
3.4940115488
 20
5.0910593272
 11
3.501114692
 21
5.0900610455
  0
LINE
  5
2CA
100
AcDbEntity
  8
0
100
AcDbLine
 62
7
  6
CONTINUOUS
 10
3.5089674347
 20
5.0889574145
 11
3.5169751316
 21
5.0878320061
  0
LINE
  5
2CB
100
AcDbEntity
  8
0
100
AcDbLine
 62
7
  6
CONTINUOUS
 10
3.5257279474
 20
5.0866018781
 11
3.5345630794
 21
5.0853601813
  0
LINE
  5
2CC
100
AcDbEntity
  8
0
100
AcDbLine
 62
7
  6
CONTINUOUS
 10
3.544131674
 20
5.084015403
 11
3.553709154
 21
5.082669376
  0
LINE
  5
2CD
100
AcDbEntity
  8
0
100
AcDbLine
 62
7
  6
CONTINUOUS
 10
3.5640013766
 20
5.0812228984
 11
3.5742289682
 21
5.0797855041
  0
LINE
  5
2CE
100
AcDbEntity
  8
0
100
AcDbLine
 62
7
  6
CONTINUOUS
 10
3.585145699
 20
5.0782512577
 11
3.5959249049
 21
5.0767363391
  0
LINE
  5
2CF
100
AcDbEntity
  8
0
100
AcDbLine
 62
7
  6
CONTINUOUS
 10
3.6073610099
 20
5.0751290993
 11
3.6185880205
 21
5.0735512459
  0
LINE
  5
2D0
100
AcDbEntity
  8
0
100
AcDbLine
 62
7
  6
CONTINUOUS
 10
3.6304333637
 20
5.0718864915
 11
3.6420000567
 21
5.0702608988
  0
LINE
  5
2D1
100
AcDbEntity
  8
0
100
AcDbLine
 62
7
  6
CONTINUOUS
 10
3.654140561
 20
5.0685546622
 11
3.6659355428
 21
5.0668969856
  0
LINE
  5
2D2
100
AcDbEntity
  8
0
100
AcDbLine
 62
7
  6
CONTINUOUS
 10
3.6782542885
 20
5.0651656988
 11
3.6901639671
 21
5.0634919026
  0
LINE
  5
2D3
100
AcDbEntity
  8
0
100
AcDbLine
 62
7
  6
CONTINUOUS
 10
3.7025423179
 20
5.0617522389
 11
3.7144519964
 21
5.0600784427
  0
LINE
  5
2D4
100
AcDbEntity
  8
0
100
AcDbLine
 62
7
  6
CONTINUOUS
 10
3.7267707422
 20
5.0583471559
 11
3.738565724
 21
5.0566894793
  0
LINE
  5
2D5
100
AcDbEntity
  8
0
100
AcDbLine
 62
7
  6
CONTINUOUS
 10
3.7507062283
 20
5.0549832427
 11
3.7622729213
 21
5.05335765
  0
LINE
  5
2D6
100
AcDbEntity
  8
0
100
AcDbLine
 62
7
  6
CONTINUOUS
 10
3.7741182645
 20
5.0516928956
 11
3.7853452751
 21
5.0501150422
  0
LINE
  5
2D7
100
AcDbEntity
  8
0
100
AcDbLine
 62
7
  6
CONTINUOUS
 10
3.7967813801
 20
5.0485078024
 11
3.807560586
 21
5.0469928838
  0
LINE
  5
2D8
100
AcDbEntity
  8
0
100
AcDbLine
 62
7
  6
CONTINUOUS
 10
3.8184773168
 20
5.0454586373
 11
3.8287049084
 21
5.0440212431
  0
LINE
  5
2D9
100
AcDbEntity
  8
0
100
AcDbLine
 62
7
  6
CONTINUOUS
 10
3.838997131
 20
5.0425747655
 11
3.848574611
 21
5.0412287385
  0
LINE
  5
2DA
100
AcDbEntity
  8
0
100
AcDbLine
 62
7
  6
CONTINUOUS
 10
3.8581432056
 20
5.0398839602
 11
3.8669783376
 21
5.0386422634
  0
LINE
  5
2DB
100
AcDbEntity
  8
0
100
AcDbLine
 62
7
  6
CONTINUOUS
 10
3.8757311534
 20
5.0374121354
 11
3.8837388503
 21
5.036286727
  0
LINE
  5
2DC
100
AcDbEntity
  8
0
100
AcDbLine
 62
7
  6
CONTINUOUS
 10
3.891591593
 20
5.035183096
 11
3.8986947362
 21
5.0341848143
  0
LINE
  5
2DD
100
AcDbEntity
  8
0
100
AcDbLine
 62
7
  6
CONTINUOUS
 10
3.9055717795
 20
5.0332183089
 11
3.911701962
 21
5.0323567679
  0
LINE
  5
2DE
100
AcDbEntity
  8
0
100
AcDbLine
 62
7
  6
CONTINUOUS
 10
3.9175370762
 20
5.0315366961
 11
3.9226352609
 21
5.0308201929
  0
LINE
  5
2DF
100
AcDbEntity
  8
0
100
AcDbLine
 62
7
  6
CONTINUOUS
 10
3.9273722507
 20
5.0301544524
 11
3.9313893393
 21
5.0295898875
  0
LINE
  5
2E0
100
AcDbEntity
  8
0
100
AcDbLine
 62
7
  6
CONTINUOUS
 10
3.9349825849
 20
5.0290848897
 11
3.9378798906
 21
5.0286777
  0
LINE
  5
2E1
100
AcDbEntity
  8
0
100
AcDbLine
 62
7
  6
CONTINUOUS
 10
3.9402947871
 20
5.0283383084
 11
3.9420444074
 21
5.0280924153
  0
LINE
  5
2E2
100
AcDbEntity
  8
0
100
AcDbLine
 62
7
  6
CONTINUOUS
 10
3.9432576979
 20
5.0279218984
 11
3.9438427829
 21
5.0278396701
  0
LINE
  5
2E3
100
AcDbEntity
  8
0
100
AcDbLine
 62
7
  6
CONTINUOUS
 10
3.501053415
 20
5.4687549972
 11
3.5016384999
 21
5.4686727688
  0
LINE
  5
2E4
100
AcDbEntity
  8
0
100
AcDbLine
 62
7
  6
CONTINUOUS
 10
3.5028517905
 20
5.468502252
 11
3.5046014108
 21
5.4682563589
  0
LINE
  5
2E5
100
AcDbEntity
  8
0
100
AcDbLine
 62
7
  6
CONTINUOUS
 10
3.5070163072
 20
5.4679169673
 11
3.509913613
 21
5.4675097775
  0
LINE
  5
2E6
100
AcDbEntity
  8
0
100
AcDbLine
 62
7
  6
CONTINUOUS
 10
3.5135068586
 20
5.4670047798
 11
3.5175239472
 21
5.4664402148
  0
LINE
  5
2E7
100
AcDbEntity
  8
0
100
AcDbLine
 62
7
  6
CONTINUOUS
 10
3.522260937
 20
5.4657744743
 11
3.5273591217
 21
5.4650579712
  0
LINE
  5
2E8
100
AcDbEntity
  8
0
100
AcDbLine
 62
7
  6
CONTINUOUS
 10
3.5331942359
 20
5.4642378994
 11
3.5393244184
 21
5.4633763584
  0
LINE
  5
2E9
100
AcDbEntity
  8
0
100
AcDbLine
 62
7
  6
CONTINUOUS
 10
3.5462014616
 20
5.462409853
 11
3.5533046049
 21
5.4614115713
  0
LINE
  5
2EA
100
AcDbEntity
  8
0
100
AcDbLine
 62
7
  6
CONTINUOUS
 10
3.5611573476
 20
5.4603079403
 11
3.5691650444
 21
5.4591825319
  0
LINE
  5
2EB
100
AcDbEntity
  8
0
100
AcDbLine
 62
7
  6
CONTINUOUS
 10
3.5779178603
 20
5.4579524039
 11
3.5867529923
 21
5.456710707
  0
LINE
  5
2EC
100
AcDbEntity
  8
0
100
AcDbLine
 62
7
  6
CONTINUOUS
 10
3.5963215869
 20
5.4553659288
 11
3.6058990669
 21
5.4540199017
  0
LINE
  5
2ED
100
AcDbEntity
  8
0
100
AcDbLine
 62
7
  6
CONTINUOUS
 10
3.6161912895
 20
5.4525734242
 11
3.6264188811
 21
5.4511360299
  0
LINE
  5
2EE
100
AcDbEntity
  8
0
100
AcDbLine
 62
7
  6
CONTINUOUS
 10
3.6373356119
 20
5.4496017835
 11
3.6481148178
 21
5.4480868649
  0
LINE
  5
2EF
100
AcDbEntity
  8
0
100
AcDbLine
 62
7
  6
CONTINUOUS
 10
3.6595509228
 20
5.4464796251
 11
3.6707779334
 21
5.4449017717
  0
LINE
  5
2F0
100
AcDbEntity
  8
0
100
AcDbLine
 62
7
  6
CONTINUOUS
 10
3.6826232766
 20
5.4432370173
 11
3.6941899696
 21
5.4416114246
  0
LINE
  5
2F1
100
AcDbEntity
  8
0
100
AcDbLine
 62
7
  6
CONTINUOUS
 10
3.7063304739
 20
5.439905188
 11
3.7181254557
 21
5.4382475114
  0
LINE
  5
2F2
100
AcDbEntity
  8
0
100
AcDbLine
 62
7
  6
CONTINUOUS
 10
3.7304442014
 20
5.4365162246
 11
3.7423538799
 21
5.4348424284
  0
LINE
  5
2F3
100
AcDbEntity
  8
0
100
AcDbLine
 62
7
  6
CONTINUOUS
 10
3.7547322308
 20
5.4331027646
 11
3.7666419093
 21
5.4314289685
  0
LINE
  5
2F4
100
AcDbEntity
  8
0
100
AcDbLine
 62
7
  6
CONTINUOUS
 10
3.778960655
 20
5.4296976817
 11
3.7907556368
 21
5.4280400051
  0
LINE
  5
2F5
100
AcDbEntity
  8
0
100
AcDbLine
 62
7
  6
CONTINUOUS
 10
3.8028961412
 20
5.4263337685
 11
3.8144628341
 21
5.4247081758
  0
LINE
  5
2F6
100
AcDbEntity
  8
0
100
AcDbLine
 62
7
  6
CONTINUOUS
 10
3.8263081774
 20
5.4230434214
 11
3.8375351879
 21
5.4214655679
  0
LINE
  5
2F7
100
AcDbEntity
  8
0
100
AcDbLine
 62
7
  6
CONTINUOUS
 10
3.8489712929
 20
5.4198583282
 11
3.8597504988
 21
5.4183434096
  0
LINE
  5
2F8
100
AcDbEntity
  8
0
100
AcDbLine
 62
7
  6
CONTINUOUS
 10
3.8706672297
 20
5.4168091631
 11
3.8808948212
 21
5.4153717689
  0
LINE
  5
2F9
100
AcDbEntity
  8
0
100
AcDbLine
 62
7
  6
CONTINUOUS
 10
3.8911870438
 20
5.4139252913
 11
3.9007645238
 21
5.4125792643
  0
LINE
  5
2FA
100
AcDbEntity
  8
0
100
AcDbLine
 62
7
  6
CONTINUOUS
 10
3.9103331184
 20
5.411234486
 11
3.9191682504
 21
5.4099927892
  0
LINE
  5
2FB
100
AcDbEntity
  8
0
100
AcDbLine
 62
7
  6
CONTINUOUS
 10
3.9279210663
 20
5.4087626611
 11
3.9359287632
 21
5.4076372527
  0
LINE
  5
2FC
100
AcDbEntity
  8
0
100
AcDbLine
 62
7
  6
CONTINUOUS
 10
3.9437815058
 20
5.4065336217
 11
3.9508846491
 21
5.40553534
  0
LINE
  5
2FD
100
AcDbEntity
  8
0
100
AcDbLine
 62
7
  6
CONTINUOUS
 10
3.9577616923
 20
5.4045688346
 11
3.9638918748
 21
5.4037072937
  0
LINE
  5
2FE
100
AcDbEntity
  8
0
100
AcDbLine
 62
7
  6
CONTINUOUS
 10
3.969726989
 20
5.4028872219
 11
3.9748251737
 21
5.4021707187
  0
LINE
  5
2FF
100
AcDbEntity
  8
0
100
AcDbLine
 62
7
  6
CONTINUOUS
 10
3.9795621635
 20
5.4015049782
 11
3.9835792521
 21
5.4009404132
  0
LINE
  5
300
100
AcDbEntity
  8
0
100
AcDbLine
 62
7
  6
CONTINUOUS
 10
3.9871724977
 20
5.4004354155
 11
3.9900698035
 21
5.4000282257
  0
LINE
  5
301
100
AcDbEntity
  8
0
100
AcDbLine
 62
7
  6
CONTINUOUS
 10
3.9924846999
 20
5.3996888342
 11
3.9942343202
 21
5.3994429411
  0
LINE
  5
302
100
AcDbEntity
  8
0
100
AcDbLine
 62
7
  6
CONTINUOUS
 10
3.9954476108
 20
5.3992724242
 11
3.9960326958
 21
5.3991901959
  0
LINE
  5
303
100
AcDbEntity
  8
0
100
AcDbLine
 62
7
  6
CONTINUOUS
 10
3.5179176557
 20
5.4815322963
 11
3.983343648
 21
5.4161209388
  0
LINE
  5
304
100
AcDbEntity
  8
0
100
AcDbLine
 62
7
  6
CONTINUOUS
 10
5.9456252115
 20
2.5863045793
 11
5.9456252115
 21
2.473003814
  0
LINE
  5
305
100
AcDbEntity
  8
0
100
AcDbLine
 62
7
  6
CONTINUOUS
 10
6.2893752115
 20
5.406003814
 11
6.7268752115
 21
5.406003814
  0
LINE
  5
306
100
AcDbEntity
  8
0
100
AcDbLine
 62
7
  6
CONTINUOUS
 10
3.9881277571
 20
5.566922712
 11
3.554885477
 21
5.6278109437
  0
LINE
  5
307
100
AcDbEntity
  8
0
100
AcDbLine
 62
7
  6
CONTINUOUS
 10
6.2482003426
 20
4.058003814
 11
6.2482003426
 21
3.608003814
  0
LINE
  5
308
100
AcDbEntity
  8
0
100
AcDbLine
 62
7
  6
CONTINUOUS
 10
6.2488393447
 20
4.058003814
 11
6.2488393447
 21
3.608003814
  0
LINE
  5
309
100
AcDbEntity
  8
0
100
AcDbLine
 62
7
  6
CONTINUOUS
 10
6.250064559
 20
4.058003814
 11
6.250064559
 21
3.608003814
  0
LINE
  5
30A
100
AcDbEntity
  8
0
100
AcDbLine
 62
7
  6
CONTINUOUS
 10
6.2519754115
 20
4.058003814
 11
6.2519754115
 21
3.608003814
  0
LINE
  5
30B
100
AcDbEntity
  8
0
100
AcDbLine
 62
7
  6
CONTINUOUS
 10
6.2544140406
 20
4.058003814
 11
6.2544140406
 21
3.608003814
  0
LINE
  5
30C
100
AcDbEntity
  8
0
100
AcDbLine
 62
7
  6
CONTINUOUS
 10
6.2575783409
 20
4.058003814
 11
6.2575783409
 21
3.608003814
  0
LINE
  5
30D
100
AcDbEntity
  8
0
100
AcDbLine
 62
7
  6
CONTINUOUS
 10
6.2581252115
 20
2.738003814
 11
6.2581252115
 21
3.578003814
  0
LINE
  5
30E
100
AcDbEntity
  8
0
100
AcDbLine
 62
7
  6
CONTINUOUS
 10
6.2582033487
 20
3.6235038148
 11
6.2582033487
 21
4.0585038443
  0
LINE
  5
30F
100
AcDbEntity
  8
0
100
AcDbLine
 62
7
  6
CONTINUOUS
 10
6.2587941837
 20
3.623503814
 11
6.2587941837
 21
4.058503814
  0
LINE
  5
310
100
AcDbEntity
  8
0
100
AcDbLine
 62
7
  6
CONTINUOUS
 10
6.260019398
 20
3.623503814
 11
6.260019398
 21
4.058503814
  0
LINE
  5
311
100
AcDbEntity
  8
0
100
AcDbLine
 62
7
  6
CONTINUOUS
 10
6.2612068994
 20
3.6144375767
 11
6.2612068994
 21
3.608003814
  0
LINE
  5
312
100
AcDbEntity
  8
0
100
AcDbLine
 62
7
  6
CONTINUOUS
 10
6.2617862127
 20
3.623503814
 11
6.2617862127
 21
4.058503814
  0
LINE
  5
313
100
AcDbEntity
  8
0
100
AcDbLine
 62
7
  6
CONTINUOUS
 10
6.2642248418
 20
3.623503814
 11
6.2642248418
 21
4.058503814
  0
LINE
  5
314
100
AcDbEntity
  8
0
100
AcDbLine
 62
7
  6
CONTINUOUS
 10
6.2655941737
 20
3.6104981134
 11
6.2655941737
 21
3.608003814
  0
LINE
  5
315
100
AcDbEntity
  8
0
100
AcDbLine
 62
7
  6
CONTINUOUS
 10
6.2656252115
 20
3.608003814
 11
6.2656252115
 21
3.5909941951
  0
LINE
  5
316
100
AcDbEntity
  8
0
100
AcDbLine
 62
7
  6
CONTINUOUS
 10
6.267150621
 20
3.623503814
 11
6.267150621
 21
4.058503814
  0
LINE
  5
317
100
AcDbEntity
  8
0
100
AcDbLine
 62
7
  6
CONTINUOUS
 10
6.2703777166
 20
3.6087600969
 11
6.2703777166
 21
3.608003814
  0
LINE
  5
318
100
AcDbEntity
  8
0
100
AcDbLine
 62
7
  6
CONTINUOUS
 10
6.2707791795
 20
3.623503814
 11
6.2707791795
 21
4.058503814
  0
LINE
  5
319
100
AcDbEntity
  8
0
100
AcDbLine
 62
7
  6
CONTINUOUS
 10
6.2748357463
 20
3.623503814
 11
6.2748357463
 21
4.058503814
  0
LINE
  5
31A
100
AcDbEntity
  8
0
100
AcDbLine
 62
7
  6
CONTINUOUS
 10
6.2759457129
 20
3.608503814
 11
6.2759457129
 21
3.608003814
  0
LINE
  5
31B
100
AcDbEntity
  8
0
100
AcDbLine
 62
7
  6
CONTINUOUS
 10
6.2796192892
 20
3.623503814
 11
6.2796192892
 21
4.058503814
  0
LINE
  5
31C
100
AcDbEntity
  8
0
100
AcDbLine
 62
7
  6
CONTINUOUS
 10
6.2818381721
 20
3.608503814
 11
6.2818381721
 21
3.608003814
  0
LINE
  5
31D
100
AcDbEntity
  8
0
100
AcDbLine
 62
7
  6
CONTINUOUS
 10
6.2847675767
 20
3.623503814
 11
6.2847675767
 21
4.058503814
  0
LINE
  5
31E
100
AcDbEntity
  8
0
100
AcDbLine
 62
7
  6
CONTINUOUS
 10
6.2885332676
 20
3.608503814
 11
6.2885332676
 21
3.608003814
  0
LINE
  5
31F
100
AcDbEntity
  8
0
100
AcDbLine
 62
7
  6
CONTINUOUS
 10
6.2893752115
 20
4.073503814
 11
6.2893752115
 21
5.406003814
  0
LINE
  5
320
100
AcDbEntity
  8
0
100
AcDbLine
 62
7
  6
CONTINUOUS
 10
6.2906600359
 20
3.623503814
 11
6.2906600359
 21
4.058503814
  0
LINE
  5
321
100
AcDbEntity
  8
0
100
AcDbLine
 62
7
  6
CONTINUOUS
 10
6.2954778955
 20
3.608503814
 11
6.2954778955
 21
3.608003814
  0
LINE
  5
322
100
AcDbEntity
  8
0
100
AcDbLine
 62
7
  6
CONTINUOUS
 10
6.2956252115
 20
2.728003814
 11
6.2956252115
 21
2.723003814
  0
LINE
  5
323
100
AcDbEntity
  8
0
100
AcDbLine
 62
7
  6
CONTINUOUS
 10
6.2968504632
 20
3.623503814
 11
6.2968504632
 21
4.058503814
  0
LINE
  5
324
100
AcDbEntity
  8
0
100
AcDbLine
 62
7
  6
CONTINUOUS
 10
6.3032356127
 20
3.608503814
 11
6.3032356127
 21
3.608003814
  0
LINE
  5
325
100
AcDbEntity
  8
0
100
AcDbLine
 62
7
  6
CONTINUOUS
 10
6.3037950911
 20
3.623503814
 11
6.3037950911
 21
4.058503814
  0
LINE
  5
326
100
AcDbEntity
  8
0
100
AcDbLine
 62
7
  6
CONTINUOUS
 10
6.310968041
 20
3.623503814
 11
6.310968041
 21
4.058503814
  0
LINE
  5
327
100
AcDbEntity
  8
0
100
AcDbLine
 62
7
  6
CONTINUOUS
 10
6.3111655288
 20
3.608503814
 11
6.3111655288
 21
3.608003814
  0
LINE
  5
328
100
AcDbEntity
  8
0
100
AcDbLine
 62
7
  6
CONTINUOUS
 10
6.3188979571
 20
3.623503814
 11
6.3188979571
 21
4.058503814
  0
LINE
  5
329
100
AcDbEntity
  8
0
100
AcDbLine
 62
7
  6
CONTINUOUS
 10
6.3199111567
 20
3.608503814
 11
6.3199111567
 21
3.608003814
  0
LINE
  5
32A
100
AcDbEntity
  8
0
100
AcDbLine
 62
7
  6
CONTINUOUS
 10
6.3269843502
 20
3.623503814
 11
6.3269843502
 21
4.058503814
  0
LINE
  5
32B
100
AcDbEntity
  8
0
100
AcDbLine
 62
7
  6
CONTINUOUS
 10
6.3287499915
 20
3.608503814
 11
6.3287499915
 21
3.608003814
  0
LINE
  5
32C
100
AcDbEntity
  8
0
100
AcDbLine
 62
7
  6
CONTINUOUS
 10
6.335823185
 20
3.623503814
 11
6.335823185
 21
4.058503814
  0
LINE
  5
32D
100
AcDbEntity
  8
0
100
AcDbLine
 62
7
  6
CONTINUOUS
 10
6.3383993049
 20
3.608503814
 11
6.3383993049
 21
3.608003814
  0
LINE
  5
32E
100
AcDbEntity
  8
0
100
AcDbLine
 62
7
  6
CONTINUOUS
 10
6.3447451449
 20
3.623503814
 11
6.3447451449
 21
4.058503814
  0
LINE
  5
32F
100
AcDbEntity
  8
0
100
AcDbLine
 62
7
  6
CONTINUOUS
 10
6.3479558733
 20
3.608503814
 11
6.3479558733
 21
3.608003814
  0
LINE
  5
330
100
AcDbEntity
  8
0
100
AcDbLine
 62
7
  6
CONTINUOUS
 10
6.3480619356
 20
3.608503814
 11
6.3480619356
 21
3.608003814
  0
LINE
  5
331
100
AcDbEntity
  8
0
100
AcDbLine
 62
7
  6
CONTINUOUS
 10
6.3543017132
 20
3.6104981134
 11
6.3543017132
 21
4.0715095147
  0
LINE
  5
332
100
AcDbEntity
  8
0
100
AcDbLine
 62
7
  6
CONTINUOUS
 10
6.3544077755
 20
3.623503814
 11
6.3544077755
 21
4.058503814
  0
LINE
  5
333
100
AcDbEntity
  8
0
100
AcDbLine
 62
7
  6
CONTINUOUS
 10
6.3585220064
 20
3.608503814
 11
6.3585220064
 21
3.608003814
  0
LINE
  5
334
100
AcDbEntity
  8
0
100
AcDbLine
 62
7
  6
CONTINUOUS
 10
6.3640793789
 20
3.623503814
 11
6.3640793789
 21
4.058503814
  0
LINE
  5
335
100
AcDbEntity
  8
0
100
AcDbLine
 62
7
  6
CONTINUOUS
 10
6.3678568342
 20
3.608503814
 11
6.3678568342
 21
3.608003814
  0
LINE
  5
336
100
AcDbEntity
  8
0
100
AcDbLine
 62
7
  6
CONTINUOUS
 10
6.3689153766
 20
3.608503814
 11
6.3689153766
 21
3.608003814
  0
LINE
  5
337
100
AcDbEntity
  8
0
100
AcDbLine
 62
7
  6
CONTINUOUS
 10
6.3734142066
 20
3.6104981134
 11
6.3734142066
 21
4.0715095147
  0
LINE
  5
338
100
AcDbEntity
  8
0
100
AcDbLine
 62
7
  6
CONTINUOUS
 10
6.3744727491
 20
3.623503814
 11
6.3744727491
 21
4.058503814
  0
LINE
  5
339
100
AcDbEntity
  8
0
100
AcDbLine
 62
7
  6
CONTINUOUS
 10
6.3781252115
 20
3.608503814
 11
6.3781252115
 21
3.593003814
  0
LINE
  5
33A
100
AcDbEntity
  8
0
100
AcDbLine
 62
7
  6
CONTINUOUS
 10
6.3848008531
 20
3.623503814
 11
6.3848008531
 21
4.058503814
  0
LINE
  5
33B
100
AcDbEntity
  8
0
100
AcDbLine
 62
7
  6
CONTINUOUS
 10
6.3938240407
 20
3.6104981134
 11
6.3938240407
 21
4.0715095147
  0
LINE
  5
33C
100
AcDbEntity
  8
0
100
AcDbLine
 62
7
  6
CONTINUOUS
 10
6.3958248689
 20
3.623503814
 11
6.3958248689
 21
4.058503814
  0
LINE
  5
33D
100
AcDbEntity
  8
0
100
AcDbLine
 62
7
  6
CONTINUOUS
 10
6.4067100082
 20
3.623503814
 11
6.4067100082
 21
4.058503814
  0
LINE
  5
33E
100
AcDbEntity
  8
0
100
AcDbLine
 62
7
  6
CONTINUOUS
 10
6.4153346575
 20
3.6104981134
 11
6.4153346575
 21
4.0715095147
  0
LINE
  5
33F
100
AcDbEntity
  8
0
100
AcDbLine
 62
7
  6
CONTINUOUS
 10
6.4182585023
 20
3.623503814
 11
6.4182585023
 21
4.058503814
  0
LINE
  5
340
100
AcDbEntity
  8
0
100
AcDbLine
 62
7
  6
CONTINUOUS
 10
6.4295958472
 20
3.623503814
 11
6.4295958472
 21
4.058503814
  0
LINE
  5
341
100
AcDbEntity
  8
0
100
AcDbLine
 62
7
  6
CONTINUOUS
 10
6.437738898
 20
3.6104981134
 11
6.437738898
 21
4.0715095147
  0
LINE
  5
342
100
AcDbEntity
  8
0
100
AcDbLine
 62
7
  6
CONTINUOUS
 10
6.4415726255
 20
3.732003814
 11
6.4415726255
 21
4.035003814
  0
LINE
  5
343
100
AcDbEntity
  8
0
100
AcDbLine
 62
7
  6
CONTINUOUS
 10
6.4456252115
 20
4.036003814
 11
6.4456252115
 21
3.731003814
  0
LINE
  5
344
100
AcDbEntity
  8
0
100
AcDbLine
 62
7
  6
CONTINUOUS
 10
6.4532379668
 20
3.623503814
 11
6.4532379668
 21
3.7173912656
  0
LINE
  5
345
100
AcDbEntity
  8
0
100
AcDbLine
 62
7
  6
CONTINUOUS
 10
6.4532379668
 20
4.0496163625
 11
6.4532379668
 21
4.058503814
  0
LINE
  5
346
100
AcDbEntity
  8
0
100
AcDbLine
 62
7
  6
CONTINUOUS
 10
6.4556252115
 20
3.721003814
 11
6.4556252115
 21
4.046003814
  0
LINE
  5
347
100
AcDbEntity
  8
0
100
AcDbLine
 62
7
  6
CONTINUOUS
 10
6.4608209973
 20
3.6104981134
 11
6.4608209973
 21
3.717003814
  0
LINE
  5
348
100
AcDbEntity
  8
0
100
AcDbLine
 62
7
  6
CONTINUOUS
 10
6.4608209973
 20
4.050003814
 11
6.4608209973
 21
4.0715095147
  0
LINE
  5
349
100
AcDbEntity
  8
0
100
AcDbLine
 62
7
  6
CONTINUOUS
 10
6.4654977828
 20
3.623503814
 11
6.4654977828
 21
3.717003814
  0
LINE
  5
34A
100
AcDbEntity
  8
0
100
AcDbLine
 62
7
  6
CONTINUOUS
 10
6.4654977828
 20
4.050003814
 11
6.4654977828
 21
4.058503814
  0
LINE
  5
34B
100
AcDbEntity
  8
0
100
AcDbLine
 62
7
  6
CONTINUOUS
 10
6.4774086807
 20
3.623503814
 11
6.4774086807
 21
3.717003814
  0
LINE
  5
34C
100
AcDbEntity
  8
0
100
AcDbLine
 62
7
  6
CONTINUOUS
 10
6.4774086807
 20
4.050003814
 11
6.4774086807
 21
4.058503814
  0
LINE
  5
34D
100
AcDbEntity
  8
0
100
AcDbLine
 62
7
  6
CONTINUOUS
 10
6.484358662
 20
3.6104981134
 11
6.484358662
 21
3.717003814
  0
LINE
  5
34E
100
AcDbEntity
  8
0
100
AcDbLine
 62
7
  6
CONTINUOUS
 10
6.484358662
 20
4.050003814
 11
6.484358662
 21
4.0715095147
  0
LINE
  5
34F
100
AcDbEntity
  8
0
100
AcDbLine
 62
7
  6
CONTINUOUS
 10
6.4898484898
 20
3.623503814
 11
6.4898484898
 21
3.717003814
  0
LINE
  5
350
100
AcDbEntity
  8
0
100
AcDbLine
 62
7
  6
CONTINUOUS
 10
6.4898484898
 20
4.050003814
 11
6.4898484898
 21
4.058503814
  0
LINE
  5
351
100
AcDbEntity
  8
0
100
AcDbLine
 62
7
  6
CONTINUOUS
 10
6.5018752115
 20
3.623503814
 11
6.5018752115
 21
3.717003814
  0
LINE
  5
352
100
AcDbEntity
  8
0
100
AcDbLine
 62
7
  6
CONTINUOUS
 10
6.5018752115
 20
4.050003814
 11
6.5018752115
 21
4.058503814
  0
LINE
  5
353
100
AcDbEntity
  8
0
100
AcDbLine
 62
7
  6
CONTINUOUS
 10
6.5081252115
 20
3.6104981134
 11
6.5081252115
 21
3.717003814
  0
LINE
  5
354
100
AcDbEntity
  8
0
100
AcDbLine
 62
7
  6
CONTINUOUS
 10
6.5081252115
 20
4.050003814
 11
6.5081252115
 21
4.0715095147
  0
LINE
  5
355
100
AcDbEntity
  8
0
100
AcDbLine
 62
7
  6
CONTINUOUS
 10
6.5143752115
 20
3.623503814
 11
6.5143752115
 21
3.717003814
  0
LINE
  5
356
100
AcDbEntity
  8
0
100
AcDbLine
 62
7
  6
CONTINUOUS
 10
6.5143752115
 20
4.050003814
 11
6.5143752115
 21
4.058503814
  0
LINE
  5
357
100
AcDbEntity
  8
0
100
AcDbLine
 62
7
  6
CONTINUOUS
 10
6.5264019333
 20
3.623503814
 11
6.5264019333
 21
3.717003814
  0
LINE
  5
358
100
AcDbEntity
  8
0
100
AcDbLine
 62
7
  6
CONTINUOUS
 10
6.5264019333
 20
4.050003814
 11
6.5264019333
 21
4.058503814
  0
LINE
  5
359
100
AcDbEntity
  8
0
100
AcDbLine
 62
7
  6
CONTINUOUS
 10
6.5318917611
 20
3.6104981134
 11
6.5318917611
 21
3.717003814
  0
LINE
  5
35A
100
AcDbEntity
  8
0
100
AcDbLine
 62
7
  6
CONTINUOUS
 10
6.5318917611
 20
4.050003814
 11
6.5318917611
 21
4.0715095147
  0
LINE
  5
35B
100
AcDbEntity
  8
0
100
AcDbLine
 62
7
  6
CONTINUOUS
 10
6.5388417424
 20
3.623503814
 11
6.5388417424
 21
3.717003814
  0
LINE
  5
35C
100
AcDbEntity
  8
0
100
AcDbLine
 62
7
  6
CONTINUOUS
 10
6.5388417424
 20
4.050003814
 11
6.5388417424
 21
4.058503814
  0
LINE
  5
35D
100
AcDbEntity
  8
0
100
AcDbLine
 62
7
  6
CONTINUOUS
 10
6.5507526402
 20
3.623503814
 11
6.5507526402
 21
3.717003814
  0
LINE
  5
35E
100
AcDbEntity
  8
0
100
AcDbLine
 62
7
  6
CONTINUOUS
 10
6.5507526402
 20
4.050003814
 11
6.5507526402
 21
4.058503814
  0
LINE
  5
35F
100
AcDbEntity
  8
0
100
AcDbLine
 62
7
  6
CONTINUOUS
 10
6.5554294258
 20
3.6104981134
 11
6.5554294258
 21
3.717003814
  0
LINE
  5
360
100
AcDbEntity
  8
0
100
AcDbLine
 62
7
  6
CONTINUOUS
 10
6.5554294258
 20
4.050003814
 11
6.5554294258
 21
4.0715095147
  0
LINE
  5
361
100
AcDbEntity
  8
0
100
AcDbLine
 62
7
  6
CONTINUOUS
 10
6.5606252115
 20
3.721003814
 11
6.5606252115
 21
4.046003814
  0
LINE
  5
362
100
AcDbEntity
  8
0
100
AcDbLine
 62
7
  6
CONTINUOUS
 10
6.5630124562
 20
4.058503814
 11
6.5630124562
 21
4.0496163625
  0
LINE
  5
363
100
AcDbEntity
  8
0
100
AcDbLine
 62
7
  6
CONTINUOUS
 10
6.5630124562
 20
3.7173912656
 11
6.5630124562
 21
3.623503814
  0
LINE
  5
364
100
AcDbEntity
  8
0
100
AcDbLine
 62
7
  6
CONTINUOUS
 10
6.5706252115
 20
4.036003814
 11
6.5706252115
 21
3.731003814
  0
LINE
  5
365
100
AcDbEntity
  8
0
100
AcDbLine
 62
7
  6
CONTINUOUS
 10
6.5746777975
 20
3.732003814
 11
6.5746777975
 21
4.035003814
  0
LINE
  5
366
100
AcDbEntity
  8
0
100
AcDbLine
 62
7
  6
CONTINUOUS
 10
6.578511525
 20
3.6104981134
 11
6.578511525
 21
4.0715095147
  0
LINE
  5
367
100
AcDbEntity
  8
0
100
AcDbLine
 62
7
  6
CONTINUOUS
 10
6.5866545759
 20
3.623503814
 11
6.5866545759
 21
4.058503814
  0
LINE
  5
368
100
AcDbEntity
  8
0
100
AcDbLine
 62
7
  6
CONTINUOUS
 10
6.5979919207
 20
3.623503814
 11
6.5979919207
 21
4.058503814
  0
LINE
  5
369
100
AcDbEntity
  8
0
100
AcDbLine
 62
7
  6
CONTINUOUS
 10
6.6009157656
 20
3.6104981134
 11
6.6009157656
 21
4.0715095147
  0
LINE
  5
36A
100
AcDbEntity
  8
0
100
AcDbLine
 62
7
  6
CONTINUOUS
 10
6.6095404149
 20
3.623503814
 11
6.6095404149
 21
4.058503814
  0
LINE
  5
36B
100
AcDbEntity
  8
0
100
AcDbLine
 62
7
  6
CONTINUOUS
 10
6.6204255542
 20
3.623503814
 11
6.6204255542
 21
4.058503814
  0
LINE
  5
36C
100
AcDbEntity
  8
0
100
AcDbLine
 62
7
  6
CONTINUOUS
 10
6.6224263824
 20
3.6104981134
 11
6.6224263824
 21
4.0715095147
  0
LINE
  5
36D
100
AcDbEntity
  8
0
100
AcDbLine
 62
7
  6
CONTINUOUS
 10
6.63144957
 20
3.623503814
 11
6.63144957
 21
4.058503814
  0
LINE
  5
36E
100
AcDbEntity
  8
0
100
AcDbLine
 62
7
  6
CONTINUOUS
 10
6.6381252115
 20
3.608503814
 11
6.6381252115
 21
3.593003814
  0
LINE
  5
36F
100
AcDbEntity
  8
0
100
AcDbLine
 62
7
  6
CONTINUOUS
 10
6.641777674
 20
3.623503814
 11
6.641777674
 21
4.058503814
  0
LINE
  5
370
100
AcDbEntity
  8
0
100
AcDbLine
 62
7
  6
CONTINUOUS
 10
6.6428362164
 20
3.6104981134
 11
6.6428362164
 21
4.0715095147
  0
LINE
  5
371
100
AcDbEntity
  8
0
100
AcDbLine
 62
7
  6
CONTINUOUS
 10
6.6473350465
 20
3.608503814
 11
6.6473350465
 21
3.608003814
  0
LINE
  5
372
100
AcDbEntity
  8
0
100
AcDbLine
 62
7
  6
CONTINUOUS
 10
6.6483935889
 20
3.608503814
 11
6.6483935889
 21
3.608003814
  0
LINE
  5
373
100
AcDbEntity
  8
0
100
AcDbLine
 62
7
  6
CONTINUOUS
 10
6.6521710442
 20
3.623503814
 11
6.6521710442
 21
4.058503814
  0
LINE
  5
374
100
AcDbEntity
  8
0
100
AcDbLine
 62
7
  6
CONTINUOUS
 10
6.6577284166
 20
3.608503814
 11
6.6577284166
 21
3.608003814
  0
LINE
  5
375
100
AcDbEntity
  8
0
100
AcDbLine
 62
7
  6
CONTINUOUS
 10
6.6618426475
 20
3.623503814
 11
6.6618426475
 21
4.058503814
  0
LINE
  5
376
100
AcDbEntity
  8
0
100
AcDbLine
 62
7
  6
CONTINUOUS
 10
6.6619487099
 20
3.6104981134
 11
6.6619487099
 21
4.0715095147
  0
LINE
  5
377
100
AcDbEntity
  8
0
100
AcDbLine
 62
7
  6
CONTINUOUS
 10
6.6681884875
 20
3.608503814
 11
6.6681884875
 21
3.608003814
  0
LINE
  5
378
100
AcDbEntity
  8
0
100
AcDbLine
 62
7
  6
CONTINUOUS
 10
6.6682945498
 20
3.608503814
 11
6.6682945498
 21
3.608003814
  0
LINE
  5
379
100
AcDbEntity
  8
0
100
AcDbLine
 62
7
  6
CONTINUOUS
 10
6.6715052782
 20
3.623503814
 11
6.6715052782
 21
4.058503814
  0
LINE
  5
37A
100
AcDbEntity
  8
0
100
AcDbLine
 62
7
  6
CONTINUOUS
 10
6.6778511181
 20
3.608503814
 11
6.6778511181
 21
3.608003814
  0
LINE
  5
37B
100
AcDbEntity
  8
0
100
AcDbLine
 62
7
  6
CONTINUOUS
 10
6.6804272381
 20
3.623503814
 11
6.6804272381
 21
4.058503814
  0
LINE
  5
37C
100
AcDbEntity
  8
0
100
AcDbLine
 62
7
  6
CONTINUOUS
 10
6.6875004316
 20
3.608503814
 11
6.6875004316
 21
3.608003814
  0
LINE
  5
37D
100
AcDbEntity
  8
0
100
AcDbLine
 62
7
  6
CONTINUOUS
 10
6.6892660729
 20
3.623503814
 11
6.6892660729
 21
4.058503814
  0
LINE
  5
37E
100
AcDbEntity
  8
0
100
AcDbLine
 62
7
  6
CONTINUOUS
 10
6.6963392664
 20
3.608503814
 11
6.6963392664
 21
3.608003814
  0
LINE
  5
37F
100
AcDbEntity
  8
0
100
AcDbLine
 62
7
  6
CONTINUOUS
 10
6.697352466
 20
3.623503814
 11
6.697352466
 21
4.058503814
  0
LINE
  5
380
100
AcDbEntity
  8
0
100
AcDbLine
 62
7
  6
CONTINUOUS
 10
6.7050848943
 20
3.608503814
 11
6.7050848943
 21
3.608003814
  0
LINE
  5
381
100
AcDbEntity
  8
0
100
AcDbLine
 62
7
  6
CONTINUOUS
 10
6.705282382
 20
3.623503814
 11
6.705282382
 21
4.058503814
  0
LINE
  5
382
100
AcDbEntity
  8
0
100
AcDbLine
 62
7
  6
CONTINUOUS
 10
6.7124553319
 20
3.623503814
 11
6.7124553319
 21
4.058503814
  0
LINE
  5
383
100
AcDbEntity
  8
0
100
AcDbLine
 62
7
  6
CONTINUOUS
 10
6.7130148103
 20
3.608503814
 11
6.7130148103
 21
3.608003814
  0
LINE
  5
384
100
AcDbEntity
  8
0
100
AcDbLine
 62
7
  6
CONTINUOUS
 10
6.7193999598
 20
3.623503814
 11
6.7193999598
 21
4.058503814
  0
LINE
  5
385
100
AcDbEntity
  8
0
100
AcDbLine
 62
7
  6
CONTINUOUS
 10
6.7206252115
 20
2.728003814
 11
6.7206252115
 21
2.723003814
  0
LINE
  5
386
100
AcDbEntity
  8
0
100
AcDbLine
 62
7
  6
CONTINUOUS
 10
6.7207725276
 20
3.608503814
 11
6.7207725276
 21
3.608003814
  0
LINE
  5
387
100
AcDbEntity
  8
0
100
AcDbLine
 62
7
  6
CONTINUOUS
 10
6.7255903871
 20
3.623503814
 11
6.7255903871
 21
4.058503814
  0
LINE
  5
388
100
AcDbEntity
  8
0
100
AcDbLine
 62
7
  6
CONTINUOUS
 10
6.7268752115
 20
4.073503814
 11
6.7268752115
 21
5.406003814
  0
LINE
  5
389
100
AcDbEntity
  8
0
100
AcDbLine
 62
7
  6
CONTINUOUS
 10
6.7277171555
 20
3.608503814
 11
6.7277171555
 21
3.608003814
  0
LINE
  5
38A
100
AcDbEntity
  8
0
100
AcDbLine
 62
7
  6
CONTINUOUS
 10
6.7314828464
 20
3.623503814
 11
6.7314828464
 21
4.058503814
  0
LINE
  5
38B
100
AcDbEntity
  8
0
100
AcDbLine
 62
7
  6
CONTINUOUS
 10
6.734412251
 20
3.608503814
 11
6.734412251
 21
3.608003814
  0
LINE
  5
38C
100
AcDbEntity
  8
0
100
AcDbLine
 62
7
  6
CONTINUOUS
 10
6.7366311338
 20
3.623503814
 11
6.7366311338
 21
4.058503814
  0
LINE
  5
38D
100
AcDbEntity
  8
0
100
AcDbLine
 62
7
  6
CONTINUOUS
 10
6.7403047102
 20
3.608503814
 11
6.7403047102
 21
3.608003814
  0
LINE
  5
38E
100
AcDbEntity
  8
0
100
AcDbLine
 62
7
  6
CONTINUOUS
 10
6.7414146767
 20
3.623503814
 11
6.7414146767
 21
4.058503814
  0
LINE
  5
38F
100
AcDbEntity
  8
0
100
AcDbLine
 62
7
  6
CONTINUOUS
 10
6.7454712436
 20
3.623503814
 11
6.7454712436
 21
4.058503814
  0
LINE
  5
390
100
AcDbEntity
  8
0
100
AcDbLine
 62
7
  6
CONTINUOUS
 10
6.7458727065
 20
3.6087600969
 11
6.7458727065
 21
3.608003814
  0
LINE
  5
391
100
AcDbEntity
  8
0
100
AcDbLine
 62
7
  6
CONTINUOUS
 10
6.7490998021
 20
3.623503814
 11
6.7490998021
 21
4.058503814
  0
LINE
  5
392
100
AcDbEntity
  8
0
100
AcDbLine
 62
7
  6
CONTINUOUS
 10
6.7506252115
 20
3.608003814
 11
6.7506252115
 21
3.5909941951
  0
LINE
  5
393
100
AcDbEntity
  8
0
100
AcDbLine
 62
7
  6
CONTINUOUS
 10
6.7506562494
 20
3.6104981134
 11
6.7506562494
 21
3.608003814
  0
LINE
  5
394
100
AcDbEntity
  8
0
100
AcDbLine
 62
7
  6
CONTINUOUS
 10
6.7520255813
 20
3.623503814
 11
6.7520255813
 21
4.058503814
  0
LINE
  5
395
100
AcDbEntity
  8
0
100
AcDbLine
 62
7
  6
CONTINUOUS
 10
6.7544642103
 20
3.623503814
 11
6.7544642103
 21
4.058503814
  0
LINE
  5
396
100
AcDbEntity
  8
0
100
AcDbLine
 62
7
  6
CONTINUOUS
 10
6.7550435237
 20
3.6144375767
 11
6.7550435237
 21
3.608003814
  0
LINE
  5
397
100
AcDbEntity
  8
0
100
AcDbLine
 62
7
  6
CONTINUOUS
 10
6.7562310251
 20
3.623503814
 11
6.7562310251
 21
4.058503814
  0
LINE
  5
398
100
AcDbEntity
  8
0
100
AcDbLine
 62
7
  6
CONTINUOUS
 10
6.7574562394
 20
3.623503814
 11
6.7574562394
 21
4.058503814
  0
LINE
  5
399
100
AcDbEntity
  8
0
100
AcDbLine
 62
7
  6
CONTINUOUS
 10
6.7580470743
 20
3.623503814
 11
6.7580470743
 21
4.058503814
  0
LINE
  5
39A
100
AcDbEntity
  8
0
100
AcDbLine
 62
7
  6
CONTINUOUS
 10
6.7581252115
 20
2.738003814
 11
6.7581252115
 21
3.578003814
  0
LINE
  5
39B
100
AcDbEntity
  8
0
100
AcDbLine
 62
7
  6
CONTINUOUS
 10
6.7586720821
 20
4.058003814
 11
6.7586720821
 21
3.608003814
  0
LINE
  5
39C
100
AcDbEntity
  8
0
100
AcDbLine
 62
7
  6
CONTINUOUS
 10
6.7618363825
 20
4.058003814
 11
6.7618363825
 21
3.608003814
  0
LINE
  5
39D
100
AcDbEntity
  8
0
100
AcDbLine
 62
7
  6
CONTINUOUS
 10
6.7642750115
 20
4.058003814
 11
6.7642750115
 21
3.608003814
  0
LINE
  5
39E
100
AcDbEntity
  8
0
100
AcDbLine
 62
7
  6
CONTINUOUS
 10
6.7661858641
 20
4.058003814
 11
6.7661858641
 21
3.608003814
  0
LINE
  5
39F
100
AcDbEntity
  8
0
100
AcDbLine
 62
7
  6
CONTINUOUS
 10
6.7674110783
 20
4.058003814
 11
6.7674110783
 21
3.608003814
  0
LINE
  5
3A0
100
AcDbEntity
  8
0
100
AcDbLine
 62
7
  6
CONTINUOUS
 10
6.7680500805
 20
4.058003814
 11
6.7680500805
 21
3.608003814
  0
LINE
  5
3A1
100
AcDbEntity
  8
0
100
AcDbLine
 62
7
  6
CONTINUOUS
 10
7.0706252115
 20
2.5863045793
 11
7.0706252115
 21
2.473003814
  0
ARC
  5
3A2
100
AcDbEntity
  8
0
100
AcDbCircle
 62
7
  6
CONTINUOUS
 10
5.1331252115
 20
5.406003814
 40
1.59375
100
AcDbArc
 50
0.0
 51
172.0
  0
ARC
  5
3A3
100
AcDbEntity
  8
0
100
AcDbCircle
 62
7
  6
CONTINUOUS
 10
5.1331252115
 20
5.406003814
 40
1.15625
100
AcDbArc
 50
0.0
 51
172.0
  0
ARC
  5
3A4
100
AcDbEntity
  8
0
100
AcDbCircle
 62
7
  6
CONTINUOUS
 10
3.4636401463
 20
5.0953277495
 40
0.015
100
AcDbArc
 50
232.1172410997
 51
262.0
  0
ARC
  5
3A5
100
AcDbEntity
  8
0
100
AcDbCircle
 62
7
  6
CONTINUOUS
 10
3.9290661386
 20
5.029916392
 40
0.015
100
AcDbArc
 50
262.0
 51
291.8827589003
  0
ARC
  5
3A6
100
AcDbEntity
  8
0
100
AcDbCircle
 62
7
  6
CONTINUOUS
 10
3.5158300592
 20
5.4666782752
 40
0.015
100
AcDbArc
 50
82.0
 51
111.8827589035
  0
ARC
  5
3A7
100
AcDbEntity
  8
0
100
AcDbCircle
 62
7
  6
CONTINUOUS
 10
3.9812560515
 20
5.4012669178
 40
0.015
100
AcDbArc
 50
52.1172410965
 51
82.0
  0
ARC
  5
3A8
100
AcDbEntity
  8
0
100
AcDbCircle
 62
7
  6
CONTINUOUS
 10
7.147437821
 20
3.8456415111
 40
1.25
100
AcDbArc
 50
254.9522620167
 51
265.9433556899
  0
ARC
  5
3A9
100
AcDbEntity
  8
0
100
AcDbCircle
 62
7
  6
CONTINUOUS
 10
5.8688126021
 20
3.8456415111
 40
1.25
100
AcDbArc
 50
274.0566443101
 51
285.0477379833
  0
ARC
  5
3AA
100
AcDbEntity
  8
0
100
AcDbCircle
 62
7
  6
CONTINUOUS
 10
6.1706252115
 20
2.723003814
 40
0.0875
100
AcDbArc
 50
285.0477379833
 51
351.5850319153
  0
ARC
  5
3AB
100
AcDbEntity
  8
0
100
AcDbCircle
 62
7
  6
CONTINUOUS
 10
6.8456252115
 20
2.723003814
 40
0.0875
100
AcDbArc
 50
188.4149680847
 51
254.9522620167
  0
ARC
  5
3AC
100
AcDbEntity
  8
0
100
AcDbCircle
 62
7
  6
CONTINUOUS
 10
6.2731252115
 20
3.623503814
 40
0.015
100
AcDbArc
 50
240.1172411104
 51
270.0
  0
ARC
  5
3AD
100
AcDbEntity
  8
0
100
AcDbCircle
 62
7
  6
CONTINUOUS
 10
6.7431252115
 20
3.623503814
 40
0.015
100
AcDbArc
 50
270.0
 51
299.8827588896
  0
ARC
  5
3AE
100
AcDbEntity
  8
0
100
AcDbCircle
 62
7
  6
CONTINUOUS
 10
6.2731252115
 20
2.743003814
 40
0.015
100
AcDbArc
 50
180.0
 51
270.0
  0
ARC
  5
3AF
100
AcDbEntity
  8
0
100
AcDbCircle
 62
7
  6
CONTINUOUS
 10
6.7431252115
 20
2.743003814
 40
0.015
100
AcDbArc
 50
270.0
 51
360.0
  0
ARC
  5
3B0
100
AcDbEntity
  8
0
100
AcDbCircle
 62
7
  6
CONTINUOUS
 10
6.2731252115
 20
3.578003814
 40
0.015
100
AcDbArc
 50
90.0
 51
180.0
  0
ARC
  5
3B1
100
AcDbEntity
  8
0
100
AcDbCircle
 62
7
  6
CONTINUOUS
 10
6.7431252115
 20
3.578003814
 40
0.015
100
AcDbArc
 50
0.0
 51
90.0
  0
ARC
  5
3B2
100
AcDbEntity
  8
0
100
AcDbCircle
 62
7
  6
CONTINUOUS
 10
6.2720217105
 20
2.708003814
 40
0.015
100
AcDbArc
 50
90.0
 51
171.5850319153
  0
ARC
  5
3B3
100
AcDbEntity
  8
0
100
AcDbCircle
 62
7
  6
CONTINUOUS
 10
6.7442287126
 20
2.708003814
 40
0.015
100
AcDbArc
 50
8.4149680847
 51
90.0
  0
ARC
  5
3B4
100
AcDbEntity
  8
0
100
AcDbCircle
 62
7
  6
CONTINUOUS
 10
5.9606252115
 20
2.5839777505
 40
0.015
100
AcDbArc
 50
94.1621379224
 51
180.0
  0
ARC
  5
3B5
100
AcDbEntity
  8
0
100
AcDbCircle
 62
7
  6
CONTINUOUS
 10
7.0556252115
 20
2.5839777505
 40
0.015
100
AcDbArc
 50
0.0
 51
85.8378620776
  0
ARC
  5
3B6
100
AcDbEntity
  8
0
100
AcDbCircle
 62
7
  6
CONTINUOUS
 10
6.7431252115
 20
2.738003814
 40
0.015
100
AcDbArc
 50
272.5
 51
360.0
  0
ARC
  5
3B7
100
AcDbEntity
  8
0
100
AcDbCircle
 62
7
  6
CONTINUOUS
 10
6.2731252115
 20
2.738003814
 40
0.015
100
AcDbArc
 50
180.0
 51
267.5
  0
ARC
  5
3B8
100
AcDbEntity
  8
0
100
AcDbCircle
 62
7
  6
CONTINUOUS
 10
6.5596252115
 20
3.732003814
 40
0.015
100
AcDbArc
 50
270.0
 51
360.0
  0
ARC
  5
3B9
100
AcDbEntity
  8
0
100
AcDbCircle
 62
7
  6
CONTINUOUS
 10
6.4566252115
 20
3.732003814
 40
0.015
100
AcDbArc
 50
180.0
 51
270.0
  0
ARC
  5
3BA
100
AcDbEntity
  8
0
100
AcDbCircle
 62
7
  6
CONTINUOUS
 10
6.743261028
 20
3.6232683584
 40
0.0147281816
100
AcDbArc
 50
299.8810127044
 51
305.0415437635
  0
ARC
  5
3BB
100
AcDbEntity
  8
0
100
AcDbCircle
 62
7
  6
CONTINUOUS
 10
6.2729890439
 20
3.6232674894
 40
0.0147272531
100
AcDbArc
 50
232.436077641
 51
240.1184877983
  0
ARC
  5
3BC
100
AcDbEntity
  8
0
100
AcDbCircle
 62
7
  6
CONTINUOUS
 10
7.0581252115
 20
2.5863045793
 40
0.0125
100
AcDbArc
 50
0.0
 51
85.9433556899
  0
ARC
  5
3BD
100
AcDbEntity
  8
0
100
AcDbCircle
 62
7
  6
CONTINUOUS
 10
5.9581252115
 20
2.5863045793
 40
0.0125
100
AcDbArc
 50
94.0566443101
 51
180.0
  0
ARC
  5
3BE
100
AcDbEntity
  8
0
100
AcDbCircle
 62
7
  6
CONTINUOUS
 10
6.5606252115
 20
3.731003814
 40
0.01
100
AcDbArc
 50
270.0
 51
360.0
  0
ARC
  5
3BF
100
AcDbEntity
  8
0
100
AcDbCircle
 62
7
  6
CONTINUOUS
 10
6.4556252115
 20
3.731003814
 40
0.01
100
AcDbArc
 50
180.0
 51
270.0
  0
ARC
  5
3C0
100
AcDbEntity
  8
0
100
AcDbCircle
 62
7
  6
CONTINUOUS
 10
6.2731252115
 20
4.058503814
 40
0.015
100
AcDbArc
 50
90.0
 51
119.8827588896
  0
ARC
  5
3C1
100
AcDbEntity
  8
0
100
AcDbCircle
 62
7
  6
CONTINUOUS
 10
6.7431252115
 20
4.058503814
 40
0.015
100
AcDbArc
 50
60.1172411104
 51
90.0
  0
ARC
  5
3C2
100
AcDbEntity
  8
0
100
AcDbCircle
 62
7
  6
CONTINUOUS
 10
6.7531252115
 20
4.058003814
 40
0.015
100
AcDbArc
 50
60.1039967081
 51
90.0
  0
ARC
  5
3C3
100
AcDbEntity
  8
0
100
AcDbCircle
 62
7
  6
CONTINUOUS
 10
6.2631252115
 20
4.058003814
 40
0.015
100
AcDbArc
 50
90.0
 51
119.896003287
  0
ARC
  5
3C4
100
AcDbEntity
  8
0
100
AcDbCircle
 62
7
  6
CONTINUOUS
 10
6.5596252115
 20
4.035003814
 40
0.015
100
AcDbArc
 50
0.0
 51
90.0
  0
ARC
  5
3C5
100
AcDbEntity
  8
0
100
AcDbCircle
 62
7
  6
CONTINUOUS
 10
6.4566252115
 20
4.035003814
 40
0.015
100
AcDbArc
 50
90.0
 51
180.0
  0
ARC
  5
3C6
100
AcDbEntity
  8
0
100
AcDbCircle
 62
7
  6
CONTINUOUS
 10
6.2629920499
 20
4.0582343077
 40
0.0147338064
100
AcDbArc
 50
119.8938347007
 51
126.4941936866
  0
ARC
  5
3C7
100
AcDbEntity
  8
0
100
AcDbCircle
 62
7
  6
CONTINUOUS
 10
6.7532586076
 20
4.058235057
 40
0.01473304
100
AcDbArc
 50
50.3025778385
 51
60.1055035089
  0
ARC
  5
3C8
100
AcDbEntity
  8
0
100
AcDbCircle
 62
7
  6
CONTINUOUS
 10
6.2729893951
 20
4.0587392697
 40
0.0147281815
100
AcDbArc
 50
119.8810126979
 51
125.0415563743
  0
ARC
  5
3C9
100
AcDbEntity
  8
0
100
AcDbCircle
 62
7
  6
CONTINUOUS
 10
6.7432613792
 20
4.0587401387
 40
0.0147272531
100
AcDbArc
 50
52.4359895036
 51
60.1184877518
  0
ARC
  5
3CA
100
AcDbEntity
  8
0
100
AcDbCircle
 62
7
  6
CONTINUOUS
 10
6.7458472819
 20
4.0579979279
 40
0.0128249317
100
AcDbArc
 50
3.1039247977
 51
6.1818554768
  0
ARC
  5
3CB
100
AcDbEntity
  8
0
100
AcDbCircle
 62
7
  6
CONTINUOUS
 10
6.2704030987
 20
4.0579979325
 40
0.0128248891
100
AcDbArc
 50
173.8198467438
 51
176.8969689945
  0
ARC
  5
3CC
100
AcDbEntity
  8
0
100
AcDbCircle
 62
7
  6
CONTINUOUS
 10
6.2703024259
 20
4.0580030853
 40
0.012724085
100
AcDbArc
 50
176.8955986628
 51
179.9967189259
  0
ARC
  5
3CD
100
AcDbEntity
  8
0
100
AcDbCircle
 62
7
  6
CONTINUOUS
 10
6.7459480038
 20
4.0580030847
 40
0.0127240783
100
AcDbArc
 50
0.0032837212
 51
3.1052963337
  0
ARC
  5
3CE
100
AcDbEntity
  8
0
100
AcDbCircle
 62
7
  6
CONTINUOUS
 10
6.4556252115
 20
4.036003814
 40
0.01
100
AcDbArc
 50
90.0
 51
180.0
  0
ARC
  5
3CF
100
AcDbEntity
  8
0
100
AcDbCircle
 62
7
  6
CONTINUOUS
 10
6.5606252115
 20
4.036003814
 40
0.01
100
AcDbArc
 50
0.0
 51
90.0
  0
SPLINE
  5
3D0
100
AcDbEntity
  8
0
100
AcDbSpline
 62
7
  6
CONTINUOUS
 70
0
 71
3
 72
14
 73
10
 74
0
 42
0.0000001
 43
0.0000001
 44
0.0000000001
 40
0.0
 40
0.0
 40
0.0
 40
0.0
 40
0.1034596884
 40
0.2125390672
 40
0.3279904092
 40
0.4503918992
 40
0.5798319092
 40
0.715741797
 40
1.0
 40
1.0
 40
1.0
 40
1.0
 10
6.2605000659
 20
4.0710077868
 30
0.0
 10
6.2600801361
 20
4.070712308
 30
0.0
 10
6.2592565255
 20
4.0700479085
 30
0.0
 10
6.2581253093
 20
4.0688718314
 30
0.0
 10
6.2570910184
 20
4.0674898338
 30
0.0
 10
6.2561803606
 20
4.0659058372
 30
0.0
 10
6.2554233831
 20
4.0641313786
 30
0.0
 10
6.2546505136
 20
4.0615110372
 30
0.0
 10
6.2544140406
 20
4.0594145792
 30
0.0
 10
6.2544140406
 20
4.058003814
 30
0.0
  0
SPLINE
  5
3D1
100
AcDbEntity
  8
0
100
AcDbSpline
 62
7
  6
CONTINUOUS
 70
0
 71
3
 72
16
 73
12
 74
0
 42
0.0000001
 43
0.0000001
 44
0.0000000001
 40
0.0
 40
0.0
 40
0.0
 40
0.0
 40
0.1080057176
 40
0.2203310495
 40
0.3376042301
 40
0.4603558969
 40
0.5887200151
 40
0.722295165
 40
0.7907482317
 40
0.8600392541
 40
1.0
 40
1.0
 40
1.0
 40
1.0
 10
6.2568645455
 20
4.0710077868
 30
0.0
 10
6.2563984451
 20
4.0707142552
 30
0.0
 10
6.2554841274
 20
4.0700552733
 30
0.0
 10
6.2542195069
 20
4.0688805911
 30
0.0
 10
6.2530625574
 20
4.0674993913
 30
0.0
 10
6.2520432877
 20
4.0659152113
 30
0.0
 10
6.2511956737
 20
4.0641401463
 30
0.0
 10
6.2506661606
 20
4.0625353304
 30
0.0
 10
6.2503587949
 20
4.0611853225
 30
0.0
 10
6.2501328795
 20
4.0597864639
 30
0.0
 10
6.250064559
 20
4.0587176109
 30
0.0
 10
6.250064559
 20
4.058003814
 30
0.0
  0
SPLINE
  5
3D2
100
AcDbEntity
  8
0
100
AcDbSpline
 62
7
  6
CONTINUOUS
 70
0
 71
3
 72
15
 73
11
 74
0
 42
0.0000001
 43
0.0000001
 44
0.0000000001
 40
0.0
 40
0.0
 40
0.0
 40
0.0
 40
0.1120669268
 40
0.2273627277
 40
0.346378796
 40
0.4695718402
 40
0.5970870663
 40
0.7286529074
 40
0.8634268106
 40
1.0
 40
1.0
 40
1.0
 40
1.0
 10
6.2556488025
 20
4.0710077868
 30
0.0
 10
6.2551408198
 20
4.0707157309
 30
0.0
 10
6.2541445461
 20
4.0700610734
 30
0.0
 10
6.2527591002
 20
4.0688878592
 30
0.0
 10
6.2514909352
 20
4.0675077029
 30
0.0
 10
6.250373024
 20
4.06592388
 30
0.0
 10
6.2494427507
 20
4.0641480719
 30
0.0
 10
6.2487396021
 20
4.062205597
 30
0.0
 10
6.2482999617
 20
4.0601386964
 30
0.0
 10
6.2482003426
 20
4.0587179027
 30
0.0
 10
6.2482003426
 20
4.058003814
 30
0.0
  0
SPLINE
  5
3D3
100
AcDbEntity
  8
0
100
AcDbSpline
 62
7
  6
CONTINUOUS
 70
0
 71
3
 72
15
 73
11
 74
0
 42
0.0000001
 43
0.0000001
 44
0.0000000001
 40
0.0
 40
0.0
 40
0.0
 40
0.0
 40
0.1365731044
 40
0.2713469301
 40
0.402912846
 40
0.5304280942
 40
0.6536211664
 40
0.7726372481
 40
0.8879330605
 40
1.0
 40
1.0
 40
1.0
 40
1.0
 10
6.7680500805
 20
4.058003814
 30
0.0
 10
6.7680500805
 20
4.0587179022
 30
0.0
 10
6.7679504616
 20
4.0601386951
 30
0.0
 10
6.7675108214
 20
4.0622055952
 30
0.0
 10
6.7668076731
 20
4.0641480704
 30
0.0
 10
6.7658773996
 20
4.0659238791
 30
0.0
 10
6.7647594883
 20
4.0675077024
 30
0.0
 10
6.7634913232
 20
4.0688878589
 30
0.0
 10
6.7621058771
 20
4.0700610733
 30
0.0
 10
6.7611096033
 20
4.0707157309
 30
0.0
 10
6.7606016205
 20
4.0710077868
 30
0.0
  0
SPLINE
  5
3D4
100
AcDbEntity
  8
0
100
AcDbSpline
 62
7
  6
CONTINUOUS
 70
0
 71
3
 72
16
 73
12
 74
0
 42
0.0000001
 43
0.0000001
 44
0.0000000001
 40
0.0
 40
0.0
 40
0.0
 40
0.0
 40
0.1399606588
 40
0.2092516235
 40
0.2777046694
 40
0.4112798964
 40
0.5396440375
 40
0.6623957325
 40
0.779668927
 40
0.89199427
 40
1.0
 40
1.0
 40
1.0
 40
1.0
 10
6.7661858641
 20
4.058003814
 30
0.0
 10
6.7661858641
 20
4.0587176105
 30
0.0
 10
6.7661175436
 20
4.0597864627
 30
0.0
 10
6.7658916286
 20
4.0611853205
 30
0.0
 10
6.7655842629
 20
4.0625353284
 30
0.0
 10
6.7650547501
 20
4.0641401448
 30
0.0
 10
6.7642071359
 20
4.0659152104
 30
0.0
 10
6.763187866
 20
4.0674993908
 30
0.0
 10
6.7620309165
 20
4.0688805909
 30
0.0
 10
6.7607662958
 20
4.0700552731
 30
0.0
 10
6.759851978
 20
4.0707142552
 30
0.0
 10
6.7593858776
 20
4.0710077868
 30
0.0
  0
SPLINE
  5
3D5
100
AcDbEntity
  8
0
100
AcDbSpline
 62
7
  6
CONTINUOUS
 70
0
 71
3
 72
14
 73
10
 74
0
 42
0.0000001
 43
0.0000001
 44
0.0000000001
 40
0.0
 40
0.0
 40
0.0
 40
0.0
 40
0.2842580341
 40
0.4201680015
 40
0.5496080353
 40
0.6720095538
 40
0.7874609101
 40
0.8965402996
 40
1.0
 40
1.0
 40
1.0
 40
1.0
 10
6.7618363825
 20
4.058003814
 30
0.0
 10
6.7618363825
 20
4.0594145783
 30
0.0
 10
6.7615999095
 20
4.0615110359
 30
0.0
 10
6.7608270406
 20
4.0641313771
 30
0.0
 10
6.7600700629
 20
4.0659058364
 30
0.0
 10
6.7591594049
 20
4.0674898333
 30
0.0
 10
6.758125114
 20
4.0688718312
 30
0.0
 10
6.7569938977
 20
4.0700479084
 30
0.0
 10
6.756170287
 20
4.0707123079
 30
0.0
 10
6.7557503571
 20
4.0710077868
 30
0.0
  0
SPLINE
  5
3D6
100
AcDbEntity
  8
0
100
AcDbSpline
 62
7
  6
CONTINUOUS
 70
0
 71
3
 72
16
 73
12
 74
0
 42
0.0000001
 43
0.0000001
 44
0.0000000001
 40
0.0
 40
0.0
 40
0.0
 40
0.0
 40
0.112063868
 40
0.2273399362
 40
0.3463541263
 40
0.46954251
 40
0.5970500152
 40
0.7286059907
 40
0.7956975449
 40
0.8634427513
 40
1.0
 40
1.0
 40
1.0
 40
1.0
 10
3.9346567671
 20
5.0159971653
 30
0.0
 10
3.9352005993
 20
5.0162155943
 30
0.0
 10
3.9362785058
 20
5.016725072
 30
0.0
 10
3.9378140091
 20
5.0176941052
 30
0.0
 10
3.9392620944
 20
5.0188845039
 30
0.0
 10
3.9405895755
 20
5.0202977977
 30
0.0
 10
3.9417577726
 20
5.021927196
 30
0.0
 10
3.9425582755
 20
5.023439898
 30
0.0
 10
3.943080599
 20
5.0247325045
 30
0.0
 10
3.9435200977
 20
5.0260829108
 30
0.0
 10
3.9437433923
 20
5.027132469
 30
0.0
 10
3.9438427829
 20
5.0278396701
 30
0.0
  0
SPLINE
  5
3D7
100
AcDbEntity
  8
0
100
AcDbSpline
 62
7
  6
CONTINUOUS
 70
0
 71
3
 72
16
 73
12
 74
0
 42
0.0000001
 43
0.0000001
 44
0.0000000001
 40
0.0
 40
0.0
 40
0.0
 40
0.0
 40
0.136557209
 40
0.2043023982
 40
0.2713939421
 40
0.4029499184
 40
0.5304574491
 40
0.6536458479
 40
0.7726600541
 40
0.8879361241
 40
1.0
 40
1.0
 40
1.0
 40
1.0
 10
3.4488635021
 20
5.0974044714
 30
0.0
 10
3.4487641115
 20
5.0966972705
 30
0.0
 10
3.4486894586
 20
5.0956268223
 30
0.0
 10
3.4487397093
 20
5.0942075866
 30
0.0
 10
3.4488855081
 20
5.0928210817
 30
0.0
 10
3.4492380437
 20
5.0911463307
 30
0.0
 10
3.4499118636
 20
5.0892580535
 30
0.0
 10
3.450798364
 20
5.0875336047
 30
0.0
 10
3.4518622346
 20
5.0859901734
 30
0.0
 10
3.4530711535
 20
5.0846354367
 30
0.0
 10
3.4539668727
 20
5.083848584
 30
0.0
 10
3.4544294305
 20
5.083488716
 30
0.0
  0
SPLINE
  5
3D8
100
AcDbEntity
  8
0
100
AcDbSpline
 62
7
  6
CONTINUOUS
 70
0
 71
3
 72
15
 73
11
 74
0
 42
0.0000001
 43
0.0000001
 44
0.0000000001
 40
0.0
 40
0.0
 40
0.0
 40
0.0
 40
0.1399653188
 40
0.2776413623
 40
0.4112277276
 40
0.5396048695
 40
0.662371567
 40
0.7796606284
 40
0.8919828128
 40
1.0
 40
1.0
 40
1.0
 40
1.0
 10
3.4506618776
 20
5.0971517262
 30
0.0
 10
3.4505625276
 20
5.0964448139
 30
0.0
 10
3.4504548793
 20
5.0950282746
 30
0.0
 10
3.4505636572
 20
5.0929282992
 30
0.0
 10
3.4509273362
 20
5.0909170843
 30
0.0
 10
3.451519453
 20
5.089040837
 30
0.0
 10
3.4523082126
 20
5.0873298228
 30
0.0
 10
3.4532617931
 20
5.0858008204
 30
0.0
 10
3.4543508332
 20
5.0844614527
 30
0.0
 10
3.4551647772
 20
5.0836817203
 30
0.0
 10
3.4555856434
 20
5.0833262209
 30
0.0
  0
SPLINE
  5
3D9
100
AcDbEntity
  8
0
100
AcDbSpline
 62
7
  6
CONTINUOUS
 70
0
 71
3
 72
14
 73
10
 74
0
 42
0.0000001
 43
0.0000001
 44
0.0000000001
 40
0.0
 40
0.0
 40
0.0
 40
0.0
 40
0.2842455179
 40
0.4201582474
 40
0.5496036728
 40
0.6720126983
 40
0.7874714815
 40
0.8965390093
 40
1.0
 40
1.0
 40
1.0
 40
1.0
 10
3.4548263944
 20
5.0965664415
 30
0.0
 10
3.4546300374
 20
5.0951692891
 30
0.0
 10
3.454572283
 20
5.093060136
 30
0.0
 10
3.4549725589
 20
5.0903573436
 30
0.0
 10
3.4554750013
 20
5.0884944089
 30
0.0
 10
3.4561562368
 20
5.0867986757
 30
0.0
 10
3.4569882243
 20
5.0852859582
 30
0.0
 10
3.4579449374
 20
5.0839637785
 30
0.0
 10
3.4586682858
 20
5.0831913017
 30
0.0
 10
3.4590431473
 20
5.0828403004
 30
0.0
  0
SPLINE
  5
3DA
100
AcDbEntity
  8
0
100
AcDbSpline
 62
7
  6
CONTINUOUS
 70
0
 71
3
 72
14
 73
10
 74
0
 42
0.0000001
 43
0.0000001
 44
0.0000000001
 40
0.0
 40
0.0
 40
0.0
 40
0.0
 40
0.2917133959
 40
0.4300696243
 40
0.5606486061
 40
0.6826769452
 40
0.796151069
 40
0.9016346828
 40
1.0
 40
1.0
 40
1.0
 40
1.0
 10
3.4613169457
 20
5.095654254
 30
0.0
 10
3.4611208916
 20
5.0942592565
 30
0.0
 10
3.4610324674
 20
5.0921655472
 30
0.0
 10
3.4613348811
 20
5.0894716695
 30
0.0
 10
3.4617407567
 20
5.087623904
 30
0.0
 10
3.4623058697
 20
5.0859450843
 30
0.0
 10
3.4630062275
 20
5.084450598
 30
0.0
 10
3.4638194017
 20
5.0831474913
 30
0.0
 10
3.4644437895
 20
5.0823821995
 30
0.0
 10
3.4647686444
 20
5.0820356343
 30
0.0
  0
SPLINE
  5
3DB
100
AcDbEntity
  8
0
100
AcDbSpline
 62
7
  6
CONTINUOUS
 70
0
 71
3
 72
14
 73
10
 74
0
 42
0.0000001
 43
0.0000001
 44
0.0000000001
 40
0.0
 40
0.0
 40
0.0
 40
0.0
 40
0.1517559145
 40
0.2996627196
 40
0.4405846156
 40
0.5724173866
 40
0.6941532389
 40
0.8056526982
 40
1.0
 40
1.0
 40
1.0
 40
1.0
 10
3.4700710241
 20
5.0944239485
 30
0.0
 10
3.4699717887
 20
5.0937178515
 30
0.0
 10
3.4698343015
 20
5.092314595
 30
0.0
 10
3.4698073715
 20
5.0902422521
 30
0.0
 10
3.4699532193
 20
5.0882684629
 30
0.0
 10
3.4702565828
 20
5.0864373879
 30
0.0
 10
3.4706986128
 20
5.0847765049
 30
0.0
 10
3.4714124501
 20
5.0828971008
 30
0.0
 10
3.4721401738
 20
5.0816359086
 30
0.0
 10
3.4727069951
 20
5.0809199718
 30
0.0
  0
SPLINE
  5
3DC
100
AcDbEntity
  8
0
100
AcDbSpline
 62
7
  6
CONTINUOUS
 70
0
 71
3
 72
15
 73
11
 74
0
 42
0.0000001
 43
0.0000001
 44
0.0000000001
 40
0.0
 40
0.0
 40
0.0
 40
0.0
 40
0.1556264146
 40
0.306924186
 40
0.4503343582
 40
0.5834150494
 40
0.70490938
 40
0.8145025089
 40
0.9125868632
 40
1.0
 40
1.0
 40
1.0
 40
1.0
 10
3.481004323
 20
5.0928873736
 30
0.0
 10
3.4809051185
 20
5.0921814966
 30
0.0
 10
3.4807565232
 20
5.0907822725
 30
0.0
 10
3.4806793666
 20
5.0887194734
 30
0.0
 10
3.4807445087
 20
5.086759427
 30
0.0
 10
3.4809408406
 20
5.0849453156
 30
0.0
 10
3.4812534536
 20
5.0833048864
 30
0.0
 10
3.4816666112
 20
5.0818525244
 30
0.0
 10
3.4821653818
 20
5.0805937856
 30
0.0
 10
3.4825681303
 20
5.079842686
 30
0.0
 10
3.4827817488
 20
5.0795040575
 30
0.0
  0
SPLINE
  5
3DD
100
AcDbEntity
  8
0
100
AcDbSpline
 62
7
  6
CONTINUOUS
 70
0
 71
3
 72
15
 73
11
 74
0
 42
0.0000001
 43
0.0000001
 44
0.0000000001
 40
0.0
 40
0.0
 40
0.0
 40
0.0
 40
0.1591639977
 40
0.3135826082
 40
0.4593251292
 40
0.5936441647
 40
0.7150419136
 40
0.8230087163
 40
0.9177667819
 40
1.0
 40
1.0
 40
1.0
 40
1.0
 10
3.4940115488
 20
5.0910593272
 30
0.0
 10
3.4939123694
 20
5.0903536293
 30
0.0
 10
3.4937522372
 20
5.0889580394
 30
0.0
 10
3.4936231059
 20
5.0869046402
 30
0.0
 10
3.4936048287
 20
5.084958413
 30
0.0
 10
3.4936904486
 20
5.0831619136
 30
0.0
 10
3.4938695914
 20
5.0815422837
 30
0.0
 10
3.494130741
 20
5.0801132962
 30
0.0
 10
3.4944626998
 20
5.0788798188
 30
0.0
 10
3.4947435215
 20
5.0781367118
 30
0.0
 10
3.4948958801
 20
5.0778015274
 30
0.0
  0
SPLINE
  5
3DE
100
AcDbEntity
  8
0
100
AcDbSpline
 62
7
  6
CONTINUOUS
 70
0
 71
3
 72
15
 73
11
 74
0
 42
0.0000001
 43
0.0000001
 44
0.0000000001
 40
0.0
 40
0.0
 40
0.0
 40
0.0
 40
0.1619932474
 40
0.3189188833
 40
0.4665564167
 40
0.6019148709
 40
0.7232943617
 40
0.8300047647
 40
0.9220830279
 40
1.0
 40
1.0
 40
1.0
 40
1.0
 10
3.5089674347
 20
5.0889574145
 30
0.0
 10
3.5088682737
 20
5.0882518477
 30
0.0
 10
3.5086962615
 20
5.086859404
 30
0.0
 10
3.5085138516
 20
5.0848150636
 30
0.0
 10
3.5084101435
 20
5.0828824854
 30
0.0
 10
3.5083824764
 20
5.0811036454
 30
0.0
 10
3.508425179
 20
5.079505121
 30
0.0
 10
3.5085311115
 20
5.0781002125
 30
0.0
 10
3.5086929303
 20
5.076893258
 30
0.0
 10
3.5088456018
 20
5.0761602241
 30
0.0
 10
3.5089327232
 20
5.0758287778
 30
0.0
  0
SPLINE
  5
3DF
100
AcDbEntity
  8
0
100
AcDbSpline
 62
7
  6
CONTINUOUS
 70
0
 71
3
 72
14
 73
10
 74
0
 42
0.0000001
 43
0.0000001
 44
0.0000000001
 40
0.0
 40
0.0
 40
0.0
 40
0.0
 40
0.3223104292
 40
0.4711684452
 40
0.6072125957
 40
0.7286107717
 40
0.8345470068
 40
0.9249157539
 40
1.0
 40
1.0
 40
1.0
 40
1.0
 10
3.5257279474
 20
5.0866018781
 30
0.0
 10
3.5255328425
 20
5.0852136343
 30
0.0
 10
3.5252785067
 20
5.083179645
 30
0.0
 10
3.5250176018
 20
5.0805513993
 30
0.0
 10
3.5248750102
 20
5.0787898457
 30
0.0
 10
3.5247794453
 20
5.0772121065
 30
0.0
 10
3.5247284072
 20
5.0758310369
 30
0.0
 10
3.5247186246
 20
5.0746505083
 30
0.0
 10
3.5247388683
 20
5.0739308766
 30
0.0
 10
3.5247570957
 20
5.0736048073
 30
0.0
  0
SPLINE
  5
3E0
100
AcDbEntity
  8
0
100
AcDbSpline
 62
7
  6
CONTINUOUS
 70
0
 71
3
 72
14
 73
10
 74
0
 42
0.0000001
 43
0.0000001
 44
0.0000000001
 40
0.0
 40
0.0
 40
0.0
 40
0.0
 40
0.07508424
 40
0.1654529858
 40
0.2713892033
 40
0.3927873626
 40
0.5288314806
 40
0.6776894927
 40
1.0
 40
1.0
 40
1.0
 40
1.0
 10
3.8643291019
 20
5.0258810741
 30
0.0
 10
3.8644365
 20
5.0261894879
 30
0.0
 10
3.864654317
 20
5.0268756623
 30
0.0
 10
3.8649703111
 20
5.0280131556
 30
0.0
 10
3.8653019245
 20
5.0293547927
 30
0.0
 10
3.8656449454
 20
5.0308977539
 30
0.0
 10
3.8659934275
 20
5.0326303713
 30
0.0
 10
3.8664670724
 20
5.0352287186
 30
0.0
 10
3.8667832326
 20
5.0372540192
 30
0.0
 10
3.8669783376
 20
5.0386422634
 30
0.0
  0
SPLINE
  5
3E1
100
AcDbEntity
  8
0
100
AcDbSpline
 62
7
  6
CONTINUOUS
 70
0
 71
3
 72
15
 73
11
 74
0
 42
0.0000001
 43
0.0000001
 44
0.0000000001
 40
0.0
 40
0.0
 40
0.0
 40
0.0
 40
0.0779169659
 40
0.1699952278
 40
0.2767056132
 40
0.3980850875
 40
0.5334435096
 40
0.6810810394
 40
0.8380067056
 40
1.0
 40
1.0
 40
1.0
 40
1.0
 10
3.8801534744
 20
5.0236571035
 30
0.0
 10
3.8803285798
 20
5.0239516962
 30
0.0
 10
3.8806773887
 20
5.0246142517
 30
0.0
 10
3.8811656206
 20
5.0257298474
 30
0.0
 10
3.8816546946
 20
5.027051133
 30
0.0
 10
3.882136356
 20
5.0285759626
 30
0.0
 10
3.8826000754
 20
5.0302935192
 30
0.0
 10
3.8830330755
 20
5.0321798183
 30
0.0
 10
3.8834212285
 20
5.0341952438
 30
0.0
 10
3.8836396893
 20
5.0355811599
 30
0.0
 10
3.8837388503
 20
5.036286727
 30
0.0
  0
SPLINE
  5
3E2
100
AcDbEntity
  8
0
100
AcDbSpline
 62
7
  6
CONTINUOUS
 70
0
 71
3
 72
15
 73
11
 74
0
 42
0.0000001
 43
0.0000001
 44
0.0000000001
 40
0.0
 40
0.0
 40
0.0
 40
0.0
 40
0.0822332117
 40
0.1769912759
 40
0.2849580613
 40
0.4063557939
 40
0.540674798
 40
0.6864173156
 40
0.8408359561
 40
1.0
 40
1.0
 40
1.0
 40
1.0
 10
3.8941903175
 20
5.0216843539
 30
0.0
 10
3.8944291633
 20
5.0219645581
 30
0.0
 10
3.8949039345
 20
5.0226014733
 30
0.0
 10
3.8955630262
 20
5.0236956676
 30
0.0
 10
3.8962079416
 20
5.0249973158
 30
0.0
 10
3.896826575
 20
5.0265048253
 30
0.0
 10
3.8974040606
 20
5.0282081311
 30
0.0
 10
3.8979229443
 20
5.0300840026
 30
0.0
 10
3.898364809
 20
5.0320934502
 30
0.0
 10
3.8985955568
 20
5.0334791161
 30
0.0
 10
3.8986947362
 20
5.0341848143
 30
0.0
  0
SPLINE
  5
3E3
100
AcDbEntity
  8
0
100
AcDbSpline
 62
7
  6
CONTINUOUS
 70
0
 71
3
 72
15
 73
11
 74
0
 42
0.0000001
 43
0.0000001
 44
0.0000000001
 40
0.0
 40
0.0
 40
0.0
 40
0.0
 40
0.0874131295
 40
0.1854974826
 40
0.2950905921
 40
0.4165849054
 40
0.5496655643
 40
0.6930757354
 40
0.8443735395
 40
1.0
 40
1.0
 40
1.0
 40
1.0
 10
3.9063044488
 20
5.0199818238
 30
0.0
 10
3.9066031307
 20
5.0202484531
 30
0.0
 10
3.9071973085
 20
5.0208594438
 30
0.0
 10
3.9080237129
 20
5.0219319413
 30
0.0
 10
3.9088211907
 20
5.0232141594
 30
0.0
 10
3.909573857
 20
5.024704873
 30
0.0
 10
3.9102626202
 20
5.0263945922
 30
0.0
 10
3.9108655009
 20
5.0282607541
 30
0.0
 10
3.9113599178
 20
5.0302649114
 30
0.0
 10
3.9116027574
 20
5.0316508907
 30
0.0
 10
3.911701962
 20
5.0323567679
 30
0.0
  0
SPLINE
  5
3E4
100
AcDbEntity
  8
0
100
AcDbSpline
 62
7
  6
CONTINUOUS
 70
0
 71
3
 72
14
 73
10
 74
0
 42
0.0000001
 43
0.0000001
 44
0.0000000001
 40
0.0
 40
0.0
 40
0.0
 40
0.0
 40
0.1943472933
 40
0.3058467358
 40
0.4275825722
 40
0.5594153138
 40
0.7003372073
 40
0.8482440415
 40
1.0
 40
1.0
 40
1.0
 40
1.0
 10
3.9163792025
 20
5.0185659095
 30
0.0
 10
3.917121405
 20
5.0190978749
 30
0.0
 10
3.9181685695
 20
5.0201096227
 30
0.0
 10
3.9193727879
 20
5.0217194615
 30
0.0
 10
3.9202554957
 20
5.0231941645
 30
0.0
 10
3.9210518201
 20
5.0248706881
 30
0.0
 10
3.921736068
 20
5.026727815
 30
0.0
 10
3.9222813965
 20
5.028727302
 30
0.0
 10
3.9225360254
 20
5.0301140958
 30
0.0
 10
3.9226352609
 20
5.0308201929
 30
0.0
  0
SPLINE
  5
3E5
100
AcDbEntity
  8
0
100
AcDbSpline
 62
7
  6
CONTINUOUS
 70
0
 71
3
 72
14
 73
10
 74
0
 42
0.0000001
 43
0.0000001
 44
0.0000000001
 40
0.0
 40
0.0
 40
0.0
 40
0.0
 40
0.0983653101
 40
0.2038489223
 40
0.3173230295
 40
0.439351353
 40
0.5699303065
 40
0.7082865328
 40
1.0
 40
1.0
 40
1.0
 40
1.0
 10
3.9243175532
 20
5.017450247
 30
0.0
 10
3.9247253501
 20
5.0176938448
 30
0.0
 10
3.9255364931
 20
5.0182573858
 30
0.0
 10
3.9266773511
 20
5.0192858711
 30
0.0
 10
3.9277625144
 20
5.0205294186
 30
0.0
 10
3.9287684811
 20
5.0219874372
 30
0.0
 10
3.9296679471
 20
5.0236517486
 30
0.0
 10
3.9307011793
 20
5.0261579137
 30
0.0
 10
3.9311932851
 20
5.0281948895
 30
0.0
 10
3.9313893393
 20
5.0295898875
 30
0.0
  0
SPLINE
  5
3E6
100
AcDbEntity
  8
0
100
AcDbSpline
 62
7
  6
CONTINUOUS
 70
0
 71
3
 72
14
 73
10
 74
0
 42
0.0000001
 43
0.0000001
 44
0.0000000001
 40
0.0
 40
0.0
 40
0.0
 40
0.0
 40
0.1034609833
 40
0.2125285094
 40
0.3279872763
 40
0.4503962864
 40
0.5798416845
 40
0.7157544124
 40
1.0
 40
1.0
 40
1.0
 40
1.0
 10
3.9300430503
 20
5.0166455809
 30
0.0
 10
3.9305001394
 20
5.0168796591
 30
0.0
 10
3.9314083899
 20
5.0174228296
 30
0.0
 10
3.9326924835
 20
5.0184300844
 30
0.0
 10
3.9339092027
 20
5.0196548748
 30
0.0
 10
3.9350314555
 20
5.0210971439
 30
0.0
 10
3.9360279286
 20
5.0227494196
 30
0.0
 10
3.9371576891
 20
5.0252371796
 30
0.0
 10
3.9376835336
 20
5.0272805472
 30
0.0
 10
3.9378798906
 20
5.0286777
 30
0.0
  0
SPLINE
  5
3E7
100
AcDbEntity
  8
0
100
AcDbSpline
 62
7
  6
CONTINUOUS
 70
0
 71
3
 72
15
 73
11
 74
0
 42
0.0000001
 43
0.0000001
 44
0.0000000001
 40
0.0
 40
0.0
 40
0.0
 40
0.0
 40
0.1080171796
 40
0.2203393621
 40
0.3376284074
 40
0.4603950895
 40
0.5887722051
 40
0.7223585691
 40
0.8600346405
 40
1.0
 40
1.0
 40
1.0
 40
1.0
 10
3.9335005542
 20
5.0161596604
 30
0.0
 10
3.9340031056
 20
5.0163853819
 30
0.0
 10
3.9350004422
 20
5.0169105554
 30
0.0
 10
3.9364164744
 20
5.0178978581
 30
0.0
 10
3.9377545648
 20
5.0191047869
 30
0.0
 10
3.9389843885
 20
5.0205321075
 30
0.0
 10
3.9400707316
 20
5.0221724624
 30
0.0
 10
3.9409746883
 20
5.0240055227
 30
0.0
 10
3.9416580843
 20
5.0259941656
 30
0.0
 10
3.9419450573
 20
5.0273855028
 30
0.0
 10
3.9420444074
 20
5.0280924153
 30
0.0
  0
SPLINE
  5
3E8
100
AcDbEntity
  8
0
100
AcDbSpline
 62
7
  6
CONTINUOUS
 70
0
 71
3
 72
16
 73
12
 74
0
 42
0.0000001
 43
0.0000001
 44
0.0000000001
 40
0.0
 40
0.0
 40
0.0
 40
0.0
 40
0.1365572291
 40
0.204302421
 40
0.2713939593
 40
0.4029499232
 40
0.5304574514
 40
0.653645849
 40
0.772660056
 40
0.8879361242
 40
1.0
 40
1.0
 40
1.0
 40
1.0
 10
3.9960326958
 20
5.3991901959
 30
0.0
 10
3.9961320864
 20
5.3998973969
 30
0.0
 10
3.9962067393
 20
5.4009678452
 30
0.0
 10
3.9961564885
 20
5.402387081
 30
0.0
 10
3.9960106897
 20
5.4037735858
 30
0.0
 10
3.9956581541
 20
5.4054483367
 30
0.0
 10
3.9949843342
 20
5.4073366138
 30
0.0
 10
3.9940978339
 20
5.4090610626
 30
0.0
 10
3.9930339633
 20
5.4106044939
 30
0.0
 10
3.9918250444
 20
5.4119592306
 30
0.0
 10
3.9909293252
 20
5.4127460833
 30
0.0
 10
3.9904667674
 20
5.4131059512
 30
0.0
  0
SPLINE
  5
3E9
100
AcDbEntity
  8
0
100
AcDbSpline
 62
7
  6
CONTINUOUS
 70
0
 71
3
 72
15
 73
11
 74
0
 42
0.0000001
 43
0.0000001
 44
0.0000000001
 40
0.0
 40
0.0
 40
0.0
 40
0.0
 40
0.1399653395
 40
0.27764138
 40
0.4112277324
 40
0.5396048719
 40
0.6623715681
 40
0.7796606302
 40
0.8919828129
 40
1.0
 40
1.0
 40
1.0
 40
1.0
 10
3.9942343202
 20
5.3994429411
 30
0.0
 10
3.9943336703
 20
5.4001498535
 30
0.0
 10
3.9944413186
 20
5.4015663929
 30
0.0
 10
3.9943325406
 20
5.4036663683
 30
0.0
 10
3.9939688616
 20
5.405677583
 30
0.0
 10
3.9933767448
 20
5.4075538304
 30
0.0
 10
3.9925879852
 20
5.4092648445
 30
0.0
 10
3.9916344048
 20
5.4107938469
 30
0.0
 10
3.9905453646
 20
5.4121332145
 30
0.0
 10
3.9897314206
 20
5.412912947
 30
0.0
 10
3.9893105545
 20
5.4132684464
 30
0.0
  0
SPLINE
  5
3EA
100
AcDbEntity
  8
0
100
AcDbSpline
 62
7
  6
CONTINUOUS
 70
0
 71
3
 72
14
 73
10
 74
0
 42
0.0000001
 43
0.0000001
 44
0.0000000001
 40
0.0
 40
0.0
 40
0.0
 40
0.0
 40
0.2842455359
 40
0.4201582522
 40
0.5496036752
 40
0.6720126994
 40
0.7874714833
 40
0.8965390094
 40
1.0
 40
1.0
 40
1.0
 40
1.0
 10
3.9900698035
 20
5.4000282257
 30
0.0
 10
3.9902661605
 20
5.4014253783
 30
0.0
 10
3.9903239149
 20
5.4035345313
 30
0.0
 10
3.9899236389
 20
5.4062373237
 30
0.0
 10
3.9894211965
 20
5.4081002584
 30
0.0
 10
3.9887399611
 20
5.4097959916
 30
0.0
 10
3.9879079735
 20
5.411308709
 30
0.0
 10
3.9869512605
 20
5.4126308888
 30
0.0
 10
3.9862279121
 20
5.4134033656
 30
0.0
 10
3.9858530506
 20
5.4137543669
 30
0.0
  0
SPLINE
  5
3EB
100
AcDbEntity
  8
0
100
AcDbSpline
 62
7
  6
CONTINUOUS
 70
0
 71
3
 72
14
 73
10
 74
0
 42
0.0000001
 43
0.0000001
 44
0.0000000001
 40
0.0
 40
0.0
 40
0.0
 40
0.0
 40
0.2917134144
 40
0.4300696291
 40
0.5606486085
 40
0.6826769462
 40
0.7961510707
 40
0.9016346829
 40
1.0
 40
1.0
 40
1.0
 40
1.0
 10
3.9835792521
 20
5.4009404132
 30
0.0
 10
3.9837753063
 20
5.4023354109
 30
0.0
 10
3.9838637305
 20
5.4044291202
 30
0.0
 10
3.9835613167
 20
5.4071229979
 30
0.0
 10
3.9831554411
 20
5.4089707633
 30
0.0
 10
3.9825903281
 20
5.410649583
 30
0.0
 10
3.9818899704
 20
5.4121440693
 30
0.0
 10
3.9810767962
 20
5.413447176
 30
0.0
 10
3.9804524084
 20
5.4142124678
 30
0.0
 10
3.9801275535
 20
5.414559033
 30
0.0
  0
SPLINE
  5
3EC
100
AcDbEntity
  8
0
100
AcDbSpline
 62
7
  6
CONTINUOUS
 70
0
 71
3
 72
14
 73
10
 74
0
 42
0.0000001
 43
0.0000001
 44
0.0000000001
 40
0.0
 40
0.0
 40
0.0
 40
0.0
 40
0.1517559368
 40
0.2996627385
 40
0.4405846205
 40
0.572417389
 40
0.6941532399
 40
0.8056526999
 40
1.0
 40
1.0
 40
1.0
 40
1.0
 10
3.9748251737
 20
5.4021707187
 30
0.0
 10
3.9749244092
 20
5.4028768158
 30
0.0
 10
3.9750618964
 20
5.4042800725
 30
0.0
 10
3.9750888263
 20
5.4063524154
 30
0.0
 10
3.9749429785
 20
5.4083262045
 30
0.0
 10
3.9746396151
 20
5.4101572794
 30
0.0
 10
3.9741975851
 20
5.4118181624
 30
0.0
 10
3.9734837477
 20
5.4136975665
 30
0.0
 10
3.972756024
 20
5.4149587586
 30
0.0
 10
3.9721892027
 20
5.4156746954
 30
0.0
  0
SPLINE
  5
3ED
100
AcDbEntity
  8
0
100
AcDbSpline
 62
7
  6
CONTINUOUS
 70
0
 71
3
 72
15
 73
11
 74
0
 42
0.0000001
 43
0.0000001
 44
0.0000000001
 40
0.0
 40
0.0
 40
0.0
 40
0.0
 40
0.1556264375
 40
0.3069242054
 40
0.4503343632
 40
0.5834150518
 40
0.704909381
 40
0.8145025105
 40
0.9125868632
 40
1.0
 40
1.0
 40
1.0
 40
1.0
 10
3.9638918748
 20
5.4037072937
 30
0.0
 10
3.9639910794
 20
5.4044131708
 30
0.0
 10
3.9641396746
 20
5.4058123949
 30
0.0
 10
3.9642168313
 20
5.4078751941
 30
0.0
 10
3.9641516891
 20
5.4098352403
 30
0.0
 10
3.9639553573
 20
5.4116493517
 30
0.0
 10
3.9636427442
 20
5.4132897809
 30
0.0
 10
3.9632295866
 20
5.4147421428
 30
0.0
 10
3.962730816
 20
5.4160008816
 30
0.0
 10
3.9623280675
 20
5.4167519812
 30
0.0
 10
3.962114449
 20
5.4170906097
 30
0.0
  0
SPLINE
  5
3EE
100
AcDbEntity
  8
0
100
AcDbSpline
 62
7
  6
CONTINUOUS
 70
0
 71
3
 72
15
 73
11
 74
0
 42
0.0000001
 43
0.0000001
 44
0.0000000001
 40
0.0
 40
0.0
 40
0.0
 40
0.0
 40
0.1591640211
 40
0.313582628
 40
0.4593251342
 40
0.5936441671
 40
0.7150419146
 40
0.823008718
 40
0.9177667819
 40
1.0
 40
1.0
 40
1.0
 40
1.0
 10
3.9508846491
 20
5.40553534
 30
0.0
 10
3.9509838285
 20
5.4062410381
 30
0.0
 10
3.9511439607
 20
5.4076366281
 30
0.0
 10
3.9512730919
 20
5.4096900273
 30
0.0
 10
3.9512913692
 20
5.4116362544
 30
0.0
 10
3.9512057492
 20
5.4134327537
 30
0.0
 10
3.9510266065
 20
5.4150523835
 30
0.0
 10
3.9507654569
 20
5.416481371
 30
0.0
 10
3.9504334981
 20
5.4177148485
 30
0.0
 10
3.9501526763
 20
5.4184579554
 30
0.0
 10
3.9500003178
 20
5.4187931398
 30
0.0
  0
SPLINE
  5
3EF
100
AcDbEntity
  8
0
100
AcDbSpline
 62
7
  6
CONTINUOUS
 70
0
 71
3
 72
15
 73
11
 74
0
 42
0.0000001
 43
0.0000001
 44
0.0000000001
 40
0.0
 40
0.0
 40
0.0
 40
0.0
 40
0.1619932712
 40
0.3189189034
 40
0.4665564218
 40
0.6019148734
 40
0.7232943627
 40
0.8300047663
 40
0.9220830279
 40
1.0
 40
1.0
 40
1.0
 40
1.0
 10
3.9359287632
 20
5.4076372527
 30
0.0
 10
3.9360279241
 20
5.4083428197
 30
0.0
 10
3.9361999364
 20
5.4097352634
 30
0.0
 10
3.9363823463
 20
5.4117796039
 30
0.0
 10
3.9364860543
 20
5.4137121819
 30
0.0
 10
3.9365137215
 20
5.4154910219
 30
0.0
 10
3.9364710189
 20
5.4170895463
 30
0.0
 10
3.9363650864
 20
5.4184944548
 30
0.0
 10
3.9362032676
 20
5.4197014092
 30
0.0
 10
3.9360505961
 20
5.4204344432
 30
0.0
 10
3.9359634747
 20
5.4207658895
 30
0.0
  0
SPLINE
  5
3F0
100
AcDbEntity
  8
0
100
AcDbSpline
 62
7
  6
CONTINUOUS
 70
0
 71
3
 72
14
 73
10
 74
0
 42
0.0000001
 43
0.0000001
 44
0.0000000001
 40
0.0
 40
0.0
 40
0.0
 40
0.0
 40
0.3223104495
 40
0.4711684503
 40
0.6072125981
 40
0.7286107726
 40
0.8345470084
 40
0.924915754
 40
1.0
 40
1.0
 40
1.0
 40
1.0
 10
3.9191682504
 20
5.4099927892
 30
0.0
 10
3.9193633554
 20
5.4113810331
 30
0.0
 10
3.9196176912
 20
5.4134150223
 30
0.0
 10
3.9198785961
 20
5.4160432681
 30
0.0
 10
3.9200211877
 20
5.4178048216
 30
0.0
 10
3.9201167526
 20
5.4193825607
 30
0.0
 10
3.9201677907
 20
5.4207636304
 30
0.0
 10
3.9201775733
 20
5.421944159
 30
0.0
 10
3.9201573295
 20
5.4226637907
 30
0.0
 10
3.9201391022
 20
5.42298986
 30
0.0
  0
SPLINE
  5
3F1
100
AcDbEntity
  8
0
100
AcDbSpline
 62
7
  6
CONTINUOUS
 70
0
 71
3
 72
14
 73
10
 74
0
 42
0.0000001
 43
0.0000001
 44
0.0000000001
 40
0.0
 40
0.0
 40
0.0
 40
0.0
 40
0.0750842379
 40
0.1654529856
 40
0.271389195
 40
0.3927873514
 40
0.5288314647
 40
0.6776894854
 40
1.0
 40
1.0
 40
1.0
 40
1.0
 10
3.5805670959
 20
5.4707135932
 30
0.0
 10
3.5804596978
 20
5.4704051794
 30
0.0
 10
3.5802418809
 20
5.469719005
 30
0.0
 10
3.5799258868
 20
5.4685815117
 30
0.0
 10
3.5795942734
 20
5.4672398746
 30
0.0
 10
3.5792512525
 20
5.4656969135
 30
0.0
 10
3.5789027704
 20
5.4639642961
 30
0.0
 10
3.5784291255
 20
5.4613659488
 30
0.0
 10
3.5781129653
 20
5.4593406481
 30
0.0
 10
3.5779178603
 20
5.4579524039
 30
0.0
  0
SPLINE
  5
3F2
100
AcDbEntity
  8
0
100
AcDbSpline
 62
7
  6
CONTINUOUS
 70
0
 71
3
 72
15
 73
11
 74
0
 42
0.0000001
 43
0.0000001
 44
0.0000000001
 40
0.0
 40
0.0
 40
0.0
 40
0.0
 40
0.0779169638
 40
0.1699952275
 40
0.2767056049
 40
0.3980850762
 40
0.5334434938
 40
0.6810810321
 40
0.8380067082
 40
1.0
 40
1.0
 40
1.0
 40
1.0
 10
3.5647427234
 20
5.4729375637
 30
0.0
 10
3.564567618
 20
5.4726429711
 30
0.0
 10
3.5642188092
 20
5.4719804156
 30
0.0
 10
3.5637305773
 20
5.4708648199
 30
0.0
 10
3.5632415032
 20
5.4695435344
 30
0.0
 10
3.5627598419
 20
5.4680187048
 30
0.0
 10
3.5622961225
 20
5.4663011482
 30
0.0
 10
3.5618631224
 20
5.464414849
 30
0.0
 10
3.5614749693
 20
5.4623994234
 30
0.0
 10
3.5612565085
 20
5.4610135074
 30
0.0
 10
3.5611573476
 20
5.4603079403
 30
0.0
  0
SPLINE
  5
3F3
100
AcDbEntity
  8
0
100
AcDbSpline
 62
7
  6
CONTINUOUS
 70
0
 71
3
 72
15
 73
11
 74
0
 42
0.0000001
 43
0.0000001
 44
0.0000000001
 40
0.0
 40
0.0
 40
0.0
 40
0.0
 40
0.0822332096
 40
0.1769912756
 40
0.284958053
 40
0.4063557826
 40
0.5406747825
 40
0.6864173084
 40
0.8408359586
 40
1.0
 40
1.0
 40
1.0
 40
1.0
 10
3.5507058803
 20
5.4749103134
 30
0.0
 10
3.5504670346
 20
5.4746301092
 30
0.0
 10
3.5499922633
 20
5.4739931939
 30
0.0
 10
3.5493331717
 20
5.4728989997
 30
0.0
 10
3.5486882563
 20
5.4715973515
 30
0.0
 10
3.5480696229
 20
5.4700898421
 30
0.0
 10
3.5474921373
 20
5.4683865364
 30
0.0
 10
3.5469732536
 20
5.4665106648
 30
0.0
 10
3.5465313888
 20
5.464501217
 30
0.0
 10
3.546300641
 20
5.4631155512
 30
0.0
 10
3.5462014616
 20
5.462409853
 30
0.0
  0
SPLINE
  5
3F4
100
AcDbEntity
  8
0
100
AcDbSpline
 62
7
  6
CONTINUOUS
 70
0
 71
3
 72
15
 73
11
 74
0
 42
0.0000001
 43
0.0000001
 44
0.0000000001
 40
0.0
 40
0.0
 40
0.0
 40
0.0
 40
0.087413128
 40
0.1854974826
 40
0.2950905865
 40
0.4165848981
 40
0.5496655547
 40
0.6930757322
 40
0.8443735427
 40
1.0
 40
1.0
 40
1.0
 40
1.0
 10
3.5385917491
 20
5.4766128435
 30
0.0
 10
3.5382930672
 20
5.4763462142
 30
0.0
 10
3.5376988894
 20
5.4757352235
 30
0.0
 10
3.536872485
 20
5.474662726
 30
0.0
 10
3.5360750072
 20
5.4733805079
 30
0.0
 10
3.5353223409
 20
5.4718897943
 30
0.0
 10
3.5346335777
 20
5.4702000751
 30
0.0
 10
3.5340306969
 20
5.4683339133
 30
0.0
 10
3.53353628
 20
5.4663297558
 30
0.0
 10
3.5332934404
 20
5.4649437765
 30
0.0
 10
3.5331942359
 20
5.4642378994
 30
0.0
  0
SPLINE
  5
3F5
100
AcDbEntity
  8
0
100
AcDbSpline
 62
7
  6
CONTINUOUS
 70
0
 71
3
 72
14
 73
10
 74
0
 42
0.0000001
 43
0.0000001
 44
0.0000000001
 40
0.0
 40
0.0
 40
0.0
 40
0.0
 40
0.1943472929
 40
0.3058467275
 40
0.427582561
 40
0.5594152988
 40
0.7003372003
 40
0.8482440439
 40
1.0
 40
1.0
 40
1.0
 40
1.0
 10
3.5285169954
 20
5.4780287578
 30
0.0
 10
3.5277747928
 20
5.4774967923
 30
0.0
 10
3.5267276284
 20
5.4764850445
 30
0.0
 10
3.52552341
 20
5.4748752059
 30
0.0
 10
3.5246407023
 20
5.4734005029
 30
0.0
 10
3.5238443778
 20
5.4717239793
 30
0.0
 10
3.5231601299
 20
5.4698668524
 30
0.0
 10
3.5226148013
 20
5.4678673652
 30
0.0
 10
3.5223601725
 20
5.4664805715
 30
0.0
 10
3.522260937
 20
5.4657744743
 30
0.0
  0
SPLINE
  5
3F6
100
AcDbEntity
  8
0
100
AcDbSpline
 62
7
  6
CONTINUOUS
 70
0
 71
3
 72
14
 73
10
 74
0
 42
0.0000001
 43
0.0000001
 44
0.0000000001
 40
0.0
 40
0.0
 40
0.0
 40
0.0
 40
0.0983653077
 40
0.2038489218
 40
0.3173230212
 40
0.4393513418
 40
0.5699302917
 40
0.708286526
 40
1.0
 40
1.0
 40
1.0
 40
1.0
 10
3.5205786446
 20
5.4791444202
 30
0.0
 10
3.5201708478
 20
5.4789008225
 30
0.0
 10
3.5193597047
 20
5.4783372815
 30
0.0
 10
3.5182188468
 20
5.4773087962
 30
0.0
 10
3.5171336835
 20
5.4760652488
 30
0.0
 10
3.5161277168
 20
5.4746072302
 30
0.0
 10
3.5152282508
 20
5.4729429188
 30
0.0
 10
3.5141950186
 20
5.4704367536
 30
0.0
 10
3.5137029127
 20
5.4683997777
 30
0.0
 10
3.5135068586
 20
5.4670047798
 30
0.0
  0
SPLINE
  5
3F7
100
AcDbEntity
  8
0
100
AcDbSpline
 62
7
  6
CONTINUOUS
 70
0
 71
3
 72
14
 73
10
 74
0
 42
0.0000001
 43
0.0000001
 44
0.0000000001
 40
0.0
 40
0.0
 40
0.0
 40
0.0
 40
0.1034609809
 40
0.2125285088
 40
0.327987268
 40
0.4503962752
 40
0.57984167
 40
0.7157544058
 40
1.0
 40
1.0
 40
1.0
 40
1.0
 10
3.5148531475
 20
5.4799490864
 30
0.0
 10
3.5143960585
 20
5.4797150082
 30
0.0
 10
3.5134878079
 20
5.4791718377
 30
0.0
 10
3.5122037144
 20
5.4781645829
 30
0.0
 10
3.5109869952
 20
5.4769397926
 30
0.0
 10
3.5098647425
 20
5.4754975235
 30
0.0
 10
3.5088682693
 20
5.4738452478
 30
0.0
 10
3.5077385088
 20
5.4713574878
 30
0.0
 10
3.5072126642
 20
5.4693141201
 30
0.0
 10
3.5070163072
 20
5.4679169673
 30
0.0
  0
SPLINE
  5
3F8
100
AcDbEntity
  8
0
100
AcDbSpline
 62
7
  6
CONTINUOUS
 70
0
 71
3
 72
15
 73
11
 74
0
 42
0.0000001
 43
0.0000001
 44
0.0000000001
 40
0.0
 40
0.0
 40
0.0
 40
0.0
 40
0.1080171771
 40
0.2203393615
 40
0.337628399
 40
0.4603950783
 40
0.5887721908
 40
0.7223585626
 40
0.8600346427
 40
1.0
 40
1.0
 40
1.0
 40
1.0
 10
3.5113956436
 20
5.4804350069
 30
0.0
 10
3.5108930923
 20
5.4802092854
 30
0.0
 10
3.5098957557
 20
5.4796841118
 30
0.0
 10
3.5084797235
 20
5.4786968092
 30
0.0
 10
3.5071416331
 20
5.4774898805
 30
0.0
 10
3.5059118095
 20
5.4760625599
 30
0.0
 10
3.5048254663
 20
5.474422205
 30
0.0
 10
3.5039215096
 20
5.4725891447
 30
0.0
 10
3.5032381136
 20
5.4706005017
 30
0.0
 10
3.5029511406
 20
5.4692091644
 30
0.0
 10
3.5028517905
 20
5.468502252
 30
0.0
  0
SPLINE
  5
3F9
100
AcDbEntity
  8
0
100
AcDbSpline
 62
7
  6
CONTINUOUS
 70
0
 71
3
 72
16
 73
12
 74
0
 42
0.0000001
 43
0.0000001
 44
0.0000000001
 40
0.0
 40
0.0
 40
0.0
 40
0.0
 40
0.1120638655
 40
0.2273399355
 40
0.3463541179
 40
0.4695424988
 40
0.5970500011
 40
0.7286059843
 40
0.7956975445
 40
0.8634427535
 40
1.0
 40
1.0
 40
1.0
 40
1.0
 10
3.5102394307
 20
5.480597502
 30
0.0
 10
3.5096955986
 20
5.480379073
 30
0.0
 10
3.5086176921
 20
5.4798695953
 30
0.0
 10
3.5070821888
 20
5.4789005621
 30
0.0
 10
3.5056341035
 20
5.4777101634
 30
0.0
 10
3.5043066225
 20
5.4762968697
 30
0.0
 10
3.5031384253
 20
5.4746674714
 30
0.0
 10
3.5023379224
 20
5.4731547694
 30
0.0
 10
3.5018155989
 20
5.4718621628
 30
0.0
 10
3.5013761002
 20
5.4705117565
 30
0.0
 10
3.5011528056
 20
5.4694621982
 30
0.0
 10
3.501053415
 20
5.4687549972
 30
0.0
  0
SPLINE
  5
3FA
100
AcDbEntity
  8
0
100
AcDbSpline
 62
7
  6
CONTINUOUS
 70
0
 71
3
 72
16
 73
12
 74
0
 42
0.0000001
 43
0.0000001
 44
0.0000000001
 40
0.0
 40
0.0
 40
0.0
 40
0.0
 40
0.1365533671
 40
0.2042955845
 40
0.2713892248
 40
0.4029434702
 40
0.5304518753
 40
0.6536396978
 40
0.7726578616
 40
0.8879292949
 40
1.0
 40
1.0
 40
1.0
 40
1.0
 10
6.7580470743
 20
4.058503814
 30
0.0
 10
6.7580470743
 20
4.0592179451
 30
0.0
 10
6.7579720124
 20
4.0602883278
 30
0.0
 10
6.7577247691
 20
4.0616867399
 30
0.0
 10
6.7573874294
 20
4.063039448
 30
0.0
 10
6.7568052612
 20
4.0646488499
 30
0.0
 10
6.7558752119
 20
4.0664249706
 30
0.0
 10
6.7547573423
 20
4.0680092898
 30
0.0
 10
6.7534890064
 20
4.0693896158
 30
0.0
 10
6.7521033111
 20
4.0705629698
 30
0.0
 10
6.7511067856
 20
4.0712175067
 30
0.0
 10
6.7505986144
 20
4.0715095147
 30
0.0
  0
SPLINE
  5
3FB
100
AcDbEntity
  8
0
100
AcDbSpline
 62
7
  6
CONTINUOUS
 70
0
 71
3
 72
15
 73
11
 74
0
 42
0.0000001
 43
0.0000001
 44
0.0000000001
 40
0.0
 40
0.0
 40
0.0
 40
0.0
 40
0.1399613872
 40
0.2776365655
 40
0.4112212378
 40
0.5395993232
 40
0.6623654985
 40
0.7796584179
 40
0.891976208
 40
1.0
 40
1.0
 40
1.0
 40
1.0
 10
6.7562310251
 20
4.058503814
 30
0.0
 10
6.7562310251
 20
4.0592176537
 30
0.0
 10
6.7561404754
 20
4.0606353637
 30
0.0
 10
6.7557405297
 20
4.0626997358
 30
0.0
 10
6.7551004977
 20
4.0646407608
 30
0.0
 10
6.754253032
 20
4.0664163401
 30
0.0
 10
6.753233822
 20
4.0680009572
 30
0.0
 10
6.7520767103
 20
4.0693823464
 30
0.0
 10
6.7508118681
 20
4.0705571625
 30
0.0
 10
6.7498973135
 20
4.0712160303
 30
0.0
 10
6.7494310387
 20
4.0715095147
 30
0.0
  0
SPLINE
  5
3FC
100
AcDbEntity
  8
0
100
AcDbSpline
 62
7
  6
CONTINUOUS
 70
0
 71
3
 72
14
 73
10
 74
0
 42
0.0000001
 43
0.0000001
 44
0.0000000001
 40
0.0
 40
0.0
 40
0.0
 40
0.0
 40
0.2842407054
 40
0.4201517672
 40
0.5495981993
 40
0.6720067499
 40
0.7874692699
 40
0.896532667
 40
1.0
 40
1.0
 40
1.0
 40
1.0
 10
6.7520255813
 20
4.058503814
 30
0.0
 10
6.7520255813
 20
4.0599146736
 30
0.0
 10
6.7517892474
 20
4.0620113059
 30
0.0
 10
6.7510167383
 20
4.064632068
 30
0.0
 10
6.7502599247
 20
4.0664069445
 30
0.0
 10
6.7493493204
 20
4.0679913927
 30
0.0
 10
6.748314884
 20
4.0693735805
 30
0.0
 10
6.7471834751
 20
4.0705497897
 30
0.0
 10
6.7463596451
 20
4.0712140818
 30
0.0
 10
6.7459395559
 20
4.0715095147
 30
0.0
  0
SPLINE
  5
3FD
100
AcDbEntity
  8
0
100
AcDbSpline
 62
7
  6
CONTINUOUS
 70
0
 71
3
 72
15
 73
11
 74
0
 42
0.0000001
 43
0.0000001
 44
0.0000000001
 40
0.0
 40
0.0
 40
0.0
 40
0.0
 40
0.147648897
 40
0.2919698244
 40
0.4302733875
 40
0.5608052633
 40
0.6827881673
 40
0.7962240398
 40
0.9016649151
 40
1.0
 40
1.0
 40
1.0
 40
1.0
 10
6.7454712436
 20
4.058503814
 30
0.0
 10
6.7454712436
 20
4.0592170855
 30
0.0
 10
6.7454010098
 20
4.0606285907
 30
0.0
 10
6.7450903811
 20
4.0626872372
 30
0.0
 10
6.7445930242
 20
4.0646238698
 30
0.0
 10
6.7439340002
 20
4.0663969022
 30
0.0
 10
6.7431407302
 20
4.0679808248
 30
0.0
 10
6.7422391828
 20
4.0693632659
 30
0.0
 10
6.7412525712
 20
4.0705405648
 30
0.0
 10
6.7405277399
 20
4.0712115149
 30
0.0
 10
6.740157791
 20
4.0715095147
 30
0.0
  0
SPLINE
  5
3FE
100
AcDbEntity
  8
0
100
AcDbSpline
 62
7
  6
CONTINUOUS
 70
0
 71
3
 72
14
 73
10
 74
0
 42
0.0000001
 43
0.0000001
 44
0.0000000001
 40
0.0
 40
0.0
 40
0.0
 40
0.0
 40
0.1517516739
 40
0.2996577186
 40
0.4405780384
 40
0.5724119905
 40
0.6941475088
 40
0.8056504717
 40
1.0
 40
1.0
 40
1.0
 40
1.0
 10
6.7366311338
 20
4.058503814
 30
0.0
 10
6.7366311338
 20
4.0592168304
 30
0.0
 10
6.7365719832
 20
4.0606255411
 30
0.0
 10
6.7363102588
 20
4.0626814354
 30
0.0
 10
6.735891142
 20
4.0646157149
 30
0.0
 10
6.7353359021
 20
4.0663867485
 30
0.0
 10
6.7346670255
 20
4.0679699731
 30
0.0
 10
6.7336985446
 20
4.0697317532
 30
0.0
 10
6.7328023774
 20
4.0708794244
 30
0.0
 10
6.7321414256
 20
4.0715095147
 30
0.0
  0
SPLINE
  5
3FF
100
AcDbEntity
  8
0
100
AcDbSpline
 62
7
  6
CONTINUOUS
 70
0
 71
3
 72
15
 73
11
 74
0
 42
0.0000001
 43
0.0000001
 44
0.0000000001
 40
0.0
 40
0.0
 40
0.0
 40
0.0
 40
0.1556220615
 40
0.3069190927
 40
0.4503277126
 40
0.5834096529
 40
0.7049037032
 40
0.8145002048
 40
0.9125814009
 40
1.0
 40
1.0
 40
1.0
 40
1.0
 10
6.7255903871
 20
4.058503814
 30
0.0
 10
6.7255903871
 20
4.0592166082
 30
0.0
 10
6.7255427985
 20
4.060622872
 30
0.0
 10
6.7253321359
 20
4.0626763054
 30
0.0
 10
6.7249948501
 20
4.0646082077
 30
0.0
 10
6.7245479591
 20
4.0663773387
 30
0.0
 10
6.7240100882
 20
4.0679583191
 30
0.0
 10
6.7233988068
 20
4.0693390391
 30
0.0
 10
6.7227297163
 20
4.070516147
 30
0.0
 10
6.7222263453
 20
4.0712038926
 30
0.0
 10
6.7219676615
 20
4.0715095147
 30
0.0
  0
SPLINE
  5
400
100
AcDbEntity
  8
0
100
AcDbSpline
 62
7
  6
CONTINUOUS
 70
0
 71
3
 72
15
 73
11
 74
0
 42
0.0000001
 43
0.0000001
 44
0.0000000001
 40
0.0
 40
0.0
 40
0.0
 40
0.0
 40
0.1591595505
 40
0.3135774454
 40
0.4593184407
 40
0.5936387937
 40
0.7150363172
 40
0.8230063817
 40
0.9177616021
 40
1.0
 40
1.0
 40
1.0
 40
1.0
 10
6.7124553319
 20
4.058503814
 30
0.0
 10
6.7124553319
 20
4.0592164274
 30
0.0
 10
6.7124196746
 20
4.0606206984
 30
0.0
 10
6.7122617845
 20
4.0626720566
 30
0.0
 10
6.7120090276
 20
4.0646018838
 30
0.0
 10
6.7116742206
 20
4.0663689825
 30
0.0
 10
6.7112714157
 20
4.0679479399
 30
0.0
 10
6.7108139182
 20
4.069326672
 30
0.0
 10
6.7103135312
 20
4.0705019761
 30
0.0
 10
6.7099320147
 20
4.0711987769
 30
0.0
 10
6.7097344778
 20
4.0715095147
 30
0.0
  0
SPLINE
  5
401
100
AcDbEntity
  8
0
100
AcDbSpline
 62
7
  6
CONTINUOUS
 70
0
 71
3
 72
15
 73
11
 74
0
 42
0.0000001
 43
0.0000001
 44
0.0000000001
 40
0.0
 40
0.0
 40
0.0
 40
0.0
 40
0.1619887252
 40
0.3189136641
 40
0.4665496918
 40
0.6019095178
 40
0.7232888265
 40
0.830002403
 40
0.9220780815
 40
1.0
 40
1.0
 40
1.0
 40
1.0
 10
6.697352466
 20
4.058503814
 30
0.0
 10
6.697352466
 20
4.059216295
 30
0.0
 10
6.6973290118
 20
4.060619104
 30
0.0
 10
6.697225138
 20
4.0626689064
 30
0.0
 10
6.697058878
 20
4.064597107
 30
0.0
 10
6.6968387119
 20
4.0663624848
 30
0.0
 10
6.6965739558
 20
4.0679395297
 30
0.0
 10
6.6962735195
 20
4.0693160224
 30
0.0
 10
6.6959453061
 20
4.070488737
 30
0.0
 10
6.6956920969
 20
4.0711933989
 30
0.0
 10
6.6955596866
 20
4.0715095147
 30
0.0
  0
SPLINE
  5
402
100
AcDbEntity
  8
0
100
AcDbSpline
 62
7
  6
CONTINUOUS
 70
0
 71
3
 72
14
 73
10
 74
0
 42
0.0000001
 43
0.0000001
 44
0.0000000001
 40
0.0
 40
0.0
 40
0.0
 40
0.0
 40
0.3223051749
 40
0.4711616967
 40
0.6072072531
 40
0.7286052743
 40
0.834544627
 40
0.9249109596
 40
1.0
 40
1.0
 40
1.0
 40
1.0
 10
6.6804272381
 20
4.058503814
 30
0.0
 10
6.6804272381
 20
4.0599056781
 30
0.0
 10
6.6803960235
 20
4.06195524
 30
0.0
 10
6.6802886122
 20
4.0645941957
 30
0.0
 10
6.6801846563
 20
4.0663584499
 30
0.0
 10
6.6800597137
 20
4.0679341539
 30
0.0
 10
6.6799180427
 20
4.0693088881
 30
0.0
 10
6.6797634354
 20
4.0704793139
 30
0.0
 10
6.679643233
 20
4.071189135
 30
0.0
 10
6.6795797989
 20
4.0715095147
 30
0.0
  0
SPLINE
  5
403
100
AcDbEntity
  8
0
100
AcDbSpline
 62
7
  6
CONTINUOUS
 70
0
 71
3
 72
15
 73
11
 74
0
 42
0.0000001
 43
0.0000001
 44
0.0000000001
 40
0.0
 40
0.0
 40
0.0
 40
0.0
 40
0.1080237872
 40
0.2203415733
 40
0.3376344864
 40
0.4604006527
 40
0.5887787104
 40
0.7223633887
 40
0.8600385785
 40
1.0
 40
1.0
 40
1.0
 40
1.0
 10
6.2668193844
 20
4.0715095147
 30
0.0
 10
6.2663531095
 20
4.0712160303
 30
0.0
 10
6.265438555
 20
4.0705571626
 30
0.0
 10
6.2641737129
 20
4.0693823465
 30
0.0
 10
6.2630166012
 20
4.0680009574
 30
0.0
 10
6.2619973913
 20
4.0664163405
 30
0.0
 10
6.2611499256
 20
4.0646407613
 30
0.0
 10
6.2605098935
 20
4.0626997364
 30
0.0
 10
6.2601099477
 20
4.0606353641
 30
0.0
 10
6.260019398
 20
4.0592176538
 30
0.0
 10
6.260019398
 20
4.058503814
 30
0.0
  0
SPLINE
  5
404
100
AcDbEntity
  8
0
100
AcDbSpline
 62
7
  6
CONTINUOUS
 70
0
 71
3
 72
16
 73
12
 74
0
 42
0.0000001
 43
0.0000001
 44
0.0000000001
 40
0.0
 40
0.0
 40
0.0
 40
0.0
 40
0.1120707164
 40
0.2273421557
 40
0.3463603158
 40
0.4695481236
 40
0.5970564891
 40
0.7286107277
 40
0.7957043569
 40
0.8634465884
 40
1.0
 40
1.0
 40
1.0
 40
1.0
 10
6.2656518087
 20
4.0715095147
 30
0.0
 10
6.2651436384
 20
4.0712175073
 30
0.0
 10
6.2641471147
 20
4.0705629717
 30
0.0
 10
6.2627614217
 20
4.0693896203
 30
0.0
 10
6.2614930874
 20
4.0680092978
 30
0.0
 10
6.2603752188
 20
4.0664249829
 30
0.0
 10
6.2594451696
 20
4.0646488669
 30
0.0
 10
6.2588630004
 20
4.0630394691
 30
0.0
 10
6.2585256591
 20
4.0616867642
 30
0.0
 10
6.2582784146
 20
4.0602883549
 30
0.0
 10
6.2582033487
 20
4.0592179742
 30
0.0
 10
6.2582033487
 20
4.0585038443
 30
0.0
  0
SPLINE
  5
405
100
AcDbEntity
  8
0
100
AcDbSpline
 62
7
  6
CONTINUOUS
 70
0
 71
3
 72
14
 73
10
 74
0
 42
0.0000001
 43
0.0000001
 44
0.0000000001
 40
0.0
 40
0.0
 40
0.0
 40
0.0
 40
0.0750890367
 40
0.1654553656
 40
0.2713947112
 40
0.3927927221
 40
0.5288382472
 40
0.677694773
 40
1.0
 40
1.0
 40
1.0
 40
1.0
 10
6.3366706241
 20
4.0715095147
 30
0.0
 10
6.3366071901
 20
4.071189135
 30
0.0
 10
6.3364869876
 20
4.0704793139
 30
0.0
 10
6.3363323804
 20
4.0693088882
 30
0.0
 10
6.3361907094
 20
4.0679341541
 30
0.0
 10
6.3360657668
 20
4.0663584503
 30
0.0
 10
6.3359618109
 20
4.0645941963
 30
0.0
 10
6.3358543996
 20
4.0619552405
 30
0.0
 10
6.335823185
 20
4.0599056783
 30
0.0
 10
6.335823185
 20
4.058503814
 30
0.0
  0
SPLINE
  5
406
100
AcDbEntity
  8
0
100
AcDbSpline
 62
7
  6
CONTINUOUS
 70
0
 71
3
 72
15
 73
11
 74
0
 42
0.0000001
 43
0.0000001
 44
0.0000000001
 40
0.0
 40
0.0
 40
0.0
 40
0.0
 40
0.0779219147
 40
0.1699975895
 40
0.2767111589
 40
0.3980904576
 40
0.5334502525
 40
0.6810862843
 40
0.8380112354
 40
1.0
 40
1.0
 40
1.0
 40
1.0
 10
6.3206907365
 20
4.0715095147
 30
0.0
 10
6.3205583261
 20
4.0711933989
 30
0.0
 10
6.320305117
 20
4.070488737
 30
0.0
 10
6.3199769036
 20
4.0693160225
 30
0.0
 10
6.3196764673
 20
4.0679395299
 30
0.0
 10
6.3194117113
 20
4.0663624853
 30
0.0
 10
6.3191915451
 20
4.0645971076
 30
0.0
 10
6.3190252851
 20
4.0626689071
 30
0.0
 10
6.3189214113
 20
4.0606191044
 30
0.0
 10
6.3188979571
 20
4.0592162952
 30
0.0
 10
6.3188979571
 20
4.058503814
 30
0.0
  0
SPLINE
  5
407
100
AcDbEntity
  8
0
100
AcDbSpline
 62
7
  6
CONTINUOUS
 70
0
 71
3
 72
15
 73
11
 74
0
 42
0.0000001
 43
0.0000001
 44
0.0000000001
 40
0.0
 40
0.0
 40
0.0
 40
0.0
 40
0.082238394
 40
0.1769936106
 40
0.2849636683
 40
0.4063611817
 40
0.5406815041
 40
0.6864225037
 40
0.8408404107
 40
1.0
 40
1.0
 40
1.0
 40
1.0
 10
6.3065159453
 20
4.0715095147
 30
0.0
 10
6.3063184084
 20
4.0711987769
 30
0.0
 10
6.3059368919
 20
4.0705019761
 30
0.0
 10
6.3054365049
 20
4.0693266721
 30
0.0
 10
6.3049790075
 20
4.0679479401
 30
0.0
 10
6.3045762025
 20
4.0663689829
 30
0.0
 10
6.3042413955
 20
4.0646018844
 30
0.0
 10
6.3039886386
 20
4.0626720572
 30
0.0
 10
6.3038307485
 20
4.0606206988
 30
0.0
 10
6.3037950911
 20
4.0592164276
 30
0.0
 10
6.3037950911
 20
4.058503814
 30
0.0
  0
SPLINE
  5
408
100
AcDbEntity
  8
0
100
AcDbSpline
 62
7
  6
CONTINUOUS
 70
0
 71
3
 72
15
 73
11
 74
0
 42
0.0000001
 43
0.0000001
 44
0.0000000001
 40
0.0
 40
0.0
 40
0.0
 40
0.0
 40
0.087418595
 40
0.1854997874
 40
0.2950962821
 40
0.4165903227
 40
0.5496722328
 40
0.6930808574
 40
0.8443779005
 40
1.0
 40
1.0
 40
1.0
 40
1.0
 10
6.2942827615
 20
4.0715095147
 30
0.0
 10
6.2940240778
 20
4.0712038926
 30
0.0
 10
6.2935207068
 20
4.070516147
 30
0.0
 10
6.2928516163
 20
4.0693390392
 30
0.0
 10
6.2922403349
 20
4.0679583193
 30
0.0
 10
6.2917024641
 20
4.0663773391
 30
0.0
 10
6.2912555731
 20
4.0646082083
 30
0.0
 10
6.2909182872
 20
4.0626763061
 30
0.0
 10
6.2907076246
 20
4.0606228724
 30
0.0
 10
6.2906600359
 20
4.0592166084
 30
0.0
 10
6.2906600359
 20
4.058503814
 30
0.0
  0
SPLINE
  5
409
100
AcDbEntity
  8
0
100
AcDbSpline
 62
7
  6
CONTINUOUS
 70
0
 71
3
 72
14
 73
10
 74
0
 42
0.0000001
 43
0.0000001
 44
0.0000000001
 40
0.0
 40
0.0
 40
0.0
 40
0.0
 40
0.1943495202
 40
0.3058524764
 40
0.4275879852
 40
0.5594219078
 40
0.7003422325
 40
0.8482482891
 40
1.0
 40
1.0
 40
1.0
 40
1.0
 10
6.2841089975
 20
4.0715095147
 30
0.0
 10
6.2834480457
 20
4.0708794244
 30
0.0
 10
6.2825518785
 20
4.0697317533
 30
0.0
 10
6.2815833977
 20
4.0679699733
 30
0.0
 10
6.2809145211
 20
4.0663867489
 30
0.0
 10
6.2803592813
 20
4.0646157154
 30
0.0
 10
6.2799401643
 20
4.0626814361
 30
0.0
 10
6.2796784399
 20
4.0606255415
 30
0.0
 10
6.2796192892
 20
4.0592168305
 30
0.0
 10
6.2796192892
 20
4.058503814
 30
0.0
  0
SPLINE
  5
40A
100
AcDbEntity
  8
0
100
AcDbSpline
 62
7
  6
CONTINUOUS
 70
0
 71
3
 72
15
 73
11
 74
0
 42
0.0000001
 43
0.0000001
 44
0.0000000001
 40
0.0
 40
0.0
 40
0.0
 40
0.0
 40
0.0983350838
 40
0.203775958
 40
0.3172118289
 40
0.4391947304
 40
0.5697265978
 40
0.7080301634
 40
0.8523510946
 40
1.0
 40
1.0
 40
1.0
 40
1.0
 10
6.276092632
 20
4.0715095147
 30
0.0
 10
6.2757226831
 20
4.0712115149
 30
0.0
 10
6.2749978518
 20
4.0705405648
 30
0.0
 10
6.2740112403
 20
4.069363266
 30
0.0
 10
6.2731096929
 20
4.0679808248
 30
0.0
 10
6.2723164229
 20
4.0663969023
 30
0.0
 10
6.2716573989
 20
4.0646238699
 30
0.0
 10
6.271160042
 20
4.0626872374
 30
0.0
 10
6.2708494132
 20
4.0606285908
 30
0.0
 10
6.2707791795
 20
4.0592170855
 30
0.0
 10
6.2707791795
 20
4.058503814
 30
0.0
  0
SPLINE
  5
40B
100
AcDbEntity
  8
0
100
AcDbSpline
 62
7
  6
CONTINUOUS
 70
0
 71
3
 72
14
 73
10
 74
0
 42
0.0000001
 43
0.0000001
 44
0.0000000001
 40
0.0
 40
0.0
 40
0.0
 40
0.0
 40
0.1034673284
 40
0.2125307216
 40
0.3279932351
 40
0.4504017766
 40
0.5798481804
 40
0.715759248
 40
1.0
 40
1.0
 40
1.0
 40
1.0
 10
6.2703108671
 20
4.0715095147
 30
0.0
 10
6.269890778
 20
4.0712140818
 30
0.0
 10
6.269066948
 20
4.0705497897
 30
0.0
 10
6.2679355392
 20
4.0693735806
 30
0.0
 10
6.2669011028
 20
4.0679913929
 30
0.0
 10
6.2659904985
 20
4.0664069449
 30
0.0
 10
6.265233685
 20
4.0646320686
 30
0.0
 10
6.2644611758
 20
4.0620113064
 30
0.0
 10
6.2642248418
 20
4.0599146738
 30
0.0
 10
6.2642248418
 20
4.058503814
 30
0.0
  0
SPLINE
  5
40C
100
AcDbEntity
  8
0
100
AcDbSpline
 62
7
  6
CONTINUOUS
 70
0
 71
3
 72
14
 73
10
 74
0
 42
0.0000001
 43
0.0000001
 44
0.0000000001
 40
0.0
 40
0.0
 40
0.0
 40
0.0
 40
0.075089035
 40
0.1654553631
 40
0.2713947053
 40
0.3927927121
 40
0.5288382275
 40
0.6776947645
 40
1.0
 40
1.0
 40
1.0
 40
1.0
 10
6.6795797989
 20
3.6104981134
 30
0.0
 10
6.679643233
 20
3.6108184931
 30
0.0
 10
6.6797634354
 20
3.6115283141
 30
0.0
 10
6.6799180426
 20
3.6126987399
 30
0.0
 10
6.6800597136
 20
3.6140734739
 30
0.0
 10
6.6801846563
 20
3.6156491776
 30
0.0
 10
6.6802886121
 20
3.6174134316
 30
0.0
 10
6.6803960234
 20
3.6200523875
 30
0.0
 10
6.6804272381
 20
3.6221019497
 30
0.0
 10
6.6804272381
 20
3.623503814
 30
0.0
  0
SPLINE
  5
40D
100
AcDbEntity
  8
0
100
AcDbSpline
 62
7
  6
CONTINUOUS
 70
0
 71
3
 72
15
 73
11
 74
0
 42
0.0000001
 43
0.0000001
 44
0.0000000001
 40
0.0
 40
0.0
 40
0.0
 40
0.0
 40
0.077921913
 40
0.1699975869
 40
0.2767111531
 40
0.3980904476
 40
0.533450233
 40
0.6810862759
 40
0.8380112356
 40
1.0
 40
1.0
 40
1.0
 40
1.0
 10
6.6955596866
 20
3.6104981134
 30
0.0
 10
6.6956920969
 20
3.6108142291
 30
0.0
 10
6.6959453061
 20
3.6115188911
 30
0.0
 10
6.6962735195
 20
3.6126916055
 30
0.0
 10
6.6965739557
 20
3.6140680981
 30
0.0
 10
6.6968387118
 20
3.6156451427
 30
0.0
 10
6.6970588779
 20
3.6174105203
 30
0.0
 10
6.697225138
 20
3.6193387209
 30
0.0
 10
6.6973290117
 20
3.6213885237
 30
0.0
 10
6.697352466
 20
3.6227913329
 30
0.0
 10
6.697352466
 20
3.623503814
 30
0.0
  0
SPLINE
  5
40E
100
AcDbEntity
  8
0
100
AcDbSpline
 62
7
  6
CONTINUOUS
 70
0
 71
3
 72
15
 73
11
 74
0
 42
0.0000001
 43
0.0000001
 44
0.0000000001
 40
0.0
 40
0.0
 40
0.0
 40
0.0
 40
0.0822383922
 40
0.176993608
 40
0.2849636624
 40
0.4063611717
 40
0.5406814848
 40
0.6864224954
 40
0.840840411
 40
1.0
 40
1.0
 40
1.0
 40
1.0
 10
6.7097344778
 20
3.6104981134
 30
0.0
 10
6.7099320147
 20
3.6108088512
 30
0.0
 10
6.7103135312
 20
3.611505652
 30
0.0
 10
6.7108139182
 20
3.6126809559
 30
0.0
 10
6.7112714156
 20
3.6140596879
 30
0.0
 10
6.7116742205
 20
3.615638645
 30
0.0
 10
6.7120090275
 20
3.6174057435
 30
0.0
 10
6.7122617845
 20
3.6193355707
 30
0.0
 10
6.7124196745
 20
3.6213869293
 30
0.0
 10
6.7124553319
 20
3.6227912005
 30
0.0
 10
6.7124553319
 20
3.623503814
 30
0.0
  0
SPLINE
  5
40F
100
AcDbEntity
  8
0
100
AcDbSpline
 62
7
  6
CONTINUOUS
 70
0
 71
3
 72
15
 73
11
 74
0
 42
0.0000001
 43
0.0000001
 44
0.0000000001
 40
0.0
 40
0.0
 40
0.0
 40
0.0
 40
0.0874185932
 40
0.1854997847
 40
0.2950962762
 40
0.4165903128
 40
0.5496722138
 40
0.6930808492
 40
0.8443779008
 40
1.0
 40
1.0
 40
1.0
 40
1.0
 10
6.7219676615
 20
3.6104981134
 30
0.0
 10
6.7222263453
 20
3.6108037355
 30
0.0
 10
6.7227297163
 20
3.6114914811
 30
0.0
 10
6.7233988067
 20
3.6126685889
 30
0.0
 10
6.7240100881
 20
3.6140493087
 30
0.0
 10
6.7245479589
 20
3.6156302888
 30
0.0
 10
6.7249948499
 20
3.6173994196
 30
0.0
 10
6.7253321358
 20
3.6193313219
 30
0.0
 10
6.7255427984
 20
3.6213847556
 30
0.0
 10
6.7255903871
 20
3.6227910197
 30
0.0
 10
6.7255903871
 20
3.623503814
 30
0.0
  0
SPLINE
  5
410
100
AcDbEntity
  8
0
100
AcDbSpline
 62
7
  6
CONTINUOUS
 70
0
 71
3
 72
14
 73
10
 74
0
 42
0.0000001
 43
0.0000001
 44
0.0000000001
 40
0.0
 40
0.0
 40
0.0
 40
0.0
 40
0.1943495174
 40
0.3058524705
 40
0.4275879753
 40
0.559421889
 40
0.7003422245
 40
0.8482482893
 40
1.0
 40
1.0
 40
1.0
 40
1.0
 10
6.7321414256
 20
3.6104981134
 30
0.0
 10
6.7328023774
 20
3.6111282037
 30
0.0
 10
6.7336985445
 20
3.6122758747
 30
0.0
 10
6.7346670253
 20
3.6140376547
 30
0.0
 10
6.7353359019
 20
3.6156208791
 30
0.0
 10
6.7358911417
 20
3.6173919125
 30
0.0
 10
6.7363102587
 20
3.6193261919
 30
0.0
 10
6.7365719831
 20
3.6213820866
 30
0.0
 10
6.7366311338
 20
3.6227907975
 30
0.0
 10
6.7366311338
 20
3.623503814
 30
0.0
  0
SPLINE
  5
411
100
AcDbEntity
  8
0
100
AcDbSpline
 62
7
  6
CONTINUOUS
 70
0
 71
3
 72
15
 73
11
 74
0
 42
0.0000001
 43
0.0000001
 44
0.0000000001
 40
0.0
 40
0.0
 40
0.0
 40
0.0
 40
0.0983350847
 40
0.2037759599
 40
0.317211832
 40
0.4391947356
 40
0.5697266103
 40
0.7080301735
 40
0.8523511013
 40
1.0
 40
1.0
 40
1.0
 40
1.0
 10
6.740157791
 20
3.6104981134
 30
0.0
 10
6.7405277399
 20
3.6107961132
 30
0.0
 10
6.7412525712
 20
3.6114670633
 30
0.0
 10
6.7422391828
 20
3.6126443622
 30
0.0
 10
6.7431407302
 20
3.6140268033
 30
0.0
 10
6.7439340002
 20
3.6156107259
 30
0.0
 10
6.7445930242
 20
3.6173837583
 30
0.0
 10
6.7450903811
 20
3.6193203909
 30
0.0
 10
6.7454010098
 20
3.6213790374
 30
0.0
 10
6.7454712436
 20
3.6227905426
 30
0.0
 10
6.7454712436
 20
3.623503814
 30
0.0
  0
SPLINE
  5
412
100
AcDbEntity
  8
0
100
AcDbSpline
 62
7
  6
CONTINUOUS
 70
0
 71
3
 72
14
 73
10
 74
0
 42
0.0000001
 43
0.0000001
 44
0.0000000001
 40
0.0
 40
0.0
 40
0.0
 40
0.0
 40
0.1034673263
 40
0.2125307186
 40
0.3279932291
 40
0.4504017668
 40
0.5798481621
 40
0.7157592404
 40
1.0
 40
1.0
 40
1.0
 40
1.0
 10
6.7459395559
 20
3.6104981134
 30
0.0
 10
6.7463596451
 20
3.6107935462
 30
0.0
 10
6.747183475
 20
3.6114578384
 30
0.0
 10
6.7483148838
 20
3.6126340474
 30
0.0
 10
6.7493493202
 20
3.6140162351
 30
0.0
 10
6.7502599244
 20
3.6156006831
 30
0.0
 10
6.751016738
 20
3.6173755593
 30
0.0
 10
6.7517892473
 20
3.6199963216
 30
0.0
 10
6.7520255813
 20
3.6220929542
 30
0.0
 10
6.7520255813
 20
3.623503814
 30
0.0
  0
SPLINE
  5
413
100
AcDbEntity
  8
0
100
AcDbSpline
 62
7
  6
CONTINUOUS
 70
0
 71
3
 72
15
 73
11
 74
0
 42
0.0000001
 43
0.0000001
 44
0.0000000001
 40
0.0
 40
0.0
 40
0.0
 40
0.0
 40
0.1080237851
 40
0.2203415702
 40
0.3376344803
 40
0.4604006429
 40
0.5887786923
 40
0.7223633812
 40
0.8600385787
 40
1.0
 40
1.0
 40
1.0
 40
1.0
 10
6.7494310387
 20
3.6104981134
 30
0.0
 10
6.7498973135
 20
3.6107915978
 30
0.0
 10
6.750811868
 20
3.6114504655
 30
0.0
 10
6.7520767102
 20
3.6126252816
 30
0.0
 10
6.7532338218
 20
3.6140066706
 30
0.0
 10
6.7542530317
 20
3.6155912874
 30
0.0
 10
6.7551004974
 20
3.6173668666
 30
0.0
 10
6.7557405295
 20
3.6193078915
 30
0.0
 10
6.7561404754
 20
3.621372264
 30
0.0
 10
6.7562310251
 20
3.6227899743
 30
0.0
 10
6.7562310251
 20
3.623503814
 30
0.0
  0
SPLINE
  5
414
100
AcDbEntity
  8
0
100
AcDbSpline
 62
7
  6
CONTINUOUS
 70
0
 71
3
 72
16
 73
12
 74
0
 42
0.0000001
 43
0.0000001
 44
0.0000000001
 40
0.0
 40
0.0
 40
0.0
 40
0.0
 40
0.1120706979
 40
0.2273421263
 40
0.3463602809
 40
0.4695480908
 40
0.5970564605
 40
0.7286107229
 40
0.7957043605
 40
0.8634465996
 40
1.0
 40
1.0
 40
1.0
 40
1.0
 10
6.7505986144
 20
3.6104981134
 30
0.0
 10
6.7511067856
 20
3.6107901213
 30
0.0
 10
6.752103311
 20
3.6114446582
 30
0.0
 10
6.7534890062
 20
3.6126180122
 30
0.0
 10
6.7547573421
 20
3.613998338
 30
0.0
 10
6.7558752116
 20
3.6155826569
 30
0.0
 10
6.7568052608
 20
3.6173587774
 30
0.0
 10
6.7573874291
 20
3.6189681792
 30
0.0
 10
6.7577247689
 20
3.6203208875
 30
0.0
 10
6.7579720123
 20
3.6217192998
 30
0.0
 10
6.7580470743
 20
3.6227896828
 30
0.0
 10
6.7580470743
 20
3.623503814
 30
0.0
  0
SPLINE
  5
415
100
AcDbEntity
  8
0
100
AcDbSpline
 62
7
  6
CONTINUOUS
 70
0
 71
3
 72
15
 73
11
 74
0
 42
0.0000001
 43
0.0000001
 44
0.0000000001
 40
0.0
 40
0.0
 40
0.0
 40
0.0
 40
0.1399614031
 40
0.2776365777
 40
0.4112212422
 40
0.5395993248
 40
0.6623655
 40
0.7796584189
 40
0.8919762082
 40
1.0
 40
1.0
 40
1.0
 40
1.0
 10
6.260019398
 20
3.623503814
 30
0.0
 10
6.260019398
 20
3.6227899743
 30
0.0
 10
6.2601099476
 20
3.6213722643
 30
0.0
 10
6.2605098934
 20
3.6193078922
 30
0.0
 10
6.2611499254
 20
3.6173668672
 30
0.0
 10
6.2619973911
 20
3.6155912879
 30
0.0
 10
6.2630166011
 20
3.6140066709
 30
0.0
 10
6.2641737128
 20
3.6126252817
 30
0.0
 10
6.265438555
 20
3.6114504655
 30
0.0
 10
6.2663531095
 20
3.6107915978
 30
0.0
 10
6.2668193844
 20
3.6104981134
 30
0.0
  0
SPLINE
  5
416
100
AcDbEntity
  8
0
100
AcDbSpline
 62
7
  6
CONTINUOUS
 70
0
 71
3
 72
14
 73
10
 74
0
 42
0.0000001
 43
0.0000001
 44
0.0000000001
 40
0.0
 40
0.0
 40
0.0
 40
0.0
 40
0.2842407178
 40
0.4201517717
 40
0.5495982009
 40
0.6720067514
 40
0.7874692708
 40
0.8965326672
 40
1.0
 40
1.0
 40
1.0
 40
1.0
 10
6.2642248418
 20
3.623503814
 30
0.0
 10
6.2642248418
 20
3.6220929545
 30
0.0
 10
6.2644611757
 20
3.6199963221
 30
0.0
 10
6.2652336848
 20
3.61737556
 30
0.0
 10
6.2659904983
 20
3.6156006836
 30
0.0
 10
6.2669011027
 20
3.6140162354
 30
0.0
 10
6.2679355391
 20
3.6126340475
 30
0.0
 10
6.269066948
 20
3.6114578384
 30
0.0
 10
6.269890778
 20
3.6107935463
 30
0.0
 10
6.2703108671
 20
3.6104981134
 30
0.0
  0
SPLINE
  5
417
100
AcDbEntity
  8
0
100
AcDbSpline
 62
7
  6
CONTINUOUS
 70
0
 71
3
 72
15
 73
11
 74
0
 42
0.0000001
 43
0.0000001
 44
0.0000000001
 40
0.0
 40
0.0
 40
0.0
 40
0.0
 40
0.1476489075
 40
0.2919698389
 40
0.4302734044
 40
0.5608052707
 40
0.6827881718
 40
0.7962240423
 40
0.9016649165
 40
1.0
 40
1.0
 40
1.0
 40
1.0
 10
6.2707791795
 20
3.623503814
 30
0.0
 10
6.2707791795
 20
3.6227905425
 30
0.0
 10
6.2708494132
 20
3.6213790373
 30
0.0
 10
6.271160042
 20
3.6193203907
 30
0.0
 10
6.2716573989
 20
3.6173837581
 30
0.0
 10
6.2723164229
 20
3.6156107258
 30
0.0
 10
6.2731096929
 20
3.6140268033
 30
0.0
 10
6.2740112403
 20
3.6126443621
 30
0.0
 10
6.2749978518
 20
3.6114670633
 30
0.0
 10
6.2757226831
 20
3.6107961132
 30
0.0
 10
6.276092632
 20
3.6104981134
 30
0.0
  0
SPLINE
  5
418
100
AcDbEntity
  8
0
100
AcDbSpline
 62
7
  6
CONTINUOUS
 70
0
 71
3
 72
14
 73
10
 74
0
 42
0.0000001
 43
0.0000001
 44
0.0000000001
 40
0.0
 40
0.0
 40
0.0
 40
0.0
 40
0.1517516911
 40
0.2996577317
 40
0.440578043
 40
0.5724119921
 40
0.6941475102
 40
0.8056504726
 40
1.0
 40
1.0
 40
1.0
 40
1.0
 10
6.2796192892
 20
3.623503814
 30
0.0
 10
6.2796192892
 20
3.6227907976
 30
0.0
 10
6.2796784399
 20
3.6213820869
 30
0.0
 10
6.2799401643
 20
3.6193261925
 30
0.0
 10
6.2803592811
 20
3.6173919131
 30
0.0
 10
6.280914521
 20
3.6156208796
 30
0.0
 10
6.2815833976
 20
3.614037655
 30
0.0
 10
6.2825518784
 20
3.6122758749
 30
0.0
 10
6.2834480456
 20
3.6111282037
 30
0.0
 10
6.2841089975
 20
3.6104981134
 30
0.0
  0
SPLINE
  5
419
100
AcDbEntity
  8
0
100
AcDbSpline
 62
7
  6
CONTINUOUS
 70
0
 71
3
 72
15
 73
11
 74
0
 42
0.0000001
 43
0.0000001
 44
0.0000000001
 40
0.0
 40
0.0
 40
0.0
 40
0.0
 40
0.1556220791
 40
0.3069191061
 40
0.4503277173
 40
0.5834096545
 40
0.7049037047
 40
0.8145002056
 40
0.9125814011
 40
1.0
 40
1.0
 40
1.0
 40
1.0
 10
6.2906600359
 20
3.623503814
 30
0.0
 10
6.2906600359
 20
3.6227910198
 30
0.0
 10
6.2907076246
 20
3.6213847559
 30
0.0
 10
6.2909182872
 20
3.6193313225
 30
0.0
 10
6.291255573
 20
3.6173994203
 30
0.0
 10
6.291702464
 20
3.6156302893
 30
0.0
 10
6.2922403349
 20
3.6140493089
 30
0.0
 10
6.2928516163
 20
3.612668589
 30
0.0
 10
6.2935207067
 20
3.6114914811
 30
0.0
 10
6.2940240778
 20
3.6108037355
 30
0.0
 10
6.2942827615
 20
3.6104981134
 30
0.0
  0
SPLINE
  5
41A
100
AcDbEntity
  8
0
100
AcDbSpline
 62
7
  6
CONTINUOUS
 70
0
 71
3
 72
15
 73
11
 74
0
 42
0.0000001
 43
0.0000001
 44
0.0000000001
 40
0.0
 40
0.0
 40
0.0
 40
0.0
 40
0.1591595685
 40
0.313577459
 40
0.4593184454
 40
0.5936387953
 40
0.7150363186
 40
0.8230063826
 40
0.9177616023
 40
1.0
 40
1.0
 40
1.0
 40
1.0
 10
6.3037950911
 20
3.623503814
 30
0.0
 10
6.3037950911
 20
3.6227912006
 30
0.0
 10
6.3038307485
 20
3.6213869296
 30
0.0
 10
6.3039886385
 20
3.6193355713
 30
0.0
 10
6.3042413955
 20
3.6174057442
 30
0.0
 10
6.3045762025
 20
3.6156386456
 30
0.0
 10
6.3049790074
 20
3.6140596882
 30
0.0
 10
6.3054365048
 20
3.6126809561
 30
0.0
 10
6.3059368918
 20
3.611505652
 30
0.0
 10
6.3063184084
 20
3.6108088512
 30
0.0
 10
6.3065159453
 20
3.6104981134
 30
0.0
  0
SPLINE
  5
41B
100
AcDbEntity
  8
0
100
AcDbSpline
 62
7
  6
CONTINUOUS
 70
0
 71
3
 72
15
 73
11
 74
0
 42
0.0000001
 43
0.0000001
 44
0.0000000001
 40
0.0
 40
0.0
 40
0.0
 40
0.0
 40
0.1619887435
 40
0.3189136779
 40
0.4665496965
 40
0.6019095194
 40
0.7232888279
 40
0.8300024038
 40
0.9220780816
 40
1.0
 40
1.0
 40
1.0
 40
1.0
 10
6.3188979571
 20
3.623503814
 30
0.0
 10
6.3188979571
 20
3.622791333
 30
0.0
 10
6.3189214113
 20
3.621388524
 30
0.0
 10
6.319025285
 20
3.6193387215
 30
0.0
 10
6.319191545
 20
3.617410521
 30
0.0
 10
6.3194117112
 20
3.6156451432
 30
0.0
 10
6.3196764673
 20
3.6140680984
 30
0.0
 10
6.3199769035
 20
3.6126916057
 30
0.0
 10
6.3203051169
 20
3.6115188911
 30
0.0
 10
6.3205583261
 20
3.6108142292
 30
0.0
 10
6.3206907365
 20
3.6104981134
 30
0.0
  0
SPLINE
  5
41C
100
AcDbEntity
  8
0
100
AcDbSpline
 62
7
  6
CONTINUOUS
 70
0
 71
3
 72
14
 73
10
 74
0
 42
0.0000001
 43
0.0000001
 44
0.0000000001
 40
0.0
 40
0.0
 40
0.0
 40
0.0
 40
0.3223051888
 40
0.4711617015
 40
0.6072072548
 40
0.7286052757
 40
0.8345446278
 40
0.9249109597
 40
1.0
 40
1.0
 40
1.0
 40
1.0
 10
6.335823185
 20
3.623503814
 30
0.0
 10
6.335823185
 20
3.6221019499
 30
0.0
 10
6.3358543996
 20
3.620052388
 30
0.0
 10
6.3359618109
 20
3.6174134323
 30
0.0
 10
6.3360657668
 20
3.6156491781
 30
0.0
 10
6.3361907094
 20
3.6140734742
 30
0.0
 10
6.3363323804
 20
3.61269874
 30
0.0
 10
6.3364869876
 20
3.6115283142
 30
0.0
 10
6.3366071901
 20
3.6108184931
 30
0.0
 10
6.3366706241
 20
3.6104981134
 30
0.0
  0
SPLINE
  5
41D
100
AcDbEntity
  8
0
100
AcDbSpline
 62
7
  6
CONTINUOUS
 70
0
 71
3
 72
16
 73
12
 74
0
 42
0.0000001
 43
0.0000001
 44
0.0000000001
 40
0.0
 40
0.0
 40
0.0
 40
0.0
 40
0.1365533824
 40
0.2042956027
 40
0.2713892367
 40
0.4029434749
 40
0.5304518775
 40
0.6536397
 40
0.7726578632
 40
0.8879292956
 40
1.0
 40
1.0
 40
1.0
 40
1.0
 10
6.2582033487
 20
3.6235038148
 30
0.0
 10
6.2582033487
 20
3.6227896837
 30
0.0
 10
6.2582784106
 20
3.6217193008
 30
0.0
 10
6.2585256539
 20
3.6203208886
 30
0.0
 10
6.2588629936
 20
3.6189681805
 30
0.0
 10
6.2594451617
 20
3.6173587785
 30
0.0
 10
6.260375211
 20
3.6155826577
 30
0.0
 10
6.2614930806
 20
3.6139983385
 30
0.0
 10
6.2627614166
 20
3.6126180124
 30
0.0
 10
6.2641471119
 20
3.6114446583
 30
0.0
 10
6.2651436374
 20
3.6107901214
 30
0.0
 10
6.2656518087
 20
3.6104981134
 30
0.0
  0
SPLINE
  5
41E
100
AcDbEntity
  8
0
100
AcDbSpline
 62
7
  6
CONTINUOUS
 70
0
 71
3
 72
16
 73
12
 74
0
 42
0.0000001
 43
0.0000001
 44
0.0000000001
 40
0.0
 40
0.0
 40
0.0
 40
0.0
 40
0.1229572237
 40
0.246407507
 40
0.3704144903
 40
0.4950785249
 40
0.6204343795
 40
0.7464587389
 40
0.8097361692
 40
0.8731293846
 40
1.0
 40
1.0
 40
1.0
 40
1.0
 10
3.5611430921
 20
5.0684910889
 30
0.0
 10
3.560559404
 20
5.0688648287
 30
0.0
 10
3.5594273895
 20
5.0696749878
 30
0.0
 10
3.55787135
 20
5.0710739325
 30
0.0
 10
3.5564878842
 20
5.0726580035
 30
0.0
 10
3.5553173852
 20
5.0744195643
 30
0.0
 10
3.5544049656
 20
5.0763413401
 30
0.0
 10
3.5538989976
 20
5.0780500444
 30
0.0
 10
3.5536667046
 20
5.0794569635
 30
0.0
 10
3.5535540867
 20
5.080882915
 30
0.0
 10
3.5536096245
 20
5.0819611869
 30
0.0
 10
3.553709154
 20
5.082669376
 30
0.0
  0
SPLINE
  5
41F
100
AcDbEntity
  8
0
100
AcDbSpline
 62
7
  6
CONTINUOUS
 70
0
 71
3
 72
15
 73
11
 74
0
 42
0.0000001
 43
0.0000001
 44
0.0000000001
 40
0.0
 40
0.0
 40
0.0
 40
0.0
 40
0.1634961897
 40
0.3217575632
 40
0.4704125113
 40
0.6063412644
 40
0.7277336844
 40
0.8337951173
 40
0.9244448597
 40
1.0
 40
1.0
 40
1.0
 40
1.0
 10
3.5640013766
 20
5.0812228984
 30
0.0
 10
3.5639022249
 20
5.0805173971
 30
0.0
 10
3.5636933893
 20
5.0791308675
 30
0.0
 10
3.5633475248
 20
5.077110296
 30
0.0
 10
3.5629821584
 20
5.0752153479
 30
0.0
 10
3.5626079996
 20
5.0734861551
 30
0.0
 10
3.5622340792
 20
5.0719473062
 30
0.0
 10
3.5618674038
 20
5.0706102846
 30
0.0
 10
3.5615130967
 20
5.069477758
 30
0.0
 10
3.5612658465
 20
5.06879658
 30
0.0
 10
3.5611430921
 20
5.0684910889
 30
0.0
  0
SPLINE
  5
420
100
AcDbEntity
  8
0
100
AcDbSpline
 62
7
  6
CONTINUOUS
 70
0
 71
3
 72
16
 73
12
 74
0
 42
0.0000001
 43
0.0000001
 44
0.0000000001
 40
0.0
 40
0.0
 40
0.0
 40
0.0
 40
0.1212580585
 40
0.243413898
 40
0.3666107276
 40
0.4910131464
 40
0.6166871733
 40
0.7435824393
 40
0.8074696788
 40
0.8715630261
 40
1.0
 40
1.0
 40
1.0
 40
1.0
 10
3.5813542991
 20
5.065650589
 30
0.0
 10
3.5807906223
 20
5.0660219398
 30
0.0
 10
3.5796975434
 20
5.0668280105
 30
0.0
 10
3.578198704
 20
5.068219662
 30
0.0
 10
3.5768678984
 20
5.0697971126
 30
0.0
 10
3.5757442467
 20
5.0715527115
 30
0.0
 10
3.5748712959
 20
5.0734691434
 30
0.0
 10
3.574390946
 20
5.0751722456
 30
0.0
 10
3.5741730449
 20
5.0765757104
 30
0.0
 10
3.5740707357
 20
5.078000591
 30
0.0
 10
3.5741294638
 20
5.0790774935
 30
0.0
 10
3.5742289682
 20
5.0797855041
 30
0.0
  0
SPLINE
  5
421
100
AcDbEntity
  8
0
100
AcDbSpline
 62
7
  6
CONTINUOUS
 70
0
 71
3
 72
15
 73
11
 74
0
 42
0.0000001
 43
0.0000001
 44
0.0000000001
 40
0.0
 40
0.0
 40
0.0
 40
0.0
 40
0.1614427903
 40
0.3178798956
 40
0.4651466675
 40
0.6002994209
 40
0.7216781743
 40
0.8286295992
 40
0.921230321
 40
1.0
 40
1.0
 40
1.0
 40
1.0
 10
3.585145699
 20
5.0782512577
 30
0.0
 10
3.5850465346
 20
5.0775456661
 30
0.0
 10
3.584825332
 20
5.0761598573
 30
0.0
 10
3.5844251663
 20
5.0741458221
 30
0.0
 10
3.583972956
 20
5.0722619061
 30
0.0
 10
3.5834837933
 20
5.0705475812
 30
0.0
 10
3.5829715087
 20
5.0690266601
 30
0.0
 10
3.5824476112
 20
5.0677097787
 30
0.0
 10
3.5819212261
 20
5.0665989439
 30
0.0
 10
3.5815439217
 20
5.0659419704
 30
0.0
 10
3.5813542991
 20
5.065650589
 30
0.0
  0
SPLINE
  5
422
100
AcDbEntity
  8
0
100
AcDbSpline
 62
7
  6
CONTINUOUS
 70
0
 71
3
 72
15
 73
11
 74
0
 42
0.0000001
 43
0.0000001
 44
0.0000000001
 40
0.0
 40
0.0
 40
0.0
 40
0.0
 40
0.119037834
 40
0.2395158519
 40
0.3616781356
 40
0.4857673735
 40
0.611882672
 40
0.73993115
 40
0.8695236867
 40
1.0
 40
1.0
 40
1.0
 40
1.0
 10
3.602655576
 20
5.0626568898
 30
0.0
 10
3.6021174875
 20
5.0630252355
 30
0.0
 10
3.6010742449
 20
5.0638262064
 30
0.0
 10
3.5996486337
 20
5.0652085319
 30
0.0
 10
3.5983852521
 20
5.0667774857
 30
0.0
 10
3.597321566
 20
5.0685253296
 30
0.0
 10
3.5964990548
 20
5.0704349776
 30
0.0
 10
3.5959602401
 20
5.0724755143
 30
0.0
 10
3.5957418219
 20
5.0745989274
 30
0.0
 10
3.5958254314
 20
5.0760285479
 30
0.0
 10
3.5959249049
 20
5.0767363391
 30
0.0
  0
SPLINE
  5
423
100
AcDbEntity
  8
0
100
AcDbSpline
 62
7
  6
CONTINUOUS
 70
0
 71
3
 72
15
 73
11
 74
0
 42
0.0000001
 43
0.0000001
 44
0.0000000001
 40
0.0
 40
0.0
 40
0.0
 40
0.0
 40
0.1584273594
 40
0.3121948359
 40
0.4574482893
 40
0.5915039015
 40
0.7129151841
 40
0.8212158963
 40
0.9166691046
 40
1.0
 40
1.0
 40
1.0
 40
1.0
 10
3.6073610099
 20
5.0751290993
 30
0.0
 10
3.6072618255
 20
5.0744233655
 30
0.0
 10
3.6070283701
 20
5.0730376771
 30
0.0
 10
3.6065747108
 20
5.071029463
 30
0.0
 10
3.6060369713
 20
5.0691558084
 30
0.0
 10
3.6054345049
 20
5.0674555737
 30
0.0
 10
3.6047857829
 20
5.0659518325
 30
0.0
 10
3.604106616
 20
5.0646545072
 30
0.0
 10
3.60340995
 20
5.0635650949
 30
0.0
 10
3.6029080431
 20
5.0629339766
 30
0.0
 10
3.602655576
 20
5.0626568898
 30
0.0
  0
SPLINE
  5
424
100
AcDbEntity
  8
0
100
AcDbSpline
 62
7
  6
CONTINUOUS
 70
0
 71
3
 72
17
 73
13
 74
0
 42
0.0000001
 43
0.0000001
 44
0.0000000001
 40
0.0
 40
0.0
 40
0.0
 40
0.0
 40
0.116232775
 40
0.2345992412
 40
0.3554626206
 40
0.4169726146
 40
0.4792216234
 40
0.6058654024
 40
0.7353070389
 40
0.8009583718
 40
0.8670682228
 40
1.0
 40
1.0
 40
1.0
 40
1.0
 10
3.6248417801
 20
5.0595388222
 30
0.0
 10
3.6243346122
 20
5.0599036202
 30
0.0
 10
3.6233516657
 20
5.0606986595
 30
0.0
 10
3.6220147317
 20
5.0620695923
 30
0.0
 10
3.6210352353
 20
5.0633615216
 30
0.0
 10
3.6203459885
 20
5.0644821833
 30
0.0
 10
3.6197187012
 20
5.0656739499
 30
0.0
 10
3.619080105
 20
5.0672677163
 30
0.0
 10
3.6186716076
 20
5.0689548469
 30
0.0
 10
3.6184941203
 20
5.0703487377
 30
0.0
 10
3.6184209168
 20
5.0717705067
 30
0.0
 10
3.6184885823
 20
5.0728437067
 30
0.0
 10
3.6185880205
 20
5.0735512459
 30
0.0
  0
SPLINE
  5
425
100
AcDbEntity
  8
0
100
AcDbSpline
 62
7
  6
CONTINUOUS
 70
0
 71
3
 72
15
 73
11
 74
0
 42
0.0000001
 43
0.0000001
 44
0.0000000001
 40
0.0
 40
0.0
 40
0.0
 40
0.0
 40
0.1547769635
 40
0.3053276716
 40
0.4481839374
 40
0.5809772256
 40
0.7025063186
 40
0.812497975
 40
0.9113761142
 40
1.0
 40
1.0
 40
1.0
 40
1.0
 10
3.6304333637
 20
5.0718864915
 30
0.0
 10
3.6303341528
 20
5.0711805689
 30
0.0
 10
3.6300886636
 20
5.06979445
 30
0.0
 10
3.629582773
 20
5.0677913805
 30
0.0
 10
3.6289615601
 20
5.0659272873
 30
0.0
 10
3.628248516
 20
5.0642405114
 30
0.0
 10
3.6274666087
 20
5.0627534816
 30
0.0
 10
3.6266358643
 20
5.0614755798
 30
0.0
 10
3.6257730108
 20
5.0604079635
 30
0.0
 10
3.6251532659
 20
5.0598026123
 30
0.0
 10
3.6248417801
 20
5.0595388222
 30
0.0
  0
SPLINE
  5
426
100
AcDbEntity
  8
0
100
AcDbSpline
 62
7
  6
CONTINUOUS
 70
0
 71
3
 72
16
 73
12
 74
0
 42
0.0000001
 43
0.0000001
 44
0.0000000001
 40
0.0
 40
0.0
 40
0.0
 40
0.0
 40
0.1128872388
 40
0.2287704129
 40
0.3481450626
 40
0.4714285594
 40
0.5987648635
 40
0.7299075902
 40
0.7967188019
 40
0.8641462292
 40
1.0
 40
1.0
 40
1.0
 40
1.0
 10
3.6476992459
 20
5.0563264148
 30
0.0
 10
3.6472280428
 20
5.056687219
 30
0.0
 10
3.6463154006
 20
5.0574756108
 30
0.0
 10
3.6450816423
 20
5.0588335175
 30
0.0
 10
3.6439949081
 20
5.0603799063
 30
0.0
 10
3.6430881248
 20
5.0621070923
 30
0.0
 10
3.6423973206
 20
5.0639978487
 30
0.0
 10
3.6420339724
 20
5.0656750138
 30
0.0
 10
3.6418820507
 20
5.0670629321
 30
0.0
 10
3.6418273535
 20
5.0684826653
 30
0.0
 10
3.6419006572
 20
5.0695536345
 30
0.0
 10
3.6420000567
 20
5.0702608988
 30
0.0
  0
SPLINE
  5
427
100
AcDbEntity
  8
0
100
AcDbSpline
 62
7
  6
CONTINUOUS
 70
0
 71
3
 72
14
 73
10
 74
0
 42
0.0000001
 43
0.0000001
 44
0.0000000001
 40
0.0
 40
0.0
 40
0.0
 40
0.0
 40
0.1508599142
 40
0.2979833692
 40
0.4383331675
 40
0.5698820901
 40
0.6916763962
 40
0.8036106567
 40
1.0
 40
1.0
 40
1.0
 40
1.0
 10
3.654140561
 20
5.0685546622
 30
0.0
 10
3.654041318
 20
5.0678485116
 30
0.0
 10
3.6537841228
 20
5.0664614783
 30
0.0
 10
3.6532277489
 20
5.0644629468
 30
0.0
 10
3.65252587
 20
5.0626077614
 30
0.0
 10
3.6517062257
 20
5.0609340683
 30
0.0
 10
3.6507954435
 20
5.0594630111
 30
0.0
 10
3.6495482056
 20
5.0578554012
 30
0.0
 10
3.6484646135
 20
5.0568517285
 30
0.0
 10
3.6476992459
 20
5.0563264148
 30
0.0
  0
SPLINE
  5
428
100
AcDbEntity
  8
0
100
AcDbSpline
 62
7
  6
CONTINUOUS
 70
0
 71
3
 72
15
 73
11
 74
0
 42
0.0000001
 43
0.0000001
 44
0.0000000001
 40
0.0
 40
0.0
 40
0.0
 40
0.0
 40
0.1089673085
 40
0.2219794729
 40
0.3396686848
 40
0.4625308774
 40
0.59070418
 40
0.7238195386
 40
0.860820754
 40
1.0
 40
1.0
 40
1.0
 40
1.0
 10
3.6710078437
 20
5.0530506051
 30
0.0
 10
3.6705773283
 20
5.0534070926
 30
0.0
 10
3.6697444322
 20
5.0541884277
 30
0.0
 10
3.6686276369
 20
5.0555313659
 30
0.0
 10
3.6676485303
 20
5.0570637362
 30
0.0
 10
3.6668371665
 20
5.0587778837
 30
0.0
 10
3.6662261693
 20
5.0606569653
 30
0.0
 10
3.6658481931
 20
5.0626706202
 30
0.0
 10
3.6657304921
 20
5.0647724791
 30
0.0
 10
3.6658361837
 20
5.0661900087
 30
0.0
 10
3.6659355428
 20
5.0668969856
 30
0.0
  0
SPLINE
  5
429
100
AcDbEntity
  8
0
100
AcDbSpline
 62
7
  6
CONTINUOUS
 70
0
 71
3
 72
14
 73
10
 74
0
 42
0.0000001
 43
0.0000001
 44
0.0000000001
 40
0.0
 40
0.0
 40
0.0
 40
0.0
 40
0.290027013
 40
0.4278272562
 40
0.5581435702
 40
0.6802509028
 40
0.7941696197
 40
0.9004669493
 40
1.0
 40
1.0
 40
1.0
 40
1.0
 10
3.6782542885
 20
5.0651656988
 30
0.0
 10
3.6780581689
 20
5.0637702347
 30
0.0
 10
3.6775584678
 20
5.061731897
 30
0.0
 10
3.6765031836
 20
5.0592298602
 30
0.0
 10
3.6755816077
 20
5.0575682671
 30
0.0
 10
3.67454911
 20
5.0561137934
 30
0.0
 10
3.6734339017
 20
5.0548744721
 30
0.0
 10
3.6722603039
 20
5.0538507884
 30
0.0
 10
3.6714269092
 20
5.0532919805
 30
0.0
 10
3.6710078437
 20
5.0530506051
 30
0.0
  0
SPLINE
  5
42A
100
AcDbEntity
  8
0
100
AcDbSpline
 62
7
  6
CONTINUOUS
 70
0
 71
3
 72
15
 73
11
 74
0
 42
0.0000001
 43
0.0000001
 44
0.0000000001
 40
0.0
 40
0.0
 40
0.0
 40
0.0
 40
0.1044805448
 40
0.2142579546
 40
0.3300915117
 40
0.4525324318
 40
0.5816806704
 40
0.7170079425
 40
0.8571596605
 40
1.0
 40
1.0
 40
1.0
 40
1.0
 10
3.6945430988
 20
5.0497429407
 30
0.0
 10
3.6941576581
 20
5.0500949433
 30
0.0
 10
3.6934134397
 20
5.0508690313
 30
0.0
 10
3.6924263051
 20
5.0521951944
 30
0.0
 10
3.6915663811
 20
5.0537116776
 30
0.0
 10
3.690860466
 20
5.0554110292
 30
0.0
 10
3.6903374534
 20
5.0572767668
 30
0.0
 10
3.6900260375
 20
5.0592790184
 30
0.0
 10
3.6899498494
 20
5.061372172
 30
0.0
 10
3.6900646485
 20
5.0627852143
 30
0.0
 10
3.6901639671
 20
5.0634919026
 30
0.0
  0
SPLINE
  5
42B
100
AcDbEntity
  8
0
100
AcDbSpline
 62
7
  6
CONTINUOUS
 70
0
 71
3
 72
15
 73
11
 74
0
 42
0.0000001
 43
0.0000001
 44
0.0000000001
 40
0.0
 40
0.0
 40
0.0
 40
0.0
 40
0.1428402896
 40
0.2829919805
 40
0.4183192595
 40
0.5474675251
 40
0.6699084606
 40
0.7857420354
 40
0.8955194471
 40
1.0
 40
1.0
 40
1.0
 40
1.0
 10
3.7025423179
 20
5.0617522389
 30
0.0
 10
3.7024429994
 20
5.0610455508
 30
0.0
 10
3.7021638642
 20
5.0596556048
 30
0.0
 10
3.7015136765
 20
5.057664537
 30
0.0
 10
3.700662429
 20
5.055825687
 30
0.0
 10
3.69964541
 20
5.0541763864
 30
0.0
 10
3.6984984359
 20
5.0527374412
 30
0.0
 10
3.6972538244
 20
5.0515167309
 30
0.0
 10
3.6959393895
 20
5.0505140323
 30
0.0
 10
3.6950106333
 20
5.0499750654
 30
0.0
 10
3.6945430988
 20
5.0497429407
 30
0.0
  0
SPLINE
  5
42C
100
AcDbEntity
  8
0
100
AcDbSpline
 62
7
  6
CONTINUOUS
 70
0
 71
3
 72
14
 73
10
 74
0
 42
0.0000001
 43
0.0000001
 44
0.0000000001
 40
0.0
 40
0.0
 40
0.0
 40
0.0
 40
0.0995330436
 40
0.2058303715
 40
0.3197490719
 40
0.4418563889
 40
0.5721726748
 40
0.709972916
 40
1.0
 40
1.0
 40
1.0
 40
1.0
 10
3.7180783539
 20
5.0464352763
 30
0.0
 10
3.7177420544
 20
5.0467828113
 30
0.0
 10
3.7170949724
 20
5.0475496866
 30
0.0
 10
3.7162490033
 20
5.0488572019
 30
0.0
 10
3.7155185995
 20
5.0503559068
 30
0.0
 10
3.7149270064
 20
5.0520386313
 30
0.0
 10
3.7144991278
 20
5.0538898776
 30
0.0
 10
3.7141743782
 20
5.0565858657
 30
0.0
 10
3.7142558767
 20
5.0586829783
 30
0.0
 10
3.7144519964
 20
5.0600784427
 30
0.0
  0
SPLINE
  5
42D
100
AcDbEntity
  8
0
100
AcDbSpline
 62
7
  6
CONTINUOUS
 70
0
 71
3
 72
15
 73
11
 74
0
 42
0.0000001
 43
0.0000001
 44
0.0000000001
 40
0.0
 40
0.0
 40
0.0
 40
0.0
 40
0.1391792056
 40
0.2761803932
 40
0.4092957529
 40
0.5374690817
 40
0.6603312895
 40
0.7780205175
 40
0.8910326839
 40
1.0
 40
1.0
 40
1.0
 40
1.0
 10
3.7267707422
 20
5.0583471559
 30
0.0
 10
3.7266713831
 20
5.0576401792
 30
0.0
 10
3.7263822563
 20
5.0562484301
 30
0.0
 10
3.7256897643
 20
5.0542604367
 30
0.0
 10
3.7247713918
 20
5.0524289717
 30
0.0
 10
3.7236661185
 20
5.0507910959
 30
0.0
 10
3.7224137023
 20
5.0493669936
 30
0.0
 10
3.7210501461
 20
5.0481638628
 30
0.0
 10
3.7196064495
 20
5.0471807782
 30
0.0
 10
3.7185904532
 20
5.046659288
 30
0.0
 10
3.7180783539
 20
5.0464352763
 30
0.0
  0
SPLINE
  5
42E
100
AcDbEntity
  8
0
100
AcDbSpline
 62
7
  6
CONTINUOUS
 70
0
 71
3
 72
14
 73
10
 74
0
 42
0.0000001
 43
0.0000001
 44
0.0000000001
 40
0.0
 40
0.0
 40
0.0
 40
0.0
 40
0.1963893347
 40
0.3083235784
 40
0.4301178687
 40
0.5616667621
 40
0.702016558
 40
0.849140042
 40
1.0
 40
1.0
 40
1.0
 40
1.0
 10
3.7413869517
 20
5.0431594665
 30
0.0
 10
3.7407960292
 20
5.0438753942
 30
0.0
 10
3.7400310634
 20
5.0451388647
 30
0.0
 10
3.7392752588
 20
5.0470279837
 30
0.0
 10
3.7388052371
 20
5.0486930999
 30
0.0
 10
3.7384786766
 20
5.0505278813
 30
0.0
 10
3.7383153457
 20
5.0525046641
 30
0.0
 10
3.7383313947
 20
5.0545791336
 30
0.0
 10
3.738466481
 20
5.0559833285
 30
0.0
 10
3.738565724
 20
5.0566894793
 30
0.0
  0
SPLINE
  5
42F
100
AcDbEntity
  8
0
100
AcDbSpline
 62
7
  6
CONTINUOUS
 70
0
 71
3
 72
16
 73
12
 74
0
 42
0.0000001
 43
0.0000001
 44
0.0000000001
 40
0.0
 40
0.0
 40
0.0
 40
0.0
 40
0.1358537313
 40
0.2032811415
 40
0.2700923429
 40
0.4012350703
 40
0.5285713997
 40
0.6518549116
 40
0.7712295773
 40
0.8871127534
 40
1.0
 40
1.0
 40
1.0
 40
1.0
 10
3.7507062283
 20
5.0549832427
 30
0.0
 10
3.7506068288
 20
5.0542759787
 30
0.0
 10
3.7503820937
 20
5.053226292
 30
0.0
 10
3.7499381841
 20
5.0518766338
 30
0.0
 10
3.7494095857
 20
5.0505843564
 30
0.0
 10
3.7485980236
 20
5.0490723141
 30
0.0
 10
3.7474128169
 20
5.0474452135
 30
0.0
 10
3.7460650837
 20
5.0460348789
 30
0.0
 10
3.7445942051
 20
5.0448479389
 30
0.0
 10
3.7430339506
 20
5.0438827051
 30
0.0
 10
3.7419393523
 20
5.0433764126
 30
0.0
 10
3.7413869517
 20
5.0431594665
 30
0.0
  0
SPLINE
  5
430
100
AcDbEntity
  8
0
100
AcDbSpline
 62
7
  6
CONTINUOUS
 70
0
 71
3
 72
15
 73
11
 74
0
 42
0.0000001
 43
0.0000001
 44
0.0000000001
 40
0.0
 40
0.0
 40
0.0
 40
0.0
 40
0.0886238792
 40
0.1875020168
 40
0.2974936563
 40
0.4190227332
 40
0.5518159912
 40
0.6946722541
 40
0.8452229916
 40
1.0
 40
1.0
 40
1.0
 40
1.0
 10
3.7642444175
 20
5.0399470591
 30
0.0
 10
3.7640177086
 20
5.0402864876
 30
0.0
 10
3.7635888289
 20
5.0410392134
 30
0.0
 10
3.7630536759
 20
5.0423033065
 30
0.0
 10
3.7626073506
 20
5.0437606886
 30
0.0
 10
3.7622656141
 20
5.0454056359
 30
0.0
 10
3.7620451304
 20
5.0472236103
 30
0.0
 10
3.761961796
 20
5.0491867212
 30
0.0
 10
3.7620276234
 20
5.0512516379
 30
0.0
 10
3.7621737103
 20
5.0526517272
 30
0.0
 10
3.7622729213
 20
5.05335765
 30
0.0
  0
SPLINE
  5
431
100
AcDbEntity
  8
0
100
AcDbSpline
 62
7
  6
CONTINUOUS
 70
0
 71
3
 72
17
 73
13
 74
0
 42
0.0000001
 43
0.0000001
 44
0.0000000001
 40
0.0
 40
0.0
 40
0.0
 40
0.0
 40
0.1329317386
 40
0.1990415725
 40
0.2646928953
 40
0.3941345322
 40
0.5207783356
 40
0.5830273501
 40
0.6445373535
 40
0.7654007488
 40
0.8837672169
 40
1.0
 40
1.0
 40
1.0
 40
1.0
 10
3.7741182645
 20
5.0516928956
 30
0.0
 10
3.7740188264
 20
5.0509853566
 30
0.0
 10
3.7737880567
 20
5.0499350797
 30
0.0
 10
3.7733257966
 20
5.0485885656
 30
0.0
 10
3.7727709766
 20
5.0472975939
 30
0.0
 10
3.7719132675
 20
5.0457884169
 30
0.0
 10
3.7708601079
 20
5.0444324111
 30
0.0
 10
3.7699286252
 20
5.0434597151
 30
0.0
 10
3.7689571822
 20
5.042572448
 30
0.0
 10
3.7676595258
 20
5.0416005514
 30
0.0
 10
3.765996502
 20
5.0406512352
 30
0.0
 10
3.7648324906
 20
5.0401579311
 30
0.0
 10
3.7642444175
 20
5.0399470591
 30
0.0
  0
SPLINE
  5
432
100
AcDbEntity
  8
0
100
AcDbSpline
 62
7
  6
CONTINUOUS
 70
0
 71
3
 72
15
 73
11
 74
0
 42
0.0000001
 43
0.0000001
 44
0.0000000001
 40
0.0
 40
0.0
 40
0.0
 40
0.0
 40
0.083330889
 40
0.1787840959
 40
0.2870847908
 40
0.4084960571
 40
0.5425516381
 40
0.6878050883
 40
0.8415725947
 40
1.0
 40
1.0
 40
1.0
 40
1.0
 10
3.7864306216
 20
5.0368289915
 30
0.0
 10
3.7862643102
 20
5.0371649338
 30
0.0
 10
3.7859558061
 20
5.0379099479
 30
0.0
 10
3.7855864105
 20
5.0391491852
 30
0.0
 10
3.7852911446
 20
5.0405834579
 30
0.0
 10
3.7850820403
 20
5.0422077585
 30
0.0
 10
3.7849715605
 20
5.044008191
 30
0.0
 10
3.7849711014
 20
5.0459574845
 30
0.0
 10
3.7850885548
 20
5.0480129495
 30
0.0
 10
3.7852460906
 20
5.0494093081
 30
0.0
 10
3.7853452751
 20
5.0501150422
 30
0.0
  0
SPLINE
  5
433
100
AcDbEntity
  8
0
100
AcDbSpline
 62
7
  6
CONTINUOUS
 70
0
 71
3
 72
15
 73
11
 74
0
 42
0.0000001
 43
0.0000001
 44
0.0000000001
 40
0.0
 40
0.0
 40
0.0
 40
0.0
 40
0.1304762753
 40
0.260068785
 40
0.3881172631
 40
0.5142325855
 40
0.6383218384
 40
0.7604841378
 40
0.8809621577
 40
1.0
 40
1.0
 40
1.0
 40
1.0
 10
3.7967813801
 20
5.0485078024
 30
0.0
 10
3.7966819065
 20
5.0478000114
 30
0.0
 10
3.7963682204
 20
5.0464027265
 30
0.0
 10
3.7955729716
 20
5.0444217753
 30
0.0
 10
3.7944925817
 20
5.042608803
 30
0.0
 10
3.7931755628
 20
5.040999846
 30
0.0
 10
3.7916713109
 20
5.039612902
 30
0.0
 10
3.7900244082
 20
5.0384529618
 30
0.0
 10
3.788273002
 20
5.0375171369
 30
0.0
 10
3.7870493953
 20
5.0370347508
 30
0.0
 10
3.7864306216
 20
5.0368289915
 30
0.0
  0
SPLINE
  5
434
100
AcDbEntity
  8
0
100
AcDbSpline
 62
7
  6
CONTINUOUS
 70
0
 71
3
 72
15
 73
11
 74
0
 42
0.0000001
 43
0.0000001
 44
0.0000000001
 40
0.0
 40
0.0
 40
0.0
 40
0.0
 40
0.0787696728
 40
0.1713703931
 40
0.2783218007
 40
0.3997005375
 40
0.534853259
 40
0.6821200274
 40
0.8385571629
 40
1.0
 40
1.0
 40
1.0
 40
1.0
 10
3.8077318985
 20
5.0338352923
 30
0.0
 10
3.8076299371
 20
5.0341676531
 30
0.0
 10
3.8074483353
 20
5.0349031757
 30
0.0
 10
3.8072485291
 20
5.0361160699
 30
0.0
 10
3.8071079082
 20
5.0375263431
 30
0.0
 10
3.8070346913
 20
5.0391295508
 30
0.0
 10
3.8070370098
 20
5.0409122969
 30
0.0
 10
3.8071215951
 20
5.0428478792
 30
0.0
 10
3.8072920744
 20
5.0448941951
 30
0.0
 10
3.8074614215
 20
5.046287292
 30
0.0
 10
3.807560586
 20
5.0469928838
 30
0.0
  0
SPLINE
  5
435
100
AcDbEntity
  8
0
100
AcDbSpline
 62
7
  6
CONTINUOUS
 70
0
 71
3
 72
16
 73
12
 74
0
 42
0.0000001
 43
0.0000001
 44
0.0000000001
 40
0.0
 40
0.0
 40
0.0
 40
0.0
 40
0.1284369365
 40
0.1925302672
 40
0.2564174965
 40
0.3833127624
 40
0.5089868126
 40
0.6333892463
 40
0.7565860916
 40
0.8787419332
 40
1.0
 40
1.0
 40
1.0
 40
1.0
 10
3.8184773168
 20
5.0454586373
 30
0.0
 10
3.8183778124
 20
5.0447506269
 30
0.0
 10
3.8181374309
 20
5.0436992544
 30
0.0
 10
3.817646335
 20
5.0423577719
 30
0.0
 10
3.8170500278
 20
5.0410687366
 30
0.0
 10
3.8161188473
 20
5.0395640121
 30
0.0
 10
3.8147514729
 20
5.037962437
 30
0.0
 10
3.8131874408
 20
5.0365845672
 30
0.0
 10
3.8114733839
 20
5.0354350439
 30
0.0
 10
3.8096490157
 20
5.0345104387
 30
0.0
 10
3.8083760976
 20
5.0340368872
 30
0.0
 10
3.8077318985
 20
5.0338352923
 30
0.0
  0
SPLINE
  5
436
100
AcDbEntity
  8
0
100
AcDbSpline
 62
7
  6
CONTINUOUS
 70
0
 71
3
 72
15
 73
11
 74
0
 42
0.0000001
 43
0.0000001
 44
0.0000000001
 40
0.0
 40
0.0
 40
0.0
 40
0.0
 40
0.0755551343
 40
0.1662048753
 40
0.2722662905
 40
0.393658694
 40
0.5295874145
 40
0.6782423589
 40
0.8365037629
 40
1.0
 40
1.0
 40
1.0
 40
1.0
 10
3.8279431055
 20
5.0309947924
 30
0.0
 10
3.8279093111
 20
5.0313222849
 30
0.0
 10
3.8278593971
 20
5.0320452265
 30
0.0
 10
3.8278309819
 20
5.0332315412
 30
0.0
 10
3.8278470439
 20
5.0346178381
 30
0.0
 10
3.8279117729
 20
5.0362001407
 30
0.0
 10
3.8280287384
 20
5.0379654794
 30
0.0
 10
3.8281998441
 20
5.0398877291
 30
0.0
 10
3.8284243228
 20
5.0419253606
 30
0.0
 10
3.8286057566
 20
5.0433157416
 30
0.0
 10
3.8287049084
 20
5.0440212431
 30
0.0
  0
SPLINE
  5
437
100
AcDbEntity
  8
0
100
AcDbSpline
 62
7
  6
CONTINUOUS
 70
0
 71
3
 72
16
 73
12
 74
0
 42
0.0000001
 43
0.0000001
 44
0.0000000001
 40
0.0
 40
0.0
 40
0.0
 40
0.0
 40
0.1268705784
 40
0.1902637773
 40
0.2535411975
 40
0.3795655566
 40
0.5049214341
 40
0.6295854835
 40
0.7535924825
 40
0.8770427679
 40
1.0
 40
1.0
 40
1.0
 40
1.0
 10
3.838997131
 20
5.0425747655
 30
0.0
 10
3.8388976015
 20
5.0418665767
 30
0.0
 10
3.838653776
 20
5.0408147672
 30
0.0
 10
3.8381524755
 20
5.0394750967
 30
0.0
 10
3.8375413818
 20
5.0381867079
 30
0.0
 10
3.8365840314
 20
5.0366836595
 30
0.0
 10
3.8351772442
 20
5.0350878267
 30
0.0
 10
3.8335665361
 20
5.0337171388
 30
0.0
 10
3.8318000342
 20
5.0325757667
 30
0.0
 10
3.8299186716
 20
5.0316599174
 30
0.0
 10
3.8286071992
 20
5.0311931678
 30
0.0
 10
3.8279431055
 20
5.0309947924
 30
0.0
  0
LINE
  5
438
100
AcDbEntity
  8
0
100
AcDbLine
 62
7
  6
CONTINUOUS
 10
3.8468695974
 20
5.0283348474
 11
3.848574611
 21
5.0412287385
  0
SPLINE
  5
439
100
AcDbEntity
  8
0
100
AcDbSpline
 62
7
  6
CONTINUOUS
 70
0
 71
3
 72
16
 73
12
 74
0
 42
0.0000001
 43
0.0000001
 44
0.0000000001
 40
0.0
 40
0.0
 40
0.0
 40
0.0
 40
0.1257665134
 40
0.1886670991
 40
0.2515163742
 40
0.3769324638
 40
0.5020708651
 40
0.6269242367
 40
0.7515024659
 40
0.8758587499
 40
1.0
 40
1.0
 40
1.0
 40
1.0
 10
3.8581432056
 20
5.0398839602
 30
0.0
 10
3.8580436578
 20
5.0391756408
 30
0.0
 10
3.8577973684
 20
5.0381235052
 30
0.0
 10
3.8572888086
 20
5.0367851335
 30
0.0
 10
3.8566671646
 20
5.0354971956
 30
0.0
 10
3.8556911368
 20
5.0339953659
 30
0.0
 10
3.8542563158
 20
5.0324036637
 30
0.0
 10
3.8526124284
 20
5.031038112
 30
0.0
 10
3.8508086465
 20
5.0299025436
 30
0.0
 10
3.8488867587
 20
5.0289929122
 30
0.0
 10
3.8475478541
 20
5.02853095
 30
0.0
 10
3.8468695974
 20
5.0283348474
 30
0.0
  0
SPLINE
  5
43A
100
AcDbEntity
  8
0
100
AcDbSpline
 62
7
  6
CONTINUOUS
 70
0
 71
3
 72
16
 73
12
 74
0
 42
0.0000001
 43
0.0000001
 44
0.0000000001
 40
0.0
 40
0.0
 40
0.0
 40
0.0
 40
0.1251249292
 40
0.1877395935
 40
0.2503407188
 40
0.3754054796
 40
0.5004200707
 40
0.6253852819
 40
0.7502954794
 40
0.8751758108
 40
1.0
 40
1.0
 40
1.0
 40
1.0
 10
3.8757311534
 20
5.0374121354
 30
0.0
 10
3.8756315947
 20
5.0367037381
 30
0.0
 10
3.8753838589
 20
5.035651406
 30
0.0
 10
3.8748710536
 20
5.0343137978
 30
0.0
 10
3.8742432269
 20
5.0330261203
 30
0.0
 10
3.8732562526
 20
5.0315250144
 30
0.0
 10
3.871805038
 20
5.0299357451
 30
0.0
 10
3.8701417551
 20
5.0285732069
 30
0.0
 10
3.86831618
 20
5.0274410339
 30
0.0
 10
3.8663705974
 20
5.0265350347
 30
0.0
 10
3.8650156458
 20
5.0260758537
 30
0.0
 10
3.8643291019
 20
5.0258810741
 30
0.0
  0
SPLINE
  5
43B
100
AcDbEntity
  8
0
100
AcDbSpline
 62
7
  6
CONTINUOUS
 70
0
 71
3
 72
16
 73
12
 74
0
 42
0.0000001
 43
0.0000001
 44
0.0000000001
 40
0.0
 40
0.0
 40
0.0
 40
0.0
 40
0.1249453478
 40
0.1874800271
 40
0.2500117807
 40
0.3749784871
 40
0.4999587603
 40
0.6249555123
 40
0.7499586277
 40
0.8749853202
 40
1.0
 40
1.0
 40
1.0
 40
1.0
 10
3.891591593
 20
5.035183096
 30
0.0
 10
3.8914920311
 20
5.0344746766
 30
0.0
 10
3.8912438885
 20
5.0334222886
 30
0.0
 10
3.8907298911
 20
5.0320848953
 30
0.0
 10
3.8901003268
 20
5.0307972905
 30
0.0
 10
3.889110276
 20
5.0292963893
 30
0.0
 10
3.8876544588
 20
5.0277078054
 30
0.0
 10
3.8859857313
 20
5.0263461145
 30
0.0
 10
3.8841540384
 20
5.0252148949
 30
0.0
 10
3.8822018035
 20
5.0243099151
 30
0.0
 10
3.8808423458
 20
5.0238515125
 30
0.0
 10
3.8801534744
 20
5.0236571035
 30
0.0
  0
SPLINE
  5
43C
100
AcDbEntity
  8
0
100
AcDbSpline
 62
7
  6
CONTINUOUS
 70
0
 71
3
 72
16
 73
12
 74
0
 42
0.0000001
 43
0.0000001
 44
0.0000000001
 40
0.0
 40
0.0
 40
0.0
 40
0.0
 40
0.1252275605
 40
0.1878879453
 40
0.2505287337
 40
0.3756495887
 40
0.5006838586
 40
0.6256310905
 40
0.7504881847
 40
0.8752848072
 40
1.0
 40
1.0
 40
1.0
 40
1.0
 10
3.9055717795
 20
5.0332183089
 30
0.0
 10
3.9054722225
 20
5.0325099241
 30
0.0
 10
3.9052247189
 20
5.0314576239
 30
0.0
 10
3.9047125941
 20
5.0301198931
 30
0.0
 10
3.904085759
 20
5.028832174
 30
0.0
 10
3.9031005405
 20
5.0273309515
 30
0.0
 10
3.9016519536
 20
5.0257412914
 30
0.0
 10
3.8999917792
 20
5.0243782697
 30
0.0
 10
3.8981696968
 20
5.0232455524
 30
0.0
 10
3.896227912
 20
5.0223389712
 30
0.0
 10
3.8948755328
 20
5.0218793453
 30
0.0
 10
3.8941903175
 20
5.0216843539
 30
0.0
  0
SPLINE
  5
43D
100
AcDbEntity
  8
0
100
AcDbSpline
 62
7
  6
CONTINUOUS
 70
0
 71
3
 72
16
 73
12
 74
0
 42
0.0000001
 43
0.0000001
 44
0.0000000001
 40
0.0
 40
0.0
 40
0.0
 40
0.0
 40
0.1259718806
 40
0.1889640413
 40
0.2518928491
 40
0.3774217304
 40
0.5026001609
 40
0.6274180144
 40
0.7518899836
 40
0.8760781443
 40
1.0
 40
1.0
 40
1.0
 40
1.0
 10
3.9175370762
 20
5.0315366961
 30
0.0
 10
3.9174375318
 20
5.0308284012
 30
0.0
 10
3.9171917031
 20
5.0297763275
 30
0.0
 10
3.9166844981
 20
5.0284377128
 30
0.0
 10
3.9160648249
 20
5.0271496912
 30
0.0
 10
3.9150922864
 20
5.0256476324
 30
0.0
 10
3.9136626966
 20
5.0240551565
 30
0.0
 10
3.9120249994
 20
5.0226886447
 30
0.0
 10
3.9102281728
 20
5.021551993
 30
0.0
 10
3.9083138466
 20
5.020641202
 30
0.0
 10
3.9069800617
 20
5.0201783495
 30
0.0
 10
3.9063044488
 20
5.0199818238
 30
0.0
  0
SPLINE
  5
43E
100
AcDbEntity
  8
0
100
AcDbSpline
 62
7
  6
CONTINUOUS
 70
0
 71
3
 72
16
 73
12
 74
0
 42
0.0000001
 43
0.0000001
 44
0.0000000001
 40
0.0
 40
0.0
 40
0.0
 40
0.0
 40
0.1271787449
 40
0.1907095731
 40
0.2541067473
 40
0.3803017154
 40
0.5057192955
 40
0.6303312206
 40
0.7541787977
 40
0.8773752546
 40
1.0
 40
1.0
 40
1.0
 40
1.0
 10
3.9273722507
 20
5.0301544524
 30
0.0
 10
3.9272727262
 20
5.0294462993
 30
0.0
 10
3.9270295829
 20
5.0283945782
 30
0.0
 10
3.9265302985
 20
5.0270545484
 30
0.0
 10
3.9259221303
 20
5.0257660331
 30
0.0
 10
3.9249699583
 20
5.0242626502
 30
0.0
 10
3.9235709575
 20
5.0226656769
 30
0.0
 10
3.921969468
 20
5.0212935664
 30
0.0
 10
3.9202133239
 20
5.0201505831
 30
0.0
 10
3.9183432189
 20
5.0192330052
 30
0.0
 10
3.9170393643
 20
5.0187649187
 30
0.0
 10
3.9163792025
 20
5.0185659095
 30
0.0
  0
SPLINE
  5
43F
100
AcDbEntity
  8
0
100
AcDbSpline
 62
7
  6
CONTINUOUS
 70
0
 71
3
 72
17
 73
13
 74
0
 42
0.0000001
 43
0.0000001
 44
0.0000000001
 40
0.0
 40
0.0
 40
0.0
 40
0.0
 40
0.1288382803
 40
0.1931107587
 40
0.25715369
 40
0.384269618
 40
0.5100198582
 40
0.5723982742
 40
0.6344185118
 40
0.7573941239
 40
0.8791999983
 40
1.0
 40
1.0
 40
1.0
 40
1.0
 10
3.9349825849
 20
5.0290848897
 30
0.0
 10
3.9348830869
 20
5.0283769248
 30
0.0
 10
3.9346435977
 20
5.0273256609
 30
0.0
 10
3.9341551638
 20
5.0259837118
 30
0.0
 10
3.9335626863
 20
5.0246944941
 30
0.0
 10
3.9326384126
 20
5.0231894248
 30
0.0
 10
3.9315038287
 20
5.0218493524
 30
0.0
 10
3.9304987784
 20
5.0208905868
 30
0.0
 10
3.9294425732
 20
5.0200124067
 30
0.0
 10
3.9280288753
 20
5.0190548291
 30
0.0
 10
3.9262194711
 20
5.0181280475
 30
0.0
 10
3.924956572
 20
5.0176526857
 30
0.0
 10
3.9243175532
 20
5.017450247
 30
0.0
  0
SPLINE
  5
440
100
AcDbEntity
  8
0
100
AcDbSpline
 62
7
  6
CONTINUOUS
 70
0
 71
3
 72
15
 73
11
 74
0
 42
0.0000001
 43
0.0000001
 44
0.0000000001
 40
0.0
 40
0.0
 40
0.0
 40
0.0
 40
0.130988124
 40
0.2610130603
 40
0.3893519075
 40
0.5155783251
 40
0.6395873264
 40
0.7614850341
 40
0.8815328764
 40
1.0
 40
1.0
 40
1.0
 40
1.0
 10
3.9402947871
 20
5.0283383084
 30
0.0
 10
3.9401953211
 20
5.0276305709
 30
0.0
 10
3.9398831293
 20
5.0262336638
 30
0.0
 10
3.9390940791
 20
5.0242522971
 30
0.0
 10
3.9380234128
 20
5.0224381787
 30
0.0
 10
3.9367190465
 20
5.0208274306
 30
0.0
 10
3.9352298014
 20
5.019438213
 30
0.0
 10
3.9335997653
 20
5.0182756664
 30
0.0
 10
3.9318666794
 20
5.017337022
 30
0.0
 10
3.9306554476
 20
5.0168523941
 30
0.0
 10
3.9300430503
 20
5.0166455809
 30
0.0
  0
SPLINE
  5
441
100
AcDbEntity
  8
0
100
AcDbSpline
 62
7
  6
CONTINUOUS
 70
0
 71
3
 72
17
 73
13
 74
0
 42
0.0000001
 43
0.0000001
 44
0.0000000001
 40
0.0
 40
0.0
 40
0.0
 40
0.0
 40
0.1335423307
 40
0.1999270281
 40
0.2658198095
 40
0.3956136419
 40
0.5223974938
 40
0.5846302034
 40
0.6460663334
 40
0.7666154644
 40
0.8844627698
 40
1.0
 40
1.0
 40
1.0
 40
1.0
 10
3.9432576979
 20
5.0279218984
 30
0.0
 10
3.9431582681
 20
5.0272144189
 30
0.0
 10
3.9429287734
 20
5.0261642731
 30
0.0
 10
3.9424703752
 20
5.024817094
 30
0.0
 10
3.9419210832
 20
5.0235258517
 30
0.0
 10
3.9410731341
 20
5.0220160846
 30
0.0
 10
3.9400320232
 20
5.0206577558
 30
0.0
 10
3.9391114282
 20
5.0196829973
 30
0.0
 10
3.9381524689
 20
5.0187944177
 30
0.0
 10
3.9368719321
 20
5.0178204542
 30
0.0
 10
3.9352305337
 20
5.0168678085
 30
0.0
 10
3.9340811182
 20
5.0163717984
 30
0.0
 10
3.9335005542
 20
5.0161596604
 30
0.0
  0
SPLINE
  5
442
100
AcDbEntity
  8
0
100
AcDbSpline
 62
7
  6
CONTINUOUS
 70
0
 71
3
 72
17
 73
13
 74
0
 42
0.0000001
 43
0.0000001
 44
0.0000000001
 40
0.0
 40
0.0
 40
0.0
 40
0.0
 40
0.1155293346
 40
0.2333864047
 40
0.3539275481
 40
0.4153650965
 40
0.4775917703
 40
0.6043741326
 40
0.7341680424
 40
0.8000613605
 40
0.8664531227
 40
1.0
 40
1.0
 40
1.0
 40
1.0
 10
6.7593858776
 20
4.0710077868
 30
0.0
 10
6.7599310999
 20
4.0707168483
 30
0.0
 10
6.7610000488
 20
4.0700655725
 30
0.0
 10
6.7624926154
 20
4.0688938442
 30
0.0
 10
6.7636250307
 20
4.0677512918
 30
0.0
 10
6.7644509441
 20
4.0667381535
 30
0.0
 10
6.7652270041
 20
4.0656450584
 30
0.0
 10
6.7660690766
 20
4.0641554195
 30
0.0
 10
6.7666989483
 20
4.0625426708
 30
0.0
 10
6.7670632827
 20
4.0611877056
 30
0.0
 10
6.7673299447
 20
4.0597899907
 30
0.0
 10
6.7674110783
 20
4.0587181844
 30
0.0
 10
6.7674110783
 20
4.058003814
 30
0.0
  0
SPLINE
  5
443
100
AcDbEntity
  8
0
100
AcDbSpline
 62
7
  6
CONTINUOUS
 70
0
 71
3
 72
17
 73
13
 74
0
 42
0.0000001
 43
0.0000001
 44
0.0000000001
 40
0.0
 40
0.0
 40
0.0
 40
0.0
 40
0.1155372196
 40
0.2333845249
 40
0.3539336323
 40
0.4153697494
 40
0.477602454
 40
0.6043862786
 40
0.7341801181
 40
0.8000729156
 40
0.8664576326
 40
1.0
 40
1.0
 40
1.0
 40
1.0
 10
3.9893105545
 20
5.4132684464
 30
0.0
 10
3.9898101551
 20
5.4129045012
 30
0.0
 10
3.9907783254
 20
5.4121108839
 30
0.0
 10
3.9920935538
 20
5.4107427115
 30
0.0
 10
3.9930560241
 20
5.4094535141
 30
0.0
 10
3.9937329091
 20
5.4083350317
 30
0.0
 10
3.9943491619
 20
5.4071442836
 30
0.0
 10
3.9949755359
 20
5.4055516053
 30
0.0
 10
3.9953744888
 20
5.4038665976
 30
0.0
 10
3.9955465876
 20
5.4024739702
 30
0.0
 10
3.9956158955
 20
5.4010526265
 30
0.0
 10
3.9955470406
 20
5.3999799039
 30
0.0
 10
3.9954476108
 20
5.3992724242
 30
0.0
  0
SPLINE
  5
444
100
AcDbEntity
  8
0
100
AcDbSpline
 62
7
  6
CONTINUOUS
 70
0
 71
3
 72
15
 73
11
 74
0
 42
0.0000001
 43
0.0000001
 44
0.0000000001
 40
0.0
 40
0.0
 40
0.0
 40
0.0
 40
0.1184671127
 40
0.238514955
 40
0.3604126391
 40
0.4844216227
 40
0.6106480138
 40
0.7389868683
 40
0.86901184
 40
1.0
 40
1.0
 40
1.0
 40
1.0
 10
3.9858530506
 20
5.4137543669
 30
0.0
 10
3.9863847191
 20
5.4133867657
 30
0.0
 10
3.9874154483
 20
5.4125870508
 30
0.0
 10
3.9888226717
 20
5.4112070648
 30
0.0
 10
3.9900691217
 20
5.4096402547
 30
0.0
 10
3.9911177555
 20
5.4078943617
 30
0.0
 10
3.9919276107
 20
5.4059864796
 30
0.0
 10
3.9924567625
 20
5.4039475213
 30
0.0
 10
3.9926691078
 20
5.4018254172
 30
0.0
 10
3.992584166
 20
5.4003965718
 30
0.0
 10
3.9924846999
 20
5.3996888342
 30
0.0
  0
SPLINE
  5
445
100
AcDbEntity
  8
0
100
AcDbSpline
 62
7
  6
CONTINUOUS
 70
0
 71
3
 72
15
 73
11
 74
0
 42
0.0000001
 43
0.0000001
 44
0.0000000001
 40
0.0
 40
0.0
 40
0.0
 40
0.0
 40
0.1184576688
 40
0.2385147321
 40
0.3604042415
 40
0.4844094561
 40
0.6106353511
 40
0.7389750268
 40
0.8690076522
 40
1.0
 40
1.0
 40
1.0
 40
1.0
 10
6.7557503571
 20
4.0710077868
 30
0.0
 10
6.756327835
 20
4.0707176906
 30
0.0
 10
6.7574595709
 20
4.0700690798
 30
0.0
 10
6.7590448661
 20
4.0688984582
 30
0.0
 10
6.7604970647
 20
4.0675205603
 30
0.0
 10
6.7617785188
 20
4.0659380457
 30
0.0
 10
6.7628462252
 20
4.0641618767
 30
0.0
 10
6.7636543342
 20
4.0622167655
 30
0.0
 10
6.7641601943
 20
4.060145104
 30
0.0
 10
6.7642750115
 20
4.0587184452
 30
0.0
 10
6.7642750115
 20
4.058003814
 30
0.0
  0
SPLINE
  5
446
100
AcDbEntity
  8
0
100
AcDbSpline
 62
7
  6
CONTINUOUS
 70
0
 71
3
 72
17
 73
13
 74
0
 42
0.0000001
 43
0.0000001
 44
0.0000000001
 40
0.0
 40
0.0
 40
0.0
 40
0.0
 40
0.1207999907
 40
0.242605865
 40
0.3655814536
 40
0.4276016783
 40
0.4899800895
 40
0.6157303039
 40
0.7428462394
 40
0.8068891867
 40
0.8711616842
 40
1.0
 40
1.0
 40
1.0
 40
1.0
 10
3.9801275535
 20
5.414559033
 30
0.0
 10
3.980686018
 20
5.4141882991
 30
0.0
 10
3.9817689671
 20
5.4133832498
 30
0.0
 10
3.9832528222
 20
5.411993631
 30
0.0
 10
3.9843478117
 20
5.4106834806
 30
0.0
 10
3.9851210419
 20
5.4095481902
 30
0.0
 10
3.9858228865
 20
5.4083495364
 30
0.0
 10
3.9865441448
 20
5.4067486427
 30
0.0
 10
3.9870177604
 20
5.4050471128
 30
0.0
 10
3.9872319299
 20
5.4036445281
 30
0.0
 10
3.9873315515
 20
5.4022199328
 30
0.0
 10
3.9872719957
 20
5.4011433806
 30
0.0
 10
3.9871724977
 20
5.4004354155
 30
0.0
  0
SPLINE
  5
447
100
AcDbEntity
  8
0
100
AcDbSpline
 62
7
  6
CONTINUOUS
 70
0
 71
3
 72
16
 73
12
 74
0
 42
0.0000001
 43
0.0000001
 44
0.0000000001
 40
0.0
 40
0.0
 40
0.0
 40
0.0
 40
0.1226247343
 40
0.2458211911
 40
0.3696687447
 40
0.4942806523
 40
0.619698207
 40
0.7458931828
 40
0.8092903729
 40
0.87282122
 40
1.0
 40
1.0
 40
1.0
 40
1.0
 10
3.9721892027
 20
5.4156746954
 30
0.0
 10
3.9727689366
 20
5.4153014303
 30
0.0
 10
3.9738932599
 20
5.4144920857
 30
0.0
 10
3.9754380012
 20
5.4130945825
 30
0.0
 10
3.9768110664
 20
5.4115118178
 30
0.0
 10
3.9779723118
 20
5.4097514305
 30
0.0
 10
3.9788769324
 20
5.4078307047
 30
0.0
 10
3.9793778304
 20
5.4061231061
 30
0.0
 10
3.9796072764
 20
5.4047168717
 30
0.0
 10
3.9797178573
 20
5.4032911305
 30
0.0
 10
3.979661688
 20
5.4022131315
 30
0.0
 10
3.9795621635
 20
5.4015049782
 30
0.0
  0
SPLINE
  5
448
100
AcDbEntity
  8
0
100
AcDbSpline
 62
7
  6
CONTINUOUS
 70
0
 71
3
 72
11
 73
7
 74
0
 42
0.0000001
 43
0.0000001
 44
0.0000000001
 40
0.0
 40
0.0
 40
0.0
 40
0.0
 40
0.2473756898
 40
0.49672073
 40
0.7477133062
 40
1.0
 40
1.0
 40
1.0
 40
1.0
 10
6.7564934949
 20
4.0652139601
 30
0.0
 10
6.756774104
 20
4.0647810734
 30
0.0
 10
6.7572911398
 20
4.063880646
 30
0.0
 10
6.7579118373
 20
4.0624465569
 30
0.0
 10
6.7583632359
 20
4.0609395867
 30
0.0
 10
6.7585409901
 20
4.0599020377
 30
0.0
 10
6.7585976381
 20
4.0593789746
 30
0.0
  0
SPLINE
  5
449
100
AcDbEntity
  8
0
100
AcDbSpline
 62
7
  6
CONTINUOUS
 70
0
 71
3
 72
16
 73
12
 74
0
 42
0.0000001
 43
0.0000001
 44
0.0000000001
 40
0.0
 40
0.0
 40
0.0
 40
0.0
 40
0.1239218444
 40
0.248110005
 40
0.3725819509
 40
0.4973997868
 40
0.6225781924
 40
0.7481070815
 40
0.8110359051
 40
0.8740280847
 40
1.0
 40
1.0
 40
1.0
 40
1.0
 10
3.962114449
 20
5.4170906097
 30
0.0
 10
3.96270972
 20
5.4167154729
 30
0.0
 10
3.9638642568
 20
5.4159029097
 30
0.0
 10
3.9654533771
 20
5.4144997415
 30
0.0
 10
3.9668672939
 20
5.4129118495
 30
0.0
 10
3.9680648876
 20
5.4111468638
 30
0.0
 10
3.9690001518
 20
5.4092220297
 30
0.0
 10
3.9695209924
 20
5.4075100901
 30
0.0
 10
3.9697616338
 20
5.4061011591
 30
0.0
 10
3.9698802186
 20
5.404674595
 30
0.0
 10
3.9698265334
 20
5.4035955169
 30
0.0
 10
3.969726989
 20
5.4028872219
 30
0.0
  0
SPLINE
  5
44A
100
AcDbEntity
  8
0
100
AcDbSpline
 62
7
  6
CONTINUOUS
 70
0
 71
3
 72
16
 73
12
 74
0
 42
0.0000001
 43
0.0000001
 44
0.0000000001
 40
0.0
 40
0.0
 40
0.0
 40
0.0
 40
0.1247151815
 40
0.2495118038
 40
0.3743688747
 40
0.4993160891
 40
0.6243503343
 40
0.7494711972
 40
0.8121120014
 40
0.874772405
 40
1.0
 40
1.0
 40
1.0
 40
1.0
 10
3.9500003178
 20
5.4187931398
 30
0.0
 10
3.950605242
 20
5.4184168312
 30
0.0
 10
3.9517785422
 20
5.4176022442
 30
0.0
 10
3.9533952178
 20
5.4161955541
 30
0.0
 10
3.9548344965
 20
5.4146044827
 30
0.0
 10
3.9560546586
 20
5.4128366564
 30
0.0
 10
3.9570089602
 20
5.4109092927
 30
0.0
 10
3.9575422201
 20
5.409194662
 30
0.0
 10
3.9577898293
 20
5.4077840476
 30
0.0
 10
3.9579133869
 20
5.4063569771
 30
0.0
 10
3.9578612494
 20
5.4052772196
 30
0.0
 10
3.9577616923
 20
5.4045688346
 30
0.0
  0
SPLINE
  5
44B
100
AcDbEntity
  8
0
100
AcDbSpline
 62
7
  6
CONTINUOUS
 70
0
 71
3
 72
16
 73
12
 74
0
 42
0.0000001
 43
0.0000001
 44
0.0000000001
 40
0.0
 40
0.0
 40
0.0
 40
0.0
 40
0.1250146685
 40
0.2500413608
 40
0.3750444529
 40
0.5000411874
 40
0.625021436
 40
0.7499881502
 40
0.8125199197
 40
0.8750546178
 40
1.0
 40
1.0
 40
1.0
 40
1.0
 10
3.9359634747
 20
5.4207658895
 30
0.0
 10
3.9365720739
 20
5.420389133
 30
0.0
 10
3.9377525156
 20
5.4195737709
 30
0.0
 10
3.9393796778
 20
5.4181657396
 30
0.0
 10
3.9408286076
 20
5.4165734589
 30
0.0
 10
3.9420573583
 20
5.4148045542
 30
0.0
 10
3.9430189067
 20
5.4128762321
 30
0.0
 10
3.9435569003
 20
5.4111605782
 30
0.0
 10
3.9438071645
 20
5.4097493215
 30
0.0
 10
3.9439326152
 20
5.4083220592
 30
0.0
 10
3.9438810677
 20
5.4072420412
 30
0.0
 10
3.9437815058
 20
5.4065336217
 30
0.0
  0
SPLINE
  5
44C
100
AcDbEntity
  8
0
100
AcDbSpline
 62
7
  6
CONTINUOUS
 70
0
 71
3
 72
16
 73
12
 74
0
 42
0.0000001
 43
0.0000001
 44
0.0000000001
 40
0.0
 40
0.0
 40
0.0
 40
0.0
 40
0.1248241779
 40
0.2497045091
 40
0.3746146833
 40
0.4995798771
 40
0.6245944434
 40
0.7496592122
 40
0.8122603533
 40
0.8748750363
 40
1.0
 40
1.0
 40
1.0
 40
1.0
 10
3.9201391022
 20
5.42298986
 30
0.0
 10
3.9207453619
 20
5.4226133887
 30
0.0
 10
3.9219212575
 20
5.4217985203
 30
0.0
 10
3.9235417442
 20
5.4203913429
 30
0.0
 10
3.9249845304
 20
5.418799832
 30
0.0
 10
3.9262078138
 20
5.4170316135
 30
0.0
 10
3.927164749
 20
5.4151039012
 30
0.0
 10
3.9276997288
 20
5.4133888986
 30
0.0
 10
3.9279483027
 20
5.4119780509
 30
0.0
 10
3.9280725482
 20
5.4105509107
 30
0.0
 10
3.928020625
 20
5.4094710586
 30
0.0
 10
3.9279210663
 20
5.4087626611
 30
0.0
  0
SPLINE
  5
44D
100
AcDbEntity
  8
0
100
AcDbSpline
 62
7
  6
CONTINUOUS
 70
0
 71
3
 72
16
 73
12
 74
0
 42
0.0000001
 43
0.0000001
 44
0.0000000001
 40
0.0
 40
0.0
 40
0.0
 40
0.0
 40
0.1241412388
 40
0.2484975227
 40
0.3730757285
 40
0.4979290826
 40
0.6230674591
 40
0.7484835564
 40
0.8113328474
 40
0.874233452
 40
1.0
 40
1.0
 40
1.0
 40
1.0
 10
3.9026795977
 20
5.4254436333
 30
0.0
 10
3.9032775265
 20
5.4250681745
 30
0.0
 10
3.9044372302
 20
5.4242550559
 30
0.0
 10
3.9060339387
 20
5.4228509182
 30
0.0
 10
3.9074548401
 20
5.4212621504
 30
0.0
 10
3.9086586488
 20
5.4194963813
 30
0.0
 10
3.9095991549
 20
5.417570849
 30
0.0
 10
3.9101234128
 20
5.415858168
 30
0.0
 10
3.9103659717
 20
5.414448774
 30
0.0
 10
3.9104859256
 20
5.4130220701
 30
0.0
 10
3.9104326663
 20
5.4119428057
 30
0.0
 10
3.9103331184
 20
5.411234486
 30
0.0
  0
LINE
  5
44E
100
AcDbEntity
  8
0
100
AcDbLine
 62
7
  6
CONTINUOUS
 10
3.9007645238
 20
5.4125792643
 11
3.9026795977
 21
5.4254436333
  0
SPLINE
  5
44F
100
AcDbEntity
  8
0
100
AcDbSpline
 62
7
  6
CONTINUOUS
 70
0
 71
3
 72
16
 73
12
 74
0
 42
0.0000001
 43
0.0000001
 44
0.0000000001
 40
0.0
 40
0.0
 40
0.0
 40
0.0
 40
0.1229572209
 40
0.2464075062
 40
0.3704144818
 40
0.4950785137
 40
0.6204343659
 40
0.7464587327
 40
0.8097361688
 40
0.8731293866
 40
1.0
 40
1.0
 40
1.0
 40
1.0
 10
3.8837531057
 20
5.4281035783
 30
0.0
 10
3.8843367939
 20
5.4277298386
 30
0.0
 10
3.8854688083
 20
5.4269196794
 30
0.0
 10
3.8870248477
 20
5.4255207348
 30
0.0
 10
3.8884083136
 20
5.4239366639
 30
0.0
 10
3.8895788125
 20
5.4221751031
 30
0.0
 10
3.8904912323
 20
5.4202533274
 30
0.0
 10
3.8909972002
 20
5.418544623
 30
0.0
 10
3.8912294932
 20
5.4171377038
 30
0.0
 10
3.8913421112
 20
5.4157117523
 30
0.0
 10
3.8912865733
 20
5.4146334803
 30
0.0
 10
3.8911870438
 20
5.4139252913
 30
0.0
  0
SPLINE
  5
450
100
AcDbEntity
  8
0
100
AcDbSpline
 62
7
  6
CONTINUOUS
 70
0
 71
3
 72
15
 73
11
 74
0
 42
0.0000001
 43
0.0000001
 44
0.0000000001
 40
0.0
 40
0.0
 40
0.0
 40
0.0
 40
0.1634962138
 40
0.3217575834
 40
0.4704125164
 40
0.6063412668
 40
0.7277336854
 40
0.8337951189
 40
0.9244448597
 40
1.0
 40
1.0
 40
1.0
 40
1.0
 10
3.8808948212
 20
5.4153717689
 30
0.0
 10
3.880993973
 20
5.4160772703
 30
0.0
 10
3.8812028085
 20
5.4174638
 30
0.0
 10
3.881548673
 20
5.4194843715
 30
0.0
 10
3.8819140395
 20
5.4213793195
 30
0.0
 10
3.8822881983
 20
5.4231085122
 30
0.0
 10
3.8826621186
 20
5.4246473611
 30
0.0
 10
3.883028794
 20
5.4259843827
 30
0.0
 10
3.8833831011
 20
5.4271169093
 30
0.0
 10
3.8836303513
 20
5.4277980873
 30
0.0
 10
3.8837531057
 20
5.4281035783
 30
0.0
  0
SPLINE
  5
451
100
AcDbEntity
  8
0
100
AcDbSpline
 62
7
  6
CONTINUOUS
 70
0
 71
3
 72
16
 73
12
 74
0
 42
0.0000001
 43
0.0000001
 44
0.0000000001
 40
0.0
 40
0.0
 40
0.0
 40
0.0
 40
0.1212580558
 40
0.2434138972
 40
0.3666107191
 40
0.4910131352
 40
0.6166871597
 40
0.7435824331
 40
0.8074696784
 40
0.8715630281
 40
1.0
 40
1.0
 40
1.0
 40
1.0
 10
3.8635418988
 20
5.4309440782
 30
0.0
 10
3.8641055755
 20
5.4305727275
 30
0.0
 10
3.8651986544
 20
5.4297666568
 30
0.0
 10
3.8666974937
 20
5.4283750053
 30
0.0
 10
3.8680282994
 20
5.4267975548
 30
0.0
 10
3.869151951
 20
5.4250419559
 30
0.0
 10
3.8700249019
 20
5.423125524
 30
0.0
 10
3.8705052518
 20
5.4214224218
 30
0.0
 10
3.8707231529
 20
5.4200189568
 30
0.0
 10
3.8708254621
 20
5.4185940763
 30
0.0
 10
3.8707667341
 20
5.4175171737
 30
0.0
 10
3.8706672297
 20
5.4168091631
 30
0.0
  0
SPLINE
  5
452
100
AcDbEntity
  8
0
100
AcDbSpline
 62
7
  6
CONTINUOUS
 70
0
 71
3
 72
15
 73
11
 74
0
 42
0.0000001
 43
0.0000001
 44
0.0000000001
 40
0.0
 40
0.0
 40
0.0
 40
0.0
 40
0.1614428141
 40
0.3178799156
 40
0.4651466725
 40
0.6002994234
 40
0.7216781752
 40
0.8286296008
 40
0.921230321
 40
1.0
 40
1.0
 40
1.0
 40
1.0
 10
3.8597504988
 20
5.4183434096
 30
0.0
 10
3.8598496633
 20
5.4190490013
 30
0.0
 10
3.8600708659
 20
5.4204348101
 30
0.0
 10
3.8604710316
 20
5.4224488454
 30
0.0
 10
3.8609232419
 20
5.4243327613
 30
0.0
 10
3.8614124046
 20
5.4260470861
 30
0.0
 10
3.8619246892
 20
5.4275680071
 30
0.0
 10
3.8624485866
 20
5.4288848886
 30
0.0
 10
3.8629749718
 20
5.4299957233
 30
0.0
 10
3.8633522761
 20
5.4306526969
 30
0.0
 10
3.8635418988
 20
5.4309440782
 30
0.0
  0
SPLINE
  5
453
100
AcDbEntity
  8
0
100
AcDbSpline
 62
7
  6
CONTINUOUS
 70
0
 71
3
 72
15
 73
11
 74
0
 42
0.0000001
 43
0.0000001
 44
0.0000000001
 40
0.0
 40
0.0
 40
0.0
 40
0.0
 40
0.1190378314
 40
0.2395158512
 40
0.3616781271
 40
0.4857673623
 40
0.6118826583
 40
0.7399311438
 40
0.8695236888
 40
1.0
 40
1.0
 40
1.0
 40
1.0
 10
3.8422406218
 20
5.4339377775
 30
0.0
 10
3.8427787103
 20
5.4335694318
 30
0.0
 10
3.8438219529
 20
5.4327684609
 30
0.0
 10
3.8452475641
 20
5.4313861354
 30
0.0
 10
3.8465109457
 20
5.4298171816
 30
0.0
 10
3.8475746317
 20
5.4280693378
 30
0.0
 10
3.8483971431
 20
5.4261596898
 30
0.0
 10
3.8489359577
 20
5.4241191531
 30
0.0
 10
3.849154376
 20
5.4219957399
 30
0.0
 10
3.8490707665
 20
5.4205661194
 30
0.0
 10
3.8489712929
 20
5.4198583282
 30
0.0
  0
SPLINE
  5
454
100
AcDbEntity
  8
0
100
AcDbSpline
 62
7
  6
CONTINUOUS
 70
0
 71
3
 72
15
 73
11
 74
0
 42
0.0000001
 43
0.0000001
 44
0.0000000001
 40
0.0
 40
0.0
 40
0.0
 40
0.0
 40
0.1584273827
 40
0.3121948555
 40
0.4574482944
 40
0.591503904
 40
0.7129151851
 40
0.8212158979
 40
0.9166691046
 40
1.0
 40
1.0
 40
1.0
 40
1.0
 10
3.8375351879
 20
5.4214655679
 30
0.0
 10
3.8376343724
 20
5.4221713019
 30
0.0
 10
3.8378678278
 20
5.4235569904
 30
0.0
 10
3.8383214871
 20
5.4255652044
 30
0.0
 10
3.8388592266
 20
5.427438859
 30
0.0
 10
3.8394616929
 20
5.4291390936
 30
0.0
 10
3.8401104149
 20
5.4306428348
 30
0.0
 10
3.8407895818
 20
5.4319401601
 30
0.0
 10
3.8414862479
 20
5.4330295723
 30
0.0
 10
3.8419881548
 20
5.4336606906
 30
0.0
 10
3.8422406218
 20
5.4339377775
 30
0.0
  0
SPLINE
  5
455
100
AcDbEntity
  8
0
100
AcDbSpline
 62
7
  6
CONTINUOUS
 70
0
 71
3
 72
17
 73
13
 74
0
 42
0.0000001
 43
0.0000001
 44
0.0000000001
 40
0.0
 40
0.0
 40
0.0
 40
0.0
 40
0.1162327724
 40
0.2345992405
 40
0.3554626122
 40
0.4169726027
 40
0.4792216122
 40
0.6058653885
 40
0.7353070325
 40
0.8009583714
 40
0.8670682249
 40
1.0
 40
1.0
 40
1.0
 40
1.0
 10
3.8200544178
 20
5.4370558451
 30
0.0
 10
3.8205615856
 20
5.4366910471
 30
0.0
 10
3.8215445322
 20
5.4358960078
 30
0.0
 10
3.8228814661
 20
5.434525075
 30
0.0
 10
3.8238609625
 20
5.4332331458
 30
0.0
 10
3.8245502093
 20
5.4321124841
 30
0.0
 10
3.8251774965
 20
5.4309207176
 30
0.0
 10
3.8258160928
 20
5.4293269511
 30
0.0
 10
3.8262245902
 20
5.4276398205
 30
0.0
 10
3.8264020776
 20
5.4262459295
 30
0.0
 10
3.8264752811
 20
5.4248241606
 30
0.0
 10
3.8264076155
 20
5.4237509605
 30
0.0
 10
3.8263081774
 20
5.4230434214
 30
0.0
  0
SPLINE
  5
456
100
AcDbEntity
  8
0
100
AcDbSpline
 62
7
  6
CONTINUOUS
 70
0
 71
3
 72
15
 73
11
 74
0
 42
0.0000001
 43
0.0000001
 44
0.0000000001
 40
0.0
 40
0.0
 40
0.0
 40
0.0
 40
0.1547769863
 40
0.3053276908
 40
0.4481839423
 40
0.580977228
 40
0.7025063196
 40
0.8124979767
 40
0.9113761142
 40
1.0
 40
1.0
 40
1.0
 40
1.0
 10
3.8144628341
 20
5.4247081758
 30
0.0
 10
3.8145620451
 20
5.4254140985
 30
0.0
 10
3.8148075343
 20
5.4268002175
 30
0.0
 10
3.8153134249
 20
5.428803287
 30
0.0
 10
3.8159346378
 20
5.4306673801
 30
0.0
 10
3.8166476819
 20
5.4323541559
 30
0.0
 10
3.8174295892
 20
5.4338411857
 30
0.0
 10
3.8182603336
 20
5.4351190875
 30
0.0
 10
3.819123187
 20
5.4361867037
 30
0.0
 10
3.8197429319
 20
5.436792055
 30
0.0
 10
3.8200544178
 20
5.4370558451
 30
0.0
  0
SPLINE
  5
457
100
AcDbEntity
  8
0
100
AcDbSpline
 62
7
  6
CONTINUOUS
 70
0
 71
3
 72
16
 73
12
 74
0
 42
0.0000001
 43
0.0000001
 44
0.0000000001
 40
0.0
 40
0.0
 40
0.0
 40
0.0
 40
0.1128872362
 40
0.2287704122
 40
0.3481450542
 40
0.4714285482
 40
0.5987648495
 40
0.7299075837
 40
0.7967188014
 40
0.8641462313
 40
1.0
 40
1.0
 40
1.0
 40
1.0
 10
3.7971969519
 20
5.4402682524
 30
0.0
 10
3.797668155
 20
5.4399074482
 30
0.0
 10
3.7985807972
 20
5.4391190565
 30
0.0
 10
3.7998145555
 20
5.4377611498
 30
0.0
 10
3.8009012898
 20
5.4362147611
 30
0.0
 10
3.801808073
 20
5.4344875752
 30
0.0
 10
3.8024988772
 20
5.4325968187
 30
0.0
 10
3.8028622255
 20
5.4309196536
 30
0.0
 10
3.8030141471
 20
5.4295317352
 30
0.0
 10
3.8030688443
 20
5.428112002
 30
0.0
 10
3.8029955407
 20
5.4270410327
 30
0.0
 10
3.8028961412
 20
5.4263337685
 30
0.0
  0
SPLINE
  5
458
100
AcDbEntity
  8
0
100
AcDbSpline
 62
7
  6
CONTINUOUS
 70
0
 71
3
 72
14
 73
10
 74
0
 42
0.0000001
 43
0.0000001
 44
0.0000000001
 40
0.0
 40
0.0
 40
0.0
 40
0.0
 40
0.1508599364
 40
0.297983388
 40
0.4383331724
 40
0.5698820925
 40
0.6916763973
 40
0.8036106584
 40
1.0
 40
1.0
 40
1.0
 40
1.0
 10
3.7907556368
 20
5.4280400051
 30
0.0
 10
3.7908548798
 20
5.4287461558
 30
0.0
 10
3.7911120751
 20
5.4301331892
 30
0.0
 10
3.791668449
 20
5.4321317206
 30
0.0
 10
3.7923703279
 20
5.433986906
 30
0.0
 10
3.7931899722
 20
5.435660599
 30
0.0
 10
3.7941007544
 20
5.4371316562
 30
0.0
 10
3.7953479923
 20
5.4387392661
 30
0.0
 10
3.7964315843
 20
5.4397429388
 30
0.0
 10
3.7971969519
 20
5.4402682524
 30
0.0
  0
SPLINE
  5
459
100
AcDbEntity
  8
0
100
AcDbSpline
 62
7
  6
CONTINUOUS
 70
0
 71
3
 72
15
 73
11
 74
0
 42
0.0000001
 43
0.0000001
 44
0.0000000001
 40
0.0
 40
0.0
 40
0.0
 40
0.0
 40
0.108967306
 40
0.2219794723
 40
0.3396686764
 40
0.4625308662
 40
0.5907041658
 40
0.7238195321
 40
0.8608207562
 40
1.0
 40
1.0
 40
1.0
 40
1.0
 10
3.7738883542
 20
5.4435440622
 30
0.0
 10
3.7743188696
 20
5.4431875747
 30
0.0
 10
3.7751517657
 20
5.4424062396
 30
0.0
 10
3.7762685609
 20
5.4410633014
 30
0.0
 10
3.7772476675
 20
5.4395309311
 30
0.0
 10
3.7780590312
 20
5.4378167837
 30
0.0
 10
3.7786700285
 20
5.4359377021
 30
0.0
 10
3.7790480048
 20
5.4339240471
 30
0.0
 10
3.7791657058
 20
5.4318221881
 30
0.0
 10
3.7790600142
 20
5.4304046586
 30
0.0
 10
3.778960655
 20
5.4296976817
 30
0.0
  0
SPLINE
  5
45A
100
AcDbEntity
  8
0
100
AcDbSpline
 62
7
  6
CONTINUOUS
 70
0
 71
3
 72
14
 73
10
 74
0
 42
0.0000001
 43
0.0000001
 44
0.0000000001
 40
0.0
 40
0.0
 40
0.0
 40
0.0
 40
0.2900270314
 40
0.4278272611
 40
0.5581435726
 40
0.6802509039
 40
0.7941696214
 40
0.9004669493
 40
1.0
 40
1.0
 40
1.0
 40
1.0
 10
3.7666419093
 20
5.4314289685
 30
0.0
 10
3.766838029
 20
5.4328244326
 30
0.0
 10
3.76733773
 20
5.4348627704
 30
0.0
 10
3.7683930143
 20
5.4373648072
 30
0.0
 10
3.7693145902
 20
5.4390264002
 30
0.0
 10
3.7703470878
 20
5.4404808739
 30
0.0
 10
3.7714622962
 20
5.4417201951
 30
0.0
 10
3.772635894
 20
5.4427438789
 30
0.0
 10
3.7734692886
 20
5.4433026867
 30
0.0
 10
3.7738883542
 20
5.4435440622
 30
0.0
  0
SPLINE
  5
45B
100
AcDbEntity
  8
0
100
AcDbSpline
 62
7
  6
CONTINUOUS
 70
0
 71
3
 72
15
 73
11
 74
0
 42
0.0000001
 43
0.0000001
 44
0.0000000001
 40
0.0
 40
0.0
 40
0.0
 40
0.0
 40
0.1044805426
 40
0.2142579534
 40
0.3300915042
 40
0.452532421
 40
0.5816806554
 40
0.7170079324
 40
0.8571596586
 40
1.0
 40
1.0
 40
1.0
 40
1.0
 10
3.750353099
 20
5.4468517266
 30
0.0
 10
3.7507385398
 20
5.446499724
 30
0.0
 10
3.7514827581
 20
5.445725636
 30
0.0
 10
3.7524698927
 20
5.4443994729
 30
0.0
 10
3.7533298167
 20
5.4428829898
 30
0.0
 10
3.7540357318
 20
5.4411836382
 30
0.0
 10
3.7545587445
 20
5.4393179006
 30
0.0
 10
3.7548701604
 20
5.437315649
 30
0.0
 10
3.7549463484
 20
5.4352224953
 30
0.0
 10
3.7548315493
 20
5.4338094529
 30
0.0
 10
3.7547322308
 20
5.4331027646
 30
0.0
  0
SPLINE
  5
45C
100
AcDbEntity
  8
0
100
AcDbSpline
 62
7
  6
CONTINUOUS
 70
0
 71
3
 72
15
 73
11
 74
0
 42
0.0000001
 43
0.0000001
 44
0.0000000001
 40
0.0
 40
0.0
 40
0.0
 40
0.0
 40
0.1428403156
 40
0.2829920009
 40
0.4183192623
 40
0.5474675271
 40
0.669908462
 40
0.785742037
 40
0.8955194471
 40
1.0
 40
1.0
 40
1.0
 40
1.0
 10
3.7423538799
 20
5.4348424284
 30
0.0
 10
3.7424531985
 20
5.4355491166
 30
0.0
 10
3.7427323337
 20
5.4369390626
 30
0.0
 10
3.7433825215
 20
5.4389301305
 30
0.0
 10
3.7442337689
 20
5.4407689803
 30
0.0
 10
3.7452507879
 20
5.4424182808
 30
0.0
 10
3.746397762
 20
5.4438572261
 30
0.0
 10
3.7476423734
 20
5.4450779363
 30
0.0
 10
3.7489568083
 20
5.446080635
 30
0.0
 10
3.7498855645
 20
5.4466196018
 30
0.0
 10
3.750353099
 20
5.4468517266
 30
0.0
  0
SPLINE
  5
45D
100
AcDbEntity
  8
0
100
AcDbSpline
 62
7
  6
CONTINUOUS
 70
0
 71
3
 72
14
 73
10
 74
0
 42
0.0000001
 43
0.0000001
 44
0.0000000001
 40
0.0
 40
0.0
 40
0.0
 40
0.0
 40
0.0995330412
 40
0.205830371
 40
0.3197490635
 40
0.4418563777
 40
0.5721726601
 40
0.7099729093
 40
1.0
 40
1.0
 40
1.0
 40
1.0
 10
3.7268178439
 20
5.450159391
 30
0.0
 10
3.7271541435
 20
5.4498118559
 30
0.0
 10
3.7278012255
 20
5.4490449807
 30
0.0
 10
3.7286471945
 20
5.4477374654
 30
0.0
 10
3.7293775984
 20
5.4462387606
 30
0.0
 10
3.7299691914
 20
5.4445560361
 30
0.0
 10
3.73039707
 20
5.4427047898
 30
0.0
 10
3.7307218196
 20
5.4400088016
 30
0.0
 10
3.7306403211
 20
5.437911689
 30
0.0
 10
3.7304442014
 20
5.4365162246
 30
0.0
  0
SPLINE
  5
45E
100
AcDbEntity
  8
0
100
AcDbSpline
 62
7
  6
CONTINUOUS
 70
0
 71
3
 72
15
 73
11
 74
0
 42
0.0000001
 43
0.0000001
 44
0.0000000001
 40
0.0
 40
0.0
 40
0.0
 40
0.0
 40
0.1391792261
 40
0.2761804107
 40
0.4092957577
 40
0.537469084
 40
0.6603312907
 40
0.7780205194
 40
0.8910326839
 40
1.0
 40
1.0
 40
1.0
 40
1.0
 10
3.7181254557
 20
5.4382475114
 30
0.0
 10
3.7182248148
 20
5.4389544882
 30
0.0
 10
3.7185139416
 20
5.4403462373
 30
0.0
 10
3.7192064336
 20
5.4423342307
 30
0.0
 10
3.7201248061
 20
5.4441656956
 30
0.0
 10
3.7212300794
 20
5.4458035714
 30
0.0
 10
3.7224824956
 20
5.4472276737
 30
0.0
 10
3.7238460518
 20
5.4484308044
 30
0.0
 10
3.7252897484
 20
5.449413889
 30
0.0
 10
3.7263057446
 20
5.4499353793
 30
0.0
 10
3.7268178439
 20
5.450159391
 30
0.0
  0
SPLINE
  5
45F
100
AcDbEntity
  8
0
100
AcDbSpline
 62
7
  6
CONTINUOUS
 70
0
 71
3
 72
14
 73
10
 74
0
 42
0.0000001
 43
0.0000001
 44
0.0000000001
 40
0.0
 40
0.0
 40
0.0
 40
0.0
 40
0.1963893342
 40
0.3083235701
 40
0.4301178575
 40
0.5616667471
 40
0.7020165511
 40
0.8491400444
 40
1.0
 40
1.0
 40
1.0
 40
1.0
 10
3.7035092462
 20
5.4534352008
 30
0.0
 10
3.7041001686
 20
5.452719273
 30
0.0
 10
3.7048651344
 20
5.4514558026
 30
0.0
 10
3.7056209391
 20
5.4495666837
 30
0.0
 10
3.7060909607
 20
5.4479015675
 30
0.0
 10
3.7064175212
 20
5.4460667861
 30
0.0
 10
3.7065808521
 20
5.4440900033
 30
0.0
 10
3.7065648032
 20
5.4420155337
 30
0.0
 10
3.7064297169
 20
5.4406113388
 30
0.0
 10
3.7063304739
 20
5.439905188
 30
0.0
  0
SPLINE
  5
460
100
AcDbEntity
  8
0
100
AcDbSpline
 62
7
  6
CONTINUOUS
 70
0
 71
3
 72
16
 73
12
 74
0
 42
0.0000001
 43
0.0000001
 44
0.0000000001
 40
0.0
 40
0.0
 40
0.0
 40
0.0
 40
0.1358537514
 40
0.2032811642
 40
0.27009236
 40
0.401235075
 40
0.528571402
 40
0.6518549127
 40
0.7712295792
 40
0.8871127534
 40
1.0
 40
1.0
 40
1.0
 40
1.0
 10
3.6941899696
 20
5.4416114246
 30
0.0
 10
3.694289369
 20
5.4423186887
 30
0.0
 10
3.6945141041
 20
5.4433683755
 30
0.0
 10
3.6949580138
 20
5.4447180338
 30
0.0
 10
3.6954866123
 20
5.4460103111
 30
0.0
 10
3.6962981744
 20
5.4475223532
 30
0.0
 10
3.6974833809
 20
5.4491494538
 30
0.0
 10
3.6988311142
 20
5.4505597883
 30
0.0
 10
3.7003019927
 20
5.4517467283
 30
0.0
 10
3.7018622473
 20
5.4527119622
 30
0.0
 10
3.7029568455
 20
5.4532182547
 30
0.0
 10
3.7035092462
 20
5.4534352008
 30
0.0
  0
SPLINE
  5
461
100
AcDbEntity
  8
0
100
AcDbSpline
 62
7
  6
CONTINUOUS
 70
0
 71
3
 72
15
 73
11
 74
0
 42
0.0000001
 43
0.0000001
 44
0.0000000001
 40
0.0
 40
0.0
 40
0.0
 40
0.0
 40
0.088623877
 40
0.1875020164
 40
0.297493648
 40
0.419022722
 40
0.5518159759
 40
0.694672247
 40
0.845222994
 40
1.0
 40
1.0
 40
1.0
 40
1.0
 10
3.6806517803
 20
5.4566476081
 30
0.0
 10
3.6808784893
 20
5.4563081797
 30
0.0
 10
3.6813073689
 20
5.4555554539
 30
0.0
 10
3.6818425219
 20
5.4542913608
 30
0.0
 10
3.6822888472
 20
5.4528339788
 30
0.0
 10
3.6826305837
 20
5.4511890315
 30
0.0
 10
3.6828510674
 20
5.4493710571
 30
0.0
 10
3.6829344019
 20
5.4474079462
 30
0.0
 10
3.6828685744
 20
5.4453430294
 30
0.0
 10
3.6827224876
 20
5.4439429401
 30
0.0
 10
3.6826232766
 20
5.4432370173
 30
0.0
  0
SPLINE
  5
462
100
AcDbEntity
  8
0
100
AcDbSpline
 62
7
  6
CONTINUOUS
 70
0
 71
3
 72
17
 73
13
 74
0
 42
0.0000001
 43
0.0000001
 44
0.0000000001
 40
0.0
 40
0.0
 40
0.0
 40
0.0
 40
0.1329317582
 40
0.1990415948
 40
0.2646929121
 40
0.3941345369
 40
0.5207783379
 40
0.5830273511
 40
0.6445373546
 40
0.7654007507
 40
0.883767217
 40
1.0
 40
1.0
 40
1.0
 40
1.0
 10
3.6707779334
 20
5.4449017717
 30
0.0
 10
3.6708773715
 20
5.4456093108
 30
0.0
 10
3.6711081412
 20
5.4466595878
 30
0.0
 10
3.6715704014
 20
5.448006102
 30
0.0
 10
3.6721252213
 20
5.4492970736
 30
0.0
 10
3.6729829304
 20
5.4508062504
 30
0.0
 10
3.67403609
 20
5.4521622562
 30
0.0
 10
3.6749675727
 20
5.4531349522
 30
0.0
 10
3.6759390156
 20
5.4540222193
 30
0.0
 10
3.677236672
 20
5.4549941158
 30
0.0
 10
3.6788996959
 20
5.455943432
 30
0.0
 10
3.6800637073
 20
5.4564367361
 30
0.0
 10
3.6806517803
 20
5.4566476081
 30
0.0
  0
SPLINE
  5
463
100
AcDbEntity
  8
0
100
AcDbSpline
 62
7
  6
CONTINUOUS
 70
0
 71
3
 72
15
 73
11
 74
0
 42
0.0000001
 43
0.0000001
 44
0.0000000001
 40
0.0
 40
0.0
 40
0.0
 40
0.0
 40
0.0833308869
 40
0.1787840956
 40
0.2870847825
 40
0.4084960458
 40
0.5425516226
 40
0.6878050811
 40
0.8415725972
 40
1.0
 40
1.0
 40
1.0
 40
1.0
 10
3.6584655763
 20
5.4597656758
 30
0.0
 10
3.6586318877
 20
5.4594297335
 30
0.0
 10
3.6589403918
 20
5.4586847194
 30
0.0
 10
3.6593097874
 20
5.4574454821
 30
0.0
 10
3.6596050533
 20
5.4560112094
 30
0.0
 10
3.6598141575
 20
5.4543869089
 30
0.0
 10
3.6599246373
 20
5.4525864764
 30
0.0
 10
3.6599250965
 20
5.4506371828
 30
0.0
 10
3.659807643
 20
5.4485817178
 30
0.0
 10
3.6596501072
 20
5.4471853591
 30
0.0
 10
3.6595509228
 20
5.4464796251
 30
0.0
  0
SPLINE
  5
464
100
AcDbEntity
  8
0
100
AcDbSpline
 62
7
  6
CONTINUOUS
 70
0
 71
3
 72
15
 73
11
 74
0
 42
0.0000001
 43
0.0000001
 44
0.0000000001
 40
0.0
 40
0.0
 40
0.0
 40
0.0
 40
0.1304762946
 40
0.2600688017
 40
0.3881172678
 40
0.5142325879
 40
0.6383218395
 40
0.7604841398
 40
0.8809621578
 40
1.0
 40
1.0
 40
1.0
 40
1.0
 10
3.6481148178
 20
5.4480868649
 30
0.0
 10
3.6482142913
 20
5.4487946559
 30
0.0
 10
3.6485279775
 20
5.450191941
 30
0.0
 10
3.6493232263
 20
5.4521728922
 30
0.0
 10
3.6504036162
 20
5.4539858644
 30
0.0
 10
3.6517206351
 20
5.4555948213
 30
0.0
 10
3.653224887
 20
5.4569817653
 30
0.0
 10
3.6548717897
 20
5.4581417055
 30
0.0
 10
3.6566231958
 20
5.4590775304
 30
0.0
 10
3.6578468025
 20
5.4595599164
 30
0.0
 10
3.6584655763
 20
5.4597656758
 30
0.0
  0
SPLINE
  5
465
100
AcDbEntity
  8
0
100
AcDbSpline
 62
7
  6
CONTINUOUS
 70
0
 71
3
 72
15
 73
11
 74
0
 42
0.0000001
 43
0.0000001
 44
0.0000000001
 40
0.0
 40
0.0
 40
0.0
 40
0.0
 40
0.0787696707
 40
0.1713703929
 40
0.2783217923
 40
0.3997005262
 40
0.5348532433
 40
0.6821200201
 40
0.8385571654
 40
1.0
 40
1.0
 40
1.0
 40
1.0
 10
3.6371642993
 20
5.462759375
 30
0.0
 10
3.6372662607
 20
5.4624270142
 30
0.0
 10
3.6374478625
 20
5.4616914916
 30
0.0
 10
3.6376476688
 20
5.4604785974
 30
0.0
 10
3.6377882897
 20
5.4590683242
 30
0.0
 10
3.6378615065
 20
5.4574651166
 30
0.0
 10
3.637859188
 20
5.4556823705
 30
0.0
 10
3.6377746028
 20
5.4537467881
 30
0.0
 10
3.6376041234
 20
5.4517004722
 30
0.0
 10
3.6374347763
 20
5.4503073752
 30
0.0
 10
3.6373356119
 20
5.4496017835
 30
0.0
  0
SPLINE
  5
466
100
AcDbEntity
  8
0
100
AcDbSpline
 62
7
  6
CONTINUOUS
 70
0
 71
3
 72
16
 73
12
 74
0
 42
0.0000001
 43
0.0000001
 44
0.0000000001
 40
0.0
 40
0.0
 40
0.0
 40
0.0
 40
0.1284369555
 40
0.1925302889
 40
0.2564175129
 40
0.383312767
 40
0.5089868149
 40
0.6333892474
 40
0.7565860935
 40
0.8787419333
 40
1.0
 40
1.0
 40
1.0
 40
1.0
 10
3.6264188811
 20
5.4511360299
 30
0.0
 10
3.6265183854
 20
5.4518440404
 30
0.0
 10
3.6267587669
 20
5.4528954131
 30
0.0
 10
3.627249863
 20
5.4542368957
 30
0.0
 10
3.6278461701
 20
5.4555259309
 30
0.0
 10
3.6287773506
 20
5.4570306553
 30
0.0
 10
3.6301447249
 20
5.4586322303
 30
0.0
 10
3.6317087571
 20
5.4600101001
 30
0.0
 10
3.633422814
 20
5.4611596234
 30
0.0
 10
3.6352471822
 20
5.4620842286
 30
0.0
 10
3.6365201002
 20
5.4625577801
 30
0.0
 10
3.6371642993
 20
5.462759375
 30
0.0
  0
SPLINE
  5
467
100
AcDbEntity
  8
0
100
AcDbSpline
 62
7
  6
CONTINUOUS
 70
0
 71
3
 72
15
 73
11
 74
0
 42
0.0000001
 43
0.0000001
 44
0.0000000001
 40
0.0
 40
0.0
 40
0.0
 40
0.0
 40
0.0755551322
 40
0.1662048751
 40
0.2722662822
 40
0.3936586827
 40
0.5295873986
 40
0.6782423515
 40
0.8365037654
 40
1.0
 40
1.0
 40
1.0
 40
1.0
 10
3.6169530924
 20
5.4655998749
 30
0.0
 10
3.6169868867
 20
5.4652723824
 30
0.0
 10
3.6170368008
 20
5.4645494407
 30
0.0
 10
3.617065216
 20
5.4633631261
 30
0.0
 10
3.6170491539
 20
5.4619768292
 30
0.0
 10
3.616984425
 20
5.4603945267
 30
0.0
 10
3.6168674594
 20
5.458629188
 30
0.0
 10
3.6166963538
 20
5.4567069383
 30
0.0
 10
3.6164718751
 20
5.4546693067
 30
0.0
 10
3.6162904412
 20
5.4532789257
 30
0.0
 10
3.6161912895
 20
5.4525734242
 30
0.0
  0
SPLINE
  5
468
100
AcDbEntity
  8
0
100
AcDbSpline
 62
7
  6
CONTINUOUS
 70
0
 71
3
 72
16
 73
12
 74
0
 42
0.0000001
 43
0.0000001
 44
0.0000000001
 40
0.0
 40
0.0
 40
0.0
 40
0.0
 40
0.1268705972
 40
0.1902637987
 40
0.2535412137
 40
0.3795655612
 40
0.5049214364
 40
0.6295854847
 40
0.7535924845
 40
0.877042768
 40
1.0
 40
1.0
 40
1.0
 40
1.0
 10
3.6058990669
 20
5.4540199017
 30
0.0
 10
3.6059985963
 20
5.4547280907
 30
0.0
 10
3.6062424219
 20
5.4557799003
 30
0.0
 10
3.6067437225
 20
5.4571195709
 30
0.0
 10
3.6073548161
 20
5.4584079596
 30
0.0
 10
3.6083121665
 20
5.4599110079
 30
0.0
 10
3.6097189537
 20
5.4615068406
 30
0.0
 10
3.6113296618
 20
5.4628775285
 30
0.0
 10
3.6130961636
 20
5.4640189006
 30
0.0
 10
3.6149775263
 20
5.4649347499
 30
0.0
 10
3.6162889986
 20
5.4654014994
 30
0.0
 10
3.6169530924
 20
5.4655998749
 30
0.0
  0
LINE
  5
469
100
AcDbEntity
  8
0
100
AcDbLine
 62
7
  6
CONTINUOUS
 10
3.5980266004
 20
5.4682598199
 11
3.5963215869
 21
5.4553659288
  0
SPLINE
  5
46A
100
AcDbEntity
  8
0
100
AcDbSpline
 62
7
  6
CONTINUOUS
 70
0
 71
3
 72
16
 73
12
 74
0
 42
0.0000001
 43
0.0000001
 44
0.0000000001
 40
0.0
 40
0.0
 40
0.0
 40
0.0
 40
0.125766532
 40
0.1886671204
 40
0.2515163903
 40
0.3769324684
 40
0.5020708675
 40
0.6269242379
 40
0.7515024679
 40
0.87585875
 40
1.0
 40
1.0
 40
1.0
 40
1.0
 10
3.5867529923
 20
5.456710707
 30
0.0
 10
3.5868525401
 20
5.4574190266
 30
0.0
 10
3.5870988295
 20
5.4584711623
 30
0.0
 10
3.5876073894
 20
5.459809534
 30
0.0
 10
3.5882290333
 20
5.4610974719
 30
0.0
 10
3.5892050612
 20
5.4625993014
 30
0.0
 10
3.5906398821
 20
5.4641910036
 30
0.0
 10
3.5922837695
 20
5.4655565553
 30
0.0
 10
3.5940875514
 20
5.4666921237
 30
0.0
 10
3.5960094392
 20
5.467601755
 30
0.0
 10
3.5973483438
 20
5.4680637172
 30
0.0
 10
3.5980266004
 20
5.4682598199
 30
0.0
  0
SPLINE
  5
46B
100
AcDbEntity
  8
0
100
AcDbSpline
 62
7
  6
CONTINUOUS
 70
0
 71
3
 72
16
 73
12
 74
0
 42
0.0000001
 43
0.0000001
 44
0.0000000001
 40
0.0
 40
0.0
 40
0.0
 40
0.0
 40
0.1251249477
 40
0.1877396147
 40
0.2503407348
 40
0.3754054842
 40
0.500420073
 40
0.6253852831
 40
0.7502954814
 40
0.8751758109
 40
1.0
 40
1.0
 40
1.0
 40
1.0
 10
3.5691650444
 20
5.4591825319
 30
0.0
 10
3.5692646032
 20
5.4598909293
 30
0.0
 10
3.569512339
 20
5.4609432615
 30
0.0
 10
3.5700251444
 20
5.4622808698
 30
0.0
 10
3.570652971
 20
5.4635685472
 30
0.0
 10
3.5716399454
 20
5.4650696529
 30
0.0
 10
3.5730911598
 20
5.4666589222
 30
0.0
 10
3.5747544427
 20
5.4680214604
 30
0.0
 10
3.5765800178
 20
5.4691536334
 30
0.0
 10
3.5785256005
 20
5.4700596325
 30
0.0
 10
3.579880552
 20
5.4705188136
 30
0.0
 10
3.5805670959
 20
5.4707135932
 30
0.0
  0
SPLINE
  5
46C
100
AcDbEntity
  8
0
100
AcDbSpline
 62
7
  6
CONTINUOUS
 70
0
 71
3
 72
16
 73
12
 74
0
 42
0.0000001
 43
0.0000001
 44
0.0000000001
 40
0.0
 40
0.0
 40
0.0
 40
0.0
 40
0.1249453662
 40
0.1874800483
 40
0.2500117968
 40
0.3749784917
 40
0.4999587626
 40
0.6249555135
 40
0.7499586297
 40
0.8749853203
 40
1.0
 40
1.0
 40
1.0
 40
1.0
 10
3.5533046049
 20
5.4614115713
 30
0.0
 10
3.5534041668
 20
5.4621199907
 30
0.0
 10
3.5536523094
 20
5.4631723789
 30
0.0
 10
3.5541663069
 20
5.4645097723
 30
0.0
 10
3.5547958711
 20
5.4657973769
 30
0.0
 10
3.555785922
 20
5.467298278
 30
0.0
 10
3.5572417391
 20
5.4688868619
 30
0.0
 10
3.5589104666
 20
5.4702485528
 30
0.0
 10
3.5607421595
 20
5.4713797723
 30
0.0
 10
3.5626943944
 20
5.4722847522
 30
0.0
 10
3.5640538521
 20
5.4727431548
 30
0.0
 10
3.5647427234
 20
5.4729375637
 30
0.0
  0
SPLINE
  5
46D
100
AcDbEntity
  8
0
100
AcDbSpline
 62
7
  6
CONTINUOUS
 70
0
 71
3
 72
16
 73
12
 74
0
 42
0.0000001
 43
0.0000001
 44
0.0000000001
 40
0.0
 40
0.0
 40
0.0
 40
0.0
 40
0.125227579
 40
0.1878879665
 40
0.2505287497
 40
0.3756495933
 40
0.5006838609
 40
0.6256310917
 40
0.7504881867
 40
0.8752848073
 40
1.0
 40
1.0
 40
1.0
 40
1.0
 10
3.5393244184
 20
5.4633763584
 30
0.0
 10
3.5394239754
 20
5.4640847432
 30
0.0
 10
3.539671479
 20
5.4651370436
 30
0.0
 10
3.5401836039
 20
5.4664747745
 30
0.0
 10
3.5408104389
 20
5.4677624935
 30
0.0
 10
3.5417956575
 20
5.4692637158
 30
0.0
 10
3.5432442443
 20
5.4708533759
 30
0.0
 10
3.5449044187
 20
5.4722163976
 30
0.0
 10
3.546726501
 20
5.4733491149
 30
0.0
 10
3.5486682858
 20
5.474255696
 30
0.0
 10
3.550020665
 20
5.474715322
 30
0.0
 10
3.5507058803
 20
5.4749103134
 30
0.0
  0
SPLINE
  5
46E
100
AcDbEntity
  8
0
100
AcDbSpline
 62
7
  6
CONTINUOUS
 70
0
 71
3
 72
16
 73
12
 74
0
 42
0.0000001
 43
0.0000001
 44
0.0000000001
 40
0.0
 40
0.0
 40
0.0
 40
0.0
 40
0.1259718992
 40
0.1889640626
 40
0.2518928652
 40
0.377421735
 40
0.5026001632
 40
0.6274180156
 40
0.7518899856
 40
0.8760781444
 40
1.0
 40
1.0
 40
1.0
 40
1.0
 10
3.5273591217
 20
5.4650579712
 30
0.0
 10
3.527458666
 20
5.4657662661
 30
0.0
 10
3.5277044948
 20
5.46681834
 30
0.0
 10
3.5282116999
 20
5.4681569548
 30
0.0
 10
3.528831373
 20
5.4694449763
 30
0.0
 10
3.5298039116
 20
5.470947035
 30
0.0
 10
3.5312335013
 20
5.4725395108
 30
0.0
 10
3.5328711985
 20
5.4739060226
 30
0.0
 10
3.534668025
 20
5.4750426743
 30
0.0
 10
3.5365823513
 20
5.4759534653
 30
0.0
 10
3.5379161361
 20
5.4764163177
 30
0.0
 10
3.5385917491
 20
5.4766128435
 30
0.0
  0
SPLINE
  5
46F
100
AcDbEntity
  8
0
100
AcDbSpline
 62
7
  6
CONTINUOUS
 70
0
 71
3
 72
16
 73
12
 74
0
 42
0.0000001
 43
0.0000001
 44
0.0000000001
 40
0.0
 40
0.0
 40
0.0
 40
0.0
 40
0.1271787637
 40
0.1907095946
 40
0.2541067636
 40
0.38030172
 40
0.5057192978
 40
0.6303312218
 40
0.7541787996
 40
0.8773752547
 40
1.0
 40
1.0
 40
1.0
 40
1.0
 10
3.5175239472
 20
5.4664402148
 30
0.0
 10
3.5176234716
 20
5.467148368
 30
0.0
 10
3.517866615
 20
5.4682000893
 30
0.0
 10
3.5183658995
 20
5.4695401192
 30
0.0
 10
3.5189740676
 20
5.4708286344
 30
0.0
 10
3.5199262396
 20
5.4723320172
 30
0.0
 10
3.5213252404
 20
5.4739289904
 30
0.0
 10
3.5229267299
 20
5.4753011009
 30
0.0
 10
3.524682874
 20
5.4764440842
 30
0.0
 10
3.526552979
 20
5.4773616621
 30
0.0
 10
3.5278568335
 20
5.4778297486
 30
0.0
 10
3.5285169954
 20
5.4780287578
 30
0.0
  0
SPLINE
  5
470
100
AcDbEntity
  8
0
100
AcDbSpline
 62
7
  6
CONTINUOUS
 70
0
 71
3
 72
17
 73
13
 74
0
 42
0.0000001
 43
0.0000001
 44
0.0000000001
 40
0.0
 40
0.0
 40
0.0
 40
0.0
 40
0.1288382993
 40
0.1931107804
 40
0.2571537065
 40
0.3842696227
 40
0.5100198605
 40
0.5723982752
 40
0.634418513
 40
0.7573941258
 40
0.8791999983
 40
1.0
 40
1.0
 40
1.0
 40
1.0
 10
3.509913613
 20
5.4675097775
 30
0.0
 10
3.510013111
 20
5.4682177426
 30
0.0
 10
3.5102526002
 20
5.4692690066
 30
0.0
 10
3.5107410342
 20
5.4706109558
 30
0.0
 10
3.5113335116
 20
5.4719001734
 30
0.0
 10
3.5122577853
 20
5.4734052426
 30
0.0
 10
3.5133923692
 20
5.4747453149
 30
0.0
 10
3.5143974194
 20
5.4757040805
 30
0.0
 10
3.5154536247
 20
5.4765822606
 30
0.0
 10
3.5168673226
 20
5.4775398382
 30
0.0
 10
3.5186767268
 20
5.4784666197
 30
0.0
 10
3.5199396259
 20
5.4789419816
 30
0.0
 10
3.5205786446
 20
5.4791444202
 30
0.0
  0
SPLINE
  5
471
100
AcDbEntity
  8
0
100
AcDbSpline
 62
7
  6
CONTINUOUS
 70
0
 71
3
 72
15
 73
11
 74
0
 42
0.0000001
 43
0.0000001
 44
0.0000000001
 40
0.0
 40
0.0
 40
0.0
 40
0.0
 40
0.1309881433
 40
0.261013077
 40
0.3893519122
 40
0.5155783274
 40
0.6395873276
 40
0.761485036
 40
0.8815328765
 40
1.0
 40
1.0
 40
1.0
 40
1.0
 10
3.5046014108
 20
5.4682563589
 30
0.0
 10
3.5047008768
 20
5.4689640965
 30
0.0
 10
3.5050130686
 20
5.4703610036
 30
0.0
 10
3.5058021188
 20
5.4723423704
 30
0.0
 10
3.5068727852
 20
5.4741564887
 30
0.0
 10
3.5081771514
 20
5.4757672367
 30
0.0
 10
3.5096663965
 20
5.4771564543
 30
0.0
 10
3.5112964326
 20
5.4783190009
 30
0.0
 10
3.5130295185
 20
5.4792576453
 30
0.0
 10
3.5142407502
 20
5.4797422731
 30
0.0
 10
3.5148531475
 20
5.4799490864
 30
0.0
  0
SPLINE
  5
472
100
AcDbEntity
  8
0
100
AcDbSpline
 62
7
  6
CONTINUOUS
 70
0
 71
3
 72
17
 73
13
 74
0
 42
0.0000001
 43
0.0000001
 44
0.0000000001
 40
0.0
 40
0.0
 40
0.0
 40
0.0
 40
0.1335423504
 40
0.1999270505
 40
0.2658198264
 40
0.3956136466
 40
0.5223974961
 40
0.5846302044
 40
0.6460663346
 40
0.7666154663
 40
0.8844627699
 40
1.0
 40
1.0
 40
1.0
 40
1.0
 10
3.5016384999
 20
5.4686727688
 30
0.0
 10
3.5017379297
 20
5.4693802484
 30
0.0
 10
3.5019674245
 20
5.4704303944
 30
0.0
 10
3.5024258228
 20
5.4717775735
 30
0.0
 10
3.5029751147
 20
5.4730688158
 30
0.0
 10
3.5038230638
 20
5.4745785827
 30
0.0
 10
3.5048641746
 20
5.4759369115
 30
0.0
 10
3.5057847696
 20
5.4769116699
 30
0.0
 10
3.506743729
 20
5.4778002496
 30
0.0
 10
3.5080242658
 20
5.4787742131
 30
0.0
 10
3.5096656641
 20
5.4797268588
 30
0.0
 10
3.5108150797
 20
5.4802228689
 30
0.0
 10
3.5113956436
 20
5.4804350069
 30
0.0
  0
SPLINE
  5
473
100
AcDbEntity
  8
0
100
AcDbSpline
 62
7
  6
CONTINUOUS
 70
0
 71
3
 72
15
 73
11
 74
0
 42
0.0000001
 43
0.0000001
 44
0.0000000001
 40
0.0
 40
0.0
 40
0.0
 40
0.0
 40
0.1044869534
 40
0.2142601784
 40
0.3300975127
 40
0.4525379616
 40
0.5816872002
 40
0.717012822
 40
0.8571636859
 40
1.0
 40
1.0
 40
1.0
 40
1.0
 10
6.5081252115
 20
4.0715095147
 30
0.0
 10
6.508555917
 20
4.0712145626
 30
0.0
 10
6.5094006383
 20
4.0705515796
 30
0.0
 10
6.5105627275
 20
4.0693756592
 30
0.0
 10
6.5116253524
 20
4.0679936308
 30
0.0
 10
6.5125609002
 20
4.0664090338
 30
0.0
 10
6.5133384727
 20
4.0646342443
 30
0.0
 10
6.5139255039
 20
4.0626948219
 30
0.0
 10
6.5142922301
 20
4.0606326699
 30
0.0
 10
6.5143752115
 20
4.0592174274
 30
0.0
 10
6.5143752115
 20
4.058503814
 30
0.0
  0
SPLINE
  5
474
100
AcDbEntity
  8
0
100
AcDbSpline
 62
7
  6
CONTINUOUS
 70
0
 71
3
 72
17
 73
13
 74
0
 42
0.0000001
 43
0.0000001
 44
0.0000000001
 40
0.0
 40
0.0
 40
0.0
 40
0.0
 40
0.1155442566
 40
0.2333867235
 40
0.3539399028
 40
0.4153789697
 40
0.4776080577
 40
0.6043927067
 40
0.7341847905
 40
0.8000796129
 40
0.8664613878
 40
1.0
 40
1.0
 40
1.0
 40
1.0
 10
6.7494310387
 20
4.0715095147
 30
0.0
 10
6.749976462
 20
4.0712186246
 30
0.0
 10
6.7510456765
 20
4.0705674737
 30
0.0
 10
6.7525385135
 20
4.0693956041
 30
0.0
 10
6.7536710787
 20
4.0682529237
 30
0.0
 10
6.7544970116
 20
4.0672394841
 30
0.0
 10
6.755273013
 20
4.0661461081
 30
0.0
 10
6.7561149132
 20
4.0646561075
 30
0.0
 10
6.7567444783
 20
4.0630430127
 30
0.0
 10
6.757108713
 20
4.0616879019
 30
0.0
 10
6.7573751187
 20
4.0602900542
 30
0.0
 10
6.7574562394
 20
4.0592182266
 30
0.0
 10
6.7574562394
 20
4.058503814
 30
0.0
  0
SPLINE
  5
475
100
AcDbEntity
  8
0
100
AcDbSpline
 62
7
  6
CONTINUOUS
 70
0
 71
3
 72
15
 73
11
 74
0
 42
0.0000001
 43
0.0000001
 44
0.0000000001
 40
0.0
 40
0.0
 40
0.0
 40
0.0
 40
0.1184743113
 40
0.2385171397
 40
0.3604189684
 40
0.4844273049
 40
0.610654466
 40
0.7389915315
 40
0.8690155295
 40
1.0
 40
1.0
 40
1.0
 40
1.0
 10
6.7459395559
 20
4.0715095147
 30
0.0
 10
6.7465172458
 20
4.0712194673
 30
0.0
 10
6.7476492582
 20
4.0705709843
 30
0.0
 10
6.749234846
 20
4.069400222
 30
0.0
 10
6.7506872363
 20
4.068022158
 30
0.0
 10
6.7519686486
 20
4.0664391668
 30
0.0
 10
6.7530361329
 20
4.0646625636
 30
0.0
 10
6.7538438851
 20
4.0627170944
 30
0.0
 10
6.754349461
 20
4.0606452217
 30
0.0
 10
6.7544642103
 20
4.0592184871
 30
0.0
 10
6.7544642103
 20
4.058503814
 30
0.0
  0
SPLINE
  5
476
100
AcDbEntity
  8
0
100
AcDbSpline
 62
7
  6
CONTINUOUS
 70
0
 71
3
 72
17
 73
13
 74
0
 42
0.0000001
 43
0.0000001
 44
0.0000000001
 40
0.0
 40
0.0
 40
0.0
 40
0.0
 40
0.1208073254
 40
0.2426080535
 40
0.3655878526
 40
0.4276109094
 40
0.4899857495
 40
0.615736697
 40
0.7428508239
 40
0.8068957126
 40
0.87116531
 40
1.0
 40
1.0
 40
1.0
 40
1.0
 10
6.740157791
 20
4.0715095147
 30
0.0
 10
6.7407624537
 20
4.0712200943
 30
0.0
 10
6.7419469218
 20
4.070573598
 30
0.0
 10
6.7436097322
 20
4.0694039557
 30
0.0
 10
6.7448764432
 20
4.0682589741
 30
0.0
 10
6.7458001237
 20
4.0672422943
 30
0.0
 10
6.746661984
 20
4.0661530048
 30
0.0
 10
6.7475989865
 20
4.0646680724
 30
0.0
 10
6.7483047851
 20
4.0630490071
 30
0.0
 10
6.7487120661
 20
4.0616898916
 30
0.0
 10
6.7490089387
 20
4.0602930415
 30
0.0
 10
6.7490998021
 20
4.0592187168
 30
0.0
 10
6.7490998021
 20
4.058503814
 30
0.0
  0
SPLINE
  5
477
100
AcDbEntity
  8
0
100
AcDbSpline
 62
7
  6
CONTINUOUS
 70
0
 71
3
 72
16
 73
12
 74
0
 42
0.0000001
 43
0.0000001
 44
0.0000000001
 40
0.0
 40
0.0
 40
0.0
 40
0.0
 40
0.1226321642
 40
0.2458233609
 40
0.3696751656
 40
0.4942863669
 40
0.6197046146
 40
0.7458977538
 40
0.8092968516
 40
0.8728248084
 40
1.0
 40
1.0
 40
1.0
 40
1.0
 10
6.7321414256
 20
4.0715095147
 30
0.0
 10
6.7327675042
 20
4.0712205479
 30
0.0
 10
6.7339935407
 20
4.0705755555
 30
0.0
 10
6.7357177486
 20
4.0694065833
 30
0.0
 10
6.7372977412
 20
4.0680303434
 30
0.0
 10
6.7386926869
 20
4.0664486705
 30
0.0
 10
6.7398558037
 20
4.0646725381
 30
0.0
 10
6.7405894579
 20
4.0630512555
 30
0.0
 10
6.7410123751
 20
4.0616906527
 30
0.0
 10
6.741320258
 20
4.0602941926
 30
0.0
 10
6.7414146767
 20
4.0592189068
 30
0.0
 10
6.7414146767
 20
4.058503814
 30
0.0
  0
SPLINE
  5
478
100
AcDbEntity
  8
0
100
AcDbSpline
 62
7
  6
CONTINUOUS
 70
0
 71
3
 72
16
 73
12
 74
0
 42
0.0000001
 43
0.0000001
 44
0.0000000001
 40
0.0
 40
0.0
 40
0.0
 40
0.0
 40
0.1239293479
 40
0.2481121729
 40
0.3725884046
 40
0.497405517
 40
0.6225845923
 40
0.7481116305
 40
0.8110423404
 40
0.8740316397
 40
1.0
 40
1.0
 40
1.0
 40
1.0
 10
6.7219676615
 20
4.0715095147
 30
0.0
 10
6.7226093874
 20
4.0712208568
 30
0.0
 10
6.7238657915
 20
4.0705768823
 30
0.0
 10
6.7256347358
 20
4.0694084759
 30
0.0
 10
6.7272558956
 20
4.0680328447
 30
0.0
 10
6.7286874762
 20
4.0664516766
 30
0.0
 10
6.7298815099
 20
4.0646757407
 30
0.0
 10
6.7306355162
 20
4.0630529347
 30
0.0
 10
6.7310698949
 20
4.0616912198
 30
0.0
 10
6.7313858172
 20
4.0602950583
 30
0.0
 10
6.7314828464
 20
4.05921905
 30
0.0
 10
6.7314828464
 20
4.058503814
 30
0.0
  0
SPLINE
  5
479
100
AcDbEntity
  8
0
100
AcDbSpline
 62
7
  6
CONTINUOUS
 70
0
 71
3
 72
17
 73
13
 74
0
 42
0.0000001
 43
0.0000001
 44
0.0000000001
 40
0.0
 40
0.0
 40
0.0
 40
0.0
 40
0.1247067108
 40
0.2494819237
 40
0.3743272649
 40
0.4992576973
 40
0.6242765387
 40
0.7493794718
 40
0.8120141034
 40
0.8746635852
 40
0.9373382748
 40
1.0
 40
1.0
 40
1.0
 40
1.0
 10
6.7097344778
 20
4.0715095147
 30
0.0
 10
6.7103859267
 20
4.0712210399
 30
0.0
 10
6.7116611933
 20
4.0705776728
 30
0.0
 10
6.7134579154
 20
4.069409613
 30
0.0
 10
6.7151046325
 20
4.0680343653
 30
0.0
 10
6.7165589574
 20
4.0664535177
 30
0.0
 10
6.7177721954
 20
4.0646777533
 30
0.0
 10
6.7185388731
 20
4.0630539268
 30
0.0
 10
6.7189803887
 20
4.0616916862
 30
0.0
 10
6.7192211826
 20
4.0606436839
 30
0.0
 10
6.7193672441
 20
4.0595782935
 30
0.0
 10
6.7193999598
 20
4.0588618072
 30
0.0
 10
6.7193999598
 20
4.058503814
 30
0.0
  0
SPLINE
  5
47A
100
AcDbEntity
  8
0
100
AcDbSpline
 62
7
  6
CONTINUOUS
 70
0
 71
3
 72
17
 73
13
 74
0
 42
0.0000001
 43
0.0000001
 44
0.0000000001
 40
0.0
 40
0.0
 40
0.0
 40
0.0
 40
0.1250060255
 40
0.2500111108
 40
0.3750023117
 40
0.4999821032
 40
0.6249467988
 40
0.7498954489
 40
0.8124209794
 40
0.8749446987
 40
0.9374818479
 40
1.0
 40
1.0
 40
1.0
 40
1.0
 10
6.6955596866
 20
4.0715095147
 30
0.0
 10
6.6962148372
 20
4.0712211079
 30
0.0
 10
6.6974972838
 20
4.0705779672
 30
0.0
 10
6.6993045773
 20
4.0694100385
 30
0.0
 10
6.7009610198
 20
4.0680349366
 30
0.0
 10
6.7024239999
 20
4.0664542164
 30
0.0
 10
6.7036445475
 20
4.0646785118
 30
0.0
 10
6.7044160549
 20
4.0630543297
 30
0.0
 10
6.7048602894
 20
4.0616918248
 30
0.0
 10
6.7051025291
 20
4.0606437835
 30
0.0
 10
6.7052494688
 20
4.0595783464
 30
0.0
 10
6.705282382
 20
4.0588618116
 30
0.0
 10
6.705282382
 20
4.058503814
 30
0.0
  0
SPLINE
  5
47B
100
AcDbEntity
  8
0
100
AcDbSpline
 62
7
  6
CONTINUOUS
 70
0
 71
3
 72
17
 73
13
 74
0
 42
0.0000001
 43
0.0000001
 44
0.0000000001
 40
0.0
 40
0.0
 40
0.0
 40
0.0
 40
0.1248156447
 40
0.2496744948
 40
0.3745728806
 40
0.4995212339
 40
0.6245203423
 40
0.7495671324
 40
0.8121620768
 40
0.8747658173
 40
0.9373904866
 40
1.0
 40
1.0
 40
1.0
 40
1.0
 10
6.6795797989
 20
4.0715095147
 30
0.0
 10
6.680232593
 20
4.0712210647
 30
0.0
 10
6.681510469
 20
4.0705777802
 30
0.0
 10
6.683311033
 20
4.0694097682
 30
0.0
 10
6.6849612846
 20
4.0680345734
 30
0.0
 10
6.6864187551
 20
4.0664537719
 30
0.0
 10
6.6876346495
 20
4.064678029
 30
0.0
 10
6.688403082
 20
4.063054073
 30
0.0
 10
6.6888455855
 20
4.0616917365
 30
0.0
 10
6.6890869048
 20
4.0606437201
 30
0.0
 10
6.6892332854
 20
4.0595783127
 30
0.0
 10
6.6892660729
 20
4.0588618088
 30
0.0
 10
6.6892660729
 20
4.058503814
 30
0.0
  0
SPLINE
  5
47C
100
AcDbEntity
  8
0
100
AcDbSpline
 62
7
  6
CONTINUOUS
 70
0
 71
3
 72
17
 73
13
 74
0
 42
0.0000001
 43
0.0000001
 44
0.0000000001
 40
0.0
 40
0.0
 40
0.0
 40
0.0
 40
0.1241330936
 40
0.2484683426
 40
0.3730351243
 40
0.497872002
 40
0.6229952582
 40
0.7483936815
 40
0.8112369266
 40
0.8741267181
 40
0.9370641093
 40
1.0
 40
1.0
 40
1.0
 40
1.0
 10
6.6619487099
 20
4.0715095147
 30
0.0
 10
6.6625931127
 20
4.0712209079
 30
0.0
 10
6.6638547107
 20
4.0705771025
 30
0.0
 10
6.6656313045
 20
4.0694087916
 30
0.0
 10
6.6672595027
 20
4.0680332671
 30
0.0
 10
6.6686973469
 20
4.0664521812
 30
0.0
 10
6.6698966688
 20
4.0646763096
 30
0.0
 10
6.6706541612
 20
4.0630531632
 30
0.0
 10
6.6710905054
 20
4.0616914239
 30
0.0
 10
6.6713285478
 20
4.0606434959
 30
0.0
 10
6.6714729381
 20
4.0595781936
 30
0.0
 10
6.6715052782
 20
4.0588617989
 30
0.0
 10
6.6715052782
 20
4.058503814
 30
0.0
  0
LINE
  5
47D
100
AcDbEntity
  8
0
100
AcDbLine
 62
7
  6
CONTINUOUS
 10
6.6618426475
 20
4.058503814
 11
6.6619487099
 21
4.0715095147
  0
SPLINE
  5
47E
100
AcDbEntity
  8
0
100
AcDbSpline
 62
7
  6
CONTINUOUS
 70
0
 71
3
 72
16
 73
12
 74
0
 42
0.0000001
 43
0.0000001
 44
0.0000000001
 40
0.0
 40
0.0
 40
0.0
 40
0.0
 40
0.1229646697
 40
0.2464096755
 40
0.3704209111
 40
0.4950842323
 40
0.6204407715
 40
0.7464632981
 40
0.8097426364
 40
0.8731329665
 40
1.0
 40
1.0
 40
1.0
 40
1.0
 10
6.6428362164
 20
4.0715095147
 30
0.0
 10
6.6434662771
 20
4.0712206283
 30
0.0
 10
6.6447000434
 20
4.0705758997
 30
0.0
 10
6.6464356402
 20
4.0694070723
 30
0.0
 10
6.6480261139
 20
4.0680309866
 30
0.0
 10
6.6494303865
 20
4.0664494394
 30
0.0
 10
6.6506013726
 20
4.0646733528
 30
0.0
 10
6.6513402012
 20
4.0630516806
 30
0.0
 10
6.651766033
 20
4.0616907961
 30
0.0
 10
6.6520759621
 20
4.060294411
 30
0.0
 10
6.6521710442
 20
4.0592189429
 30
0.0
 10
6.6521710442
 20
4.058503814
 30
0.0
  0
SPLINE
  5
47F
100
AcDbEntity
  8
0
100
AcDbSpline
 62
7
  6
CONTINUOUS
 70
0
 71
3
 72
15
 73
11
 74
0
 42
0.0000001
 43
0.0000001
 44
0.0000000001
 40
0.0
 40
0.0
 40
0.0
 40
0.0
 40
0.1634916278
 40
0.3217523137
 40
0.4704057661
 40
0.6063359196
 40
0.7277281806
 40
0.8337927403
 40
0.92444004
 40
1.0
 40
1.0
 40
1.0
 40
1.0
 10
6.641777674
 20
4.058503814
 30
0.0
 10
6.641777674
 20
4.0592162289
 30
0.0
 10
6.6417915105
 20
4.0606183062
 30
0.0
 10
6.6418527947
 20
4.0626673194
 30
0.0
 10
6.6419508773
 20
4.064594672
 30
0.0
 10
6.6420807361
 20
4.0663591082
 30
0.0
 10
6.6422368495
 20
4.0679350401
 30
0.0
 10
6.6424138847
 20
4.0693100828
 30
0.0
 10
6.6426071226
 20
4.0704809227
 30
0.0
 10
6.6427571678
 20
4.0711898922
 30
0.0
 10
6.6428362164
 20
4.0715095147
 30
0.0
  0
SPLINE
  5
480
100
AcDbEntity
  8
0
100
AcDbSpline
 62
7
  6
CONTINUOUS
 70
0
 71
3
 72
17
 73
13
 74
0
 42
0.0000001
 43
0.0000001
 44
0.0000000001
 40
0.0
 40
0.0
 40
0.0
 40
0.0
 40
0.1212566029
 40
0.2433983939
 40
0.3665904842
 40
0.4286660894
 40
0.4910557932
 40
0.6167214091
 40
0.7436056463
 40
0.8074901824
 40
0.8715759773
 40
1.0
 40
1.0
 40
1.0
 40
1.0
 10
6.6224263824
 20
4.0715095147
 30
0.0
 10
6.6230362927
 20
4.0712202089
 30
0.0
 10
6.6242309553
 20
4.0705740841
 30
0.0
 10
6.6259087917
 20
4.0694046364
 30
0.0
 10
6.6271873805
 20
4.0682594825
 30
0.0
 10
6.6281197311
 20
4.0672425345
 30
0.0
 10
6.6289891669
 20
4.0661536036
 30
0.0
 10
6.6299345631
 20
4.0646691427
 30
0.0
 10
6.6306471556
 20
4.0630495566
 30
0.0
 10
6.6310582668
 20
4.0616900757
 30
0.0
 10
6.6313578369
 20
4.0602933204
 30
0.0
 10
6.63144957
 20
4.0592187627
 30
0.0
 10
6.63144957
 20
4.058503814
 30
0.0
  0
SPLINE
  5
481
100
AcDbEntity
  8
0
100
AcDbSpline
 62
7
  6
CONTINUOUS
 70
0
 71
3
 72
15
 73
11
 74
0
 42
0.0000001
 43
0.0000001
 44
0.0000000001
 40
0.0
 40
0.0
 40
0.0
 40
0.0
 40
0.1614382827
 40
0.3178746874
 40
0.4651399498
 40
0.6002940645
 40
0.7216726274
 40
0.8286272431
 40
0.9212253286
 40
1.0
 40
1.0
 40
1.0
 40
1.0
 10
6.6204255542
 20
4.058503814
 30
0.0
 10
6.6204255542
 20
4.05921632
 30
0.0
 10
6.6204517388
 20
4.0606194046
 30
0.0
 10
6.6205677007
 20
4.0626695025
 30
0.0
 10
6.6207533151
 20
4.0645980167
 30
0.0
 10
6.6209991265
 20
4.066363735
 30
0.0
 10
6.6212947515
 20
4.0679411712
 30
0.0
 10
6.6216302861
 20
4.0693181483
 30
0.0
 10
6.6219969434
 20
4.0704914588
 30
0.0
 10
6.6222791482
 20
4.0711945587
 30
0.0
 10
6.6224263824
 20
4.0715095147
 30
0.0
  0
SPLINE
  5
482
100
AcDbEntity
  8
0
100
AcDbSpline
 62
7
  6
CONTINUOUS
 70
0
 71
3
 72
15
 73
11
 74
0
 42
0.0000001
 43
0.0000001
 44
0.0000000001
 40
0.0
 40
0.0
 40
0.0
 40
0.0
 40
0.1190450622
 40
0.2395180349
 40
0.3616844705
 40
0.485773051
 40
0.6118891073
 40
0.7399357979
 40
0.8695273642
 40
1.0
 40
1.0
 40
1.0
 40
1.0
 10
6.6009157656
 20
4.0715095147
 30
0.0
 10
6.6014999169
 20
4.0712196235
 30
0.0
 10
6.6026444959
 20
4.0705716384
 30
0.0
 10
6.6042486184
 20
4.0694011182
 30
0.0
 10
6.6057180738
 20
4.0680232881
 30
0.0
 10
6.6070146635
 20
4.0664404598
 30
0.0
 10
6.6080949263
 20
4.0646638693
 30
0.0
 10
6.6089124668
 20
4.0627181818
 30
0.0
 10
6.6094242383
 20
4.0606458578
 30
0.0
 10
6.6095404149
 20
4.0592185412
 30
0.0
 10
6.6095404149
 20
4.058503814
 30
0.0
  0
SPLINE
  5
483
100
AcDbEntity
  8
0
100
AcDbSpline
 62
7
  6
CONTINUOUS
 70
0
 71
3
 72
15
 73
11
 74
0
 42
0.0000001
 43
0.0000001
 44
0.0000000001
 40
0.0
 40
0.0
 40
0.0
 40
0.0
 40
0.1584229317
 40
0.3121896876
 40
0.4574416101
 40
0.5914985255
 40
0.7129095713
 40
0.8212135683
 40
0.9166638651
 40
1.0
 40
1.0
 40
1.0
 40
1.0
 10
6.5979919207
 20
4.058503814
 30
0.0
 10
6.5979919207
 20
4.0592164636
 30
0.0
 10
6.5980302564
 20
4.0606211341
 30
0.0
 10
6.598199997
 20
4.0626729125
 30
0.0
 10
6.5984717343
 20
4.0646031686
 30
0.0
 10
6.5988317061
 20
4.0663707025
 30
0.0
 10
6.5992648312
 20
4.0679501159
 30
0.0
 10
6.599756849
 20
4.0693293331
 30
0.0
 10
6.6002951099
 20
4.0705051318
 30
0.0
 10
6.6007043053
 20
4.0711999684
 30
0.0
 10
6.6009157656
 20
4.0715095147
 30
0.0
  0
SPLINE
  5
484
100
AcDbEntity
  8
0
100
AcDbSpline
 62
7
  6
CONTINUOUS
 70
0
 71
3
 72
17
 73
13
 74
0
 42
0.0000001
 43
0.0000001
 44
0.0000000001
 40
0.0
 40
0.0
 40
0.0
 40
0.0
 40
0.1162398488
 40
0.2346014376
 40
0.3554688993
 40
0.4169818239
 40
0.4792272229
 40
0.6058718117
 40
0.7353116934
 40
0.8009650463
 40
0.8670719633
 40
1.0
 40
1.0
 40
1.0
 40
1.0
 10
6.578511525
 20
4.0715095147
 30
0.0
 10
6.579064561
 20
4.0712188332
 30
0.0
 10
6.580148606
 20
4.0705683308
 30
0.0
 10
6.5816633218
 20
4.0693967481
 30
0.0
 10
6.5828131277
 20
4.0682537326
 30
0.0
 10
6.5836516055
 20
4.0672398549
 30
0.0
 10
6.5844386756
 20
4.0661470064
 30
0.0
 10
6.5852928303
 20
4.0646576291
 30
0.0
 10
6.5859321423
 20
4.0630437602
 30
0.0
 10
6.5863018889
 20
4.0616881482
 30
0.0
 10
6.5865722108
 20
4.0602904214
 30
0.0
 10
6.5866545759
 20
4.0592182867
 30
0.0
 10
6.5866545759
 20
4.058503814
 30
0.0
  0
SPLINE
  5
485
100
AcDbEntity
  8
0
100
AcDbSpline
 62
7
  6
CONTINUOUS
 70
0
 71
3
 72
15
 73
11
 74
0
 42
0.0000001
 43
0.0000001
 44
0.0000000001
 40
0.0
 40
0.0
 40
0.0
 40
0.0
 40
0.154772633
 40
0.3053225949
 40
0.4481773016
 40
0.5809718224
 40
0.702500622
 40
0.8124956777
 40
0.9113705855
 40
1.0
 40
1.0
 40
1.0
 40
1.0
 10
6.5746928217
 20
4.058503814
 30
0.0
 10
6.5746928217
 20
4.0592166543
 30
0.0
 10
6.5747430149
 20
4.0606234254
 30
0.0
 10
6.5749651901
 20
4.0626773788
 30
0.0
 10
6.5753209172
 20
4.0646097839
 30
0.0
 10
6.5757922622
 20
4.0663793792
 30
0.0
 10
6.5763596021
 20
4.0679607812
 30
0.0
 10
6.5770044274
 20
4.0693418557
 30
0.0
 10
6.5777102914
 20
4.0705192034
 30
0.0
 10
6.5782397661
 20
4.0712049223
 30
0.0
 10
6.578511525
 20
4.0715095147
 30
0.0
  0
SPLINE
  5
486
100
AcDbEntity
  8
0
100
AcDbSpline
 62
7
  6
CONTINUOUS
 70
0
 71
3
 72
16
 73
12
 74
0
 42
0.0000001
 43
0.0000001
 44
0.0000000001
 40
0.0
 40
0.0
 40
0.0
 40
0.0
 40
0.1128941171
 40
0.2287726037
 40
0.348151242
 40
0.471434158
 40
0.598771321
 40
0.7299123164
 40
0.7967255959
 40
0.8641500581
 40
1.0
 40
1.0
 40
1.0
 40
1.0
 10
6.5554294258
 20
4.0715095147
 30
0.0
 10
6.555946289
 20
4.0712177828
 30
0.0
 10
6.5569597871
 20
4.0705640772
 30
0.0
 10
6.5583705217
 20
4.0693910406
 30
0.0
 10
6.5596619103
 20
4.0680109681
 30
0.0
 10
6.5608002466
 20
4.0664267611
 30
0.0
 10
6.5617474596
 20
4.0646505489
 30
0.0
 10
6.5623406709
 20
4.0630402613
 30
0.0
 10
6.5626842704
 20
4.0616870057
 30
0.0
 10
6.5629359855
 20
4.0602887198
 30
0.0
 10
6.5630124562
 20
4.059218009
 30
0.0
 10
6.5630124562
 20
4.058503814
 30
0.0
  0
SPLINE
  5
487
100
AcDbEntity
  8
0
100
AcDbSpline
 62
7
  6
CONTINUOUS
 70
0
 71
3
 72
14
 73
10
 74
0
 42
0.0000001
 43
0.0000001
 44
0.0000000001
 40
0.0
 40
0.0
 40
0.0
 40
0.0
 40
0.1508556978
 40
0.2979783859
 40
0.4383266005
 40
0.5698766869
 40
0.6916706454
 40
0.8036084377
 40
1.0
 40
1.0
 40
1.0
 40
1.0
 10
6.5507526402
 20
4.058503814
 30
0.0
 10
6.5507526402
 20
4.0592168845
 30
0.0
 10
6.5508142991
 20
4.0606261899
 30
0.0
 10
6.5510870935
 20
4.0626826756
 30
0.0
 10
6.5515239396
 20
4.0646174862
 30
0.0
 10
6.5521026661
 20
4.0663889621
 30
0.0
 10
6.5527998514
 20
4.0679724835
 30
0.0
 10
6.553811244
 20
4.0697380429
 30
0.0
 10
6.5547446084
 20
4.0708827877
 30
0.0
 10
6.5554294258
 20
4.0715095147
 30
0.0
  0
SPLINE
  5
488
100
AcDbEntity
  8
0
100
AcDbSpline
 62
7
  6
CONTINUOUS
 70
0
 71
3
 72
15
 73
11
 74
0
 42
0.0000001
 43
0.0000001
 44
0.0000000001
 40
0.0
 40
0.0
 40
0.0
 40
0.0
 40
0.1089739694
 40
0.221981681
 40
0.3396747846
 40
0.4625364494
 40
0.5907106787
 40
0.7238243437
 40
0.8608246706
 40
1.0
 40
1.0
 40
1.0
 40
1.0
 10
6.5318917611
 20
4.0715095147
 30
0.0
 10
6.5323677294
 20
4.0712163947
 30
0.0
 10
6.5333012748
 20
4.0705585777
 30
0.0
 10
6.5345940994
 20
4.069384088
 30
0.0
 10
6.5357769574
 20
4.0680029166
 30
0.0
 10
6.536818988
 20
4.0664183423
 30
0.0
 10
6.5376855445
 20
4.0646425839
 30
0.0
 10
6.5383400738
 20
4.0627011324
 30
0.0
 10
6.538749117
 20
4.0606361369
 30
0.0
 10
6.5388417424
 20
4.0592177189
 30
0.0
 10
6.5388417424
 20
4.058503814
 30
0.0
  0
SPLINE
  5
489
100
AcDbEntity
  8
0
100
AcDbSpline
 62
7
  6
CONTINUOUS
 70
0
 71
3
 72
14
 73
10
 74
0
 42
0.0000001
 43
0.0000001
 44
0.0000000001
 40
0.0
 40
0.0
 40
0.0
 40
0.0
 40
0.2900221339
 40
0.4278207399
 40
0.558138122
 40
0.6802450287
 40
0.7941673888
 40
0.9004608242
 40
1.0
 40
1.0
 40
1.0
 40
1.0
 10
6.5264019333
 20
4.058503814
 30
0.0
 10
6.5264019333
 20
4.0599129687
 30
0.0
 10
6.5266130797
 20
4.0620009825
 30
0.0
 10
6.5273098529
 20
4.0646255169
 30
0.0
 10
6.5279912025
 20
4.0663991963
 30
0.0
 10
6.5288112259
 20
4.0679832375
 30
0.0
 10
6.5297431173
 20
4.0693656894
 30
0.0
 10
6.5307628178
 20
4.070542787
 30
0.0
 10
6.5315103432
 20
4.0712121473
 30
0.0
 10
6.5318917611
 20
4.0715095147
 30
0.0
  0
SPLINE
  5
48A
100
AcDbEntity
  8
0
100
AcDbSpline
 62
7
  6
CONTINUOUS
 70
0
 71
3
 72
17
 73
13
 74
0
 42
0.0000001
 43
0.0000001
 44
0.0000000001
 40
0.0
 40
0.0
 40
0.0
 40
0.0
 40
0.1335385794
 40
0.1999203375
 40
0.2658151654
 40
0.3956072424
 40
0.5223919182
 40
0.5846210134
 40
0.6460600819
 40
0.7666132673
 40
0.8844557383
 40
1.0
 40
1.0
 40
1.0
 40
1.0
 10
6.2587941837
 20
4.058503814
 30
0.0
 10
6.2587941837
 20
4.0592182264
 30
0.0
 10
6.2588753043
 20
4.0602900537
 30
0.0
 10
6.25914171
 20
4.0616879013
 30
0.0
 10
6.2595059445
 20
4.0630430119
 30
0.0
 10
6.2601355096
 20
4.064656107
 30
0.0
 10
6.2609774098
 20
4.0661461077
 30
0.0
 10
6.2617534112
 20
4.0672394839
 30
0.0
 10
6.2625793442
 20
4.0682529235
 30
0.0
 10
6.2637119094
 20
4.069395604
 30
0.0
 10
6.2652047465
 20
4.0705674737
 30
0.0
 10
6.2662739611
 20
4.0712186246
 30
0.0
 10
6.2668193844
 20
4.0715095147
 30
0.0
  0
SPLINE
  5
48B
100
AcDbEntity
  8
0
100
AcDbSpline
 62
7
  6
CONTINUOUS
 70
0
 71
3
 72
11
 73
7
 74
0
 42
0.0000001
 43
0.0000001
 44
0.0000000001
 40
0.0
 40
0.0
 40
0.0
 40
0.0
 40
0.2522865667
 40
0.5032791704
 40
0.752624378
 40
1.0
 40
1.0
 40
1.0
 40
1.0
 10
6.2576527438
 20
4.0593785957
 30
0.0
 10
6.2577093805
 20
4.0599016996
 30
0.0
 10
6.2578871221
 20
4.0609393313
 30
0.0
 10
6.2583385319
 20
4.0624464223
 30
0.0
 10
6.2589592671
 20
4.0638806238
 30
0.0
 10
6.2594763442
 20
4.0647811182
 30
0.0
 10
6.259756977
 20
4.0652140356
 30
0.0
  0
SPLINE
  5
48C
100
AcDbEntity
  8
0
100
AcDbSpline
 62
7
  6
CONTINUOUS
 70
0
 71
3
 72
15
 73
11
 74
0
 42
0.0000001
 43
0.0000001
 44
0.0000000001
 40
0.0
 40
0.0
 40
0.0
 40
0.0
 40
0.1428362791
 40
0.2829871315
 40
0.4183127475
 40
0.5474620143
 40
0.6699024723
 40
0.785739813
 40
0.8955130419
 40
1.0
 40
1.0
 40
1.0
 40
1.0
 10
6.5018752115
 20
4.058503814
 30
0.0
 10
6.5018752115
 20
4.0592174272
 30
0.0
 10
6.5019581929
 20
4.0606326695
 30
0.0
 10
6.5023249191
 20
4.0626948212
 30
0.0
 10
6.5029119501
 20
4.0646342437
 30
0.0
 10
6.5036895226
 20
4.0664090334
 30
0.0
 10
6.5046250706
 20
4.0679936306
 30
0.0
 10
6.5056876955
 20
4.0693756591
 30
0.0
 10
6.5068497848
 20
4.0705515796
 30
0.0
 10
6.5076945061
 20
4.0712145626
 30
0.0
 10
6.5081252115
 20
4.0715095147
 30
0.0
  0
SPLINE
  5
48D
100
AcDbEntity
  8
0
100
AcDbSpline
 62
7
  6
CONTINUOUS
 70
0
 71
3
 72
14
 73
10
 74
0
 42
0.0000001
 43
0.0000001
 44
0.0000000001
 40
0.0
 40
0.0
 40
0.0
 40
0.0
 40
0.0995391713
 40
0.2058326028
 40
0.3197549565
 40
0.4418618538
 40
0.5721792072
 40
0.7099778186
 40
1.0
 40
1.0
 40
1.0
 40
1.0
 10
6.484358662
 20
4.0715095147
 30
0.0
 10
6.4847400798
 20
4.0712121473
 30
0.0
 10
6.4854876052
 20
4.0705427871
 30
0.0
 10
6.4865073057
 20
4.0693656895
 30
0.0
 10
6.4874391971
 20
4.0679832377
 30
0.0
 10
6.4882592204
 20
4.0663991967
 30
0.0
 10
6.48894057
 20
4.0646255175
 30
0.0
 10
6.4896373433
 20
4.0620009829
 30
0.0
 10
6.4898484898
 20
4.059912969
 30
0.0
 10
6.4898484898
 20
4.058503814
 30
0.0
  0
SPLINE
  5
48E
100
AcDbEntity
  8
0
100
AcDbSpline
 62
7
  6
CONTINUOUS
 70
0
 71
3
 72
15
 73
11
 74
0
 42
0.0000001
 43
0.0000001
 44
0.0000000001
 40
0.0
 40
0.0
 40
0.0
 40
0.0
 40
0.1391752954
 40
0.2761756108
 40
0.4092892695
 40
0.5374635265
 40
0.6603252003
 40
0.7780183102
 40
0.8910260258
 40
1.0
 40
1.0
 40
1.0
 40
1.0
 10
6.4774086807
 20
4.058503814
 30
0.0
 10
6.4774086807
 20
4.0592177187
 30
0.0
 10
6.477501306
 20
4.0606361365
 30
0.0
 10
6.4779103491
 20
4.0627011318
 30
0.0
 10
6.4785648783
 20
4.0646425833
 30
0.0
 10
6.4794314348
 20
4.0664183419
 30
0.0
 10
6.4804734655
 20
4.0680029164
 30
0.0
 10
6.4816563235
 20
4.0693840879
 30
0.0
 10
6.4829491482
 20
4.0705585777
 30
0.0
 10
6.4838826936
 20
4.0712163946
 30
0.0
 10
6.484358662
 20
4.0715095147
 30
0.0
  0
SPLINE
  5
48F
100
AcDbEntity
  8
0
100
AcDbSpline
 62
7
  6
CONTINUOUS
 70
0
 71
3
 72
14
 73
10
 74
0
 42
0.0000001
 43
0.0000001
 44
0.0000000001
 40
0.0
 40
0.0
 40
0.0
 40
0.0
 40
0.1963915541
 40
0.3083293398
 40
0.4301232888
 40
0.5616733458
 40
0.7020215655
 40
0.8491442654
 40
1.0
 40
1.0
 40
1.0
 40
1.0
 10
6.4608209973
 20
4.0715095147
 30
0.0
 10
6.4615058146
 20
4.0708827877
 30
0.0
 10
6.462439179
 20
4.069738043
 30
0.0
 10
6.4634505716
 20
4.0679724837
 30
0.0
 10
6.4641477568
 20
4.0663889625
 30
0.0
 10
6.4647264833
 20
4.0646174868
 30
0.0
 10
6.4651633294
 20
4.0626826762
 30
0.0
 10
6.4654361239
 20
4.0606261903
 30
0.0
 10
6.4654977828
 20
4.0592168847
 30
0.0
 10
6.4654977828
 20
4.058503814
 30
0.0
  0
SPLINE
  5
490
100
AcDbEntity
  8
0
100
AcDbSpline
 62
7
  6
CONTINUOUS
 70
0
 71
3
 72
16
 73
12
 74
0
 42
0.0000001
 43
0.0000001
 44
0.0000000001
 40
0.0
 40
0.0
 40
0.0
 40
0.0
 40
0.1358499087
 40
0.2032743537
 40
0.2700876389
 40
0.4012286278
 40
0.5285658179
 40
0.6518487428
 40
0.7712273873
 40
0.8871058779
 40
1.0
 40
1.0
 40
1.0
 40
1.0
 10
6.4532379668
 20
4.058503814
 30
0.0
 10
6.4532379668
 20
4.0592180089
 30
0.0
 10
6.4533144376
 20
4.0602887194
 30
0.0
 10
6.4535661525
 20
4.0616870051
 30
0.0
 10
6.4539097519
 20
4.0630402606
 30
0.0
 10
6.4545029632
 20
4.0646505484
 30
0.0
 10
6.4554501762
 20
4.0664267607
 30
0.0
 10
6.4565885126
 20
4.0680109679
 30
0.0
 10
6.4578799012
 20
4.0693910405
 30
0.0
 10
6.4592906359
 20
4.0705640771
 30
0.0
 10
6.460304134
 20
4.0712177828
 30
0.0
 10
6.4608209973
 20
4.0715095147
 30
0.0
  0
SPLINE
  5
491
100
AcDbEntity
  8
0
100
AcDbSpline
 62
7
  6
CONTINUOUS
 70
0
 71
3
 72
15
 73
11
 74
0
 42
0.0000001
 43
0.0000001
 44
0.0000000001
 40
0.0
 40
0.0
 40
0.0
 40
0.0
 40
0.0886294103
 40
0.1875043144
 40
0.2974993634
 40
0.4190281532
 40
0.551822644
 40
0.6946773555
 40
0.8452273293
 40
1.0
 40
1.0
 40
1.0
 40
1.0
 10
6.437738898
 20
4.0715095147
 30
0.0
 10
6.438010657
 20
4.0712049223
 30
0.0
 10
6.4385401316
 20
4.0705192034
 30
0.0
 10
6.4392459956
 20
4.0693418558
 30
0.0
 10
6.4398908209
 20
4.0679607814
 30
0.0
 10
6.4404581607
 20
4.0663793796
 30
0.0
 10
6.4409295058
 20
4.0646097845
 30
0.0
 10
6.4412852329
 20
4.0626773794
 30
0.0
 10
6.4415074081
 20
4.0606234258
 30
0.0
 10
6.4415576014
 20
4.0592166544
 30
0.0
 10
6.4415576014
 20
4.058503814
 30
0.0
  0
SPLINE
  5
492
100
AcDbEntity
  8
0
100
AcDbSpline
 62
7
  6
CONTINUOUS
 70
0
 71
3
 72
17
 73
13
 74
0
 42
0.0000001
 43
0.0000001
 44
0.0000000001
 40
0.0
 40
0.0
 40
0.0
 40
0.0
 40
0.132928004
 40
0.1990349043
 40
0.2646882626
 40
0.3941281374
 40
0.520772753
 40
0.5830181591
 40
0.6445310854
 40
0.7653985532
 40
0.8837601462
 40
1.0
 40
1.0
 40
1.0
 40
1.0
 10
6.4295958472
 20
4.058503814
 30
0.0
 10
6.4295958472
 20
4.0592182865
 30
0.0
 10
6.4296782122
 20
4.0602904209
 30
0.0
 10
6.4299485341
 20
4.0616881476
 30
0.0
 10
6.4303182805
 20
4.0630437595
 30
0.0
 10
6.4309575924
 20
4.0646576285
 30
0.0
 10
6.4318117472
 20
4.066147006
 30
0.0
 10
6.4325988174
 20
4.0672398546
 30
0.0
 10
6.4334372952
 20
4.0682537324
 30
0.0
 10
6.4345871011
 20
4.069396748
 30
0.0
 10
6.436101817
 20
4.0705683308
 30
0.0
 10
6.437185862
 20
4.0712188332
 30
0.0
 10
6.437738898
 20
4.0715095147
 30
0.0
  0
SPLINE
  5
493
100
AcDbEntity
  8
0
100
AcDbSpline
 62
7
  6
CONTINUOUS
 70
0
 71
3
 72
15
 73
11
 74
0
 42
0.0000001
 43
0.0000001
 44
0.0000000001
 40
0.0
 40
0.0
 40
0.0
 40
0.0
 40
0.0833361309
 40
0.178786424
 40
0.2870904141
 40
0.4085014499
 40
0.5425583349
 40
0.6878102617
 40
0.8415770297
 40
1.0
 40
1.0
 40
1.0
 40
1.0
 10
6.4153346575
 20
4.0715095147
 30
0.0
 10
6.4155461178
 20
4.0711999684
 30
0.0
 10
6.4159553131
 20
4.0705051318
 30
0.0
 10
6.4164935741
 20
4.0693293332
 30
0.0
 10
6.4169855919
 20
4.0679501161
 30
0.0
 10
6.4174187168
 20
4.0663707029
 30
0.0
 10
6.4177786887
 20
4.0646031692
 30
0.0
 10
6.418050426
 20
4.0626729131
 30
0.0
 10
6.4182201666
 20
4.0606211345
 30
0.0
 10
6.4182585023
 20
4.0592164638
 30
0.0
 10
6.4182585023
 20
4.058503814
 30
0.0
  0
SPLINE
  5
494
100
AcDbEntity
  8
0
100
AcDbSpline
 62
7
  6
CONTINUOUS
 70
0
 71
3
 72
15
 73
11
 74
0
 42
0.0000001
 43
0.0000001
 44
0.0000000001
 40
0.0
 40
0.0
 40
0.0
 40
0.0
 40
0.1304726037
 40
0.2600641588
 40
0.3881108423
 40
0.5142269249
 40
0.6383155141
 40
0.7604819558
 40
0.8809549326
 40
1.0
 40
1.0
 40
1.0
 40
1.0
 10
6.4067100082
 20
4.058503814
 30
0.0
 10
6.4067100082
 20
4.059218541
 30
0.0
 10
6.4068261847
 20
4.0606458574
 30
0.0
 10
6.4073379561
 20
4.0627181811
 30
0.0
 10
6.4081554965
 20
4.0646638687
 30
0.0
 10
6.4092357593
 20
4.0664404594
 30
0.0
 10
6.4105323491
 20
4.0680232879
 30
0.0
 10
6.4120018045
 20
4.0694011181
 30
0.0
 10
6.4136059271
 20
4.0705716383
 30
0.0
 10
6.4147505061
 20
4.0712196235
 30
0.0
 10
6.4153346575
 20
4.0715095147
 30
0.0
  0
SPLINE
  5
495
100
AcDbEntity
  8
0
100
AcDbSpline
 62
7
  6
CONTINUOUS
 70
0
 71
3
 72
15
 73
11
 74
0
 42
0.0000001
 43
0.0000001
 44
0.0000000001
 40
0.0
 40
0.0
 40
0.0
 40
0.0
 40
0.0787746676
 40
0.1713727494
 40
0.2783273581
 40
0.3997059109
 40
0.5348599946
 40
0.6821252612
 40
0.838561678
 40
1.0
 40
1.0
 40
1.0
 40
1.0
 10
6.3938240407
 20
4.0715095147
 30
0.0
 10
6.3939712748
 20
4.0711945587
 30
0.0
 10
6.3942534796
 20
4.0704914588
 30
0.0
 10
6.3946201369
 20
4.0693181484
 30
0.0
 10
6.3949556715
 20
4.0679411714
 30
0.0
 10
6.3952512965
 20
4.0663637354
 30
0.0
 10
6.3954971079
 20
4.0645980173
 30
0.0
 10
6.3956827223
 20
4.0626695032
 30
0.0
 10
6.3957986843
 20
4.060619405
 30
0.0
 10
6.3958248689
 20
4.0592163202
 30
0.0
 10
6.3958248689
 20
4.058503814
 30
0.0
  0
SPLINE
  5
496
100
AcDbEntity
  8
0
100
AcDbSpline
 62
7
  6
CONTINUOUS
 70
0
 71
3
 72
17
 73
13
 74
0
 42
0.0000001
 43
0.0000001
 44
0.0000000001
 40
0.0
 40
0.0
 40
0.0
 40
0.0
 40
0.1284239911
 40
0.1925097696
 40
0.2563943108
 40
0.3832785408
 40
0.5089441828
 40
0.5713338935
 40
0.6334095003
 40
0.7566015967
 40
0.8787433919
 40
1.0
 40
1.0
 40
1.0
 40
1.0
 10
6.3848008531
 20
4.058503814
 30
0.0
 10
6.3848008531
 20
4.0592187626
 30
0.0
 10
6.3848925861
 20
4.06029332
 30
0.0
 10
6.3851921561
 20
4.0616900751
 30
0.0
 10
6.3856032672
 20
4.0630495558
 30
0.0
 10
6.3863158596
 20
4.0646691421
 30
0.0
 10
6.3872612559
 20
4.0661536031
 30
0.0
 10
6.3881306917
 20
4.0672425342
 30
0.0
 10
6.3890630424
 20
4.0682594823
 30
0.0
 10
6.3903416313
 20
4.0694046363
 30
0.0
 10
6.3920194677
 20
4.070574084
 30
0.0
 10
6.3932141303
 20
4.0712202089
 30
0.0
 10
6.3938240407
 20
4.0715095147
 30
0.0
  0
SPLINE
  5
497
100
AcDbEntity
  8
0
100
AcDbSpline
 62
7
  6
CONTINUOUS
 70
0
 71
3
 72
15
 73
11
 74
0
 42
0.0000001
 43
0.0000001
 44
0.0000000001
 40
0.0
 40
0.0
 40
0.0
 40
0.0
 40
0.0755599563
 40
0.1662072523
 40
0.2722718049
 40
0.3936640557
 40
0.5295941779
 40
0.6782476343
 40
0.8365083324
 40
1.0
 40
1.0
 40
1.0
 40
1.0
 10
6.3734142066
 20
4.0715095147
 30
0.0
 10
6.3734932553
 20
4.0711898922
 30
0.0
 10
6.3736433005
 20
4.0704809228
 30
0.0
 10
6.3738365383
 20
4.0693100829
 30
0.0
 10
6.3740135735
 20
4.0679350403
 30
0.0
 10
6.3741696869
 20
4.0663591086
 30
0.0
 10
6.3742995458
 20
4.0645946726
 30
0.0
 10
6.3743976283
 20
4.0626673201
 30
0.0
 10
6.3744589125
 20
4.0606183066
 30
0.0
 10
6.3744727491
 20
4.059216229
 30
0.0
 10
6.3744727491
 20
4.058503814
 30
0.0
  0
SPLINE
  5
498
100
AcDbEntity
  8
0
100
AcDbSpline
 62
7
  6
CONTINUOUS
 70
0
 71
3
 72
16
 73
12
 74
0
 42
0.0000001
 43
0.0000001
 44
0.0000000001
 40
0.0
 40
0.0
 40
0.0
 40
0.0
 40
0.1268670023
 40
0.1902573161
 40
0.2535366595
 40
0.3795591785
 40
0.5049157437
 40
0.6295790734
 40
0.753590315
 40
0.8770353249
 40
1.0
 40
1.0
 40
1.0
 40
1.0
 10
6.3640793789
 20
4.058503814
 30
0.0
 10
6.3640793789
 20
4.0592189427
 30
0.0
 10
6.3641744609
 20
4.0602944106
 30
0.0
 10
6.3644843899
 20
4.0616907954
 30
0.0
 10
6.3649102216
 20
4.0630516799
 30
0.0
 10
6.3656490501
 20
4.0646733522
 30
0.0
 10
6.3668200362
 20
4.066449439
 30
0.0
 10
6.368224309
 20
4.0680309864
 30
0.0
 10
6.3698147827
 20
4.0694070722
 30
0.0
 10
6.3715503796
 20
4.0705758996
 30
0.0
 10
6.3727841459
 20
4.0712206283
 30
0.0
 10
6.3734142066
 20
4.0715095147
 30
0.0
  0
LINE
  5
499
100
AcDbEntity
  8
0
100
AcDbLine
 62
7
  6
CONTINUOUS
 10
6.3543017132
 20
4.0715095147
 11
6.3544077755
 21
4.058503814
  0
SPLINE
  5
49A
100
AcDbEntity
  8
0
100
AcDbSpline
 62
7
  6
CONTINUOUS
 70
0
 71
3
 72
17
 73
13
 74
0
 42
0.0000001
 43
0.0000001
 44
0.0000000001
 40
0.0
 40
0.0
 40
0.0
 40
0.0
 40
0.0629358835
 40
0.125873251
 40
0.1887630263
 40
0.2516062764
 40
0.377004692
 40
0.502127974
 40
0.6269648601
 40
0.7515316478
 40
0.8758669011
 40
1.0
 40
1.0
 40
1.0
 40
1.0
 10
6.3447451449
 20
4.058503814
 30
0.0
 10
6.3447451449
 20
4.0588617989
 30
0.0
 10
6.344777485
 20
4.0595781934
 30
0.0
 10
6.3449218752
 20
4.0606434954
 30
0.0
 10
6.3451599175
 20
4.0616914233
 30
0.0
 10
6.3455962616
 20
4.0630531625
 30
0.0
 10
6.3463537539
 20
4.0646763091
 30
0.0
 10
6.3475530759
 20
4.0664521808
 30
0.0
 10
6.3489909202
 20
4.0680332669
 30
0.0
 10
6.3506191184
 20
4.0694087915
 30
0.0
 10
6.3523957122
 20
4.0705771025
 30
0.0
 10
6.3536573103
 20
4.0712209079
 30
0.0
 10
6.3543017132
 20
4.0715095147
 30
0.0
  0
SPLINE
  5
49B
100
AcDbEntity
  8
0
100
AcDbSpline
 62
7
  6
CONTINUOUS
 70
0
 71
3
 72
17
 73
13
 74
0
 42
0.0000001
 43
0.0000001
 44
0.0000000001
 40
0.0
 40
0.0
 40
0.0
 40
0.0
 40
0.0626095062
 40
0.1252341519
 40
0.1878378763
 40
0.2504328255
 40
0.3754796079
 40
0.5004787421
 40
0.6254271038
 40
0.7503254956
 40
0.8751843499
 40
1.0
 40
1.0
 40
1.0
 40
1.0
 10
6.3269843502
 20
4.058503814
 30
0.0
 10
6.3269843502
 20
4.0588618088
 30
0.0
 10
6.3270171377
 20
4.0595783124
 30
0.0
 10
6.3271635182
 20
4.0606437196
 30
0.0
 10
6.3274048374
 20
4.0616917358
 30
0.0
 10
6.3278473408
 20
4.0630540723
 30
0.0
 10
6.3286157732
 20
4.0646780284
 30
0.0
 10
6.3298316677
 20
4.0664537715
 30
0.0
 10
6.3312891383
 20
4.0680345732
 30
0.0
 10
6.3329393899
 20
4.0694097681
 30
0.0
 10
6.334739954
 20
4.0705777802
 30
0.0
 10
6.33601783
 20
4.0712210647
 30
0.0
 10
6.3366706241
 20
4.0715095147
 30
0.0
  0
SPLINE
  5
49C
100
AcDbEntity
  8
0
100
AcDbSpline
 62
7
  6
CONTINUOUS
 70
0
 71
3
 72
17
 73
13
 74
0
 42
0.0000001
 43
0.0000001
 44
0.0000000001
 40
0.0
 40
0.0
 40
0.0
 40
0.0
 40
0.0625181449
 40
0.1250552705
 40
0.1875789738
 40
0.2501045091
 40
0.3750531514
 40
0.5000178728
 40
0.6249976726
 40
0.7499888795
 40
0.8749939691
 40
1.0
 40
1.0
 40
1.0
 40
1.0
 10
6.310968041
 20
4.058503814
 30
0.0
 10
6.310968041
 20
4.0588618116
 30
0.0
 10
6.3110009542
 20
4.0595783462
 30
0.0
 10
6.3111478939
 20
4.060643783
 30
0.0
 10
6.3113901335
 20
4.0616918241
 30
0.0
 10
6.3118343678
 20
4.0630543289
 30
0.0
 10
6.3126058752
 20
4.0646785113
 30
0.0
 10
6.3138264229
 20
4.066454216
 30
0.0
 10
6.315289403
 20
4.0680349364
 30
0.0
 10
6.3169458456
 20
4.0694100384
 30
0.0
 10
6.3187531392
 20
4.0705779672
 30
0.0
 10
6.3200355858
 20
4.0712211078
 30
0.0
 10
6.3206907365
 20
4.0715095147
 30
0.0
  0
SPLINE
  5
49D
100
AcDbEntity
  8
0
100
AcDbSpline
 62
7
  6
CONTINUOUS
 70
0
 71
3
 72
17
 73
13
 74
0
 42
0.0000001
 43
0.0000001
 44
0.0000000001
 40
0.0
 40
0.0
 40
0.0
 40
0.0
 40
0.062661718
 40
0.125336384
 40
0.1879858497
 40
0.2506204861
 40
0.3757234115
 40
0.5007422787
 40
0.6256727195
 40
0.7505180666
 40
0.8752932838
 40
1.0
 40
1.0
 40
1.0
 40
1.0
 10
6.2968504632
 20
4.058503814
 30
0.0
 10
6.2968504632
 20
4.0588618072
 30
0.0
 10
6.2968831789
 20
4.0595782933
 30
0.0
 10
6.2970292404
 20
4.0606436835
 30
0.0
 10
6.2972700342
 20
4.0616916855
 30
0.0
 10
6.2977115497
 20
4.063053926
 30
0.0
 10
6.2984782273
 20
4.0646777528
 30
0.0
 10
6.2996914653
 20
4.0664535173
 30
0.0
 10
6.3011457904
 20
4.0680343651
 30
0.0
 10
6.3027925075
 20
4.069409613
 30
0.0
 10
6.3045892296
 20
4.0705776728
 30
0.0
 10
6.3058644964
 20
4.0712210399
 30
0.0
 10
6.3065159453
 20
4.0715095147
 30
0.0
  0
SPLINE
  5
49E
100
AcDbEntity
  8
0
100
AcDbSpline
 62
7
  6
CONTINUOUS
 70
0
 71
3
 72
16
 73
12
 74
0
 42
0.0000001
 43
0.0000001
 44
0.0000000001
 40
0.0
 40
0.0
 40
0.0
 40
0.0
 40
0.1259683294
 40
0.1889576124
 40
0.2518883273
 40
0.3774153578
 40
0.5025944589
 40
0.6274115798
 40
0.7518878175
 40
0.8760706468
 40
1.0
 40
1.0
 40
1.0
 40
1.0
 10
6.2847675767
 20
4.058503814
 30
0.0
 10
6.2847675767
 20
4.0592190498
 30
0.0
 10
6.2848646058
 20
4.0602950579
 30
0.0
 10
6.285180528
 20
4.0616912192
 30
0.0
 10
6.2856149066
 20
4.063052934
 30
0.0
 10
6.2863689128
 20
4.0646757402
 30
0.0
 10
6.2875629465
 20
4.0664516762
 30
0.0
 10
6.2889945272
 20
4.0680328445
 30
0.0
 10
6.2906156871
 20
4.0694084758
 30
0.0
 10
6.2923846315
 20
4.0705768822
 30
0.0
 10
6.2936410357
 20
4.0712208568
 30
0.0
 10
6.2942827615
 20
4.0715095147
 30
0.0
  0
SPLINE
  5
49F
100
AcDbEntity
  8
0
100
AcDbSpline
 62
7
  6
CONTINUOUS
 70
0
 71
3
 72
16
 73
12
 74
0
 42
0.0000001
 43
0.0000001
 44
0.0000000001
 40
0.0
 40
0.0
 40
0.0
 40
0.0
 40
0.1271751603
 40
0.1907031009
 40
0.2541022037
 40
0.3802953354
 40
0.505713609
 40
0.6303248189
 40
0.7541766296
 40
0.8773678304
 40
1.0
 40
1.0
 40
1.0
 40
1.0
 10
6.2748357463
 20
4.058503814
 30
0.0
 10
6.2748357463
 20
4.0592189066
 30
0.0
 10
6.274930165
 20
4.0602941921
 30
0.0
 10
6.2752380477
 20
4.0616906521
 30
0.0
 10
6.2756609649
 20
4.0630512547
 30
0.0
 10
6.276394619
 20
4.0646725375
 30
0.0
 10
6.2775577359
 20
4.0664486701
 30
0.0
 10
6.2789526817
 20
4.0680303432
 30
0.0
 10
6.2805326743
 20
4.0694065832
 30
0.0
 10
6.2822568823
 20
4.0705755554
 30
0.0
 10
6.2834829189
 20
4.0712205479
 30
0.0
 10
6.2841089975
 20
4.0715095147
 30
0.0
  0
SPLINE
  5
4A0
100
AcDbEntity
  8
0
100
AcDbSpline
 62
7
  6
CONTINUOUS
 70
0
 71
3
 72
17
 73
13
 74
0
 42
0.0000001
 43
0.0000001
 44
0.0000000001
 40
0.0
 40
0.0
 40
0.0
 40
0.0
 40
0.1288346583
 40
0.1931042393
 40
0.2571491331
 40
0.3842632527
 40
0.5100142265
 40
0.5723890735
 40
0.634412132
 40
0.757391937
 40
0.8791926694
 40
1.0
 40
1.0
 40
1.0
 40
1.0
 10
6.267150621
 20
4.058503814
 30
0.0
 10
6.267150621
 20
4.0592187166
 30
0.0
 10
6.2672414843
 20
4.0602930411
 30
0.0
 10
6.2675383568
 20
4.061689891
 30
0.0
 10
6.2679456377
 20
4.0630490063
 30
0.0
 10
6.2686514362
 20
4.0646680719
 30
0.0
 10
6.2695884388
 20
4.0661530044
 30
0.0
 10
6.2704502992
 20
4.0672422941
 30
0.0
 10
6.2713739797
 20
4.0682589739
 30
0.0
 10
6.2726406907
 20
4.0694039556
 30
0.0
 10
6.2743035012
 20
4.070573598
 30
0.0
 10
6.2754879693
 20
4.0712200943
 30
0.0
 10
6.276092632
 20
4.0715095147
 30
0.0
  0
SPLINE
  5
4A1
100
AcDbEntity
  8
0
100
AcDbSpline
 62
7
  6
CONTINUOUS
 70
0
 71
3
 72
15
 73
11
 74
0
 42
0.0000001
 43
0.0000001
 44
0.0000000001
 40
0.0
 40
0.0
 40
0.0
 40
0.0
 40
0.1309844383
 40
0.2610084251
 40
0.3893454835
 40
0.5155726711
 40
0.6395810162
 40
0.761482851
 40
0.8815256835
 40
1.0
 40
1.0
 40
1.0
 40
1.0
 10
6.2617862127
 20
4.058503814
 30
0.0
 10
6.2617862127
 20
4.059218487
 30
0.0
 10
6.261900962
 20
4.0606452213
 30
0.0
 10
6.2624065378
 20
4.0627170938
 30
0.0
 10
6.2632142899
 20
4.064662563
 30
0.0
 10
6.2642817742
 20
4.0664391664
 30
0.0
 10
6.2655631866
 20
4.0680221578
 30
0.0
 10
6.2670155769
 20
4.0694002219
 30
0.0
 10
6.2686011648
 20
4.0705709843
 30
0.0
 10
6.2697331773
 20
4.0712194672
 30
0.0
 10
6.2703108671
 20
4.0715095147
 30
0.0
  0
SPLINE
  5
4A2
100
AcDbEntity
  8
0
100
AcDbSpline
 62
7
  6
CONTINUOUS
 70
0
 71
3
 72
15
 73
11
 74
0
 42
0.0000001
 43
0.0000001
 44
0.0000000001
 40
0.0
 40
0.0
 40
0.0
 40
0.0
 40
0.1428362953
 40
0.2829871439
 40
0.418312752
 40
0.5474620159
 40
0.6699024737
 40
0.7857398139
 40
0.8955130422
 40
1.0
 40
1.0
 40
1.0
 40
1.0
 10
6.5143752115
 20
3.623503814
 30
0.0
 10
6.5143752115
 20
3.6227902008
 30
0.0
 10
6.5142922302
 20
3.6213749585
 30
0.0
 10
6.513925504
 20
3.6193128067
 30
0.0
 10
6.5133384729
 20
3.6173733843
 30
0.0
 10
6.5125609004
 20
3.6155985947
 30
0.0
 10
6.5116253525
 20
3.6140139975
 30
0.0
 10
6.5105627276
 20
3.612631969
 30
0.0
 10
6.5094006383
 20
3.6114560485
 30
0.0
 10
6.508555917
 20
3.6107930655
 30
0.0
 10
6.5081252115
 20
3.6104981134
 30
0.0
  0
SPLINE
  5
4A3
100
AcDbEntity
  8
0
100
AcDbSpline
 62
7
  6
CONTINUOUS
 70
0
 71
3
 72
14
 73
10
 74
0
 42
0.0000001
 43
0.0000001
 44
0.0000000001
 40
0.0
 40
0.0
 40
0.0
 40
0.0
 40
0.0995391693
 40
0.2058325999
 40
0.3197549505
 40
0.441861844
 40
0.5721791887
 40
0.7099778109
 40
1.0
 40
1.0
 40
1.0
 40
1.0
 10
6.5318917611
 20
3.6104981134
 30
0.0
 10
6.5315103433
 20
3.6107954808
 30
0.0
 10
6.5307628178
 20
3.611464841
 30
0.0
 10
6.5297431174
 20
3.6126419385
 30
0.0
 10
6.528811226
 20
3.6140243903
 30
0.0
 10
6.5279912028
 20
3.6156084313
 30
0.0
 10
6.5273098531
 20
3.6173821104
 30
0.0
 10
6.5266130797
 20
3.620006645
 30
0.0
 10
6.5264019333
 20
3.6220946591
 30
0.0
 10
6.5264019333
 20
3.623503814
 30
0.0
  0
SPLINE
  5
4A4
100
AcDbEntity
  8
0
100
AcDbSpline
 62
7
  6
CONTINUOUS
 70
0
 71
3
 72
15
 73
11
 74
0
 42
0.0000001
 43
0.0000001
 44
0.0000000001
 40
0.0
 40
0.0
 40
0.0
 40
0.0
 40
0.1391753111
 40
0.2761756229
 40
0.409289274
 40
0.5374635281
 40
0.6603252018
 40
0.7780183111
 40
0.891026026
 40
1.0
 40
1.0
 40
1.0
 40
1.0
 10
6.5388417424
 20
3.623503814
 30
0.0
 10
6.5388417424
 20
3.6227899093
 30
0.0
 10
6.5387491171
 20
3.6213714914
 30
0.0
 10
6.538340074
 20
3.6193064962
 30
0.0
 10
6.5376855447
 20
3.6173650447
 30
0.0
 10
6.5368189882
 20
3.6155892861
 30
0.0
 10
6.5357769575
 20
3.6140047117
 30
0.0
 10
6.5345940995
 20
3.6126235402
 30
0.0
 10
6.5333012748
 20
3.6114490504
 30
0.0
 10
6.5323677294
 20
3.6107912334
 30
0.0
 10
6.5318917611
 20
3.6104981134
 30
0.0
  0
SPLINE
  5
4A5
100
AcDbEntity
  8
0
100
AcDbSpline
 62
7
  6
CONTINUOUS
 70
0
 71
3
 72
14
 73
10
 74
0
 42
0.0000001
 43
0.0000001
 44
0.0000000001
 40
0.0
 40
0.0
 40
0.0
 40
0.0
 40
0.1963915513
 40
0.3083293339
 40
0.4301232789
 40
0.561673327
 40
0.7020215576
 40
0.8491442656
 40
1.0
 40
1.0
 40
1.0
 40
1.0
 10
6.5554294258
 20
3.6104981134
 30
0.0
 10
6.5547446085
 20
3.6111248404
 30
0.0
 10
6.5538112441
 20
3.6122695851
 30
0.0
 10
6.5527998515
 20
3.6140351443
 30
0.0
 10
6.5521026663
 20
3.6156186655
 30
0.0
 10
6.5515239398
 20
3.6173901411
 30
0.0
 10
6.5510870936
 20
3.6193249518
 30
0.0
 10
6.5508142992
 20
3.6213814378
 30
0.0
 10
6.5507526402
 20
3.6227907434
 30
0.0
 10
6.5507526402
 20
3.623503814
 30
0.0
  0
SPLINE
  5
4A6
100
AcDbEntity
  8
0
100
AcDbSpline
 62
7
  6
CONTINUOUS
 70
0
 71
3
 72
16
 73
12
 74
0
 42
0.0000001
 43
0.0000001
 44
0.0000000001
 40
0.0
 40
0.0
 40
0.0
 40
0.0
 40
0.1358499241
 40
0.203274372
 40
0.2700876507
 40
0.4012286322
 40
0.5285658195
 40
0.6518487443
 40
0.7712273882
 40
0.8871058782
 40
1.0
 40
1.0
 40
1.0
 40
1.0
 10
6.5630124562
 20
3.623503814
 30
0.0
 10
6.5630124562
 20
3.6227896191
 30
0.0
 10
6.5629359855
 20
3.6217189085
 30
0.0
 10
6.5626842705
 20
3.6203206228
 30
0.0
 10
6.5623406711
 20
3.6189673674
 30
0.0
 10
6.5617474598
 20
3.6173570796
 30
0.0
 10
6.5608002469
 20
3.6155808673
 30
0.0
 10
6.5596619104
 20
3.6139966601
 30
0.0
 10
6.5583705219
 20
3.6126165876
 30
0.0
 10
6.5569597872
 20
3.611443551
 30
0.0
 10
6.555946289
 20
3.6107898453
 30
0.0
 10
6.5554294258
 20
3.6104981134
 30
0.0
  0
SPLINE
  5
4A7
100
AcDbEntity
  8
0
100
AcDbSpline
 62
7
  6
CONTINUOUS
 70
0
 71
3
 72
15
 73
11
 74
0
 42
0.0000001
 43
0.0000001
 44
0.0000000001
 40
0.0
 40
0.0
 40
0.0
 40
0.0
 40
0.0886294085
 40
0.1875043117
 40
0.2974993574
 40
0.4190281433
 40
0.551822625
 40
0.6946773473
 40
0.8452273295
 40
1.0
 40
1.0
 40
1.0
 40
1.0
 10
6.578511525
 20
3.6104981134
 30
0.0
 10
6.5782397661
 20
3.6108027058
 30
0.0
 10
6.5777102915
 20
3.6114884246
 30
0.0
 10
6.5770044275
 20
3.6126657723
 30
0.0
 10
6.5763596022
 20
3.6140468466
 30
0.0
 10
6.5757922624
 20
3.6156282483
 30
0.0
 10
6.5753209174
 20
3.6173978435
 30
0.0
 10
6.5749651902
 20
3.6193302486
 30
0.0
 10
6.574743015
 20
3.6213842023
 30
0.0
 10
6.5746928217
 20
3.6227909736
 30
0.0
 10
6.5746928217
 20
3.623503814
 30
0.0
  0
SPLINE
  5
4A8
100
AcDbEntity
  8
0
100
AcDbSpline
 62
7
  6
CONTINUOUS
 70
0
 71
3
 72
17
 73
13
 74
0
 42
0.0000001
 43
0.0000001
 44
0.0000000001
 40
0.0
 40
0.0
 40
0.0
 40
0.0
 40
0.1329280192
 40
0.1990349222
 40
0.2646882743
 40
0.3941281418
 40
0.5207727546
 40
0.5830181604
 40
0.6445310869
 40
0.7653985542
 40
0.8837601464
 40
1.0
 40
1.0
 40
1.0
 40
1.0
 10
6.5866545759
 20
3.623503814
 30
0.0
 10
6.5866545759
 20
3.6227893415
 30
0.0
 10
6.5865722109
 20
3.621717207
 30
0.0
 10
6.5863018889
 20
3.6203194803
 30
0.0
 10
6.5859321425
 20
3.6189638684
 30
0.0
 10
6.5852928306
 20
3.6173499995
 30
0.0
 10
6.5844386759
 20
3.6158606221
 30
0.0
 10
6.5836516057
 20
3.6147677734
 30
0.0
 10
6.5828131278
 20
3.6137538956
 30
0.0
 10
6.5816633219
 20
3.61261088
 30
0.0
 10
6.5801486061
 20
3.6114392973
 30
0.0
 10
6.579064561
 20
3.6107887949
 30
0.0
 10
6.578511525
 20
3.6104981134
 30
0.0
  0
SPLINE
  5
4A9
100
AcDbEntity
  8
0
100
AcDbSpline
 62
7
  6
CONTINUOUS
 70
0
 71
3
 72
15
 73
11
 74
0
 42
0.0000001
 43
0.0000001
 44
0.0000000001
 40
0.0
 40
0.0
 40
0.0
 40
0.0
 40
0.0833361291
 40
0.1787864213
 40
0.2870904082
 40
0.40850144
 40
0.5425583156
 40
0.6878102535
 40
0.8415770299
 40
1.0
 40
1.0
 40
1.0
 40
1.0
 10
6.6009157656
 20
3.6104981134
 30
0.0
 10
6.6007043053
 20
3.6108076597
 30
0.0
 10
6.6002951099
 20
3.6115024963
 30
0.0
 10
6.599756849
 20
3.6126782949
 30
0.0
 10
6.5992648312
 20
3.6140575119
 30
0.0
 10
6.5988317063
 20
3.6156369251
 30
0.0
 10
6.5984717344
 20
3.6174044588
 30
0.0
 10
6.5981999971
 20
3.6193347149
 30
0.0
 10
6.5980302565
 20
3.6213864936
 30
0.0
 10
6.5979919207
 20
3.6227911643
 30
0.0
 10
6.5979919207
 20
3.623503814
 30
0.0
  0
SPLINE
  5
4AA
100
AcDbEntity
  8
0
100
AcDbSpline
 62
7
  6
CONTINUOUS
 70
0
 71
3
 72
15
 73
11
 74
0
 42
0.0000001
 43
0.0000001
 44
0.0000000001
 40
0.0
 40
0.0
 40
0.0
 40
0.0
 40
0.1304726186
 40
0.2600641703
 40
0.3881108466
 40
0.5142269265
 40
0.6383155156
 40
0.7604819568
 40
0.8809549328
 40
1.0
 40
1.0
 40
1.0
 40
1.0
 10
6.6095404149
 20
3.623503814
 30
0.0
 10
6.6095404149
 20
3.622789087
 30
0.0
 10
6.6094242384
 20
3.6213617705
 30
0.0
 10
6.6089124669
 20
3.6192894468
 30
0.0
 10
6.6080949265
 20
3.6173437593
 30
0.0
 10
6.6070146637
 20
3.6155671687
 30
0.0
 10
6.605718074
 20
3.6139843402
 30
0.0
 10
6.6042486186
 20
3.6126065099
 30
0.0
 10
6.602644496
 20
3.6114359897
 30
0.0
 10
6.6014999169
 20
3.6107880046
 30
0.0
 10
6.6009157656
 20
3.6104981134
 30
0.0
  0
SPLINE
  5
4AB
100
AcDbEntity
  8
0
100
AcDbSpline
 62
7
  6
CONTINUOUS
 70
0
 71
3
 72
15
 73
11
 74
0
 42
0.0000001
 43
0.0000001
 44
0.0000000001
 40
0.0
 40
0.0
 40
0.0
 40
0.0
 40
0.0787746658
 40
0.1713727469
 40
0.2783273522
 40
0.3997059008
 40
0.5348599751
 40
0.6821252527
 40
0.8385616782
 40
1.0
 40
1.0
 40
1.0
 40
1.0
 10
6.6224263824
 20
3.6104981134
 30
0.0
 10
6.6222791483
 20
3.6108130693
 30
0.0
 10
6.6219969435
 20
3.6115161692
 30
0.0
 10
6.6216302861
 20
3.6126894796
 30
0.0
 10
6.6212947516
 20
3.6140664566
 30
0.0
 10
6.6209991266
 20
3.6156438926
 30
0.0
 10
6.6207533152
 20
3.6174096107
 30
0.0
 10
6.6205677008
 20
3.6193381248
 30
0.0
 10
6.6204517388
 20
3.6213882231
 30
0.0
 10
6.6204255542
 20
3.6227913079
 30
0.0
 10
6.6204255542
 20
3.623503814
 30
0.0
  0
SPLINE
  5
4AC
100
AcDbEntity
  8
0
100
AcDbSpline
 62
7
  6
CONTINUOUS
 70
0
 71
3
 72
17
 73
13
 74
0
 42
0.0000001
 43
0.0000001
 44
0.0000000001
 40
0.0
 40
0.0
 40
0.0
 40
0.0
 40
0.1284240057
 40
0.192509787
 40
0.2563943222
 40
0.3832785451
 40
0.5089441844
 40
0.5713338948
 40
0.6334095018
 40
0.7566015977
 40
0.8787433921
 40
1.0
 40
1.0
 40
1.0
 40
1.0
 10
6.63144957
 20
3.623503814
 30
0.0
 10
6.63144957
 20
3.6227888655
 30
0.0
 10
6.631357837
 20
3.621714308
 30
0.0
 10
6.6310582669
 20
3.6203175528
 30
0.0
 10
6.6306471559
 20
3.6189580721
 30
0.0
 10
6.6299345634
 20
3.6173384859
 30
0.0
 10
6.6289891671
 20
3.6158540249
 30
0.0
 10
6.6281197313
 20
3.6147650938
 30
0.0
 10
6.6271873806
 20
3.6137481457
 30
0.0
 10
6.6259087918
 20
3.6126029917
 30
0.0
 10
6.6242309554
 20
3.6114335441
 30
0.0
 10
6.6230362927
 20
3.6107874192
 30
0.0
 10
6.6224263824
 20
3.6104981134
 30
0.0
  0
SPLINE
  5
4AD
100
AcDbEntity
  8
0
100
AcDbSpline
 62
7
  6
CONTINUOUS
 70
0
 71
3
 72
15
 73
11
 74
0
 42
0.0000001
 43
0.0000001
 44
0.0000000001
 40
0.0
 40
0.0
 40
0.0
 40
0.0
 40
0.0755599546
 40
0.1662072498
 40
0.272271799
 40
0.3936640456
 40
0.5295941582
 40
0.6782476258
 40
0.8365083327
 40
1.0
 40
1.0
 40
1.0
 40
1.0
 10
6.6428362164
 20
3.6104981134
 30
0.0
 10
6.6427571678
 20
3.6108177359
 30
0.0
 10
6.6426071226
 20
3.6115267053
 30
0.0
 10
6.6424138848
 20
3.6126975451
 30
0.0
 10
6.6422368495
 20
3.6140725877
 30
0.0
 10
6.6420807362
 20
3.6156485193
 30
0.0
 10
6.6419508773
 20
3.6174129553
 30
0.0
 10
6.6418527948
 20
3.6193403079
 30
0.0
 10
6.6417915106
 20
3.6213893214
 30
0.0
 10
6.641777674
 20
3.622791399
 30
0.0
 10
6.641777674
 20
3.623503814
 30
0.0
  0
SPLINE
  5
4AE
100
AcDbEntity
  8
0
100
AcDbSpline
 62
7
  6
CONTINUOUS
 70
0
 71
3
 72
16
 73
12
 74
0
 42
0.0000001
 43
0.0000001
 44
0.0000000001
 40
0.0
 40
0.0
 40
0.0
 40
0.0
 40
0.1268670168
 40
0.1902573334
 40
0.2535366707
 40
0.3795591828
 40
0.5049157453
 40
0.6295790749
 40
0.753590316
 40
0.8770353252
 40
1.0
 40
1.0
 40
1.0
 40
1.0
 10
6.6521710442
 20
3.623503814
 30
0.0
 10
6.6521710442
 20
3.6227886853
 30
0.0
 10
6.6520759621
 20
3.6217132174
 30
0.0
 10
6.6517660331
 20
3.6203168325
 30
0.0
 10
6.6513402014
 20
3.618955948
 30
0.0
 10
6.6506013729
 20
3.6173342758
 30
0.0
 10
6.6494303868
 20
3.6155581891
 30
0.0
 10
6.6480261141
 20
3.6139766417
 30
0.0
 10
6.6464356404
 20
3.6126005558
 30
0.0
 10
6.6447000434
 20
3.6114317284
 30
0.0
 10
6.6434662771
 20
3.6107869998
 30
0.0
 10
6.6428362164
 20
3.6104981134
 30
0.0
  0
LINE
  5
4AF
100
AcDbEntity
  8
0
100
AcDbLine
 62
7
  6
CONTINUOUS
 10
6.6619487099
 20
3.6104981134
 11
6.6618426475
 21
3.623503814
  0
SPLINE
  5
4B0
100
AcDbEntity
  8
0
100
AcDbSpline
 62
7
  6
CONTINUOUS
 70
0
 71
3
 72
17
 73
13
 74
0
 42
0.0000001
 43
0.0000001
 44
0.0000000001
 40
0.0
 40
0.0
 40
0.0
 40
0.0
 40
0.0629358879
 40
0.1258732653
 40
0.1887630434
 40
0.2516062875
 40
0.3770046962
 40
0.5021279755
 40
0.6269648616
 40
0.7515316488
 40
0.8758669013
 40
1.0
 40
1.0
 40
1.0
 40
1.0
 10
6.6715052782
 20
3.623503814
 30
0.0
 10
6.6715052782
 20
3.6231458292
 30
0.0
 10
6.6714729381
 20
3.6224294346
 30
0.0
 10
6.6713285479
 20
3.6213641325
 30
0.0
 10
6.6710905055
 20
3.6203162046
 30
0.0
 10
6.6706541614
 20
3.6189544655
 30
0.0
 10
6.6698966691
 20
3.6173313189
 30
0.0
 10
6.6686973472
 20
3.6155554472
 30
0.0
 10
6.6672595029
 20
3.6139743612
 30
0.0
 10
6.6656313047
 20
3.6125988365
 30
0.0
 10
6.6638547108
 20
3.6114305256
 30
0.0
 10
6.6625931127
 20
3.6107867202
 30
0.0
 10
6.6619487099
 20
3.6104981134
 30
0.0
  0
SPLINE
  5
4B1
100
AcDbEntity
  8
0
100
AcDbSpline
 62
7
  6
CONTINUOUS
 70
0
 71
3
 72
17
 73
13
 74
0
 42
0.0000001
 43
0.0000001
 44
0.0000000001
 40
0.0
 40
0.0
 40
0.0
 40
0.0
 40
0.0626095106
 40
0.1252341662
 40
0.1878378933
 40
0.2504328366
 40
0.3754796122
 40
0.5004787437
 40
0.6254271053
 40
0.7503254966
 40
0.8751843501
 40
1.0
 40
1.0
 40
1.0
 40
1.0
 10
6.6892660729
 20
3.623503814
 30
0.0
 10
6.6892660729
 20
3.6231458193
 30
0.0
 10
6.6892332854
 20
3.6224293155
 30
0.0
 10
6.6890869048
 20
3.6213639083
 30
0.0
 10
6.6888455856
 20
3.620315892
 30
0.0
 10
6.6884030822
 20
3.6189535556
 30
0.0
 10
6.6876346498
 20
3.6173295996
 30
0.0
 10
6.6864187554
 20
3.6155538565
 30
0.0
 10
6.6849612848
 20
3.6139730549
 30
0.0
 10
6.6833110331
 20
3.61259786
 30
0.0
 10
6.6815104691
 20
3.6114298479
 30
0.0
 10
6.680232593
 20
3.6107865634
 30
0.0
 10
6.6795797989
 20
3.6104981134
 30
0.0
  0
SPLINE
  5
4B2
100
AcDbEntity
  8
0
100
AcDbSpline
 62
7
  6
CONTINUOUS
 70
0
 71
3
 72
17
 73
13
 74
0
 42
0.0000001
 43
0.0000001
 44
0.0000000001
 40
0.0
 40
0.0
 40
0.0
 40
0.0
 40
0.0625181493
 40
0.1250552848
 40
0.1875789908
 40
0.2501045202
 40
0.3750531557
 40
0.5000178744
 40
0.6249976742
 40
0.7499888806
 40
0.8749939694
 40
1.0
 40
1.0
 40
1.0
 40
1.0
 10
6.705282382
 20
3.623503814
 30
0.0
 10
6.705282382
 20
3.6231458165
 30
0.0
 10
6.7052494689
 20
3.6224292818
 30
0.0
 10
6.7051025292
 20
3.6213638449
 30
0.0
 10
6.7048602895
 20
3.6203158037
 30
0.0
 10
6.7044160552
 20
3.618953299
 30
0.0
 10
6.7036445478
 20
3.6173291167
 30
0.0
 10
6.7024240002
 20
3.6155534121
 30
0.0
 10
6.70096102
 20
3.6139726916
 30
0.0
 10
6.6993045775
 20
3.6125975896
 30
0.0
 10
6.6974972839
 20
3.6114296609
 30
0.0
 10
6.6962148372
 20
3.6107865202
 30
0.0
 10
6.6955596866
 20
3.6104981134
 30
0.0
  0
SPLINE
  5
4B3
100
AcDbEntity
  8
0
100
AcDbSpline
 62
7
  6
CONTINUOUS
 70
0
 71
3
 72
17
 73
13
 74
0
 42
0.0000001
 43
0.0000001
 44
0.0000000001
 40
0.0
 40
0.0
 40
0.0
 40
0.0
 40
0.0626617224
 40
0.1253363982
 40
0.1879858667
 40
0.2506204972
 40
0.3757234158
 40
0.5007422803
 40
0.625672721
 40
0.7505180677
 40
0.875293284
 40
1.0
 40
1.0
 40
1.0
 40
1.0
 10
6.7193999598
 20
3.623503814
 30
0.0
 10
6.7193999598
 20
3.6231458209
 30
0.0
 10
6.7193672441
 20
3.6224293347
 30
0.0
 10
6.7192211827
 20
3.6213639444
 30
0.0
 10
6.7189803888
 20
3.6203159423
 30
0.0
 10
6.7185388733
 20
3.6189537019
 30
0.0
 10
6.7177721957
 20
3.6173298752
 30
0.0
 10
6.7165589577
 20
3.6155541107
 30
0.0
 10
6.7151046327
 20
3.613973263
 30
0.0
 10
6.7134579156
 20
3.6125980151
 30
0.0
 10
6.7116611934
 20
3.6114299553
 30
0.0
 10
6.7103859267
 20
3.6107865882
 30
0.0
 10
6.7097344778
 20
3.6104981134
 30
0.0
  0
SPLINE
  5
4B4
100
AcDbEntity
  8
0
100
AcDbSpline
 62
7
  6
CONTINUOUS
 70
0
 71
3
 72
16
 73
12
 74
0
 42
0.0000001
 43
0.0000001
 44
0.0000000001
 40
0.0
 40
0.0
 40
0.0
 40
0.0
 40
0.1259683437
 40
0.1889576296
 40
0.2518883385
 40
0.3774153621
 40
0.5025944605
 40
0.6274115813
 40
0.7518878185
 40
0.876070647
 40
1.0
 40
1.0
 40
1.0
 40
1.0
 10
6.7314828464
 20
3.623503814
 30
0.0
 10
6.7314828464
 20
3.6227885782
 30
0.0
 10
6.7313858173
 20
3.62171257
 30
0.0
 10
6.731069895
 20
3.6203164087
 30
0.0
 10
6.7306355164
 20
3.618954694
 30
0.0
 10
6.7298815102
 20
3.6173318878
 30
0.0
 10
6.7286874765
 20
3.6155559519
 30
0.0
 10
6.7272558958
 20
3.6139747836
 30
0.0
 10
6.725634736
 20
3.6125991522
 30
0.0
 10
6.7238657916
 20
3.6114307459
 30
0.0
 10
6.7226093874
 20
3.6107867713
 30
0.0
 10
6.7219676615
 20
3.6104981134
 30
0.0
  0
SPLINE
  5
4B5
100
AcDbEntity
  8
0
100
AcDbSpline
 62
7
  6
CONTINUOUS
 70
0
 71
3
 72
16
 73
12
 74
0
 42
0.0000001
 43
0.0000001
 44
0.0000000001
 40
0.0
 40
0.0
 40
0.0
 40
0.0
 40
0.1271751748
 40
0.1907031181
 40
0.254102215
 40
0.3802953397
 40
0.5057136106
 40
0.6303248204
 40
0.7541766306
 40
0.8773678307
 40
1.0
 40
1.0
 40
1.0
 40
1.0
 10
6.7414146767
 20
3.623503814
 30
0.0
 10
6.7414146767
 20
3.6227887214
 30
0.0
 10
6.7413202581
 20
3.6217134358
 30
0.0
 10
6.7410123753
 20
3.6203169758
 30
0.0
 10
6.7405894581
 20
3.6189563732
 30
0.0
 10
6.739855804
 20
3.6173350905
 30
0.0
 10
6.7386926872
 20
3.615558958
 30
0.0
 10
6.7372977414
 20
3.6139772849
 30
0.0
 10
6.7357177488
 20
3.6126010449
 30
0.0
 10
6.7339935408
 20
3.6114320727
 30
0.0
 10
6.7327675042
 20
3.6107870802
 30
0.0
 10
6.7321414256
 20
3.6104981134
 30
0.0
  0
SPLINE
  5
4B6
100
AcDbEntity
  8
0
100
AcDbSpline
 62
7
  6
CONTINUOUS
 70
0
 71
3
 72
17
 73
13
 74
0
 42
0.0000001
 43
0.0000001
 44
0.0000000001
 40
0.0
 40
0.0
 40
0.0
 40
0.0
 40
0.128834673
 40
0.1931042567
 40
0.2571491445
 40
0.384263257
 40
0.5100142281
 40
0.5723890748
 40
0.6344121335
 40
0.757391938
 40
0.8791926696
 40
1.0
 40
1.0
 40
1.0
 40
1.0
 10
6.7490998021
 20
3.623503814
 30
0.0
 10
6.7490998021
 20
3.6227889114
 30
0.0
 10
6.7490089387
 20
3.6217145868
 30
0.0
 10
6.7487120662
 20
3.6203177369
 30
0.0
 10
6.7483047853
 20
3.6189586216
 30
0.0
 10
6.7475989868
 20
3.6173395561
 30
0.0
 10
6.7466619843
 20
3.6158546237
 30
0.0
 10
6.7458001239
 20
3.614765334
 30
0.0
 10
6.7448764433
 20
3.6137486542
 30
0.0
 10
6.7436097323
 20
3.6126036725
 30
0.0
 10
6.7419469219
 20
3.6114340301
 30
0.0
 10
6.7407624538
 20
3.6107875338
 30
0.0
 10
6.740157791
 20
3.6104981134
 30
0.0
  0
SPLINE
  5
4B7
100
AcDbEntity
  8
0
100
AcDbSpline
 62
7
  6
CONTINUOUS
 70
0
 71
3
 72
15
 73
11
 74
0
 42
0.0000001
 43
0.0000001
 44
0.0000000001
 40
0.0
 40
0.0
 40
0.0
 40
0.0
 40
0.1309844532
 40
0.2610084366
 40
0.3893454878
 40
0.5155726727
 40
0.6395810177
 40
0.7614828519
 40
0.8815256838
 40
1.0
 40
1.0
 40
1.0
 40
1.0
 10
6.7544642103
 20
3.623503814
 30
0.0
 10
6.7544642103
 20
3.6227891411
 30
0.0
 10
6.7543494611
 20
3.6213624066
 30
0.0
 10
6.7538438852
 20
3.6192905341
 30
0.0
 10
6.7530361331
 20
3.617345065
 30
0.0
 10
6.7519686489
 20
3.6155684617
 30
0.0
 10
6.7506872365
 20
3.6139854703
 30
0.0
 10
6.7492348461
 20
3.6126074061
 30
0.0
 10
6.7476492583
 20
3.6114366438
 30
0.0
 10
6.7465172458
 20
3.6107881608
 30
0.0
 10
6.7459395559
 20
3.6104981134
 30
0.0
  0
SPLINE
  5
4B8
100
AcDbEntity
  8
0
100
AcDbSpline
 62
7
  6
CONTINUOUS
 70
0
 71
3
 72
17
 73
13
 74
0
 42
0.0000001
 43
0.0000001
 44
0.0000000001
 40
0.0
 40
0.0
 40
0.0
 40
0.0
 40
0.1335385946
 40
0.1999203555
 40
0.2658151771
 40
0.3956072468
 40
0.5223919198
 40
0.5846210147
 40
0.6460600834
 40
0.7666132683
 40
0.8844557386
 40
1.0
 40
1.0
 40
1.0
 40
1.0
 10
6.7574562394
 20
3.623503814
 30
0.0
 10
6.7574562394
 20
3.6227894016
 30
0.0
 10
6.7573751187
 20
3.6217175742
 30
0.0
 10
6.757108713
 20
3.6203197266
 30
0.0
 10
6.7567444785
 20
3.618964616
 30
0.0
 10
6.7561149134
 20
3.617351521
 30
0.0
 10
6.7552730132
 20
3.6158615204
 30
0.0
 10
6.7544970118
 20
3.6147681442
 30
0.0
 10
6.7536710788
 20
3.6137547046
 30
0.0
 10
6.7525385136
 20
3.612612024
 30
0.0
 10
6.7510456765
 20
3.6114401544
 30
0.0
 10
6.749976462
 20
3.6107890035
 30
0.0
 10
6.7494310387
 20
3.6104981134
 30
0.0
  0
SPLINE
  5
4B9
100
AcDbEntity
  8
0
100
AcDbSpline
 62
7
  6
CONTINUOUS
 70
0
 71
3
 72
15
 73
11
 74
0
 42
0.0000001
 43
0.0000001
 44
0.0000000001
 40
0.0
 40
0.0
 40
0.0
 40
0.0
 40
0.1309922662
 40
0.261024816
 40
0.3893645627
 40
0.5155904783
 40
0.6395957204
 40
0.7614852428
 40
0.881542318
 40
1.0
 40
1.0
 40
1.0
 40
1.0
 10
6.2519754115
 20
4.058003814
 30
0.0
 10
6.2519754115
 20
4.0587184448
 30
0.0
 10
6.2520902286
 20
4.0601451027
 30
0.0
 10
6.2525960884
 20
4.0622167638
 30
0.0
 10
6.253404197
 20
4.0641618752
 30
0.0
 10
6.2544719037
 20
4.0659380449
 30
0.0
 10
6.2557533579
 20
4.0675205598
 30
0.0
 10
6.2572055567
 20
4.0688984579
 30
0.0
 10
6.258790852
 20
4.0700690797
 30
0.0
 10
6.259922588
 20
4.0707176906
 30
0.0
 10
6.2605000659
 20
4.0710077868
 30
0.0
  0
LINE
  5
4BA
100
AcDbEntity
  8
0
100
AcDbLine
 62
7
  6
CONTINUOUS
 10
6.5746928217
 20
4.058503814
 11
6.5746777975
 21
4.035003814
  0
LINE
  5
4BB
100
AcDbEntity
  8
0
100
AcDbLine
 62
7
  6
CONTINUOUS
 10
6.5746777975
 20
3.732003814
 11
6.5746928217
 21
3.623503814
  0
SPLINE
  5
4BC
100
AcDbEntity
  8
0
100
AcDbSpline
 62
7
  6
CONTINUOUS
 70
0
 71
3
 72
15
 73
11
 74
0
 42
0.0000001
 43
0.0000001
 44
0.0000000001
 40
0.0
 40
0.0
 40
0.0
 40
0.0
 40
0.118474309
 40
0.2385171365
 40
0.3604189622
 40
0.4844272952
 40
0.6106544484
 40
0.7389915243
 40
0.8690155297
 40
1.0
 40
1.0
 40
1.0
 40
1.0
 10
6.2703108671
 20
3.6104981134
 30
0.0
 10
6.2697331773
 20
3.6107881608
 30
0.0
 10
6.2686011648
 20
3.6114366438
 30
0.0
 10
6.2670155771
 20
3.612607406
 30
0.0
 10
6.2655631868
 20
3.61398547
 30
0.0
 10
6.2642817746
 20
3.6155684612
 30
0.0
 10
6.2632142903
 20
3.6173450643
 30
0.0
 10
6.262406538
 20
3.6192905335
 30
0.0
 10
6.261900962
 20
3.6213624063
 30
0.0
 10
6.2617862127
 20
3.622789141
 30
0.0
 10
6.2617862127
 20
3.623503814
 30
0.0
  0
SPLINE
  5
4BD
100
AcDbEntity
  8
0
100
AcDbSpline
 62
7
  6
CONTINUOUS
 70
0
 71
3
 72
17
 73
13
 74
0
 42
0.0000001
 43
0.0000001
 44
0.0000000001
 40
0.0
 40
0.0
 40
0.0
 40
0.0
 40
0.1335467941
 40
0.1999385005
 40
0.2658317981
 40
0.3956257806
 40
0.5224081642
 40
0.5846348458
 40
0.646072414
 40
0.7666135707
 40
0.8844706524
 40
1.0
 40
1.0
 40
1.0
 40
1.0
 10
6.2488393447
 20
4.058003814
 30
0.0
 10
6.2488393447
 20
4.058718184
 30
0.0
 10
6.2489204783
 20
4.0597899895
 30
0.0
 10
6.2491871398
 20
4.0611877036
 30
0.0
 10
6.2495514742
 20
4.0625426688
 30
0.0
 10
6.2501813457
 20
4.064155418
 30
0.0
 10
6.2510234183
 20
4.0656450575
 30
0.0
 10
6.2517994785
 20
4.0667381528
 30
0.0
 10
6.2526253919
 20
4.0677512913
 30
0.0
 10
6.2537578073
 20
4.0688938439
 30
0.0
 10
6.2552503741
 20
4.0700655724
 30
0.0
 10
6.2563193231
 20
4.0707168483
 30
0.0
 10
6.2568645455
 20
4.0710077868
 30
0.0
  0
SPLINE
  5
4BE
100
AcDbEntity
  8
0
100
AcDbSpline
 62
7
  6
CONTINUOUS
 70
0
 71
3
 72
17
 73
13
 74
0
 42
0.0000001
 43
0.0000001
 44
0.0000000001
 40
0.0
 40
0.0
 40
0.0
 40
0.0
 40
0.120807323
 40
0.2426080503
 40
0.3655878463
 40
0.4276109022
 40
0.4899857397
 40
0.6157366795
 40
0.7428508168
 40
0.8068957085
 40
0.8711653102
 40
1.0
 40
1.0
 40
1.0
 40
1.0
 10
6.276092632
 20
3.6104981134
 30
0.0
 10
6.2754879693
 20
3.6107875337
 30
0.0
 10
6.2743035013
 20
3.61143403
 30
0.0
 10
6.2726406909
 20
3.6126036724
 30
0.0
 10
6.2713739799
 20
3.6137486539
 30
0.0
 10
6.2704502995
 20
3.6147653337
 30
0.0
 10
6.2695884392
 20
3.6158546231
 30
0.0
 10
6.2686514367
 20
3.6173395555
 30
0.0
 10
6.267945638
 20
3.6189586209
 30
0.0
 10
6.267538357
 20
3.6203177364
 30
0.0
 10
6.2672414844
 20
3.6217145865
 30
0.0
 10
6.267150621
 20
3.6227889113
 30
0.0
 10
6.267150621
 20
3.623503814
 30
0.0
  0
SPLINE
  5
4BF
100
AcDbEntity
  8
0
100
AcDbSpline
 62
7
  6
CONTINUOUS
 70
0
 71
3
 72
16
 73
12
 74
0
 42
0.0000001
 43
0.0000001
 44
0.0000000001
 40
0.0
 40
0.0
 40
0.0
 40
0.0
 40
0.1226321619
 40
0.2458233576
 40
0.3696751593
 40
0.4942863572
 40
0.6197045971
 40
0.7458977468
 40
0.8092968475
 40
0.8728248086
 40
1.0
 40
1.0
 40
1.0
 40
1.0
 10
6.2841089975
 20
3.6104981134
 30
0.0
 10
6.2834829189
 20
3.6107870802
 30
0.0
 10
6.2822568824
 20
3.6114320726
 30
0.0
 10
6.2805326745
 20
3.6126010447
 30
0.0
 10
6.278952682
 20
3.6139772846
 30
0.0
 10
6.2775577363
 20
3.6155589575
 30
0.0
 10
6.2763946195
 20
3.6173350898
 30
0.0
 10
6.2756609652
 20
3.6189563725
 30
0.0
 10
6.2752380479
 20
3.6203169753
 30
0.0
 10
6.274930165
 20
3.6217134355
 30
0.0
 10
6.2748357463
 20
3.6227887213
 30
0.0
 10
6.2748357463
 20
3.623503814
 30
0.0
  0
SPLINE
  5
4C0
100
AcDbEntity
  8
0
100
AcDbSpline
 62
7
  6
CONTINUOUS
 70
0
 71
3
 72
16
 73
12
 74
0
 42
0.0000001
 43
0.0000001
 44
0.0000000001
 40
0.0
 40
0.0
 40
0.0
 40
0.0
 40
0.1239293455
 40
0.2481121696
 40
0.3725883983
 40
0.4974055073
 40
0.6225845749
 40
0.7481116235
 40
0.8110423363
 40
0.8740316398
 40
1.0
 40
1.0
 40
1.0
 40
1.0
 10
6.2942827615
 20
3.6104981134
 30
0.0
 10
6.2936410357
 20
3.6107867712
 30
0.0
 10
6.2923846316
 20
3.6114307458
 30
0.0
 10
6.2906156873
 20
3.6125991521
 30
0.0
 10
6.2889945275
 20
3.6139747833
 30
0.0
 10
6.287562947
 20
3.6155559513
 30
0.0
 10
6.2863689133
 20
3.6173318872
 30
0.0
 10
6.2856149069
 20
3.6189546932
 30
0.0
 10
6.2851805281
 20
3.6203164082
 30
0.0
 10
6.2848646059
 20
3.6217125697
 30
0.0
 10
6.2847675767
 20
3.6227885781
 30
0.0
 10
6.2847675767
 20
3.623503814
 30
0.0
  0
SPLINE
  5
4C1
100
AcDbEntity
  8
0
100
AcDbSpline
 62
7
  6
CONTINUOUS
 70
0
 71
3
 72
17
 73
13
 74
0
 42
0.0000001
 43
0.0000001
 44
0.0000000001
 40
0.0
 40
0.0
 40
0.0
 40
0.0
 40
0.1247067084
 40
0.2494819204
 40
0.3743272586
 40
0.4992576875
 40
0.6242765213
 40
0.7493794649
 40
0.8120140993
 40
0.8746635853
 40
0.9373382758
 40
1.0
 40
1.0
 40
1.0
 40
1.0
 10
6.3065159453
 20
3.6104981134
 30
0.0
 10
6.3058644964
 20
3.6107865882
 30
0.0
 10
6.3045892298
 20
3.6114299552
 30
0.0
 10
6.3027925077
 20
3.612598015
 30
0.0
 10
6.3011457907
 20
3.6139732627
 30
0.0
 10
6.2996914658
 20
3.6155541102
 30
0.0
 10
6.2984782278
 20
3.6173298746
 30
0.0
 10
6.29771155
 20
3.6189537012
 30
0.0
 10
6.2972700344
 20
3.6203159419
 30
0.0
 10
6.2970292405
 20
3.6213639441
 30
0.0
 10
6.296883179
 20
3.6224293346
 30
0.0
 10
6.2968504632
 20
3.6231458209
 30
0.0
 10
6.2968504632
 20
3.623503814
 30
0.0
  0
SPLINE
  5
4C2
100
AcDbEntity
  8
0
100
AcDbSpline
 62
7
  6
CONTINUOUS
 70
0
 71
3
 72
17
 73
13
 74
0
 42
0.0000001
 43
0.0000001
 44
0.0000000001
 40
0.0
 40
0.0
 40
0.0
 40
0.0
 40
0.1250060231
 40
0.2500111074
 40
0.3750023054
 40
0.4999820934
 40
0.6249467814
 40
0.749895442
 40
0.8124209753
 40
0.8749446988
 40
0.9374818489
 40
1.0
 40
1.0
 40
1.0
 40
1.0
 10
6.3206907365
 20
3.6104981134
 30
0.0
 10
6.3200355859
 20
3.6107865202
 30
0.0
 10
6.3187531393
 20
3.6114296609
 30
0.0
 10
6.3169458458
 20
3.6125975895
 30
0.0
 10
6.3152894033
 20
3.6139726914
 30
0.0
 10
6.3138264233
 20
3.6155534116
 30
0.0
 10
6.3126058757
 20
3.6173291161
 30
0.0
 10
6.3118343682
 20
3.6189532983
 30
0.0
 10
6.3113901337
 20
3.6203158032
 30
0.0
 10
6.311147894
 20
3.6213638446
 30
0.0
 10
6.3110009542
 20
3.6224292817
 30
0.0
 10
6.310968041
 20
3.6231458165
 30
0.0
 10
6.310968041
 20
3.623503814
 30
0.0
  0
SPLINE
  5
4C3
100
AcDbEntity
  8
0
100
AcDbSpline
 62
7
  6
CONTINUOUS
 70
0
 71
3
 72
17
 73
13
 74
0
 42
0.0000001
 43
0.0000001
 44
0.0000000001
 40
0.0
 40
0.0
 40
0.0
 40
0.0
 40
0.1248156423
 40
0.2496744915
 40
0.3745728743
 40
0.4995212241
 40
0.6245203249
 40
0.7495671255
 40
0.8121620727
 40
0.8747658174
 40
0.9373904876
 40
1.0
 40
1.0
 40
1.0
 40
1.0
 10
6.3366706241
 20
3.6104981134
 30
0.0
 10
6.3360178301
 20
3.6107865634
 30
0.0
 10
6.3347399541
 20
3.6114298478
 30
0.0
 10
6.3329393901
 20
3.6125978599
 30
0.0
 10
6.3312891386
 20
3.6139730546
 30
0.0
 10
6.3298316681
 20
3.615553856
 30
0.0
 10
6.3286157737
 20
3.6173295989
 30
0.0
 10
6.3278473411
 20
3.6189535549
 30
0.0
 10
6.3274048376
 20
3.6203158915
 30
0.0
 10
6.3271635183
 20
3.621363908
 30
0.0
 10
6.3270171377
 20
3.6224293154
 30
0.0
 10
6.3269843502
 20
3.6231458193
 30
0.0
 10
6.3269843502
 20
3.623503814
 30
0.0
  0
SPLINE
  5
4C4
100
AcDbEntity
  8
0
100
AcDbSpline
 62
7
  6
CONTINUOUS
 70
0
 71
3
 72
17
 73
13
 74
0
 42
0.0000001
 43
0.0000001
 44
0.0000000001
 40
0.0
 40
0.0
 40
0.0
 40
0.0
 40
0.1241330912
 40
0.2484683392
 40
0.373035118
 40
0.4978719922
 40
0.6229952408
 40
0.7483936745
 40
0.8112369225
 40
0.8741267182
 40
0.9370641103
 40
1.0
 40
1.0
 40
1.0
 40
1.0
 10
6.3543017132
 20
3.6104981134
 30
0.0
 10
6.3536573104
 20
3.6107867202
 30
0.0
 10
6.3523957123
 20
3.6114305255
 30
0.0
 10
6.3506191186
 20
3.6125988364
 30
0.0
 10
6.3489909204
 20
3.6139743609
 30
0.0
 10
6.3475530763
 20
3.6155554467
 30
0.0
 10
6.3463537544
 20
3.6173313183
 30
0.0
 10
6.3455962619
 20
3.6189544647
 30
0.0
 10
6.3451599177
 20
3.6203162041
 30
0.0
 10
6.3449218753
 20
3.6213641322
 30
0.0
 10
6.344777485
 20
3.6224294345
 30
0.0
 10
6.3447451449
 20
3.6231458292
 30
0.0
 10
6.3447451449
 20
3.623503814
 30
0.0
  0
LINE
  5
4C5
100
AcDbEntity
  8
0
100
AcDbLine
 62
7
  6
CONTINUOUS
 10
6.3544077755
 20
3.623503814
 11
6.3543017132
 21
3.6104981134
  0
SPLINE
  5
4C6
100
AcDbEntity
  8
0
100
AcDbSpline
 62
7
  6
CONTINUOUS
 70
0
 71
3
 72
16
 73
12
 74
0
 42
0.0000001
 43
0.0000001
 44
0.0000000001
 40
0.0
 40
0.0
 40
0.0
 40
0.0
 40
0.1229646673
 40
0.2464096722
 40
0.3704209048
 40
0.4950842225
 40
0.6204407541
 40
0.7464632911
 40
0.8097426323
 40
0.8731329666
 40
1.0
 40
1.0
 40
1.0
 40
1.0
 10
6.3734142066
 20
3.6104981134
 30
0.0
 10
6.372784146
 20
3.6107869998
 30
0.0
 10
6.3715503797
 20
3.6114317284
 30
0.0
 10
6.3698147829
 20
3.6126005557
 30
0.0
 10
6.3682243093
 20
3.6139766414
 30
0.0
 10
6.3668200367
 20
3.6155581886
 30
0.0
 10
6.3656490506
 20
3.6173342752
 30
0.0
 10
6.3649102219
 20
3.6189559473
 30
0.0
 10
6.3644843901
 20
3.620316832
 30
0.0
 10
6.364174461
 20
3.6217132171
 30
0.0
 10
6.3640793789
 20
3.6227886852
 30
0.0
 10
6.3640793789
 20
3.623503814
 30
0.0
  0
SPLINE
  5
4C7
100
AcDbEntity
  8
0
100
AcDbSpline
 62
7
  6
CONTINUOUS
 70
0
 71
3
 72
15
 73
11
 74
0
 42
0.0000001
 43
0.0000001
 44
0.0000000001
 40
0.0
 40
0.0
 40
0.0
 40
0.0
 40
0.1634916463
 40
0.3217523276
 40
0.4704057709
 40
0.6063359212
 40
0.727728182
 40
0.8337927411
 40
0.9244400402
 40
1.0
 40
1.0
 40
1.0
 40
1.0
 10
6.3744727491
 20
3.623503814
 30
0.0
 10
6.3744727491
 20
3.6227913991
 30
0.0
 10
6.3744589125
 20
3.6213893217
 30
0.0
 10
6.3743976283
 20
3.6193403085
 30
0.0
 10
6.3742995458
 20
3.617412956
 30
0.0
 10
6.3741696869
 20
3.6156485199
 30
0.0
 10
6.3740135736
 20
3.6140725879
 30
0.0
 10
6.3738365383
 20
3.6126975452
 30
0.0
 10
6.3736433005
 20
3.6115267053
 30
0.0
 10
6.3734932553
 20
3.6108177359
 30
0.0
 10
6.3734142066
 20
3.6104981134
 30
0.0
  0
SPLINE
  5
4C8
100
AcDbEntity
  8
0
100
AcDbSpline
 62
7
  6
CONTINUOUS
 70
0
 71
3
 72
17
 73
13
 74
0
 42
0.0000001
 43
0.0000001
 44
0.0000000001
 40
0.0
 40
0.0
 40
0.0
 40
0.0
 40
0.1212566005
 40
0.2433983906
 40
0.366590478
 40
0.4286660822
 40
0.4910557834
 40
0.6167213915
 40
0.7436056393
 40
0.8074901783
 40
0.8715759775
 40
1.0
 40
1.0
 40
1.0
 40
1.0
 10
6.3938240407
 20
3.6104981134
 30
0.0
 10
6.3932141304
 20
3.6107874191
 30
0.0
 10
6.3920194678
 20
3.611433544
 30
0.0
 10
6.3903416315
 20
3.6126029916
 30
0.0
 10
6.3890630426
 20
3.6137481455
 30
0.0
 10
6.388130692
 20
3.6147650935
 30
0.0
 10
6.3872612563
 20
3.6158540244
 30
0.0
 10
6.3863158601
 20
3.6173384852
 30
0.0
 10
6.3856032675
 20
3.6189580714
 30
0.0
 10
6.3851921563
 20
3.6203175523
 30
0.0
 10
6.3848925862
 20
3.6217143077
 30
0.0
 10
6.3848008531
 20
3.6227888654
 30
0.0
 10
6.3848008531
 20
3.623503814
 30
0.0
  0
SPLINE
  5
4C9
100
AcDbEntity
  8
0
100
AcDbSpline
 62
7
  6
CONTINUOUS
 70
0
 71
3
 72
15
 73
11
 74
0
 42
0.0000001
 43
0.0000001
 44
0.0000000001
 40
0.0
 40
0.0
 40
0.0
 40
0.0
 40
0.161438301
 40
0.3178747011
 40
0.4651399545
 40
0.6002940661
 40
0.7216726288
 40
0.8286272438
 40
0.9212253288
 40
1.0
 40
1.0
 40
1.0
 40
1.0
 10
6.3958248689
 20
3.623503814
 30
0.0
 10
6.3958248689
 20
3.622791308
 30
0.0
 10
6.3957986843
 20
3.6213882234
 30
0.0
 10
6.3956827223
 20
3.6193381254
 30
0.0
 10
6.395497108
 20
3.6174096113
 30
0.0
 10
6.3952512965
 20
3.6156438931
 30
0.0
 10
6.3949556715
 20
3.6140664569
 30
0.0
 10
6.394620137
 20
3.6126894798
 30
0.0
 10
6.3942534796
 20
3.6115161693
 30
0.0
 10
6.3939712748
 20
3.6108130694
 30
0.0
 10
6.3938240407
 20
3.6104981134
 30
0.0
  0
SPLINE
  5
4CA
100
AcDbEntity
  8
0
100
AcDbSpline
 62
7
  6
CONTINUOUS
 70
0
 71
3
 72
15
 73
11
 74
0
 42
0.0000001
 43
0.0000001
 44
0.0000000001
 40
0.0
 40
0.0
 40
0.0
 40
0.0
 40
0.1190450599
 40
0.2395180317
 40
0.3616844643
 40
0.4857730413
 40
0.6118890896
 40
0.7399357908
 40
0.8695273644
 40
1.0
 40
1.0
 40
1.0
 40
1.0
 10
6.4153346575
 20
3.6104981134
 30
0.0
 10
6.4147505062
 20
3.6107880046
 30
0.0
 10
6.4136059271
 20
3.6114359897
 30
0.0
 10
6.4120018047
 20
3.6126065098
 30
0.0
 10
6.4105323493
 20
3.6139843399
 30
0.0
 10
6.4092357597
 20
3.6155671682
 30
0.0
 10
6.4081554969
 20
3.6173437587
 30
0.0
 10
6.4073379563
 20
3.6192894462
 30
0.0
 10
6.4068261847
 20
3.6213617702
 30
0.0
 10
6.4067100082
 20
3.6227890869
 30
0.0
 10
6.4067100082
 20
3.623503814
 30
0.0
  0
SPLINE
  5
4CB
100
AcDbEntity
  8
0
100
AcDbSpline
 62
7
  6
CONTINUOUS
 70
0
 71
3
 72
15
 73
11
 74
0
 42
0.0000001
 43
0.0000001
 44
0.0000000001
 40
0.0
 40
0.0
 40
0.0
 40
0.0
 40
0.1584229497
 40
0.3121897011
 40
0.4574416148
 40
0.5914985271
 40
0.7129095727
 40
0.8212135692
 40
0.9166638653
 40
1.0
 40
1.0
 40
1.0
 40
1.0
 10
6.4182585023
 20
3.623503814
 30
0.0
 10
6.4182585023
 20
3.6227911644
 30
0.0
 10
6.4182201666
 20
3.6213864939
 30
0.0
 10
6.418050426
 20
3.6193347155
 30
0.0
 10
6.4177786888
 20
3.6174044594
 30
0.0
 10
6.4174187169
 20
3.6156369256
 30
0.0
 10
6.4169855919
 20
3.6140575121
 30
0.0
 10
6.4164935741
 20
3.612678295
 30
0.0
 10
6.4159553132
 20
3.6115024963
 30
0.0
 10
6.4155461178
 20
3.6108076597
 30
0.0
 10
6.4153346575
 20
3.6104981134
 30
0.0
  0
SPLINE
  5
4CC
100
AcDbEntity
  8
0
100
AcDbSpline
 62
7
  6
CONTINUOUS
 70
0
 71
3
 72
17
 73
13
 74
0
 42
0.0000001
 43
0.0000001
 44
0.0000000001
 40
0.0
 40
0.0
 40
0.0
 40
0.0
 40
0.1162398465
 40
0.2346014344
 40
0.3554688931
 40
0.4169818168
 40
0.4792272132
 40
0.605871794
 40
0.7353116861
 40
0.800965042
 40
0.8670719635
 40
1.0
 40
1.0
 40
1.0
 40
1.0
 10
6.437738898
 20
3.6104981134
 30
0.0
 10
6.4371858621
 20
3.6107887948
 30
0.0
 10
6.4361018171
 20
3.6114392973
 30
0.0
 10
6.4345871013
 20
3.6126108799
 30
0.0
 10
6.4334372954
 20
3.6137538954
 30
0.0
 10
6.4325988177
 20
3.6147677731
 30
0.0
 10
6.4318117476
 20
3.6158606215
 30
0.0
 10
6.4309575928
 20
3.6173499988
 30
0.0
 10
6.4303182808
 20
3.6189638677
 30
0.0
 10
6.4299485342
 20
3.6203194798
 30
0.0
 10
6.4296782122
 20
3.6217172067
 30
0.0
 10
6.4295958472
 20
3.6227893414
 30
0.0
 10
6.4295958472
 20
3.623503814
 30
0.0
  0
SPLINE
  5
4CD
100
AcDbEntity
  8
0
100
AcDbSpline
 62
7
  6
CONTINUOUS
 70
0
 71
3
 72
15
 73
11
 74
0
 42
0.0000001
 43
0.0000001
 44
0.0000000001
 40
0.0
 40
0.0
 40
0.0
 40
0.0
 40
0.1547726505
 40
0.3053226081
 40
0.4481773063
 40
0.580971824
 40
0.7025006234
 40
0.8124956785
 40
0.9113705857
 40
1.0
 40
1.0
 40
1.0
 40
1.0
 10
6.4415576014
 20
3.623503814
 30
0.0
 10
6.4415576014
 20
3.6227909737
 30
0.0
 10
6.4415074081
 20
3.6213842026
 30
0.0
 10
6.441285233
 20
3.6193302492
 30
0.0
 10
6.4409295059
 20
3.6173978441
 30
0.0
 10
6.4404581609
 20
3.6156282488
 30
0.0
 10
6.439890821
 20
3.6140468469
 30
0.0
 10
6.4392459957
 20
3.6126657724
 30
0.0
 10
6.4385401316
 20
3.6114884247
 30
0.0
 10
6.438010657
 20
3.6108027058
 30
0.0
 10
6.437738898
 20
3.6104981134
 30
0.0
  0
SPLINE
  5
4CE
100
AcDbEntity
  8
0
100
AcDbSpline
 62
7
  6
CONTINUOUS
 70
0
 71
3
 72
16
 73
12
 74
0
 42
0.0000001
 43
0.0000001
 44
0.0000000001
 40
0.0
 40
0.0
 40
0.0
 40
0.0
 40
0.1128941149
 40
0.2287726006
 40
0.3481512358
 40
0.4714341483
 40
0.5987713031
 40
0.7299123091
 40
0.7967255916
 40
0.8641500582
 40
1.0
 40
1.0
 40
1.0
 40
1.0
 10
6.4608209973
 20
3.6104981134
 30
0.0
 10
6.4603041341
 20
3.6107898453
 30
0.0
 10
6.459290636
 20
3.6114435509
 30
0.0
 10
6.4578799014
 20
3.6126165875
 30
0.0
 10
6.4565885129
 20
3.6139966599
 30
0.0
 10
6.4554501765
 20
3.6155808668
 30
0.0
 10
6.4545029636
 20
3.617357079
 30
0.0
 10
6.4539097522
 20
3.6189673666
 30
0.0
 10
6.4535661526
 20
3.6203206223
 30
0.0
 10
6.4533144376
 20
3.6217189082
 30
0.0
 10
6.4532379668
 20
3.622789619
 30
0.0
 10
6.4532379668
 20
3.623503814
 30
0.0
  0
SPLINE
  5
4CF
100
AcDbEntity
  8
0
100
AcDbSpline
 62
7
  6
CONTINUOUS
 70
0
 71
3
 72
14
 73
10
 74
0
 42
0.0000001
 43
0.0000001
 44
0.0000000001
 40
0.0
 40
0.0
 40
0.0
 40
0.0
 40
0.1508557149
 40
0.2979783988
 40
0.4383266051
 40
0.5698766885
 40
0.6916706468
 40
0.8036084386
 40
1.0
 40
1.0
 40
1.0
 40
1.0
 10
6.4654977828
 20
3.623503814
 30
0.0
 10
6.4654977828
 20
3.6227907435
 30
0.0
 10
6.4654361239
 20
3.6213814381
 30
0.0
 10
6.4651633295
 20
3.6193249524
 30
0.0
 10
6.4647264835
 20
3.6173901418
 30
0.0
 10
6.4641477569
 20
3.615618666
 30
0.0
 10
6.4634505717
 20
3.6140351445
 30
0.0
 10
6.4624391791
 20
3.6122695852
 30
0.0
 10
6.4615058146
 20
3.6111248404
 30
0.0
 10
6.4608209973
 20
3.6104981134
 30
0.0
  0
SPLINE
  5
4D0
100
AcDbEntity
  8
0
100
AcDbSpline
 62
7
  6
CONTINUOUS
 70
0
 71
3
 72
15
 73
11
 74
0
 42
0.0000001
 43
0.0000001
 44
0.0000000001
 40
0.0
 40
0.0
 40
0.0
 40
0.0
 40
0.1089739672
 40
0.221981678
 40
0.3396747785
 40
0.4625364396
 40
0.5907106607
 40
0.7238243362
 40
0.8608246708
 40
1.0
 40
1.0
 40
1.0
 40
1.0
 10
6.484358662
 20
3.6104981134
 30
0.0
 10
6.4838826937
 20
3.6107912334
 30
0.0
 10
6.4829491483
 20
3.6114490504
 30
0.0
 10
6.4816563237
 20
3.6126235401
 30
0.0
 10
6.4804734657
 20
3.6140047114
 30
0.0
 10
6.4794314352
 20
3.6155892856
 30
0.0
 10
6.4785648787
 20
3.617365044
 30
0.0
 10
6.4779103492
 20
3.6193064955
 30
0.0
 10
6.477501306
 20
3.6213714911
 30
0.0
 10
6.4774086807
 20
3.6227899092
 30
0.0
 10
6.4774086807
 20
3.623503814
 30
0.0
  0
SPLINE
  5
4D1
100
AcDbEntity
  8
0
100
AcDbSpline
 62
7
  6
CONTINUOUS
 70
0
 71
3
 72
14
 73
10
 74
0
 42
0.0000001
 43
0.0000001
 44
0.0000000001
 40
0.0
 40
0.0
 40
0.0
 40
0.0
 40
0.2900221466
 40
0.4278207444
 40
0.5581381236
 40
0.6802450301
 40
0.7941673897
 40
0.9004608244
 40
1.0
 40
1.0
 40
1.0
 40
1.0
 10
6.4898484898
 20
3.623503814
 30
0.0
 10
6.4898484898
 20
3.6220946593
 30
0.0
 10
6.4896373434
 20
3.6200066456
 30
0.0
 10
6.4889405702
 20
3.6173821111
 30
0.0
 10
6.4882592205
 20
3.6156084318
 30
0.0
 10
6.4874391972
 20
3.6140243906
 30
0.0
 10
6.4865073058
 20
3.6126419386
 30
0.0
 10
6.4854876053
 20
3.611464841
 30
0.0
 10
6.4847400798
 20
3.6107954808
 30
0.0
 10
6.484358662
 20
3.6104981134
 30
0.0
  0
SPLINE
  5
4D2
100
AcDbEntity
  8
0
100
AcDbSpline
 62
7
  6
CONTINUOUS
 70
0
 71
3
 72
15
 73
11
 74
0
 42
0.0000001
 43
0.0000001
 44
0.0000000001
 40
0.0
 40
0.0
 40
0.0
 40
0.0
 40
0.1044869513
 40
0.2142601754
 40
0.3300975067
 40
0.4525379518
 40
0.5816871819
 40
0.7170128144
 40
0.8571636861
 40
1.0
 40
1.0
 40
1.0
 40
1.0
 10
6.5081252115
 20
3.6104981134
 30
0.0
 10
6.5076945061
 20
3.6107930655
 30
0.0
 10
6.5068497848
 20
3.6114560484
 30
0.0
 10
6.5056876956
 20
3.6126319689
 30
0.0
 10
6.5046250708
 20
3.6140139973
 30
0.0
 10
6.5036895229
 20
3.6155985942
 30
0.0
 10
6.5029119504
 20
3.6173733836
 30
0.0
 10
6.5023249192
 20
3.6193128061
 30
0.0
 10
6.501958193
 20
3.6213749582
 30
0.0
 10
6.5018752115
 20
3.6227902007
 30
0.0
 10
6.5018752115
 20
3.623503814
 30
0.0
  0
SPLINE
  5
4D3
100
AcDbEntity
  8
0
100
AcDbSpline
 62
7
  6
CONTINUOUS
 70
0
 71
3
 72
17
 73
13
 74
0
 42
0.0000001
 43
0.0000001
 44
0.0000000001
 40
0.0
 40
0.0
 40
0.0
 40
0.0
 40
0.1155442544
 40
0.2333867203
 40
0.3539398966
 40
0.4153789626
 40
0.477608048
 40
0.6043926889
 40
0.7341847832
 40
0.8000796086
 40
0.866461388
 40
1.0
 40
1.0
 40
1.0
 40
1.0
 10
6.2668193844
 20
3.6104981134
 30
0.0
 10
6.2662739611
 20
3.6107890035
 30
0.0
 10
6.2652047466
 20
3.6114401543
 30
0.0
 10
6.2637119096
 20
3.6126120239
 30
0.0
 10
6.2625793444
 20
3.6137547043
 30
0.0
 10
6.2617534115
 20
3.6147681439
 30
0.0
 10
6.2609774102
 20
3.6158615198
 30
0.0
 10
6.26013551
 20
3.6173515204
 30
0.0
 10
6.2595059448
 20
3.6189646153
 30
0.0
 10
6.2591417101
 20
3.6203197261
 30
0.0
 10
6.2588753044
 20
3.6217175739
 30
0.0
 10
6.2587941837
 20
3.6227894015
 30
0.0
 10
6.2587941837
 20
3.623503814
 30
0.0
  0
LINE
  5
4D4
100
AcDbEntity
  8
0
100
AcDbLine
 62
7
  6
CONTINUOUS
 10
6.4415726255
 20
4.035003814
 11
6.4415576014
 21
4.058503814
  0
LINE
  5
4D5
100
AcDbEntity
  8
0
100
AcDbLine
 62
7
  6
CONTINUOUS
 10
6.4415576014
 20
3.623503814
 11
6.4415726255
 21
3.732003814
  0
SPLINE
  5
4D6
100
AcDbEntity
  8
0
100
AcDbSpline
 62
7
  6
CONTINUOUS
 70
0
 71
3
 72
17
 73
13
 74
0
 42
0.0000001
 43
0.0000001
 44
0.0000000001
 40
0.0
 40
0.0
 40
0.0
 40
0.0
 40
0.1155372222
 40
0.2333845256
 40
0.3539336407
 40
0.4153697613
 40
0.4776024653
 40
0.6043862925
 40
0.7341801245
 40
0.8000729161
 40
0.8664576305
 40
1.0
 40
1.0
 40
1.0
 40
1.0
 10
3.4555856434
 20
5.0833262209
 30
0.0
 10
3.4550860427
 20
5.0836901661
 30
0.0
 10
3.4541178725
 20
5.0844837834
 30
0.0
 10
3.452802644
 20
5.0858519558
 30
0.0
 10
3.4518401737
 20
5.0871411533
 30
0.0
 10
3.4511632887
 20
5.0882596357
 30
0.0
 10
3.4505470359
 20
5.0894503839
 30
0.0
 10
3.4499206619
 20
5.0910430622
 30
0.0
 10
3.4495217091
 20
5.0927280698
 30
0.0
 10
3.4493496103
 20
5.0941206971
 30
0.0
 10
3.4492803024
 20
5.0955420407
 30
0.0
 10
3.4493491573
 20
5.0966147633
 30
0.0
 10
3.4494485871
 20
5.0973222431
 30
0.0
  0
SPLINE
  5
4D7
100
AcDbEntity
  8
0
100
AcDbSpline
 62
7
  6
CONTINUOUS
 70
0
 71
3
 72
15
 73
11
 74
0
 42
0.0000001
 43
0.0000001
 44
0.0000000001
 40
0.0
 40
0.0
 40
0.0
 40
0.0
 40
0.1184671154
 40
0.2385149557
 40
0.3604126475
 40
0.484421634
 40
0.6106480275
 40
0.7389868745
 40
0.8690118379
 40
1.0
 40
1.0
 40
1.0
 40
1.0
 10
3.4590431473
 20
5.0828403004
 30
0.0
 10
3.4585114787
 20
5.0832079016
 30
0.0
 10
3.4574807496
 20
5.0840076165
 30
0.0
 10
3.4560735261
 20
5.0853876025
 30
0.0
 10
3.4548270761
 20
5.0869544127
 30
0.0
 10
3.4537784423
 20
5.0887003057
 30
0.0
 10
3.4529685871
 20
5.0906081879
 30
0.0
 10
3.4524394353
 20
5.092647146
 30
0.0
 10
3.4522270901
 20
5.09476925
 30
0.0
 10
3.4523120319
 20
5.0961980954
 30
0.0
 10
3.4524114979
 20
5.0969058331
 30
0.0
  0
SPLINE
  5
4D8
100
AcDbEntity
  8
0
100
AcDbSpline
 62
7
  6
CONTINUOUS
 70
0
 71
3
 72
17
 73
13
 74
0
 42
0.0000001
 43
0.0000001
 44
0.0000000001
 40
0.0
 40
0.0
 40
0.0
 40
0.0
 40
0.1207999934
 40
0.2426058658
 40
0.365581462
 40
0.4276016903
 40
0.4899801008
 40
0.6157303175
 40
0.7428462456
 40
0.8068891872
 40
0.8711616822
 40
1.0
 40
1.0
 40
1.0
 40
1.0
 10
3.4647686444
 20
5.0820356343
 30
0.0
 10
3.4642101798
 20
5.0824063682
 30
0.0
 10
3.4631272308
 20
5.0832114175
 30
0.0
 10
3.4616433756
 20
5.0846010363
 30
0.0
 10
3.4605483861
 20
5.0859111868
 30
0.0
 10
3.4597751558
 20
5.0870464772
 30
0.0
 10
3.4590733112
 20
5.0882451311
 30
0.0
 10
3.458352053
 20
5.0898460248
 30
0.0
 10
3.4578784374
 20
5.0915475546
 30
0.0
 10
3.4576642679
 20
5.0929501392
 30
0.0
 10
3.4575646463
 20
5.0943747344
 30
0.0
 10
3.4576242021
 20
5.0954512866
 30
0.0
 10
3.4577237001
 20
5.0961592518
 30
0.0
  0
SPLINE
  5
4D9
100
AcDbEntity
  8
0
100
AcDbSpline
 62
7
  6
CONTINUOUS
 70
0
 71
3
 72
16
 73
12
 74
0
 42
0.0000001
 43
0.0000001
 44
0.0000000001
 40
0.0
 40
0.0
 40
0.0
 40
0.0
 40
0.122624737
 40
0.2458211919
 40
0.3696687532
 40
0.4942806635
 40
0.6196982206
 40
0.745893189
 40
0.8092903733
 40
0.872821218
 40
1.0
 40
1.0
 40
1.0
 40
1.0
 10
3.4727069951
 20
5.0809199718
 30
0.0
 10
3.4721272612
 20
5.081293237
 30
0.0
 10
3.471002938
 20
5.0821025816
 30
0.0
 10
3.4694581966
 20
5.0835000848
 30
0.0
 10
3.4680851314
 20
5.0850828496
 30
0.0
 10
3.466923886
 20
5.0868432369
 30
0.0
 10
3.4660192654
 20
5.0887639628
 30
0.0
 10
3.4655183674
 20
5.0904715613
 30
0.0
 10
3.4652889214
 20
5.0918777956
 30
0.0
 10
3.4651783405
 20
5.0933035367
 30
0.0
 10
3.4652345099
 20
5.0943815357
 30
0.0
 10
3.4653340343
 20
5.095089689
 30
0.0
  0
SPLINE
  5
4DA
100
AcDbEntity
  8
0
100
AcDbSpline
 62
7
  6
CONTINUOUS
 70
0
 71
3
 72
16
 73
12
 74
0
 42
0.0000001
 43
0.0000001
 44
0.0000000001
 40
0.0
 40
0.0
 40
0.0
 40
0.0
 40
0.1239218472
 40
0.2481100058
 40
0.3725819593
 40
0.4973997981
 40
0.6225782059
 40
0.7481070877
 40
0.8110359055
 40
0.8740280827
 40
1.0
 40
1.0
 40
1.0
 40
1.0
 10
3.4827817488
 20
5.0795040575
 30
0.0
 10
3.4821864779
 20
5.0798791944
 30
0.0
 10
3.481031941
 20
5.0806917576
 30
0.0
 10
3.4794428207
 20
5.0820949258
 30
0.0
 10
3.4780289038
 20
5.0836828179
 30
0.0
 10
3.4768313101
 20
5.0854478036
 30
0.0
 10
3.475896046
 20
5.0873726377
 30
0.0
 10
3.4753752054
 20
5.0890845772
 30
0.0
 10
3.4751345641
 20
5.0904935082
 30
0.0
 10
3.4750159793
 20
5.0919200723
 30
0.0
 10
3.4750696644
 20
5.0929991504
 30
0.0
 10
3.4751692088
 20
5.0937074454
 30
0.0
  0
SPLINE
  5
4DB
100
AcDbEntity
  8
0
100
AcDbSpline
 62
7
  6
CONTINUOUS
 70
0
 71
3
 72
16
 73
12
 74
0
 42
0.0000001
 43
0.0000001
 44
0.0000000001
 40
0.0
 40
0.0
 40
0.0
 40
0.0
 40
0.1247151843
 40
0.2495118046
 40
0.3743688831
 40
0.4993161004
 40
0.6243503477
 40
0.7494712034
 40
0.8121120018
 40
0.874772403
 40
1.0
 40
1.0
 40
1.0
 40
1.0
 10
3.4948958801
 20
5.0778015274
 30
0.0
 10
3.4942909558
 20
5.0781778361
 30
0.0
 10
3.4931176556
 20
5.0789924231
 30
0.0
 10
3.49150098
 20
5.0803991132
 30
0.0
 10
3.4900617013
 20
5.0819901846
 30
0.0
 10
3.4888415391
 20
5.083758011
 30
0.0
 10
3.4878872376
 20
5.0856853748
 30
0.0
 10
3.4873539777
 20
5.0874000054
 30
0.0
 10
3.4871063685
 20
5.0888106197
 30
0.0
 10
3.486982811
 20
5.0902376902
 30
0.0
 10
3.4870349485
 20
5.0913174477
 30
0.0
 10
3.4871345055
 20
5.0920258326
 30
0.0
  0
SPLINE
  5
4DC
100
AcDbEntity
  8
0
100
AcDbSpline
 62
7
  6
CONTINUOUS
 70
0
 71
3
 72
16
 73
12
 74
0
 42
0.0000001
 43
0.0000001
 44
0.0000000001
 40
0.0
 40
0.0
 40
0.0
 40
0.0
 40
0.1250146712
 40
0.2500413616
 40
0.3750444614
 40
0.5000411987
 40
0.6250214494
 40
0.7499881564
 40
0.8125199201
 40
0.8750546158
 40
1.0
 40
1.0
 40
1.0
 40
1.0
 10
3.5089327232
 20
5.0758287778
 30
0.0
 10
3.5083241239
 20
5.0762055343
 30
0.0
 10
3.5071436822
 20
5.0770208964
 30
0.0
 10
3.50551652
 20
5.0784289277
 30
0.0
 10
3.5040675902
 20
5.0800212085
 30
0.0
 10
3.5028388394
 20
5.0817901132
 30
0.0
 10
3.5018772911
 20
5.0837184354
 30
0.0
 10
3.5013392975
 20
5.0854340891
 30
0.0
 10
3.5010890333
 20
5.0868453458
 30
0.0
 10
3.5009635827
 20
5.0882726081
 30
0.0
 10
3.5010151302
 20
5.089352626
 30
0.0
 10
3.501114692
 20
5.0900610455
 30
0.0
  0
SPLINE
  5
4DD
100
AcDbEntity
  8
0
100
AcDbSpline
 62
7
  6
CONTINUOUS
 70
0
 71
3
 72
16
 73
12
 74
0
 42
0.0000001
 43
0.0000001
 44
0.0000000001
 40
0.0
 40
0.0
 40
0.0
 40
0.0
 40
0.1248241807
 40
0.24970451
 40
0.3746146918
 40
0.4995798884
 40
0.6245944568
 40
0.7496592183
 40
0.8122603537
 40
0.8748750343
 40
1.0
 40
1.0
 40
1.0
 40
1.0
 10
3.5247570957
 20
5.0736048073
 30
0.0
 10
3.5241508359
 20
5.0739812786
 30
0.0
 10
3.5229749403
 20
5.0747961469
 30
0.0
 10
3.5213544536
 20
5.0762033244
 30
0.0
 10
3.5199116674
 20
5.0777948354
 30
0.0
 10
3.5186883839
 20
5.0795630539
 30
0.0
 10
3.5177314488
 20
5.0814907662
 30
0.0
 10
3.517196469
 20
5.0832057687
 30
0.0
 10
3.5169478952
 20
5.0846166164
 30
0.0
 10
3.5168236497
 20
5.0860437566
 30
0.0
 10
3.5168755728
 20
5.0871236087
 30
0.0
 10
3.5169751316
 20
5.0878320061
 30
0.0
  0
SPLINE
  5
4DE
100
AcDbEntity
  8
0
100
AcDbSpline
 62
7
  6
CONTINUOUS
 70
0
 71
3
 72
16
 73
12
 74
0
 42
0.0000001
 43
0.0000001
 44
0.0000000001
 40
0.0
 40
0.0
 40
0.0
 40
0.0
 40
0.1241412416
 40
0.2484975235
 40
0.373075737
 40
0.4979290939
 40
0.6230674725
 40
0.7484835626
 40
0.8113328478
 40
0.87423345
 40
1.0
 40
1.0
 40
1.0
 40
1.0
 10
3.5422166002
 20
5.0711510339
 30
0.0
 10
3.5416186713
 20
5.0715264927
 30
0.0
 10
3.5404589677
 20
5.0723396114
 30
0.0
 10
3.538862259
 20
5.0737437491
 30
0.0
 10
3.5374413577
 20
5.075332517
 30
0.0
 10
3.536237549
 20
5.0770982861
 30
0.0
 10
3.535297043
 20
5.0790238184
 30
0.0
 10
3.5347727851
 20
5.0807364994
 30
0.0
 10
3.5345302262
 20
5.0821458933
 30
0.0
 10
3.5344102722
 20
5.0835725971
 30
0.0
 10
3.5344635316
 20
5.0846518616
 30
0.0
 10
3.5345630794
 20
5.0853601813
 30
0.0
  0
LINE
  5
4DF
100
AcDbEntity
  8
0
100
AcDbLine
 62
7
  6
CONTINUOUS
 10
3.544131674
 20
5.084015403
 11
3.5422166002
 21
5.0711510339
  0
ENDSEC
  0
SECTION
  2
OBJECTS
  0
DICTIONARY
  5
C
100
AcDbDictionary
280
0
281
1
  3
ACAD_GROUP
350
D
  3
ACAD_MLINESTYLE
350
17
  3
ACAD_LAYOUT
350
1A
  3
ACAD_PLOTSETTINGS
350
19
  3
ACAD_PLOTSTYLENAME
350
E
  0
DICTIONARY
  5
D
102
{ACAD_REACTORS
330
C
102
}
100
AcDbDictionary
280
0
281
1
  0
ACDBDICTIONARYWDFLT
  5
E
102
{ACAD_REACTORS
330
C
102
}
100
AcDbDictionary
281
1
  3
Normal
350
F
100
AcDbDictionaryWithDefault
340
F
  0
DICTIONARY
  5
17
102
{ACAD_REACTORS
330
C
102
}
100
AcDbDictionary
280
0
281
1
  3
Standard
350
18
  0
DICTIONARY
  5
19
102
{ACAD_REACTORS
330
C
102
}
100
AcDbDictionary
281
1
  0
DICTIONARY
  5
1A
102
{ACAD_REACTORS
330
C
102
}
100
AcDbDictionary
281
1
  3
Model
350
4E0
  3
Layout1
350
4E1
  0
ACDBPLACEHOLDER
  5
F
102
{ACAD_REACTORS
330
E
102
}
  0
MLINESTYLE
  5
18
102
{ACAD_REACTORS
330
17
102
}
100
AcDbMlineStyle
  2
STANDARD
 70
0
  3

 62
256
 51
90.0
 52
90.0
 71
2
 49
0.5
 62
256
  6
BYLAYER
 49
-0.5
 62
256
  6
BYLAYER
  0
LAYOUT
  5
4E0
102
{ACAD_REACTORS
330
1A
102
}
100
AcDbPlotSettings
  1

  2
none_device
  4
ANSI_A_(11.00_x_8.50_Inches)
  6

 40
0.0
 41
0.0
 42
0.0
 43
0.0
 44
279.4
 45
215.9
 46
0.0
 47
0.0
 48
0.0
 49
0.0
140
0.0
141
0.0
142
1.0
143
1.0
 70
1024
 72
0
 73
0
 74
0
  7

 75
0
147
1.0
148
0.0
149
0.0
100
AcDbLayout
  1
Model
 70
0
 71
0
 10
0.0
 20
0.0
 11
11.0
 21
8.5
 12
0.0
 22
0.0
 32
0.0
 14
0.0
 24
0.0
 34
0.0
 15
0.0
 25
0.0
 35
0.0
146
0.0
 13
0.0
 23
0.0
 33
0.0
 16
1.0
 26
0.0
 36
0.0
 17
0.0
 27
1.0
 37
0.0
 76
0
330
203
345
0
346
0
  0
LAYOUT
  5
4E1
102
{ACAD_REACTORS
330
1A
102
}
100
AcDbPlotSettings
  1

  2
none_device
  4
ANSI_A_(11.00_x_8.50_Inches)
  6

 40
0.0
 41
0.0
 42
0.0
 43
0.0
 44
279.4
 45
215.9
 46
0.0
 47
0.0
 48
0.0
 49
0.0
140
0.0
141
0.0
142
1.0
143
1.0
 70
0
 72
0
 73
0
 74
0
  7

 75
0
147
1.0
148
0.0
149
0.0
100
AcDbLayout
  1
Layout1
 70
0
 71
1
 10
0.0
 20
0.0
 11
11.0
 21
8.5
 12
0.0
 22
0.0
 32
0.0
 14
0.0
 24
0.0
 34
0.0
 15
0.0
 25
0.0
 35
0.0
146
0.0
 13
0.0
 23
0.0
 33
0.0
 16
1.0
 26
0.0
 36
0.0
 17
0.0
 27
1.0
 37
0.0
 76
0
330
204
345
0
346
0
  0
ENDSEC
  0
EOF
