999
DXF file: 3230c_TOP.dxf
999
Pro/ENGINEER 2023134 by Parametric Technology Corporation
  0
SECTION
  2
HEADER
  9
$ACADVER
  1
AC1032
  9
$DWGCODEPAGE
  3
ANSI_1252
  9
$EXTMAX
 10
11.0
 20
8.5
 30
0.0
  9
$EXTMIN
 10
0.0
 20
0.0
 30
0.0
  9
$LIMMIN
 10
0.0
 20
0.0
  9
$LIMMAX
 10
11.0
 20
8.5
  9
$VIEWCTR
 10
5.5
 20
4.25
  9
$VIEWSIZE
 40
8.5
  9
$CLAYER
  8
0
  9
$LTSCALE
 40
0.605
  9
$CELTYPE
  6
BYLAYER
  9
$DIMSCALE
 40
1.0
  9
$DIMASZ
 40
0.1
  9
$DIMEXO
 40
0.0625
  9
$DIMDLI
 40
0.418
  9
$DIMEXE
 40
0.125
  9
$DIMCEN
 40
0.099
  9
$DIMLFAC
 40
1.0
  9
$DIMBLK
  1
_FILLED
  9
$DIMALT
 70
1
  9
$DIMALTD
 70
2
  9
$DIMALTTD
 70
2
  9
$DIMALTF
 40
25.4
  9
$DIMTXT
 40
0.08
  9
$DIMTOL
 70
1
  9
$DIMLIM
 70
0
  9
$DIMTFAC
 40
1.0
  9
$DIMTP
 40
0.001
  9
$DIMTM
 40
0.001
  9
$DIMGAP
 40
0.09
  9
$DIMDSEP
 70
46
  9
$AUNITS
 70
0
  9
$PDMODE
 70
3
  9
$PDSIZE
 40
0.3125
  9
$HANDSEED
  5
588
  9
$TILEMODE
 70
1
  9
$MEASUREMENT
 70
0
  9
$INSUNITS
 70
1
  0
ENDSEC
  0
SECTION
  2
CLASSES
  0
CLASS
  1
ACDBDICTIONARYWDFLT
  2
AcDbDictionaryWithDefault
  3
AutoCAD 2000
 90
0
 91
1
280
0
281
0
  0
CLASS
  1
ACDBPLACEHOLDER
  2
AcDbPlaceHolder
  3
AutoCAD 2000
 90
0
 91
1
280
0
281
0
  0
CLASS
  1
LAYOUT
  2
AcDbLayout
  3
AutoCAD 2000
 90
0
 91
0
280
0
281
0
  0
ENDSEC
  0
SECTION
  2
TABLES
  0
TABLE
  2
VPORT
  5
8
100
AcDbSymbolTable
 70
2
  0
VPORT
  5
1F4
100
AcDbSymbolTableRecord
100
AcDbViewportTableRecord
  2
*ACTIVE
 70
0
 10
0.0
 20
0.0
 11
1.0
 21
1.0
 12
5.5
 22
4.25
 13
0.0
 23
0.0
 14
1.0
 24
1.0
 15
0.0
 25
0.0
 16
0.0
 26
0.0
 36
1.0
 17
0.0
 27
0.0
 37
0.0
 40
8.5
 41
1.2941176471
 42
50.0
 43
0.0
 44
0.0
 50
0.0
 51
0.0
 71
0
 72
100
 73
1
 74
1
 75
0
 76
0
 77
0
 78
0
  0
ENDTAB
  0
TABLE
  2
LTYPE
  5
5
100
AcDbSymbolTable
 70
6
  0
LTYPE
  5
14
100
AcDbSymbolTableRecord
100
AcDbLinetypeTableRecord
  2
BYBLOCK
 70
0
  3

 72
65
 73
0
 40
0.0
  0
LTYPE
  5
15
100
AcDbSymbolTableRecord
100
AcDbLinetypeTableRecord
  2
BYLAYER
 70
0
  3

 72
65
 73
0
 40
0.0
  0
LTYPE
  5
16
100
AcDbSymbolTableRecord
100
AcDbLinetypeTableRecord
  2
CONTINUOUS
 70
64
  3
Solid line
 72
65
 73
0
 40
0.0
  0
LTYPE
  5
1F5
100
AcDbSymbolTableRecord
100
AcDbLinetypeTableRecord
  2
CENTER
 70
64
  3
____ _ ____ _ ____ _ ____ _ ____ _ ____ _ ____
 72
65
 73
4
 40
0.6
 49
0.375
 74
0
 49
-0.075
 74
0
 49
0.075
 74
0
 49
-0.075
 74
0
  0
LTYPE
  5
1F6
100
AcDbSymbolTableRecord
100
AcDbLinetypeTableRecord
  2
HIDDEN
 70
64
  3
- - - - - - - - - - - - - - - - - - - -
 72
65
 73
2
 40
0.2
 49
0.1
 74
0
 49
-0.1
 74
0
  0
LTYPE
  5
1F7
100
AcDbSymbolTableRecord
100
AcDbLinetypeTableRecord
  2
PHANTOM
 70
64
  3
_____ _ _ _____ _ _ _____ _ _ _____
 72
65
 73
6
 40
0.8
 49
0.45
 74
0
 49
-0.05
 74
0
 49
0.1
 74
0
 49
-0.05
 74
0
 49
0.1
 74
0
 49
-0.05
 74
0
  0
LTYPE
  5
1F8
100
AcDbSymbolTableRecord
100
AcDbLinetypeTableRecord
  2
DOT
 70
64
  3
. . . . . . . . . . . . . . . . . . . .
 72
65
 73
2
 40
0.2
 49
0.1
 74
0
 49
-0.1
 74
0
  0
LTYPE
  5
1F9
100
AcDbSymbolTableRecord
100
AcDbLinetypeTableRecord
  2
DASHED
 70
64
  3
- - - - - - - - - - - - - - - - - - - -
 72
65
 73
2
 40
0.2
 49
0.1
 74
0
 49
-0.1
 74
0
  0
ENDTAB
  0
TABLE
  2
LAYER
  5
2
100
AcDbSymbolTable
 70
36
  0
LAYER
  5
10
100
AcDbSymbolTableRecord
100
AcDbLayerTableRecord
  2
0
 70
0
 62
7
  6
CONTINUOUS
370
-3
390
F
  0
LAYER
  5
1FA
100
AcDbSymbolTableRecord
100
AcDbLayerTableRecord
  2
DEFAULT_1
 70
0
 62
7
  6
CENTER
370
-3
390
F
  0
LAYER
  5
1FB
100
AcDbSymbolTableRecord
100
AcDbLayerTableRecord
  2
DEFAULT_2
 70
0
 62
8
  6
HIDDEN
370
-3
390
F
  0
LAYER
  5
1FC
100
AcDbSymbolTableRecord
100
AcDbLayerTableRecord
  2
DEFAULT_3
 70
0
 62
7
  6
PHANTOM
370
-3
390
F
  0
LAYER
  5
1FD
100
AcDbSymbolTableRecord
100
AcDbLayerTableRecord
  2
DEFAULT_COORDINATE_SYSTEM
 70
0
 62
7
  6
CONTINUOUS
370
-3
390
F
  0
LAYER
  5
1FE
100
AcDbSymbolTableRecord
100
AcDbLayerTableRecord
  2
DEFAULT_DATUM_AXES
 70
0
 62
7
  6
CONTINUOUS
370
-3
390
F
  0
LAYER
  5
1FF
100
AcDbSymbolTableRecord
100
AcDbLayerTableRecord
  2
DEFAULT_DATUM_CURVES
 70
0
 62
7
  6
CONTINUOUS
370
-3
390
F
  0
LAYER
  5
200
100
AcDbSymbolTableRecord
100
AcDbLayerTableRecord
  2
DEFAULT_DATUM_PLANES
 70
0
 62
7
  6
CONTINUOUS
370
-3
390
F
  0
ENDTAB
  0
TABLE
  2
STYLE
  5
3
100
AcDbSymbolTable
 70
1
  0
STYLE
  5
11
100
AcDbSymbolTableRecord
100
AcDbTextStyleTableRecord
  2
STANDARD
 70
0
 40
0.0
 41
0.8
 50
0.0
 71
0
 42
0.2
  3
txt
  4

  0
STYLE
  5
201
100
AcDbSymbolTableRecord
100
AcDbTextStyleTableRecord
  2
TEXTSTYLE_1
 70
0
 40
0.0
 41
0.8
 50
0.0
 71
0
 42
0.2
  3
gdt
  4

  0
ENDTAB
  0
TABLE
  2
VIEW
  5
6
100
AcDbSymbolTable
 70
0
  0
ENDTAB
  0
TABLE
  2
UCS
  5
7
100
AcDbSymbolTable
 70
0
  0
ENDTAB
  0
TABLE
  2
APPID
  5
9
100
AcDbSymbolTable
 70
1
  0
APPID
  5
202
100
AcDbSymbolTableRecord
100
AcDbRegAppTableRecord
  2
ACAD
 70
0
  0
ENDTAB
  0
TABLE
  2
BLOCK_RECORD
  5
1
100
AcDbSymbolTable
 70
0
  0
BLOCK_RECORD
  5
203
100
AcDbSymbolTableRecord
100
AcDbBlockTableRecord
  2
*Model_Space
  0
BLOCK_RECORD
  5
204
100
AcDbSymbolTableRecord
100
AcDbBlockTableRecord
  2
*Paper_Space
  0
BLOCK_RECORD
  5
205
100
AcDbSymbolTableRecord
100
AcDbBlockTableRecord
  2
_FILLED
  0
ENDTAB
  0
TABLE
  2
DIMSTYLE
  5
A
100
AcDbSymbolTable
 70
1
100
AcDbDimStyleTable
 71
0
  0
DIMSTYLE
105
206
100
AcDbSymbolTableRecord
100
AcDbDimStyleTableRecord
  2
STANDARD
 70
0
  3

  4

 40
1.0
 41
0.1
 42
0.0625
 43
0.38
 44
0.125
 45
0.0
 46
0.0
 47
0.001
 48
0.001
140
0.08
141
0.09
142
0.0
143
25.4
144
1.0
145
0.0
146
1.0
147
0.09
 71
1
 72
0
 73
1
 74
1
 75
0
 76
0
 77
0
 78
4
 79
1
170
1
171
2
172
0
173
0
174
0
175
0
176
0
177
0
178
0
270
2
179
3
271
3
272
3
273
2
274
2
275
0
280
0
281
0
282
0
283
1
284
4
285
0
286
0
287
3
288
0
340
11
278
46
341
205
342
205
343
205
344
205
  0
ENDTAB
  0
ENDSEC
  0
SECTION
  2
BLOCKS
  0
BLOCK
  5
20
100
AcDbEntity
  8
0
100
AcDbBlockBegin
  2
*Model_Space
 70
0
 10
0.0
 20
0.0
 30
0.0
  3
*Model_Space
  1

  0
ENDBLK
  5
21
100
AcDbEntity
  8
0
100
AcDbBlockEnd
  0
BLOCK
  5
1C
100
AcDbEntity
  8
0
100
AcDbBlockBegin
  2
*Paper_Space
 70
0
 10
0.0
 20
0.0
 30
0.0
  3
*Paper_Space
  1

  0
ENDBLK
  5
1D
100
AcDbEntity
  8
0
100
AcDbBlockEnd
  0
BLOCK
  5
207
100
AcDbEntity
  8
0
100
AcDbBlockBegin
  2
_FILLED
 70
64
 10
0.0
 20
0.0
  3
_FILLED
  1

  0
SOLID
  5
208
100
AcDbEntity
  8
0
  6
BYBLOCK
 62
0
100
AcDbTrace
 10
0.0
 20
0.0
 11
-1.0
 21
0.2
 12
-1.0
 22
-0.2
 13
-1.0
 23
-0.2
  0
ENDBLK
  5
209
100
AcDbEntity
  8
0
  6
BYBLOCK
 62
0
100
AcDbBlockEnd
  0
ENDSEC
  0
SECTION
  2
ENTITIES
  0
MTEXT
  5
20A
100
AcDbEntity
  8
0
100
AcDbMText
 62
2
  6
CONTINUOUS
  7
STANDARD
 71
3
 72
1
 10
5.6258862515
 20
1.7775583581
 30
0.0
 11
1.0
 21
0.0
 31
0.0
 73
2
 44
0.9
  1
SCALE 0.500
 40
0.08
 41
0.704
  0
LINE
  5
20B
100
AcDbEntity
  8
0
100
AcDbLine
 62
7
  6
CONTINUOUS
 10
0.0
 20
0.0
 11
0.0
 21
8.5
  0
LINE
  5
20C
100
AcDbEntity
  8
0
100
AcDbLine
 62
7
  6
CONTINUOUS
 10
0.0
 20
0.0
 11
11.0
 21
0.0
  0
LINE
  5
20D
100
AcDbEntity
  8
0
100
AcDbLine
 62
7
  6
CONTINUOUS
 10
0.0
 20
8.5
 11
11.0
 21
8.5
  0
LINE
  5
20E
100
AcDbEntity
  8
0
100
AcDbLine
 62
7
  6
CONTINUOUS
 10
11.0
 20
0.0
 11
11.0
 21
8.5
  0
LINE
  5
20F
100
AcDbEntity
  8
0
100
AcDbLine
 62
7
  6
CONTINUOUS
 10
1.8596717016
 20
6.0373322091
 11
1.8596717016
 21
5.9323322091
  0
LINE
  5
210
100
AcDbEntity
  8
0
100
AcDbLine
 62
7
  6
CONTINUOUS
 10
1.8696717016
 20
5.9223322091
 11
1.8696717014
 21
6.0473322091
  0
LINE
  5
211
100
AcDbEntity
  8
0
100
AcDbLine
 62
7
  6
CONTINUOUS
 10
3.1260192391
 20
6.1961069574
 11
3.1249606967
 21
6.1864414753
  0
LINE
  5
212
100
AcDbEntity
  8
0
100
AcDbLine
 62
7
  6
CONTINUOUS
 10
3.0722372265
 20
5.8310087107
 11
3.0704444472
 21
5.8214521424
  0
LINE
  5
213
100
AcDbEntity
  8
0
100
AcDbLine
 62
7
  6
CONTINUOUS
 10
3.1473713589
 20
6.2081898439
 11
3.1453705307
 21
6.1986746591
  0
LINE
  5
214
100
AcDbEntity
  8
0
100
AcDbLine
 62
7
  6
CONTINUOUS
 10
3.0580624354
 20
5.8501212042
 11
3.0553415812
 21
5.8407863764
  0
LINE
  5
215
100
AcDbEntity
  8
0
100
AcDbLine
 62
7
  6
CONTINUOUS
 10
3.1698049924
 20
6.2181216743
 11
3.1668811475
 21
6.2088484231
  0
LINE
  5
216
100
AcDbEntity
  8
0
100
AcDbLine
 62
7
  6
CONTINUOUS
 10
3.0458292516
 20
5.8705310382
 11
3.042206526
 21
5.8615078506
  0
LINE
  5
217
100
AcDbEntity
  8
0
100
AcDbLine
 62
7
  6
CONTINUOUS
 10
3.1931040914
 20
6.2258067996
 11
3.1892853881
 21
6.2168647886
  0
LINE
  5
218
100
AcDbEntity
  8
0
100
AcDbLine
 62
7
  6
CONTINUOUS
 10
3.0356554875
 20
5.892041655
 11
3.0311657793
 21
5.8834170057
  0
LINE
  5
219
100
AcDbEntity
  8
0
100
AcDbLine
 62
7
  6
CONTINUOUS
 10
3.2170442729
 20
6.2311712079
 11
3.2123674874
 21
6.2226465535
  0
LINE
  5
21A
100
AcDbEntity
  8
0
100
AcDbLine
 62
7
  6
CONTINUOUS
 10
3.0276391221
 20
5.9144458956
 11
3.0223256696
 21
5.9063028447
  0
LINE
  5
21B
100
AcDbEntity
  8
0
100
AcDbLine
 62
7
  6
CONTINUOUS
 10
3.2413949798
 20
6.2341632369
 11
3.2359051521
 21
6.2261380362
  0
LINE
  5
21C
100
AcDbEntity
  8
0
100
AcDbLine
 62
7
  6
CONTINUOUS
 10
3.0218573572
 20
5.9375279948
 11
3.0157713318
 21
5.9299449644
  0
LINE
  5
21D
100
AcDbEntity
  8
0
100
AcDbLine
 62
7
  6
CONTINUOUS
 10
3.2659217016
 20
6.2347540719
 11
3.2596717016
 21
6.2273056119
  0
LINE
  5
21E
100
AcDbEntity
  8
0
100
AcDbLine
 62
7
  6
CONTINUOUS
 10
3.0183658745
 20
5.9610656595
 11
3.011565888
 21
5.9541156782
  0
LINE
  5
21F
100
AcDbEntity
  8
0
100
AcDbLine
 62
7
  6
CONTINUOUS
 10
3.2903882324
 20
6.2329380226
 11
3.2834382512
 21
6.2261380362
  0
LINE
  5
220
100
AcDbEntity
  8
0
100
AcDbLine
 62
7
  6
CONTINUOUS
 10
3.0171982988
 20
5.9848322091
 11
3.0097498388
 21
5.9785822091
  0
LINE
  5
221
100
AcDbEntity
  8
0
100
AcDbLine
 62
7
  6
CONTINUOUS
 10
3.3145589463
 20
6.2287325788
 11
3.3069759158
 21
6.2226465535
  0
LINE
  5
222
100
AcDbEntity
  8
0
100
AcDbLine
 62
7
  6
CONTINUOUS
 10
3.0183658745
 20
6.0085987586
 11
3.0103406738
 21
6.0031089308
  0
LINE
  5
223
100
AcDbEntity
  8
0
100
AcDbLine
 62
7
  6
CONTINUOUS
 10
3.338201066
 20
6.2221782411
 11
3.3300580151
 21
6.2168647886
  0
LINE
  5
224
100
AcDbEntity
  8
0
100
AcDbLine
 62
7
  6
CONTINUOUS
 10
3.087369675
 20
6.1659730704
 11
3.0882171142
 21
6.1562867965
  0
LINE
  5
225
100
AcDbEntity
  8
0
100
AcDbLine
 62
7
  6
CONTINUOUS
 10
3.1058482033
 20
5.797397734
 11
3.1059542656
 21
5.7876750386
  0
LINE
  5
226
100
AcDbEntity
  8
0
100
AcDbLine
 62
7
  6
CONTINUOUS
 10
3.1059542656
 20
6.1819893796
 11
3.1058482033
 21
6.1722666841
  0
LINE
  5
227
100
AcDbEntity
  8
0
100
AcDbLine
 62
7
  6
CONTINUOUS
 10
3.0882171142
 20
5.8133776217
 11
3.087369675
 21
5.8036913477
  0
LINE
  5
228
100
AcDbEntity
  8
0
100
AcDbLine
 62
7
  6
CONTINUOUS
 10
3.4471061767
 20
6.1386557074
 11
3.448898956
 21
6.1482122757
  0
LINE
  5
229
100
AcDbEntity
  8
0
100
AcDbLine
 62
7
  6
CONTINUOUS
 10
3.3719720443
 20
5.7614745742
 11
3.3739728725
 21
5.7709897591
  0
LINE
  5
22A
100
AcDbEntity
  8
0
100
AcDbLine
 62
7
  6
CONTINUOUS
 10
3.4612809679
 20
6.119543214
 11
3.464001822
 21
6.1288780417
  0
LINE
  5
22B
100
AcDbEntity
  8
0
100
AcDbLine
 62
7
  6
CONTINUOUS
 10
3.3495384108
 20
5.7515427439
 11
3.3524622557
 21
5.760815995
  0
LINE
  5
22C
100
AcDbEntity
  8
0
100
AcDbLine
 62
7
  6
CONTINUOUS
 10
3.4735141516
 20
6.0991333799
 11
3.4771368772
 21
6.1081565675
  0
LINE
  5
22D
100
AcDbEntity
  8
0
100
AcDbLine
 62
7
  6
CONTINUOUS
 10
3.3262393118
 20
5.7438576185
 11
3.3300580151
 21
5.7527996296
  0
LINE
  5
22E
100
AcDbEntity
  8
0
100
AcDbLine
 62
7
  6
CONTINUOUS
 10
3.4836879157
 20
6.0776227631
 11
3.4881776239
 21
6.0862474124
  0
LINE
  5
22F
100
AcDbEntity
  8
0
100
AcDbLine
 62
7
  6
CONTINUOUS
 10
3.3022991303
 20
5.7384932103
 11
3.3069759158
 21
5.7470178647
  0
LINE
  5
230
100
AcDbEntity
  8
0
100
AcDbLine
 62
7
  6
CONTINUOUS
 10
3.4917042811
 20
6.0552185226
 11
3.4970177337
 21
6.0633615734
  0
LINE
  5
231
100
AcDbEntity
  8
0
100
AcDbLine
 62
7
  6
CONTINUOUS
 10
3.2779484234
 20
5.7355011812
 11
3.2834382512
 21
5.7435263819
  0
LINE
  5
232
100
AcDbEntity
  8
0
100
AcDbLine
 62
7
  6
CONTINUOUS
 10
3.497486046
 20
6.0321364233
 11
3.5035720714
 21
6.0397194538
  0
LINE
  5
233
100
AcDbEntity
  8
0
100
AcDbLine
 62
7
  6
CONTINUOUS
 10
3.2534217016
 20
5.7349103463
 11
3.2596717016
 21
5.7423588062
  0
LINE
  5
234
100
AcDbEntity
  8
0
100
AcDbLine
 62
7
  6
CONTINUOUS
 10
3.5009775287
 20
6.0085987586
 11
3.5077775152
 21
6.0155487399
  0
LINE
  5
235
100
AcDbEntity
  8
0
100
AcDbLine
 62
7
  6
CONTINUOUS
 10
3.2289551708
 20
5.7367263955
 11
3.2359051521
 21
5.7435263819
  0
LINE
  5
236
100
AcDbEntity
  8
0
100
AcDbLine
 62
7
  6
CONTINUOUS
 10
3.5021451044
 20
5.9848322091
 11
3.5095935644
 21
5.9910822091
  0
LINE
  5
237
100
AcDbEntity
  8
0
100
AcDbLine
 62
7
  6
CONTINUOUS
 10
3.2047844569
 20
5.7409318393
 11
3.2123674874
 21
5.7470178647
  0
LINE
  5
238
100
AcDbEntity
  8
0
100
AcDbLine
 62
7
  6
CONTINUOUS
 10
3.0218573572
 20
6.0321364233
 11
3.0133327028
 21
6.0274596378
  0
LINE
  5
239
100
AcDbEntity
  8
0
100
AcDbLine
 62
7
  6
CONTINUOUS
 10
3.361086905
 20
6.2133381314
 11
3.3524622557
 21
6.2088484231
  0
LINE
  5
23A
100
AcDbEntity
  8
0
100
AcDbLine
 62
7
  6
CONTINUOUS
 10
3.0276391221
 20
6.0552185226
 11
3.0186619299
 21
6.0513847951
  0
LINE
  5
23B
100
AcDbEntity
  8
0
100
AcDbLine
 62
7
  6
CONTINUOUS
 10
3.3829960601
 20
6.2022973847
 11
3.3739728725
 21
6.1986746591
  0
LINE
  5
23C
100
AcDbEntity
  8
0
100
AcDbLine
 62
7
  6
CONTINUOUS
 10
3.1249606967
 20
5.7832229428
 11
3.1260192391
 21
5.7735574608
  0
LINE
  5
23D
100
AcDbEntity
  8
0
100
AcDbLine
 62
7
  6
CONTINUOUS
 10
3.4134952
 20
6.1722666841
 11
3.4133891376
 21
6.1819893796
  0
LINE
  5
23E
100
AcDbEntity
  8
0
100
AcDbLine
 62
7
  6
CONTINUOUS
 10
3.4133891376
 20
5.7876750386
 11
3.4134952
 21
5.797397734
  0
LINE
  5
23F
100
AcDbEntity
  8
0
100
AcDbLine
 62
7
  6
CONTINUOUS
 10
3.431126289
 20
6.1562867965
 11
3.4319737282
 21
6.1659730704
  0
LINE
  5
240
100
AcDbEntity
  8
0
100
AcDbLine
 62
7
  6
CONTINUOUS
 10
3.3933241641
 20
5.7735574608
 11
3.3943827065
 21
5.7832229428
  0
LINE
  5
241
100
AcDbEntity
  8
0
100
AcDbLine
 62
7
  6
CONTINUOUS
 10
3.5009775287
 20
5.9610656595
 11
3.5090027294
 21
5.9665554873
  0
LINE
  5
242
100
AcDbEntity
  8
0
100
AcDbLine
 62
7
  6
CONTINUOUS
 10
3.1811423372
 20
5.747486177
 11
3.1892853881
 21
5.7527996296
  0
LINE
  5
243
100
AcDbEntity
  8
0
100
AcDbLine
 62
7
  6
CONTINUOUS
 10
3.497486046
 20
5.9375279948
 11
3.5060107004
 21
5.9422047804
  0
LINE
  5
244
100
AcDbEntity
  8
0
100
AcDbLine
 62
7
  6
CONTINUOUS
 10
3.1582564982
 20
5.7563262868
 11
3.1668811475
 21
5.760815995
  0
LINE
  5
245
100
AcDbEntity
  8
0
100
AcDbLine
 62
7
  6
CONTINUOUS
 10
3.4917042811
 20
5.9144458956
 11
3.5006462921
 21
5.9182645989
  0
LINE
  5
246
100
AcDbEntity
  8
0
100
AcDbLine
 62
7
  6
CONTINUOUS
 10
3.0356554875
 20
6.0776227631
 11
3.0263822364
 21
6.0746989183
  0
LINE
  5
247
100
AcDbEntity
  8
0
100
AcDbLine
 62
7
  6
CONTINUOUS
 10
3.4037175342
 20
6.1891623295
 11
3.3943827065
 21
6.1864414753
  0
LINE
  5
248
100
AcDbEntity
  8
0
100
AcDbLine
 62
7
  6
CONTINUOUS
 10
3.1453705307
 20
5.7709897591
 11
3.1473713589
 21
5.7614745742
  0
LINE
  5
249
100
AcDbEntity
  8
0
100
AcDbLine
 62
7
  6
CONTINUOUS
 10
3.0704444472
 20
6.1482122757
 11
3.0722372265
 21
6.1386557074
  0
LINE
  5
24A
100
AcDbEntity
  8
0
100
AcDbLine
 62
7
  6
CONTINUOUS
 10
3.3943827065
 20
6.1864414753
 11
3.3933241641
 21
6.1961069574
  0
LINE
  5
24B
100
AcDbEntity
  8
0
100
AcDbLine
 62
7
  6
CONTINUOUS
 10
3.4319737282
 20
5.8036913477
 11
3.431126289
 21
5.8133776217
  0
LINE
  5
24C
100
AcDbEntity
  8
0
100
AcDbLine
 62
7
  6
CONTINUOUS
 10
3.1363473431
 20
5.7673670335
 11
3.1453705307
 21
5.7709897591
  0
LINE
  5
24D
100
AcDbEntity
  8
0
100
AcDbLine
 62
7
  6
CONTINUOUS
 10
3.4836879157
 20
5.892041655
 11
3.4929611668
 21
5.8949654999
  0
LINE
  5
24E
100
AcDbEntity
  8
0
100
AcDbLine
 62
7
  6
CONTINUOUS
 10
3.115625869
 20
5.7805020887
 11
3.1249606967
 21
5.7832229428
  0
LINE
  5
24F
100
AcDbEntity
  8
0
100
AcDbLine
 62
7
  6
CONTINUOUS
 10
3.042206526
 20
6.1081565675
 11
3.0458292516
 21
6.0991333799
  0
LINE
  5
250
100
AcDbEntity
  8
0
100
AcDbLine
 62
7
  6
CONTINUOUS
 10
3.1668811475
 20
5.760815995
 11
3.1698049924
 21
5.7515427439
  0
LINE
  5
251
100
AcDbEntity
  8
0
100
AcDbLine
 62
7
  6
CONTINUOUS
 10
3.0553415812
 20
6.1288780417
 11
3.0580624354
 21
6.119543214
  0
LINE
  5
252
100
AcDbEntity
  8
0
100
AcDbLine
 62
7
  6
CONTINUOUS
 10
3.3739728725
 20
6.1986746591
 11
3.3719720443
 21
6.2081898439
  0
LINE
  5
253
100
AcDbEntity
  8
0
100
AcDbLine
 62
7
  6
CONTINUOUS
 10
3.448898956
 20
5.8214521424
 11
3.4471061767
 21
5.8310087107
  0
LINE
  5
254
100
AcDbEntity
  8
0
100
AcDbLine
 62
7
  6
CONTINUOUS
 10
5.012046556
 20
6.034087913
 11
5.0035219016
 21
6.0294111275
  0
LINE
  5
255
100
AcDbEntity
  8
0
100
AcDbLine
 62
7
  6
CONTINUOUS
 10
5.3649148897
 20
6.222579704
 11
5.3562902404
 21
6.2180899958
  0
LINE
  5
256
100
AcDbEntity
  8
0
100
AcDbLine
 62
7
  6
CONTINUOUS
 10
5.018066842
 20
6.058122242
 11
5.009124831
 21
6.0543035387
  0
LINE
  5
257
100
AcDbEntity
  8
0
100
AcDbLine
 62
7
  6
CONTINUOUS
 10
5.3877114445
 20
6.2111192485
 11
5.3786882569
 21
6.2074965229
  0
LINE
  5
258
100
AcDbEntity
  8
0
100
AcDbLine
 62
7
  6
CONTINUOUS
 10
5.0264139149
 20
6.0814507479
 11
5.0171406637
 21
6.078526903
  0
LINE
  5
259
100
AcDbEntity
  8
0
100
AcDbLine
 62
7
  6
CONTINUOUS
 10
5.4092749067
 20
6.1974795251
 11
5.399940079
 21
6.194758671
  0
LINE
  5
25A
100
AcDbEntity
  8
0
100
AcDbLine
 62
7
  6
CONTINUOUS
 10
3.2123674874
 20
5.7470178647
 11
3.2170442729
 21
5.7384932103
  0
LINE
  5
25B
100
AcDbEntity
  8
0
100
AcDbLine
 62
7
  6
CONTINUOUS
 10
3.0311657793
 20
6.0862474124
 11
3.0356554875
 21
6.0776227631
  0
LINE
  5
25C
100
AcDbEntity
  8
0
100
AcDbLine
 62
7
  6
CONTINUOUS
 10
3.1892853881
 20
5.7527996296
 11
3.1931040914
 21
5.7438576185
  0
LINE
  5
25D
100
AcDbEntity
  8
0
100
AcDbLine
 62
7
  6
CONTINUOUS
 10
3.3524622557
 20
6.2088484231
 11
3.3495384108
 21
6.2181216743
  0
LINE
  5
25E
100
AcDbEntity
  8
0
100
AcDbLine
 62
7
  6
CONTINUOUS
 10
3.464001822
 20
5.8407863764
 11
3.4612809679
 21
5.8501212042
  0
LINE
  5
25F
100
AcDbEntity
  8
0
100
AcDbLine
 62
7
  6
CONTINUOUS
 10
5.0084110355
 20
5.9600851935
 11
5.0016110491
 21
5.9531352122
  0
LINE
  5
260
100
AcDbEntity
  8
0
100
AcDbLine
 62
7
  6
CONTINUOUS
 10
5.2913686985
 20
6.2428928616
 11
5.2844187172
 21
6.2360928751
  0
LINE
  5
261
100
AcDbEntity
  8
0
100
AcDbLine
 62
7
  6
CONTINUOUS
 10
5.0071952926
 20
5.9848322091
 11
4.9997468327
 21
5.9785822091
  0
LINE
  5
262
100
AcDbEntity
  8
0
100
AcDbLine
 62
7
  6
CONTINUOUS
 10
5.316510436
 20
6.23854338
 11
5.3089274055
 21
6.2324573547
  0
LINE
  5
263
100
AcDbEntity
  8
0
100
AcDbLine
 62
7
  6
CONTINUOUS
 10
5.0084110355
 20
6.0095792247
 11
5.0003858348
 21
6.0040893969
  0
LINE
  5
264
100
AcDbEntity
  8
0
100
AcDbLine
 62
7
  6
CONTINUOUS
 10
5.3411047854
 20
6.2317505212
 11
5.3329617345
 21
6.2264370687
  0
LINE
  5
265
100
AcDbEntity
  8
0
100
AcDbLine
 62
7
  6
CONTINUOUS
 10
5.4929294883
 20
5.8882136703
 11
5.5022027395
 21
5.8911375151
  0
LINE
  5
266
100
AcDbEntity
  8
0
100
AcDbLine
 62
7
  6
CONTINUOUS
 10
3.2359051521
 20
5.7435263819
 11
3.2413949798
 21
5.7355011812
  0
LINE
  5
267
100
AcDbEntity
  8
0
100
AcDbLine
 62
7
  6
CONTINUOUS
 10
3.0223256696
 20
6.0633615734
 11
3.0276391221
 21
6.0552185226
  0
LINE
  5
268
100
AcDbEntity
  8
0
100
AcDbLine
 62
7
  6
CONTINUOUS
 10
3.3069759158
 20
6.2226465535
 11
3.3022991303
 21
6.2311712079
  0
LINE
  5
269
100
AcDbEntity
  8
0
100
AcDbLine
 62
7
  6
CONTINUOUS
 10
3.4881776239
 20
5.8834170057
 11
3.4836879157
 21
5.892041655
  0
LINE
  5
26A
100
AcDbEntity
  8
0
100
AcDbLine
 62
7
  6
CONTINUOUS
 10
3.3300580151
 20
6.2168647886
 11
3.3262393118
 21
6.2258067996
  0
LINE
  5
26B
100
AcDbEntity
  8
0
100
AcDbLine
 62
7
  6
CONTINUOUS
 10
3.4771368772
 20
5.8615078506
 11
3.4735141516
 21
5.8705310382
  0
LINE
  5
26C
100
AcDbEntity
  8
0
100
AcDbLine
 62
7
  6
CONTINUOUS
 10
5.0264139149
 20
5.8882136703
 11
5.0219242066
 21
5.879589021
  0
LINE
  5
26D
100
AcDbEntity
  8
0
100
AcDbLine
 62
7
  6
CONTINUOUS
 10
5.2150927832
 20
6.2409820091
 11
5.2104159977
 21
6.2324573547
  0
LINE
  5
26E
100
AcDbEntity
  8
0
100
AcDbLine
 62
7
  6
CONTINUOUS
 10
5.018066842
 20
5.9115421762
 11
5.0127533895
 21
5.9033991253
  0
LINE
  5
26F
100
AcDbEntity
  8
0
100
AcDbLine
 62
7
  6
CONTINUOUS
 10
5.2404145138
 20
6.2441180759
 11
5.234924686
 21
6.2360928751
  0
LINE
  5
270
100
AcDbEntity
  8
0
100
AcDbLine
 62
7
  6
CONTINUOUS
 10
5.012046556
 20
5.9355765051
 11
5.0059605306
 21
5.9279934747
  0
LINE
  5
271
100
AcDbEntity
  8
0
100
AcDbLine
 62
7
  6
CONTINUOUS
 10
5.2659217016
 20
6.244757078
 11
5.2596717016
 21
6.2373086181
  0
LINE
  5
272
100
AcDbEntity
  8
0
100
AcDbLine
 62
7
  6
CONTINUOUS
 10
5.5121481106
 20
5.9848322091
 11
5.5195965706
 21
5.9910822091
  0
LINE
  5
273
100
AcDbEntity
  8
0
100
AcDbLine
 62
7
  6
CONTINUOUS
 10
5.5109323677
 20
5.9600851935
 11
5.5189575684
 21
5.9655750213
  0
LINE
  5
274
100
AcDbEntity
  8
0
100
AcDbLine
 62
7
  6
CONTINUOUS
 10
5.5072968472
 20
5.9355765051
 11
5.5158215016
 21
5.9402532907
  0
LINE
  5
275
100
AcDbEntity
  8
0
100
AcDbLine
 62
7
  6
CONTINUOUS
 10
5.5012765612
 20
5.9115421762
 11
5.5102185722
 21
5.9153608795
  0
LINE
  5
276
100
AcDbEntity
  8
0
100
AcDbLine
 62
7
  6
CONTINUOUS
 10
7.0356554875
 20
6.0776227631
 11
7.0263822364
 21
6.0746989183
  0
LINE
  5
277
100
AcDbEntity
  8
0
100
AcDbLine
 62
7
  6
CONTINUOUS
 10
7.4037175342
 20
6.1891623295
 11
7.3943827065
 21
6.1864414753
  0
LINE
  5
278
100
AcDbEntity
  8
0
100
AcDbLine
 62
7
  6
CONTINUOUS
 10
3.2596717016
 20
5.7423588062
 11
3.2659217016
 21
5.7349103463
  0
LINE
  5
279
100
AcDbEntity
  8
0
100
AcDbLine
 62
7
  6
CONTINUOUS
 10
3.0157713318
 20
6.0397194538
 11
3.0218573572
 21
6.0321364233
  0
LINE
  5
27A
100
AcDbEntity
  8
0
100
AcDbLine
 62
7
  6
CONTINUOUS
 10
3.2834382512
 20
6.2261380362
 11
3.2779484234
 21
6.2341632369
  0
LINE
  5
27B
100
AcDbEntity
  8
0
100
AcDbLine
 62
7
  6
CONTINUOUS
 10
3.4970177337
 20
5.9063028447
 11
3.4917042811
 21
5.9144458956
  0
LINE
  5
27C
100
AcDbEntity
  8
0
100
AcDbLine
 62
7
  6
CONTINUOUS
 10
5.0223256696
 20
3.095295018
 11
5.0223498923
 21
3.0952231652
  0
LINE
  5
27D
100
AcDbEntity
  8
0
100
AcDbLine
 62
7
  6
CONTINUOUS
 10
5.1659770077
 20
6.2273632469
 11
5.1630531628
 21
6.2180899958
  0
LINE
  5
27E
100
AcDbEntity
  8
0
100
AcDbLine
 62
7
  6
CONTINUOUS
 10
5.0370073878
 20
5.8658156537
 11
5.0333846621
 21
5.8567924661
  0
LINE
  5
27F
100
AcDbEntity
  8
0
100
AcDbLine
 62
7
  6
CONTINUOUS
 10
5.190200372
 20
6.2353790797
 11
5.1863816687
 21
6.2264370687
  0
LINE
  5
280
100
AcDbEntity
  8
0
100
AcDbLine
 62
7
  6
CONTINUOUS
 10
5.5012765612
 20
6.058122242
 11
5.5065900137
 21
6.0662652929
  0
LINE
  5
281
100
AcDbEntity
  8
0
100
AcDbLine
 62
7
  6
CONTINUOUS
 10
5.5072968472
 20
6.034087913
 11
5.5133828726
 21
6.0416709435
  0
LINE
  5
282
100
AcDbEntity
  8
0
100
AcDbLine
 62
7
  6
CONTINUOUS
 10
5.5109323677
 20
6.0095792247
 11
5.5177323541
 21
6.016529206
  0
LINE
  5
283
100
AcDbEntity
  8
0
100
AcDbLine
 62
7
  6
CONTINUOUS
 10
7.0276391221
 20
6.0552185226
 11
7.0186971111
 21
6.0513998192
  0
LINE
  5
284
100
AcDbEntity
  8
0
100
AcDbLine
 62
7
  6
CONTINUOUS
 10
7.3829960601
 20
6.2022973847
 11
7.3739728725
 21
6.1986746591
  0
LINE
  5
285
100
AcDbEntity
  8
0
100
AcDbLine
 62
7
  6
CONTINUOUS
 10
7.115625869
 20
5.7805020887
 11
7.1249606967
 21
5.7832229428
  0
LINE
  5
286
100
AcDbEntity
  8
0
100
AcDbLine
 62
7
  6
CONTINUOUS
 10
3.0097498388
 20
5.9910822091
 11
3.0171982988
 21
5.9848322091
  0
LINE
  5
287
100
AcDbEntity
  8
0
100
AcDbLine
 62
7
  6
CONTINUOUS
 10
3.2834382512
 20
5.7435263819
 11
3.2903882324
 21
5.7367263955
  0
LINE
  5
288
100
AcDbEntity
  8
0
100
AcDbLine
 62
7
  6
CONTINUOUS
 10
3.011565888
 20
6.0155487399
 11
3.0183658745
 21
6.0085987586
  0
LINE
  5
289
100
AcDbEntity
  8
0
100
AcDbLine
 62
7
  6
CONTINUOUS
 10
3.2596717016
 20
6.2273056119
 11
3.2534217016
 21
6.2347540719
  0
LINE
  5
28A
100
AcDbEntity
  8
0
100
AcDbLine
 62
7
  6
CONTINUOUS
 10
3.5035720714
 20
5.9299449644
 11
3.497486046
 21
5.9375279948
  0
LINE
  5
28B
100
AcDbEntity
  8
0
100
AcDbLine
 62
7
  6
CONTINUOUS
 10
5.0132364555
 20
3.131402098
 11
5.0133327028
 21
3.1308475585
  0
LINE
  5
28C
100
AcDbEntity
  8
0
100
AcDbLine
 62
7
  6
CONTINUOUS
 10
5.0157713318
 20
3.1187070542
 11
5.0157768535
 21
3.1186494893
  0
LINE
  5
28D
100
AcDbEntity
  8
0
100
AcDbLine
 62
7
  6
CONTINUOUS
 10
5.0133373108
 20
3.1307950374
 11
5.0133327028
 21
3.1308475585
  0
LINE
  5
28E
100
AcDbEntity
  8
0
100
AcDbLine
 62
7
  6
CONTINUOUS
 10
5.0101980089
 20
3.1570044593
 11
5.0102314933
 21
3.1565021469
  0
LINE
  5
28F
100
AcDbEntity
  8
0
100
AcDbLine
 62
7
  6
CONTINUOUS
 10
5.011565888
 20
3.1426425404
 11
5.011567752
 21
3.1426083846
  0
LINE
  5
290
100
AcDbEntity
  8
0
100
AcDbLine
 62
7
  6
CONTINUOUS
 10
5.009905228
 20
3.16238164
 11
5.0099154544
 21
3.1621502382
  0
LINE
  5
291
100
AcDbEntity
  8
0
100
AcDbLine
 62
7
  6
CONTINUOUS
 10
5.0103414089
 20
3.1549393404
 11
5.0103406738
 21
3.1549612861
  0
LINE
  5
292
100
AcDbEntity
  8
0
100
AcDbLine
 62
7
  6
CONTINUOUS
 10
5.0097498388
 20
3.1668709646
 11
5.0097498958
 21
3.1668636719
  0
LINE
  5
293
100
AcDbEntity
  8
0
100
AcDbLine
 62
7
  6
CONTINUOUS
 10
5.0097498388
 20
3.2314392282
 11
5.0097498388
 21
3.1668709646
  0
LINE
  5
294
100
AcDbEntity
  8
0
100
AcDbLine
 62
7
  6
CONTINUOUS
 10
5.0103406738
 20
3.2071511989
 11
5.0103406738
 21
3.1549612861
  0
LINE
  5
295
100
AcDbEntity
  8
0
100
AcDbLine
 62
7
  6
CONTINUOUS
 10
5.011565888
 20
3.2556676526
 11
5.011565888
 21
3.2449825049
  0
LINE
  5
296
100
AcDbEntity
  8
0
100
AcDbLine
 62
7
  6
CONTINUOUS
 10
5.011565888
 20
3.1948324532
 11
5.011565888
 21
3.1426425404
  0
LINE
  5
297
100
AcDbEntity
  8
0
100
AcDbLine
 62
7
  6
CONTINUOUS
 10
5.0133327028
 20
3.1830374714
 11
5.0133327028
 21
3.1308475585
  0
LINE
  5
298
100
AcDbEntity
  8
0
100
AcDbLine
 62
7
  6
CONTINUOUS
 10
5.0157713318
 20
3.2796031387
 11
5.0157713318
 21
3.2698680649
  0
LINE
  5
299
100
AcDbEntity
  8
0
100
AcDbLine
 62
7
  6
CONTINUOUS
 10
5.0157713318
 20
3.1708969671
 11
5.0157713318
 21
3.1187070542
  0
LINE
  5
29A
100
AcDbEntity
  8
0
100
AcDbLine
 62
7
  6
CONTINUOUS
 10
5.0186971111
 20
3.1593302741
 11
5.0186971111
 21
3.1071403613
  0
LINE
  5
29B
100
AcDbEntity
  8
0
100
AcDbLine
 62
7
  6
CONTINUOUS
 10
5.0223256696
 20
3.3030151749
 11
5.0223256696
 21
3.2939693872
  0
LINE
  5
29C
100
AcDbEntity
  8
0
100
AcDbLine
 62
7
  6
CONTINUOUS
 10
5.0223256696
 20
3.1474849309
 11
5.0223256696
 21
3.095295018
  0
LINE
  5
29D
100
AcDbEntity
  8
0
100
AcDbLine
 62
7
  6
CONTINUOUS
 10
5.0263822364
 20
3.1362579203
 11
5.0263822364
 21
3.0840680075
  0
LINE
  5
29E
100
AcDbEntity
  8
0
100
AcDbLine
 62
7
  6
CONTINUOUS
 10
5.0311657793
 20
3.3256782905
 11
5.0311657793
 21
3.317139367
  0
LINE
  5
29F
100
AcDbEntity
  8
0
100
AcDbLine
 62
7
  6
CONTINUOUS
 10
5.0311657793
 20
3.1248218153
 11
5.0311657793
 21
3.0726319025
  0
LINE
  5
2A0
100
AcDbEntity
  8
0
100
AcDbLine
 62
7
  6
CONTINUOUS
 10
5.0363140668
 20
3.1140426094
 11
5.0363140668
 21
3.0618526966
  0
LINE
  5
2A1
100
AcDbEntity
  8
0
100
AcDbLine
 62
7
  6
CONTINUOUS
 10
5.0097498388
 20
3.2314392282
 11
5.0097498964
 21
3.2314465206
  0
LINE
  5
2A2
100
AcDbEntity
  8
0
100
AcDbLine
 62
7
  6
CONTINUOUS
 10
5.1204618667
 20
6.204424153
 11
5.1194033242
 21
6.194758671
  0
LINE
  5
2A3
100
AcDbEntity
  8
0
100
AcDbLine
 62
7
  6
CONTINUOUS
 10
5.1426559745
 20
6.2170117077
 11
5.1406551463
 21
6.2074965229
  0
LINE
  5
2A4
100
AcDbEntity
  8
0
100
AcDbLine
 62
7
  6
CONTINUOUS
 10
5.4823360154
 20
6.1038487644
 11
5.4859587411
 21
6.112871952
  0
LINE
  5
2A5
100
AcDbEntity
  8
0
100
AcDbLine
 62
7
  6
CONTINUOUS
 10
5.4929294883
 20
6.0814507479
 11
5.4974191966
 21
6.0900753971
  0
LINE
  5
2A6
100
AcDbEntity
  8
0
100
AcDbLine
 62
7
  6
CONTINUOUS
 10
7.0218573572
 20
6.0321364233
 11
7.0133327028
 21
6.0274596378
  0
LINE
  5
2A7
100
AcDbEntity
  8
0
100
AcDbLine
 62
7
  6
CONTINUOUS
 10
7.361086905
 20
6.2133381314
 11
7.3524622557
 21
6.2088484231
  0
LINE
  5
2A8
100
AcDbEntity
  8
0
100
AcDbLine
 62
7
  6
CONTINUOUS
 10
7.1363473431
 20
5.7673670335
 11
7.1453705307
 21
5.7709897591
  0
LINE
  5
2A9
100
AcDbEntity
  8
0
100
AcDbLine
 62
7
  6
CONTINUOUS
 10
7.4836879157
 20
5.892041655
 11
7.4929611668
 21
5.8949654999
  0
LINE
  5
2AA
100
AcDbEntity
  8
0
100
AcDbLine
 62
7
  6
CONTINUOUS
 10
3.0103406738
 20
5.9665554873
 11
3.0183658745
 21
5.9610656595
  0
LINE
  5
2AB
100
AcDbEntity
  8
0
100
AcDbLine
 62
7
  6
CONTINUOUS
 10
3.3069759158
 20
5.7470178647
 11
3.3145589463
 21
5.7409318393
  0
LINE
  5
2AC
100
AcDbEntity
  8
0
100
AcDbLine
 62
7
  6
CONTINUOUS
 10
3.2359051521
 20
6.2261380362
 11
3.2289551708
 21
6.2329380226
  0
LINE
  5
2AD
100
AcDbEntity
  8
0
100
AcDbLine
 62
7
  6
CONTINUOUS
 10
3.5077775152
 20
5.9541156782
 11
3.5009775287
 21
5.9610656595
  0
LINE
  5
2AE
100
AcDbEntity
  8
0
100
AcDbLine
 62
7
  6
CONTINUOUS
 10
5.0187091441
 20
3.1070571949
 11
5.0186971111
 21
3.1071403613
  0
LINE
  5
2AF
100
AcDbEntity
  8
0
100
AcDbLine
 62
7
  6
CONTINUOUS
 10
5.0802964816
 20
6.1730462639
 11
5.0811439207
 21
6.16335999
  0
LINE
  5
2B0
100
AcDbEntity
  8
0
100
AcDbLine
 62
7
  6
CONTINUOUS
 10
5.0409217016
 20
5.9848322091
 11
5.0409217016
 21
3.2273376494
  0
LINE
  5
2B1
100
AcDbEntity
  8
0
100
AcDbLine
 62
7
  6
CONTINUOUS
 10
5.042206526
 20
3.1031258786
 11
5.042206526
 21
3.0509359657
  0
LINE
  5
2B2
100
AcDbEntity
  8
0
100
AcDbLine
 62
7
  6
CONTINUOUS
 10
5.0483969533
 20
3.092898287
 11
5.0483969533
 21
3.0407083741
  0
LINE
  5
2B3
100
AcDbEntity
  8
0
100
AcDbLine
 62
7
  6
CONTINUOUS
 10
5.0553415812
 20
3.0826060644
 11
5.0553415812
 21
3.0304161515
  0
LINE
  5
2B4
100
AcDbEntity
  8
0
100
AcDbLine
 62
7
  6
CONTINUOUS
 10
5.0625145311
 20
3.0730285844
 11
5.0625145311
 21
3.0208386716
  0
LINE
  5
2B5
100
AcDbEntity
  8
0
100
AcDbLine
 62
7
  6
CONTINUOUS
 10
5.0704444472
 20
3.0634599898
 11
5.0704444472
 21
3.011270077
  0
LINE
  5
2B6
100
AcDbEntity
  8
0
100
AcDbLine
 62
7
  6
CONTINUOUS
 10
5.0785308403
 20
3.0546248578
 11
5.0785308403
 21
3.0024349449
  0
LINE
  5
2B7
100
AcDbEntity
  8
0
100
AcDbLine
 62
7
  6
CONTINUOUS
 10
5.087369675
 20
3.045872042
 11
5.087369675
 21
2.9936821291
  0
LINE
  5
2B8
100
AcDbEntity
  8
0
100
AcDbLine
 62
7
  6
CONTINUOUS
 10
5.096291635
 20
3.0378643451
 11
5.096291635
 21
2.9856744322
  0
LINE
  5
2B9
100
AcDbEntity
  8
0
100
AcDbLine
 62
7
  6
CONTINUOUS
 10
5.1058482033
 20
2.9856397207
 11
5.1058482033
 21
3.041449721
  0
LINE
  5
2BA
100
AcDbEntity
  8
0
100
AcDbLine
 62
7
  6
CONTINUOUS
 10
5.1059542656
 20
3.0300116024
 11
5.1059542656
 21
2.9778216896
  0
LINE
  5
2BB
100
AcDbEntity
  8
0
100
AcDbLine
 62
7
  6
CONTINUOUS
 10
5.115625869
 20
3.0229084592
 11
5.115625869
 21
2.9707185463
  0
LINE
  5
2BC
100
AcDbEntity
  8
0
100
AcDbLine
 62
7
  6
CONTINUOUS
 10
5.1249606967
 20
2.9716028776
 11
5.1249606967
 21
3.0274128779
  0
LINE
  5
2BD
100
AcDbEntity
  8
0
100
AcDbLine
 62
7
  6
CONTINUOUS
 10
5.1260192391
 20
3.0160314159
 11
5.1260192391
 21
2.963841503
  0
LINE
  5
2BE
100
AcDbEntity
  8
0
100
AcDbLine
 62
7
  6
CONTINUOUS
 10
5.1363473431
 20
3.0099012334
 11
5.1363473431
 21
2.9577113206
  0
LINE
  5
2BF
100
AcDbEntity
  8
0
100
AcDbLine
 62
7
  6
CONTINUOUS
 10
5.1453705307
 20
2.9594887464
 11
5.1453705307
 21
3.0152987466
  0
LINE
  5
2C0
100
AcDbEntity
  8
0
100
AcDbLine
 62
7
  6
CONTINUOUS
 10
5.1473713589
 20
3.0040661192
 11
5.1473713589
 21
2.9518762064
  0
LINE
  5
2C1
100
AcDbEntity
  8
0
100
AcDbLine
 62
7
  6
CONTINUOUS
 10
5.1582564982
 20
2.9989679345
 11
5.1582564982
 21
2.9467780217
  0
LINE
  5
2C2
100
AcDbEntity
  8
0
100
AcDbLine
 62
7
  6
CONTINUOUS
 10
5.1668811475
 20
2.9494139927
 11
5.1668811475
 21
3.0052239929
  0
LINE
  5
2C3
100
AcDbEntity
  8
0
100
AcDbLine
 62
7
  6
CONTINUOUS
 10
5.1698049924
 20
2.9942309447
 11
5.1698049924
 21
2.9420410319
  0
LINE
  5
2C4
100
AcDbEntity
  8
0
100
AcDbLine
 62
7
  6
CONTINUOUS
 10
5.1811423372
 20
2.9902138561
 11
5.1811423372
 21
2.9380239432
  0
LINE
  5
2C5
100
AcDbEntity
  8
0
100
AcDbLine
 62
7
  6
CONTINUOUS
 10
5.1892853881
 20
2.9414756419
 11
5.1892853881
 21
2.9972856422
  0
LINE
  5
2C6
100
AcDbEntity
  8
0
100
AcDbLine
 62
7
  6
CONTINUOUS
 10
5.1931040914
 20
2.9866206105
 11
5.1931040914
 21
2.9344306977
  0
LINE
  5
2C7
100
AcDbEntity
  8
0
100
AcDbLine
 62
7
  6
CONTINUOUS
 10
5.2047844569
 20
2.9837233048
 11
5.2047844569
 21
2.9315333919
  0
LINE
  5
2C8
100
AcDbEntity
  8
0
100
AcDbLine
 62
7
  6
CONTINUOUS
 10
5.2123674874
 20
2.9357501448
 11
5.2123674874
 21
2.991560145
  0
LINE
  5
2C9
100
AcDbEntity
  8
0
100
AcDbLine
 62
7
  6
CONTINUOUS
 10
5.2170442729
 20
2.9813084083
 11
5.2170442729
 21
2.9291184954
  0
LINE
  5
2CA
100
AcDbEntity
  8
0
100
AcDbLine
 62
7
  6
CONTINUOUS
 10
5.2289551708
 20
2.979558788
 11
5.2289551708
 21
2.9273688752
  0
LINE
  5
2CB
100
AcDbEntity
  8
0
100
AcDbLine
 62
7
  6
CONTINUOUS
 10
5.2359051521
 20
2.9322926409
 11
5.2359051521
 21
2.9881026412
  0
LINE
  5
2CC
100
AcDbEntity
  8
0
100
AcDbLine
 62
7
  6
CONTINUOUS
 10
5.2413949798
 20
2.9783454975
 11
5.2413949798
 21
2.9261555846
  0
LINE
  5
2CD
100
AcDbEntity
  8
0
100
AcDbLine
 62
7
  6
CONTINUOUS
 10
5.2534217016
 20
2.9777604125
 11
5.2534217016
 21
2.9255704996
  0
LINE
  5
2CE
100
AcDbEntity
  8
0
100
AcDbLine
 62
7
  6
CONTINUOUS
 10
5.2596717016
 20
2.931136428
 11
5.2596717016
 21
2.9869464282
  0
LINE
  5
2CF
100
AcDbEntity
  8
0
100
AcDbLine
 62
7
  6
CONTINUOUS
 10
5.2659217016
 20
2.9777604125
 11
5.2659217016
 21
2.9255704996
  0
LINE
  5
2D0
100
AcDbEntity
  8
0
100
AcDbLine
 62
7
  6
CONTINUOUS
 10
5.2779484234
 20
2.9783454975
 11
5.2779484234
 21
2.9261555846
  0
LINE
  5
2D1
100
AcDbEntity
  8
0
100
AcDbLine
 62
7
  6
CONTINUOUS
 10
5.2834382512
 20
2.9322926409
 11
5.2834382512
 21
2.9881026412
  0
LINE
  5
2D2
100
AcDbEntity
  8
0
100
AcDbLine
 62
7
  6
CONTINUOUS
 10
5.2903882324
 20
2.979558788
 11
5.2903882324
 21
2.9273688752
  0
LINE
  5
2D3
100
AcDbEntity
  8
0
100
AcDbLine
 62
7
  6
CONTINUOUS
 10
5.0996084257
 20
6.1897218079
 11
5.0995023633
 21
6.1799991125
  0
LINE
  5
2D4
100
AcDbEntity
  8
0
100
AcDbLine
 62
7
  6
CONTINUOUS
 10
5.011565888
 20
3.2556676526
 11
5.0115677535
 21
3.2557018067
  0
LINE
  5
2D5
100
AcDbEntity
  8
0
100
AcDbLine
 62
7
  6
CONTINUOUS
 10
5.0157713318
 20
3.2796031387
 11
5.0157768555
 21
3.2796607011
  0
LINE
  5
2D6
100
AcDbEntity
  8
0
100
AcDbLine
 62
7
  6
CONTINUOUS
 10
5.454838605
 20
6.1450015473
 11
5.4566313844
 21
6.1545581156
  0
LINE
  5
2D7
100
AcDbEntity
  8
0
100
AcDbLine
 62
7
  6
CONTINUOUS
 10
5.4695981635
 20
6.1251005864
 11
5.4723190177
 21
6.1344354142
  0
LINE
  5
2D8
100
AcDbEntity
  8
0
100
AcDbLine
 62
7
  6
CONTINUOUS
 10
7.0183658745
 20
6.0085987586
 11
7.0103406738
 21
6.0031089308
  0
LINE
  5
2D9
100
AcDbEntity
  8
0
100
AcDbLine
 62
7
  6
CONTINUOUS
 10
7.338201066
 20
6.2221782411
 11
7.3300580151
 21
6.2168647886
  0
LINE
  5
2DA
100
AcDbEntity
  8
0
100
AcDbLine
 62
7
  6
CONTINUOUS
 10
7.497486046
 20
5.9375279948
 11
7.5060107004
 21
5.9422047804
  0
LINE
  5
2DB
100
AcDbEntity
  8
0
100
AcDbLine
 62
7
  6
CONTINUOUS
 10
7.1582564982
 20
5.7563262868
 11
7.1668811475
 21
5.760815995
  0
LINE
  5
2DC
100
AcDbEntity
  8
0
100
AcDbLine
 62
7
  6
CONTINUOUS
 10
7.4917042811
 20
5.9144458956
 11
7.5006814733
 21
5.9182796231
  0
LINE
  5
2DD
100
AcDbEntity
  8
0
100
AcDbLine
 62
7
  6
CONTINUOUS
 10
3.3524622557
 20
5.760815995
 11
3.361086905
 21
5.7563262868
  0
LINE
  5
2DE
100
AcDbEntity
  8
0
100
AcDbLine
 62
7
  6
CONTINUOUS
 10
3.0133327028
 20
5.9422047804
 11
3.0218573572
 21
5.9375279948
  0
LINE
  5
2DF
100
AcDbEntity
  8
0
100
AcDbLine
 62
7
  6
CONTINUOUS
 10
3.3300580151
 20
5.7527996296
 11
3.338201066
 21
5.747486177
  0
LINE
  5
2E0
100
AcDbEntity
  8
0
100
AcDbLine
 62
7
  6
CONTINUOUS
 10
3.2123674874
 20
6.2226465535
 11
3.2047844569
 21
6.2287325788
  0
LINE
  5
2E1
100
AcDbEntity
  8
0
100
AcDbLine
 62
7
  6
CONTINUOUS
 10
3.5095935644
 20
5.9785822091
 11
3.5021451044
 21
5.9848322091
  0
LINE
  5
2E2
100
AcDbEntity
  8
0
100
AcDbLine
 62
7
  6
CONTINUOUS
 10
5.5035665496
 20
3.2796607034
 11
5.5035720714
 21
3.2796031387
  0
LINE
  5
2E3
100
AcDbEntity
  8
0
100
AcDbLine
 62
7
  6
CONTINUOUS
 10
5.5077756511
 20
3.2557018081
 11
5.5077775152
 21
3.2556676526
  0
LINE
  5
2E4
100
AcDbEntity
  8
0
100
AcDbLine
 62
7
  6
CONTINUOUS
 10
5.4198410399
 20
6.1799991125
 11
5.4197349775
 21
6.1897218079
  0
LINE
  5
2E5
100
AcDbEntity
  8
0
100
AcDbLine
 62
7
  6
CONTINUOUS
 10
5.5095935071
 20
3.2314465208
 11
5.5095935644
 21
3.2314392283
  0
LINE
  5
2E6
100
AcDbEntity
  8
0
100
AcDbLine
 62
7
  6
CONTINUOUS
 10
5.3022991303
 20
2.9813084083
 11
5.3022991303
 21
2.9291184954
  0
LINE
  5
2E7
100
AcDbEntity
  8
0
100
AcDbLine
 62
7
  6
CONTINUOUS
 10
5.3069759158
 20
2.9357501448
 11
5.3069759158
 21
2.991560145
  0
LINE
  5
2E8
100
AcDbEntity
  8
0
100
AcDbLine
 62
7
  6
CONTINUOUS
 10
5.3145589463
 20
2.9837233048
 11
5.3145589463
 21
2.9315333919
  0
LINE
  5
2E9
100
AcDbEntity
  8
0
100
AcDbLine
 62
7
  6
CONTINUOUS
 10
5.3262393118
 20
2.9866206105
 11
5.3262393118
 21
2.9344306977
  0
LINE
  5
2EA
100
AcDbEntity
  8
0
100
AcDbLine
 62
7
  6
CONTINUOUS
 10
5.3300580151
 20
2.9414756419
 11
5.3300580151
 21
2.9972856422
  0
LINE
  5
2EB
100
AcDbEntity
  8
0
100
AcDbLine
 62
7
  6
CONTINUOUS
 10
5.338201066
 20
2.9902138561
 11
5.338201066
 21
2.9380239432
  0
LINE
  5
2EC
100
AcDbEntity
  8
0
100
AcDbLine
 62
7
  6
CONTINUOUS
 10
5.3495384108
 20
2.9942309447
 11
5.3495384108
 21
2.9420410319
  0
LINE
  5
2ED
100
AcDbEntity
  8
0
100
AcDbLine
 62
7
  6
CONTINUOUS
 10
5.3524622557
 20
2.9494139927
 11
5.3524622557
 21
3.0052239929
  0
LINE
  5
2EE
100
AcDbEntity
  8
0
100
AcDbLine
 62
7
  6
CONTINUOUS
 10
5.361086905
 20
2.9989679345
 11
5.361086905
 21
2.9467780217
  0
LINE
  5
2EF
100
AcDbEntity
  8
0
100
AcDbLine
 62
7
  6
CONTINUOUS
 10
5.3719720443
 20
3.0040661192
 11
5.3719720443
 21
2.9518762064
  0
LINE
  5
2F0
100
AcDbEntity
  8
0
100
AcDbLine
 62
7
  6
CONTINUOUS
 10
5.3739728725
 20
2.9594887464
 11
5.3739728725
 21
3.0152987466
  0
LINE
  5
2F1
100
AcDbEntity
  8
0
100
AcDbLine
 62
7
  6
CONTINUOUS
 10
5.3829960601
 20
3.0099012334
 11
5.3829960601
 21
2.9577113206
  0
LINE
  5
2F2
100
AcDbEntity
  8
0
100
AcDbLine
 62
7
  6
CONTINUOUS
 10
5.3933241641
 20
3.0160314159
 11
5.3933241641
 21
2.963841503
  0
LINE
  5
2F3
100
AcDbEntity
  8
0
100
AcDbLine
 62
7
  6
CONTINUOUS
 10
5.3943827065
 20
2.9716028776
 11
5.3943827065
 21
3.0274128779
  0
LINE
  5
2F4
100
AcDbEntity
  8
0
100
AcDbLine
 62
7
  6
CONTINUOUS
 10
5.4037175342
 20
3.0229084592
 11
5.4037175342
 21
2.9707185463
  0
LINE
  5
2F5
100
AcDbEntity
  8
0
100
AcDbLine
 62
7
  6
CONTINUOUS
 10
5.4133891376
 20
3.0300116024
 11
5.4133891376
 21
2.9778216896
  0
LINE
  5
2F6
100
AcDbEntity
  8
0
100
AcDbLine
 62
7
  6
CONTINUOUS
 10
5.4134952
 20
2.9856397207
 11
5.4134952
 21
3.041449721
  0
LINE
  5
2F7
100
AcDbEntity
  8
0
100
AcDbLine
 62
7
  6
CONTINUOUS
 10
5.4230517683
 20
3.0378643451
 11
5.4230517683
 21
2.9856744322
  0
LINE
  5
2F8
100
AcDbEntity
  8
0
100
AcDbLine
 62
7
  6
CONTINUOUS
 10
5.4319737282
 20
3.045872042
 11
5.4319737282
 21
2.9936821291
  0
LINE
  5
2F9
100
AcDbEntity
  8
0
100
AcDbLine
 62
7
  6
CONTINUOUS
 10
5.4408125629
 20
3.0546248578
 11
5.4408125629
 21
3.0024349449
  0
LINE
  5
2FA
100
AcDbEntity
  8
0
100
AcDbLine
 62
7
  6
CONTINUOUS
 10
5.448898956
 20
3.0634599898
 11
5.448898956
 21
3.011270077
  0
LINE
  5
2FB
100
AcDbEntity
  8
0
100
AcDbLine
 62
7
  6
CONTINUOUS
 10
5.4568288721
 20
3.0730285844
 11
5.4568288721
 21
3.0208386716
  0
LINE
  5
2FC
100
AcDbEntity
  8
0
100
AcDbLine
 62
7
  6
CONTINUOUS
 10
5.464001822
 20
3.0826060644
 11
5.464001822
 21
3.0304161515
  0
LINE
  5
2FD
100
AcDbEntity
  8
0
100
AcDbLine
 62
7
  6
CONTINUOUS
 10
5.4709464499
 20
3.092898287
 11
5.4709464499
 21
3.0407083741
  0
LINE
  5
2FE
100
AcDbEntity
  8
0
100
AcDbLine
 62
7
  6
CONTINUOUS
 10
5.4771368772
 20
3.1031258786
 11
5.4771368772
 21
3.0509359657
  0
LINE
  5
2FF
100
AcDbEntity
  8
0
100
AcDbLine
 62
7
  6
CONTINUOUS
 10
5.4784217016
 20
5.9848322091
 11
5.4784217016
 21
3.2273376494
  0
LINE
  5
300
100
AcDbEntity
  8
0
100
AcDbLine
 62
7
  6
CONTINUOUS
 10
5.4830293364
 20
3.1140426094
 11
5.4830293364
 21
3.0618526966
  0
LINE
  5
301
100
AcDbEntity
  8
0
100
AcDbLine
 62
7
  6
CONTINUOUS
 10
5.4881776239
 20
3.3256782905
 11
5.4881776239
 21
3.3171393661
  0
LINE
  5
302
100
AcDbEntity
  8
0
100
AcDbLine
 62
7
  6
CONTINUOUS
 10
5.4881776239
 20
3.1248218153
 11
5.4881776239
 21
3.0726319025
  0
LINE
  5
303
100
AcDbEntity
  8
0
100
AcDbLine
 62
7
  6
CONTINUOUS
 10
5.4929611668
 20
3.1362579203
 11
5.4929611668
 21
3.0840680075
  0
LINE
  5
304
100
AcDbEntity
  8
0
100
AcDbLine
 62
7
  6
CONTINUOUS
 10
5.4970177337
 20
3.3030151749
 11
5.4970177337
 21
3.2939693865
  0
LINE
  5
305
100
AcDbEntity
  8
0
100
AcDbLine
 62
7
  6
CONTINUOUS
 10
5.4970177337
 20
3.1474849309
 11
5.4970177337
 21
3.095295018
  0
LINE
  5
306
100
AcDbEntity
  8
0
100
AcDbLine
 62
7
  6
CONTINUOUS
 10
5.5006462921
 20
3.1593302741
 11
5.5006462921
 21
3.1071403613
  0
LINE
  5
307
100
AcDbEntity
  8
0
100
AcDbLine
 62
7
  6
CONTINUOUS
 10
5.5035720714
 20
3.2796031387
 11
5.5035720714
 21
3.2698680645
  0
LINE
  5
308
100
AcDbEntity
  8
0
100
AcDbLine
 62
7
  6
CONTINUOUS
 10
5.5035720714
 20
3.1708969671
 11
5.5035720714
 21
3.1187070542
  0
LINE
  5
309
100
AcDbEntity
  8
0
100
AcDbLine
 62
7
  6
CONTINUOUS
 10
5.5060107004
 20
3.1830374714
 11
5.5060107004
 21
3.1308475585
  0
LINE
  5
30A
100
AcDbEntity
  8
0
100
AcDbLine
 62
7
  6
CONTINUOUS
 10
5.5077775152
 20
3.2556676526
 11
5.5077775152
 21
3.2449825049
  0
LINE
  5
30B
100
AcDbEntity
  8
0
100
AcDbLine
 62
7
  6
CONTINUOUS
 10
5.5077775152
 20
3.1948324532
 11
5.5077775152
 21
3.1426425404
  0
LINE
  5
30C
100
AcDbEntity
  8
0
100
AcDbLine
 62
7
  6
CONTINUOUS
 10
5.5090027294
 20
3.2071511989
 11
5.5090027294
 21
3.1549612861
  0
LINE
  5
30D
100
AcDbEntity
  8
0
100
AcDbLine
 62
7
  6
CONTINUOUS
 10
5.5095935644
 20
3.2314392283
 11
5.5095935644
 21
3.1668709646
  0
LINE
  5
30E
100
AcDbEntity
  8
0
100
AcDbLine
 62
7
  6
CONTINUOUS
 10
5.509593507
 20
3.1668636722
 11
5.5095935644
 21
3.1668709646
  0
LINE
  5
30F
100
AcDbEntity
  8
0
100
AcDbLine
 62
7
  6
CONTINUOUS
 10
5.4381994825
 20
6.16335999
 11
5.4390469217
 21
6.1730462639
  0
LINE
  5
310
100
AcDbEntity
  8
0
100
AcDbLine
 62
7
  6
CONTINUOUS
 10
7.0171982988
 20
5.9848322091
 11
7.0097498388
 21
5.9785822091
  0
LINE
  5
311
100
AcDbEntity
  8
0
100
AcDbLine
 62
7
  6
CONTINUOUS
 10
7.3145589463
 20
6.2287325788
 11
7.3069759158
 21
6.2226465535
  0
LINE
  5
312
100
AcDbEntity
  8
0
100
AcDbLine
 62
7
  6
CONTINUOUS
 10
7.5009775287
 20
5.9610656595
 11
7.5090027294
 21
5.9665554873
  0
LINE
  5
313
100
AcDbEntity
  8
0
100
AcDbLine
 62
7
  6
CONTINUOUS
 10
7.1811423372
 20
5.747486177
 11
7.1892853881
 21
5.7527996296
  0
LINE
  5
314
100
AcDbEntity
  8
0
100
AcDbLine
 62
7
  6
CONTINUOUS
 10
3.3739728725
 20
5.7709897591
 11
3.3829960601
 21
5.7673670335
  0
LINE
  5
315
100
AcDbEntity
  8
0
100
AcDbLine
 62
7
  6
CONTINUOUS
 10
3.0186619299
 20
5.9182796231
 11
3.0276391221
 21
5.9144458956
  0
LINE
  5
316
100
AcDbEntity
  8
0
100
AcDbLine
 62
7
  6
CONTINUOUS
 10
3.5060107004
 20
6.0274596378
 11
3.497486046
 21
6.0321364233
  0
LINE
  5
317
100
AcDbEntity
  8
0
100
AcDbLine
 62
7
  6
CONTINUOUS
 10
3.1892853881
 20
6.2168647886
 11
3.1811423372
 21
6.2221782411
  0
LINE
  5
318
100
AcDbEntity
  8
0
100
AcDbLine
 62
7
  6
CONTINUOUS
 10
3.5090027294
 20
6.0031089308
 11
3.5009775287
 21
6.0085987586
  0
LINE
  5
319
100
AcDbEntity
  8
0
100
AcDbLine
 62
7
  6
CONTINUOUS
 10
5.0470243855
 20
6.1344354142
 11
5.0497452397
 21
6.1251005864
  0
LINE
  5
31A
100
AcDbEntity
  8
0
100
AcDbLine
 62
7
  6
CONTINUOUS
 10
5.0627120188
 20
6.1545581156
 11
5.0645047982
 21
6.1450015473
  0
LINE
  5
31B
100
AcDbEntity
  8
0
100
AcDbLine
 62
7
  6
CONTINUOUS
 10
5.399940079
 20
6.194758671
 11
5.3988815365
 21
6.204424153
  0
LINE
  5
31C
100
AcDbEntity
  8
0
100
AcDbLine
 62
7
  6
CONTINUOUS
 10
5.5090027294
 20
3.1549612861
 11
5.509001995
 21
3.1549393408
  0
LINE
  5
31D
100
AcDbEntity
  8
0
100
AcDbLine
 62
7
  6
CONTINUOUS
 10
5.5094288606
 20
3.162150929
 11
5.5094390581
 21
3.1623823289
  0
LINE
  5
31E
100
AcDbEntity
  8
0
100
AcDbLine
 62
7
  6
CONTINUOUS
 10
5.5094279811
 20
3.1621509674
 11
5.5094382073
 21
3.1623823652
  0
LINE
  5
31F
100
AcDbEntity
  8
0
100
AcDbLine
 62
7
  6
CONTINUOUS
 10
5.5077756504
 20
3.1426083855
 11
5.5077775152
 21
3.1426425404
  0
LINE
  5
320
100
AcDbEntity
  8
0
100
AcDbLine
 62
7
  6
CONTINUOUS
 10
5.5091114709
 20
3.1565030125
 11
5.5091445788
 21
3.1570055823
  0
LINE
  5
321
100
AcDbEntity
  8
0
100
AcDbLine
 62
7
  6
CONTINUOUS
 10
5.5060107004
 20
3.1308475585
 11
5.5060060938
 21
3.1307950381
  0
LINE
  5
322
100
AcDbEntity
  8
0
100
AcDbLine
 62
7
  6
CONTINUOUS
 10
5.5035665487
 20
3.1186494907
 11
5.5035720714
 21
3.1187070542
  0
LINE
  5
323
100
AcDbEntity
  8
0
100
AcDbLine
 62
7
  6
CONTINUOUS
 10
5.5006462921
 20
3.1071403613
 11
5.5006342609
 21
3.1070571956
  0
LINE
  5
324
100
AcDbEntity
  8
0
100
AcDbLine
 62
7
  6
CONTINUOUS
 10
5.5060107004
 20
3.1308475585
 11
5.506106018
 21
3.1314018522
  0
LINE
  5
325
100
AcDbEntity
  8
0
100
AcDbLine
 62
7
  6
CONTINUOUS
 10
7.0183658745
 20
5.9610656595
 11
7.011565888
 21
5.9541156782
  0
LINE
  5
326
100
AcDbEntity
  8
0
100
AcDbLine
 62
7
  6
CONTINUOUS
 10
7.2903882324
 20
6.2329380226
 11
7.2834382512
 21
6.2261380362
  0
LINE
  5
327
100
AcDbEntity
  8
0
100
AcDbLine
 62
7
  6
CONTINUOUS
 10
7.5021451044
 20
5.9848322091
 11
7.5095935644
 21
5.9910822091
  0
LINE
  5
328
100
AcDbEntity
  8
0
100
AcDbLine
 62
7
  6
CONTINUOUS
 10
7.2047844569
 20
5.7409318393
 11
7.2123674874
 21
5.7470178647
  0
LINE
  5
329
100
AcDbEntity
  8
0
100
AcDbLine
 62
7
  6
CONTINUOUS
 10
3.3943827065
 20
5.7832229428
 11
3.4037175342
 21
5.7805020887
  0
LINE
  5
32A
100
AcDbEntity
  8
0
100
AcDbLine
 62
7
  6
CONTINUOUS
 10
3.0263822364
 20
5.8949654999
 11
3.0356554875
 21
5.892041655
  0
LINE
  5
32B
100
AcDbEntity
  8
0
100
AcDbLine
 62
7
  6
CONTINUOUS
 10
3.5006462921
 20
6.0513998192
 11
3.4917042811
 21
6.0552185226
  0
LINE
  5
32C
100
AcDbEntity
  8
0
100
AcDbLine
 62
7
  6
CONTINUOUS
 10
3.1668811475
 20
6.2088484231
 11
3.1582564982
 21
6.2133381314
  0
LINE
  5
32D
100
AcDbEntity
  8
0
100
AcDbLine
 62
7
  6
CONTINUOUS
 10
5.0127533895
 20
6.0662652929
 11
5.018066842
 21
6.058122242
  0
LINE
  5
32E
100
AcDbEntity
  8
0
100
AcDbLine
 62
7
  6
CONTINUOUS
 10
5.0219242066
 20
6.0900753971
 11
5.0264139149
 21
6.0814507479
  0
LINE
  5
32F
100
AcDbEntity
  8
0
100
AcDbLine
 62
7
  6
CONTINUOUS
 10
5.0333846621
 20
6.112871952
 11
5.0370073878
 21
6.1038487644
  0
LINE
  5
330
100
AcDbEntity
  8
0
100
AcDbLine
 62
7
  6
CONTINUOUS
 10
5.3562902404
 20
6.2180899958
 11
5.3533663955
 21
6.2273632469
  0
LINE
  5
331
100
AcDbEntity
  8
0
100
AcDbLine
 62
7
  6
CONTINUOUS
 10
5.3786882569
 20
6.2074965229
 11
5.3766874287
 21
6.2170117077
  0
LINE
  5
332
100
AcDbEntity
  8
0
100
AcDbLine
 62
7
  6
CONTINUOUS
 10
5.4969936941
 20
3.0952231051
 11
5.4970177337
 21
3.095295018
  0
LINE
  5
333
100
AcDbEntity
  8
0
100
AcDbLine
 62
7
  6
CONTINUOUS
 10
7.2413949798
 20
6.2341632369
 11
7.2359051521
 21
6.2261380362
  0
LINE
  5
334
100
AcDbEntity
  8
0
100
AcDbLine
 62
7
  6
CONTINUOUS
 10
7.0218573572
 20
5.9375279948
 11
7.0157713318
 21
5.9299449644
  0
LINE
  5
335
100
AcDbEntity
  8
0
100
AcDbLine
 62
7
  6
CONTINUOUS
 10
7.2659217016
 20
6.2347540719
 11
7.2596717016
 21
6.2273056119
  0
LINE
  5
336
100
AcDbEntity
  8
0
100
AcDbLine
 62
7
  6
CONTINUOUS
 10
7.5009775287
 20
6.0085987586
 11
7.5077775152
 21
6.0155487399
  0
LINE
  5
337
100
AcDbEntity
  8
0
100
AcDbLine
 62
7
  6
CONTINUOUS
 10
7.2289551708
 20
5.7367263955
 11
7.2359051521
 21
5.7435263819
  0
LINE
  5
338
100
AcDbEntity
  8
0
100
AcDbLine
 62
7
  6
CONTINUOUS
 10
7.4735141516
 20
5.8705310382
 11
7.4830293364
 21
5.8725318664
  0
LINE
  5
339
100
AcDbEntity
  8
0
100
AcDbLine
 62
7
  6
CONTINUOUS
 10
7.096291635
 20
5.7956049546
 11
7.1058482033
 21
5.797397734
  0
LINE
  5
33A
100
AcDbEntity
  8
0
100
AcDbLine
 62
7
  6
CONTINUOUS
 10
3.4134952
 20
5.797397734
 11
3.4230517683
 21
5.7956049546
  0
LINE
  5
33B
100
AcDbEntity
  8
0
100
AcDbLine
 62
7
  6
CONTINUOUS
 10
3.0363140668
 20
5.8725318664
 11
3.0458292516
 21
5.8705310382
  0
LINE
  5
33C
100
AcDbEntity
  8
0
100
AcDbLine
 62
7
  6
CONTINUOUS
 10
3.1249606967
 20
6.1864414753
 11
3.115625869
 21
6.1891623295
  0
LINE
  5
33D
100
AcDbEntity
  8
0
100
AcDbLine
 62
7
  6
CONTINUOUS
 10
3.4929611668
 20
6.0746989183
 11
3.4836879157
 21
6.0776227631
  0
LINE
  5
33E
100
AcDbEntity
  8
0
100
AcDbLine
 62
7
  6
CONTINUOUS
 10
3.1453705307
 20
6.1986746591
 11
3.1363473431
 21
6.2022973847
  0
LINE
  5
33F
100
AcDbEntity
  8
0
100
AcDbLine
 62
7
  6
CONTINUOUS
 10
4.9997468327
 20
5.9910822091
 11
5.0071952926
 21
5.9848322091
  0
LINE
  5
340
100
AcDbEntity
  8
0
100
AcDbLine
 62
7
  6
CONTINUOUS
 10
5.0016110491
 20
6.016529206
 11
5.0084110355
 21
6.0095792247
  0
LINE
  5
341
100
AcDbEntity
  8
0
100
AcDbLine
 62
7
  6
CONTINUOUS
 10
5.0059605306
 20
6.0416709435
 11
5.012046556
 21
6.034087913
  0
LINE
  5
342
100
AcDbEntity
  8
0
100
AcDbLine
 62
7
  6
CONTINUOUS
 10
5.3089274055
 20
6.2324573547
 11
5.30425062
 21
6.2409820091
  0
LINE
  5
343
100
AcDbEntity
  8
0
100
AcDbLine
 62
7
  6
CONTINUOUS
 10
5.4974191966
 20
5.879589021
 11
5.4929294883
 21
5.8882136703
  0
LINE
  5
344
100
AcDbEntity
  8
0
100
AcDbLine
 62
7
  6
CONTINUOUS
 10
5.3329617345
 20
6.2264370687
 11
5.3291430312
 21
6.2353790797
  0
LINE
  5
345
100
AcDbEntity
  8
0
100
AcDbLine
 62
7
  6
CONTINUOUS
 10
5.4859587411
 20
5.8567924661
 11
5.4823360154
 21
5.8658156537
  0
LINE
  5
346
100
AcDbEntity
  8
0
100
AcDbLine
 62
7
  6
CONTINUOUS
 10
7.0356554875
 20
5.892041655
 11
7.0311657793
 21
5.8834170057
  0
LINE
  5
347
100
AcDbEntity
  8
0
100
AcDbLine
 62
7
  6
CONTINUOUS
 10
7.2170442729
 20
6.2311712079
 11
7.2123674874
 21
6.2226465535
  0
LINE
  5
348
100
AcDbEntity
  8
0
100
AcDbLine
 62
7
  6
CONTINUOUS
 10
7.0276391221
 20
5.9144458956
 11
7.0223256696
 21
5.9063028447
  0
LINE
  5
349
100
AcDbEntity
  8
0
100
AcDbLine
 62
7
  6
CONTINUOUS
 10
7.497486046
 20
6.0321364233
 11
7.5035720714
 21
6.0397194538
  0
LINE
  5
34A
100
AcDbEntity
  8
0
100
AcDbLine
 62
7
  6
CONTINUOUS
 10
7.2534217016
 20
5.7349103463
 11
7.2596717016
 21
5.7423588062
  0
LINE
  5
34B
100
AcDbEntity
  8
0
100
AcDbLine
 62
7
  6
CONTINUOUS
 10
7.0458292516
 20
6.0991333799
 11
7.0363140668
 21
6.0971325517
  0
LINE
  5
34C
100
AcDbEntity
  8
0
100
AcDbLine
 62
7
  6
CONTINUOUS
 10
5.4823360154
 20
5.8658156537
 11
5.4918512003
 21
5.8678164819
  0
LINE
  5
34D
100
AcDbEntity
  8
0
100
AcDbLine
 62
7
  6
CONTINUOUS
 10
7.4230517683
 20
6.1740594635
 11
7.4134952
 21
6.1722666841
  0
LINE
  5
34E
100
AcDbEntity
  8
0
100
AcDbLine
 62
7
  6
CONTINUOUS
 10
7.4612809679
 20
5.8501212042
 11
7.4709464499
 21
5.8511797466
  0
LINE
  5
34F
100
AcDbEntity
  8
0
100
AcDbLine
 62
7
  6
CONTINUOUS
 10
7.0785308403
 20
5.8125301825
 11
7.0882171142
 21
5.8133776217
  0
LINE
  5
350
100
AcDbEntity
  8
0
100
AcDbLine
 62
7
  6
CONTINUOUS
 10
3.431126289
 20
5.8133776217
 11
3.4408125629
 21
5.8125301825
  0
LINE
  5
351
100
AcDbEntity
  8
0
100
AcDbLine
 62
7
  6
CONTINUOUS
 10
3.0483969533
 20
5.8511797466
 11
3.0580624354
 21
5.8501212042
  0
LINE
  5
352
100
AcDbEntity
  8
0
100
AcDbLine
 62
7
  6
CONTINUOUS
 10
3.1058482033
 20
6.1722666841
 11
3.096291635
 21
6.1740594635
  0
LINE
  5
353
100
AcDbEntity
  8
0
100
AcDbLine
 62
7
  6
CONTINUOUS
 10
3.4830293364
 20
6.0971325517
 11
3.4735141516
 21
6.0991333799
  0
LINE
  5
354
100
AcDbEntity
  8
0
100
AcDbLine
 62
7
  6
CONTINUOUS
 10
5.0274922029
 20
5.8678164819
 11
5.0370073878
 21
5.8658156537
  0
LINE
  5
355
100
AcDbEntity
  8
0
100
AcDbLine
 62
7
  6
CONTINUOUS
 10
5.0171406637
 20
5.8911375151
 11
5.0264139149
 21
5.8882136703
  0
LINE
  5
356
100
AcDbEntity
  8
0
100
AcDbLine
 62
7
  6
CONTINUOUS
 10
5.009124831
 20
5.9153608795
 11
5.018066842
 21
5.9115421762
  0
LINE
  5
357
100
AcDbEntity
  8
0
100
AcDbLine
 62
7
  6
CONTINUOUS
 10
5.0035219016
 20
5.9402532907
 11
5.012046556
 21
5.9355765051
  0
LINE
  5
358
100
AcDbEntity
  8
0
100
AcDbLine
 62
7
  6
CONTINUOUS
 10
5.0003858348
 20
5.9655750213
 11
5.0084110355
 21
5.9600851935
  0
LINE
  5
359
100
AcDbEntity
  8
0
100
AcDbLine
 62
7
  6
CONTINUOUS
 10
5.234924686
 20
6.2360928751
 11
5.2279747047
 21
6.2428928616
  0
LINE
  5
35A
100
AcDbEntity
  8
0
100
AcDbLine
 62
7
  6
CONTINUOUS
 10
5.5177323541
 20
5.9531352122
 11
5.5109323677
 21
5.9600851935
  0
LINE
  5
35B
100
AcDbEntity
  8
0
100
AcDbLine
 62
7
  6
CONTINUOUS
 10
5.2596717016
 20
6.2373086181
 11
5.2534217016
 21
6.244757078
  0
LINE
  5
35C
100
AcDbEntity
  8
0
100
AcDbLine
 62
7
  6
CONTINUOUS
 10
5.5133828726
 20
5.9279934747
 11
5.5072968472
 21
5.9355765051
  0
LINE
  5
35D
100
AcDbEntity
  8
0
100
AcDbLine
 62
7
  6
CONTINUOUS
 10
5.2844187172
 20
6.2360928751
 11
5.2789288894
 21
6.2441180759
  0
LINE
  5
35E
100
AcDbEntity
  8
0
100
AcDbLine
 62
7
  6
CONTINUOUS
 10
5.5065900137
 20
5.9033991253
 11
5.5012765612
 21
5.9115421762
  0
LINE
  5
35F
100
AcDbEntity
  8
0
100
AcDbLine
 62
7
  6
CONTINUOUS
 10
7.0458292516
 20
5.8705310382
 11
7.042206526
 21
5.8615078506
  0
LINE
  5
360
100
AcDbEntity
  8
0
100
AcDbLine
 62
7
  6
CONTINUOUS
 10
7.1931040914
 20
6.2258067996
 11
7.1892853881
 21
6.2168647886
  0
LINE
  5
361
100
AcDbEntity
  8
0
100
AcDbLine
 62
7
  6
CONTINUOUS
 10
7.3022991303
 20
5.7384932103
 11
7.3069759158
 21
5.7470178647
  0
LINE
  5
362
100
AcDbEntity
  8
0
100
AcDbLine
 62
7
  6
CONTINUOUS
 10
7.4917042811
 20
6.0552185226
 11
7.4970177337
 21
6.0633615734
  0
LINE
  5
363
100
AcDbEntity
  8
0
100
AcDbLine
 62
7
  6
CONTINUOUS
 10
7.2779484234
 20
5.7355011812
 11
7.2834382512
 21
5.7435263819
  0
LINE
  5
364
100
AcDbEntity
  8
0
100
AcDbLine
 62
7
  6
CONTINUOUS
 10
5.4784217016
 20
5.8455301663
 11
5.4792636456
 21
5.8456223741
  0
LINE
  5
365
100
AcDbEntity
  8
0
100
AcDbLine
 62
7
  6
CONTINUOUS
 10
7.0580624354
 20
6.119543214
 11
7.0483969533
 21
6.1184846715
  0
LINE
  5
366
100
AcDbEntity
  8
0
100
AcDbLine
 62
7
  6
CONTINUOUS
 10
3.4612809679
 20
5.8501212042
 11
3.4709464499
 21
5.8511797466
  0
LINE
  5
367
100
AcDbEntity
  8
0
100
AcDbLine
 62
7
  6
CONTINUOUS
 10
7.4408125629
 20
6.1571342356
 11
7.431126289
 21
6.1562867965
  0
LINE
  5
368
100
AcDbEntity
  8
0
100
AcDbLine
 62
7
  6
CONTINUOUS
 10
3.0785308403
 20
5.8125301825
 11
3.0882171142
 21
5.8133776217
  0
LINE
  5
369
100
AcDbEntity
  8
0
100
AcDbLine
 62
7
  6
CONTINUOUS
 10
7.4471061767
 20
5.8310087107
 11
7.4568288721
 21
5.8311147731
  0
LINE
  5
36A
100
AcDbEntity
  8
0
100
AcDbLine
 62
7
  6
CONTINUOUS
 10
3.4471061767
 20
5.8310087107
 11
3.4568288721
 21
5.8311147731
  0
LINE
  5
36B
100
AcDbEntity
  8
0
100
AcDbLine
 62
7
  6
CONTINUOUS
 10
1.8696717016
 20
5.9223322091
 11
3.0176107051
 21
5.9223322091
  0
LINE
  5
36C
100
AcDbEntity
  8
0
100
AcDbLine
 62
7
  6
CONTINUOUS
 10
7.5017326981
 20
5.9223322091
 11
8.6496717016
 21
5.9223322091
  0
LINE
  5
36D
100
AcDbEntity
  8
0
100
AcDbLine
 62
7
  6
CONTINUOUS
 10
7.5016561049
 20
5.9323322091
 11
8.6596717016
 21
5.9323322091
  0
LINE
  5
36E
100
AcDbEntity
  8
0
100
AcDbLine
 62
7
  6
CONTINUOUS
 10
3.0176872983
 20
5.9323322091
 11
1.8596717016
 21
5.9323322089
  0
LINE
  5
36F
100
AcDbEntity
  8
0
100
AcDbLine
 62
7
  6
CONTINUOUS
 10
8.6596717016
 20
6.0373322092
 11
7.5016561049
 21
6.0373322091
  0
LINE
  5
370
100
AcDbEntity
  8
0
100
AcDbLine
 62
7
  6
CONTINUOUS
 10
3.0176872983
 20
6.0373322091
 11
1.8596717016
 21
6.0373322091
  0
LINE
  5
371
100
AcDbEntity
  8
0
100
AcDbLine
 62
7
  6
CONTINUOUS
 10
8.6496717016
 20
6.0473322091
 11
7.5017326981
 21
6.0473322091
  0
LINE
  5
372
100
AcDbEntity
  8
0
100
AcDbLine
 62
7
  6
CONTINUOUS
 10
3.0176107051
 20
6.0473322091
 11
1.8696717016
 21
6.0473322091
  0
LINE
  5
373
100
AcDbEntity
  8
0
100
AcDbLine
 62
7
  6
CONTINUOUS
 10
3.0625145311
 20
5.8311147731
 11
3.0722372265
 21
5.8310087107
  0
LINE
  5
374
100
AcDbEntity
  8
0
100
AcDbLine
 62
7
  6
CONTINUOUS
 10
7.0625145311
 20
5.8311147731
 11
7.0722372265
 21
5.8310087107
  0
LINE
  5
375
100
AcDbEntity
  8
0
100
AcDbLine
 62
7
  6
CONTINUOUS
 10
3.0882171142
 20
6.1562867965
 11
3.0785308403
 21
6.1571342356
  0
LINE
  5
376
100
AcDbEntity
  8
0
100
AcDbLine
 62
7
  6
CONTINUOUS
 10
7.431126289
 20
5.8133776217
 11
7.4408125629
 21
5.8125301825
  0
LINE
  5
377
100
AcDbEntity
  8
0
100
AcDbLine
 62
7
  6
CONTINUOUS
 10
5.0400797576
 20
5.8456223741
 11
5.0409217016
 21
5.8455301663
  0
LINE
  5
378
100
AcDbEntity
  8
0
100
AcDbLine
 62
7
  6
CONTINUOUS
 10
3.4709464499
 20
6.1184846715
 11
3.4612809679
 21
6.119543214
  0
LINE
  5
379
100
AcDbEntity
  8
0
100
AcDbLine
 62
7
  6
CONTINUOUS
 10
7.0483969533
 20
5.8511797466
 11
7.0580624354
 21
5.8501212042
  0
LINE
  5
37A
100
AcDbEntity
  8
0
100
AcDbLine
 62
7
  6
CONTINUOUS
 10
5.5102185722
 20
6.0543035387
 11
5.5012765612
 21
6.058122242
  0
LINE
  5
37B
100
AcDbEntity
  8
0
100
AcDbLine
 62
7
  6
CONTINUOUS
 10
5.1630531628
 20
6.2180899958
 11
5.1544285135
 21
6.222579704
  0
LINE
  5
37C
100
AcDbEntity
  8
0
100
AcDbLine
 62
7
  6
CONTINUOUS
 10
5.5158215016
 20
6.0294111275
 11
5.5072968472
 21
6.034087913
  0
LINE
  5
37D
100
AcDbEntity
  8
0
100
AcDbLine
 62
7
  6
CONTINUOUS
 10
5.1863816687
 20
6.2264370687
 11
5.1782386178
 21
6.2317505212
  0
LINE
  5
37E
100
AcDbEntity
  8
0
100
AcDbLine
 62
7
  6
CONTINUOUS
 10
5.5189575684
 20
6.0040893969
 11
5.5109323677
 21
6.0095792247
  0
LINE
  5
37F
100
AcDbEntity
  8
0
100
AcDbLine
 62
7
  6
CONTINUOUS
 10
5.2104159977
 20
6.2324573547
 11
5.2028329672
 21
6.23854338
  0
LINE
  5
380
100
AcDbEntity
  8
0
100
AcDbLine
 62
7
  6
CONTINUOUS
 10
5.5195965706
 20
5.9785822091
 11
5.5121481106
 21
5.9848322091
  0
LINE
  5
381
100
AcDbEntity
  8
0
100
AcDbLine
 62
7
  6
CONTINUOUS
 10
7.1473713589
 20
6.2081898439
 11
7.1453705307
 21
6.1986746591
  0
LINE
  5
382
100
AcDbEntity
  8
0
100
AcDbLine
 62
7
  6
CONTINUOUS
 10
7.0580624354
 20
5.8501212042
 11
7.0553415812
 21
5.8407863764
  0
LINE
  5
383
100
AcDbEntity
  8
0
100
AcDbLine
 62
7
  6
CONTINUOUS
 10
7.1698049924
 20
6.2181216743
 11
7.1668811475
 21
6.2088484231
  0
LINE
  5
384
100
AcDbEntity
  8
0
100
AcDbLine
 62
7
  6
CONTINUOUS
 10
7.4735141516
 20
6.0991333799
 11
7.4771368772
 21
6.1081565675
  0
LINE
  5
385
100
AcDbEntity
  8
0
100
AcDbLine
 62
7
  6
CONTINUOUS
 10
7.3262393118
 20
5.7438576185
 11
7.3300580151
 21
5.7527996296
  0
LINE
  5
386
100
AcDbEntity
  8
0
100
AcDbLine
 62
7
  6
CONTINUOUS
 10
7.4836879157
 20
6.0776227631
 11
7.4881776239
 21
6.0862474124
  0
LINE
  5
387
100
AcDbEntity
  8
0
100
AcDbLine
 62
7
  6
CONTINUOUS
 10
5.0370073878
 20
6.1038487644
 11
5.0274922029
 21
6.1018479362
  0
LINE
  5
388
100
AcDbEntity
  8
0
100
AcDbLine
 62
7
  6
CONTINUOUS
 10
3.4735141516
 20
5.8705310382
 11
3.4830293364
 21
5.8725318664
  0
LINE
  5
389
100
AcDbEntity
  8
0
100
AcDbLine
 62
7
  6
CONTINUOUS
 10
5.4293976082
 20
6.1817918918
 11
5.4198410399
 21
6.1799991125
  0
LINE
  5
38A
100
AcDbEntity
  8
0
100
AcDbLine
 62
7
  6
CONTINUOUS
 10
3.096291635
 20
5.7956049546
 11
3.1058482033
 21
5.797397734
  0
LINE
  5
38B
100
AcDbEntity
  8
0
100
AcDbLine
 62
7
  6
CONTINUOUS
 10
5.0497452397
 20
6.1251005864
 11
5.0400797576
 21
6.124042044
  0
LINE
  5
38C
100
AcDbEntity
  8
0
100
AcDbLine
 62
7
  6
CONTINUOUS
 10
5.4478857564
 20
6.1642074291
 11
5.4381994825
 21
6.16335999
  0
LINE
  5
38D
100
AcDbEntity
  8
0
100
AcDbLine
 62
7
  6
CONTINUOUS
 10
3.4408125629
 20
6.1571342356
 11
3.431126289
 21
6.1562867965
  0
LINE
  5
38E
100
AcDbEntity
  8
0
100
AcDbLine
 62
7
  6
CONTINUOUS
 10
7.0722372265
 20
6.1386557074
 11
7.0625145311
 21
6.1385496451
  0
LINE
  5
38F
100
AcDbEntity
  8
0
100
AcDbLine
 62
7
  6
CONTINUOUS
 10
5.0645047982
 20
6.1450015473
 11
5.0547821028
 21
6.144895485
  0
LINE
  5
390
100
AcDbEntity
  8
0
100
AcDbLine
 62
7
  6
CONTINUOUS
 10
3.0722372265
 20
6.1386557074
 11
3.0625145311
 21
6.1385496451
  0
LINE
  5
391
100
AcDbEntity
  8
0
100
AcDbLine
 62
7
  6
CONTINUOUS
 10
3.4568288721
 20
6.1385496451
 11
3.4471061767
 21
6.1386557074
  0
LINE
  5
392
100
AcDbEntity
  8
0
100
AcDbLine
 62
7
  6
CONTINUOUS
 10
5.4645613004
 20
6.144895485
 11
5.454838605
 21
6.1450015473
  0
LINE
  5
393
100
AcDbEntity
  8
0
100
AcDbLine
 62
7
  6
CONTINUOUS
 10
7.4568288721
 20
6.1385496451
 11
7.4471061767
 21
6.1386557074
  0
LINE
  5
394
100
AcDbEntity
  8
0
100
AcDbLine
 62
7
  6
CONTINUOUS
 10
5.0811439207
 20
6.16335999
 11
5.0714576468
 21
6.1642074291
  0
LINE
  5
395
100
AcDbEntity
  8
0
100
AcDbLine
 62
7
  6
CONTINUOUS
 10
7.0882171142
 20
6.1562867965
 11
7.0785308403
 21
6.1571342356
  0
LINE
  5
396
100
AcDbEntity
  8
0
100
AcDbLine
 62
7
  6
CONTINUOUS
 10
5.4792636456
 20
6.124042044
 11
5.4695981635
 21
6.1251005864
  0
LINE
  5
397
100
AcDbEntity
  8
0
100
AcDbLine
 62
7
  6
CONTINUOUS
 10
5.0995023633
 20
6.1799991125
 11
5.089945795
 21
6.1817918918
  0
LINE
  5
398
100
AcDbEntity
  8
0
100
AcDbLine
 62
7
  6
CONTINUOUS
 10
7.4134952
 20
5.797397734
 11
7.4230517683
 21
5.7956049546
  0
LINE
  5
399
100
AcDbEntity
  8
0
100
AcDbLine
 62
7
  6
CONTINUOUS
 10
5.4918512003
 20
6.1018479362
 11
5.4823360154
 21
6.1038487644
  0
LINE
  5
39A
100
AcDbEntity
  8
0
100
AcDbLine
 62
7
  6
CONTINUOUS
 10
7.0363140668
 20
5.8725318664
 11
7.0458292516
 21
5.8705310382
  0
LINE
  5
39B
100
AcDbEntity
  8
0
100
AcDbLine
 62
7
  6
CONTINUOUS
 10
5.1194033242
 20
6.194758671
 11
5.1100684965
 21
6.1974795251
  0
LINE
  5
39C
100
AcDbEntity
  8
0
100
AcDbLine
 62
7
  6
CONTINUOUS
 10
5.5022027395
 20
6.078526903
 11
5.4929294883
 21
6.0814507479
  0
LINE
  5
39D
100
AcDbEntity
  8
0
100
AcDbLine
 62
7
  6
CONTINUOUS
 10
5.1406551463
 20
6.2074965229
 11
5.1316319587
 21
6.2111192485
  0
LINE
  5
39E
100
AcDbEntity
  8
0
100
AcDbLine
 62
7
  6
CONTINUOUS
 10
7.1059542656
 20
6.1819893796
 11
7.1058482033
 21
6.1722666841
  0
LINE
  5
39F
100
AcDbEntity
  8
0
100
AcDbLine
 62
7
  6
CONTINUOUS
 10
7.0882171142
 20
5.8133776217
 11
7.087369675
 21
5.8036913477
  0
LINE
  5
3A0
100
AcDbEntity
  8
0
100
AcDbLine
 62
7
  6
CONTINUOUS
 10
7.1260192391
 20
6.1961069574
 11
7.1249606967
 21
6.1864414753
  0
LINE
  5
3A1
100
AcDbEntity
  8
0
100
AcDbLine
 62
7
  6
CONTINUOUS
 10
7.0722372265
 20
5.8310087107
 11
7.0704444472
 21
5.8214521424
  0
LINE
  5
3A2
100
AcDbEntity
  8
0
100
AcDbLine
 62
7
  6
CONTINUOUS
 10
7.4612809679
 20
6.119543214
 11
7.464001822
 21
6.1288780417
  0
LINE
  5
3A3
100
AcDbEntity
  8
0
100
AcDbLine
 62
7
  6
CONTINUOUS
 10
7.3495384108
 20
5.7515427439
 11
7.3524622557
 21
5.760815995
  0
LINE
  5
3A4
100
AcDbEntity
  8
0
100
AcDbLine
 62
7
  6
CONTINUOUS
 10
3.0458292516
 20
6.0991333799
 11
3.0363140668
 21
6.0971325517
  0
LINE
  5
3A5
100
AcDbEntity
  8
0
100
AcDbLine
 62
7
  6
CONTINUOUS
 10
3.4230517683
 20
6.1740594635
 11
3.4134952
 21
6.1722666841
  0
LINE
  5
3A6
100
AcDbEntity
  8
0
100
AcDbLine
 62
7
  6
CONTINUOUS
 10
3.0580624354
 20
6.119543214
 11
3.0483969533
 21
6.1184846715
  0
LINE
  5
3A7
100
AcDbEntity
  8
0
100
AcDbLine
 62
7
  6
CONTINUOUS
 10
7.4709464499
 20
6.1184846715
 11
7.4612809679
 21
6.119543214
  0
LINE
  5
3A8
100
AcDbEntity
  8
0
100
AcDbLine
 62
7
  6
CONTINUOUS
 10
7.1058482033
 20
6.1722666841
 11
7.096291635
 21
6.1740594635
  0
LINE
  5
3A9
100
AcDbEntity
  8
0
100
AcDbLine
 62
7
  6
CONTINUOUS
 10
7.4830293364
 20
6.0971325517
 11
7.4735141516
 21
6.0991333799
  0
LINE
  5
3AA
100
AcDbEntity
  8
0
100
AcDbLine
 62
7
  6
CONTINUOUS
 10
7.3943827065
 20
5.7832229428
 11
7.4037175342
 21
5.7805020887
  0
LINE
  5
3AB
100
AcDbEntity
  8
0
100
AcDbLine
 62
7
  6
CONTINUOUS
 10
7.0263822364
 20
5.8949654999
 11
7.0356554875
 21
5.892041655
  0
LINE
  5
3AC
100
AcDbEntity
  8
0
100
AcDbLine
 62
7
  6
CONTINUOUS
 10
7.3739728725
 20
5.7709897591
 11
7.3829960601
 21
5.7673670335
  0
LINE
  5
3AD
100
AcDbEntity
  8
0
100
AcDbLine
 62
7
  6
CONTINUOUS
 10
7.0186971111
 20
5.9182645989
 11
7.0276391221
 21
5.9144458956
  0
LINE
  5
3AE
100
AcDbEntity
  8
0
100
AcDbLine
 62
7
  6
CONTINUOUS
 10
7.1249606967
 20
5.7832229428
 11
7.1260192391
 21
5.7735574608
  0
LINE
  5
3AF
100
AcDbEntity
  8
0
100
AcDbLine
 62
7
  6
CONTINUOUS
 10
7.087369675
 20
6.1659730704
 11
7.0882171142
 21
6.1562867965
  0
LINE
  5
3B0
100
AcDbEntity
  8
0
100
AcDbLine
 62
7
  6
CONTINUOUS
 10
7.1058482033
 20
5.797397734
 11
7.1059542656
 21
5.7876750386
  0
LINE
  5
3B1
100
AcDbEntity
  8
0
100
AcDbLine
 62
7
  6
CONTINUOUS
 10
7.431126289
 20
6.1562867965
 11
7.4319737282
 21
6.1659730704
  0
LINE
  5
3B2
100
AcDbEntity
  8
0
100
AcDbLine
 62
7
  6
CONTINUOUS
 10
7.3933241641
 20
5.7735574608
 11
7.3943827065
 21
5.7832229428
  0
LINE
  5
3B3
100
AcDbEntity
  8
0
100
AcDbLine
 62
7
  6
CONTINUOUS
 10
7.4471061767
 20
6.1386557074
 11
7.448898956
 21
6.1482122757
  0
LINE
  5
3B4
100
AcDbEntity
  8
0
100
AcDbLine
 62
7
  6
CONTINUOUS
 10
7.3719720443
 20
5.7614745742
 11
7.3739728725
 21
5.7709897591
  0
LINE
  5
3B5
100
AcDbEntity
  8
0
100
AcDbLine
 62
7
  6
CONTINUOUS
 10
7.1249606967
 20
6.1864414753
 11
7.115625869
 21
6.1891623295
  0
LINE
  5
3B6
100
AcDbEntity
  8
0
100
AcDbLine
 62
7
  6
CONTINUOUS
 10
7.4929611668
 20
6.0746989183
 11
7.4836879157
 21
6.0776227631
  0
LINE
  5
3B7
100
AcDbEntity
  8
0
100
AcDbLine
 62
7
  6
CONTINUOUS
 10
7.1453705307
 20
6.1986746591
 11
7.1363473431
 21
6.2022973847
  0
LINE
  5
3B8
100
AcDbEntity
  8
0
100
AcDbLine
 62
7
  6
CONTINUOUS
 10
7.3524622557
 20
5.760815995
 11
7.361086905
 21
5.7563262868
  0
LINE
  5
3B9
100
AcDbEntity
  8
0
100
AcDbLine
 62
7
  6
CONTINUOUS
 10
7.0133327028
 20
5.9422047804
 11
7.0218573572
 21
5.9375279948
  0
LINE
  5
3BA
100
AcDbEntity
  8
0
100
AcDbLine
 62
7
  6
CONTINUOUS
 10
7.3300580151
 20
5.7527996296
 11
7.338201066
 21
5.747486177
  0
LINE
  5
3BB
100
AcDbEntity
  8
0
100
AcDbLine
 62
7
  6
CONTINUOUS
 10
7.0103406738
 20
5.9665554873
 11
7.0183658745
 21
5.9610656595
  0
LINE
  5
3BC
100
AcDbEntity
  8
0
100
AcDbLine
 62
7
  6
CONTINUOUS
 10
7.3069759158
 20
5.7470178647
 11
7.3145589463
 21
5.7409318393
  0
LINE
  5
3BD
100
AcDbEntity
  8
0
100
AcDbLine
 62
7
  6
CONTINUOUS
 10
7.0097498388
 20
5.9910822091
 11
7.0171982988
 21
5.9848322091
  0
LINE
  5
3BE
100
AcDbEntity
  8
0
100
AcDbLine
 62
7
  6
CONTINUOUS
 10
7.1453705307
 20
5.7709897591
 11
7.1473713589
 21
5.7614745742
  0
LINE
  5
3BF
100
AcDbEntity
  8
0
100
AcDbLine
 62
7
  6
CONTINUOUS
 10
7.0704444472
 20
6.1482122757
 11
7.0722372265
 21
6.1386557074
  0
LINE
  5
3C0
100
AcDbEntity
  8
0
100
AcDbLine
 62
7
  6
CONTINUOUS
 10
7.3943827065
 20
6.1864414753
 11
7.3933241641
 21
6.1961069574
  0
LINE
  5
3C1
100
AcDbEntity
  8
0
100
AcDbLine
 62
7
  6
CONTINUOUS
 10
7.4319737282
 20
5.8036913477
 11
7.431126289
 21
5.8133776217
  0
LINE
  5
3C2
100
AcDbEntity
  8
0
100
AcDbLine
 62
7
  6
CONTINUOUS
 10
7.4134952
 20
6.1722666841
 11
7.4133891376
 21
6.1819893796
  0
LINE
  5
3C3
100
AcDbEntity
  8
0
100
AcDbLine
 62
7
  6
CONTINUOUS
 10
7.4133891376
 20
5.7876750386
 11
7.4134952
 21
5.797397734
  0
LINE
  5
3C4
100
AcDbEntity
  8
0
100
AcDbLine
 62
7
  6
CONTINUOUS
 10
7.5006814733
 20
6.0513847951
 11
7.4917042811
 21
6.0552185226
  0
LINE
  5
3C5
100
AcDbEntity
  8
0
100
AcDbLine
 62
7
  6
CONTINUOUS
 10
7.1668811475
 20
6.2088484231
 11
7.1582564982
 21
6.2133381314
  0
LINE
  5
3C6
100
AcDbEntity
  8
0
100
AcDbLine
 62
7
  6
CONTINUOUS
 10
7.5060107004
 20
6.0274596378
 11
7.497486046
 21
6.0321364233
  0
LINE
  5
3C7
100
AcDbEntity
  8
0
100
AcDbLine
 62
7
  6
CONTINUOUS
 10
7.1892853881
 20
6.2168647886
 11
7.1811423372
 21
6.2221782411
  0
LINE
  5
3C8
100
AcDbEntity
  8
0
100
AcDbLine
 62
7
  6
CONTINUOUS
 10
7.5090027294
 20
6.0031089308
 11
7.5009775287
 21
6.0085987586
  0
LINE
  5
3C9
100
AcDbEntity
  8
0
100
AcDbLine
 62
7
  6
CONTINUOUS
 10
7.2834382512
 20
5.7435263819
 11
7.2903882324
 21
5.7367263955
  0
LINE
  5
3CA
100
AcDbEntity
  8
0
100
AcDbLine
 62
7
  6
CONTINUOUS
 10
7.011565888
 20
6.0155487399
 11
7.0183658745
 21
6.0085987586
  0
LINE
  5
3CB
100
AcDbEntity
  8
0
100
AcDbLine
 62
7
  6
CONTINUOUS
 10
7.2596717016
 20
5.7423588062
 11
7.2659217016
 21
5.7349103463
  0
LINE
  5
3CC
100
AcDbEntity
  8
0
100
AcDbLine
 62
7
  6
CONTINUOUS
 10
7.0157713318
 20
6.0397194538
 11
7.0218573572
 21
6.0321364233
  0
LINE
  5
3CD
100
AcDbEntity
  8
0
100
AcDbLine
 62
7
  6
CONTINUOUS
 10
7.2359051521
 20
5.7435263819
 11
7.2413949798
 21
5.7355011812
  0
LINE
  5
3CE
100
AcDbEntity
  8
0
100
AcDbLine
 62
7
  6
CONTINUOUS
 10
7.0223256696
 20
6.0633615734
 11
7.0276391221
 21
6.0552185226
  0
LINE
  5
3CF
100
AcDbEntity
  8
0
100
AcDbLine
 62
7
  6
CONTINUOUS
 10
7.2123674874
 20
5.7470178647
 11
7.2170442729
 21
5.7384932103
  0
LINE
  5
3D0
100
AcDbEntity
  8
0
100
AcDbLine
 62
7
  6
CONTINUOUS
 10
7.0311657793
 20
6.0862474124
 11
7.0356554875
 21
6.0776227631
  0
LINE
  5
3D1
100
AcDbEntity
  8
0
100
AcDbLine
 62
7
  6
CONTINUOUS
 10
7.1892853881
 20
5.7527996296
 11
7.1931040914
 21
5.7438576185
  0
LINE
  5
3D2
100
AcDbEntity
  8
0
100
AcDbLine
 62
7
  6
CONTINUOUS
 10
7.042206526
 20
6.1081565675
 11
7.0458292516
 21
6.0991333799
  0
LINE
  5
3D3
100
AcDbEntity
  8
0
100
AcDbLine
 62
7
  6
CONTINUOUS
 10
7.1668811475
 20
5.760815995
 11
7.1698049924
 21
5.7515427439
  0
LINE
  5
3D4
100
AcDbEntity
  8
0
100
AcDbLine
 62
7
  6
CONTINUOUS
 10
7.0553415812
 20
6.1288780417
 11
7.0580624354
 21
6.119543214
  0
LINE
  5
3D5
100
AcDbEntity
  8
0
100
AcDbLine
 62
7
  6
CONTINUOUS
 10
7.2123674874
 20
6.2226465535
 11
7.2047844569
 21
6.2287325788
  0
LINE
  5
3D6
100
AcDbEntity
  8
0
100
AcDbLine
 62
7
  6
CONTINUOUS
 10
7.5095935644
 20
5.9785822091
 11
7.5021451044
 21
5.9848322091
  0
LINE
  5
3D7
100
AcDbEntity
  8
0
100
AcDbLine
 62
7
  6
CONTINUOUS
 10
7.2359051521
 20
6.2261380362
 11
7.2289551708
 21
6.2329380226
  0
LINE
  5
3D8
100
AcDbEntity
  8
0
100
AcDbLine
 62
7
  6
CONTINUOUS
 10
7.5077775152
 20
5.9541156782
 11
7.5009775287
 21
5.9610656595
  0
LINE
  5
3D9
100
AcDbEntity
  8
0
100
AcDbLine
 62
7
  6
CONTINUOUS
 10
7.2596717016
 20
6.2273056119
 11
7.2534217016
 21
6.2347540719
  0
LINE
  5
3DA
100
AcDbEntity
  8
0
100
AcDbLine
 62
7
  6
CONTINUOUS
 10
7.5035720714
 20
5.9299449644
 11
7.497486046
 21
5.9375279948
  0
LINE
  5
3DB
100
AcDbEntity
  8
0
100
AcDbLine
 62
7
  6
CONTINUOUS
 10
7.2834382512
 20
6.2261380362
 11
7.2779484234
 21
6.2341632369
  0
LINE
  5
3DC
100
AcDbEntity
  8
0
100
AcDbLine
 62
7
  6
CONTINUOUS
 10
7.4970177337
 20
5.9063028447
 11
7.4917042811
 21
5.9144458956
  0
LINE
  5
3DD
100
AcDbEntity
  8
0
100
AcDbLine
 62
7
  6
CONTINUOUS
 10
7.3069759158
 20
6.2226465535
 11
7.3022991303
 21
6.2311712079
  0
LINE
  5
3DE
100
AcDbEntity
  8
0
100
AcDbLine
 62
7
  6
CONTINUOUS
 10
7.4881776239
 20
5.8834170057
 11
7.4836879157
 21
5.892041655
  0
LINE
  5
3DF
100
AcDbEntity
  8
0
100
AcDbLine
 62
7
  6
CONTINUOUS
 10
7.3300580151
 20
6.2168647886
 11
7.3262393118
 21
6.2258067996
  0
LINE
  5
3E0
100
AcDbEntity
  8
0
100
AcDbLine
 62
7
  6
CONTINUOUS
 10
7.4771368772
 20
5.8615078506
 11
7.4735141516
 21
5.8705310382
  0
LINE
  5
3E1
100
AcDbEntity
  8
0
100
AcDbLine
 62
7
  6
CONTINUOUS
 10
7.3524622557
 20
6.2088484231
 11
7.3495384108
 21
6.2181216743
  0
LINE
  5
3E2
100
AcDbEntity
  8
0
100
AcDbLine
 62
7
  6
CONTINUOUS
 10
7.464001822
 20
5.8407863764
 11
7.4612809679
 21
5.8501212042
  0
LINE
  5
3E3
100
AcDbEntity
  8
0
100
AcDbLine
 62
7
  6
CONTINUOUS
 10
7.3739728725
 20
6.1986746591
 11
7.3719720443
 21
6.2081898439
  0
LINE
  5
3E4
100
AcDbEntity
  8
0
100
AcDbLine
 62
7
  6
CONTINUOUS
 10
7.448898956
 20
5.8214521424
 11
7.4471061767
 21
5.8310087107
  0
LINE
  5
3E5
100
AcDbEntity
  8
0
100
AcDbLine
 62
7
  6
CONTINUOUS
 10
8.6496717018
 20
5.9223322091
 11
8.6496717016
 21
6.0473322091
  0
LINE
  5
3E6
100
AcDbEntity
  8
0
100
AcDbLine
 62
7
  6
CONTINUOUS
 10
8.6596717016
 20
5.9323322091
 11
8.6596717016
 21
6.0373322091
  0
ARC
  5
3E7
100
AcDbEntity
  8
0
100
AcDbCircle
 62
7
  6
CONTINUOUS
 10
5.2571577287
 20
3.1740894992
 40
0.2477333052
100
AcDbArc
 50
215.7546070468
 51
218.2148555378
  0
ARC
  5
3E8
100
AcDbEntity
  8
0
100
AcDbCircle
 62
7
  6
CONTINUOUS
 10
5.2570406381
 20
3.1740045958
 40
0.2475886728
100
AcDbArc
 50
215.4468536782
 51
215.7544951141
  0
ARC
  5
3E9
100
AcDbEntity
  8
0
100
AcDbCircle
 62
7
  6
CONTINUOUS
 10
5.2568308205
 20
3.1737032379
 40
0.2472916056
100
AcDbArc
 50
209.7925068578
 51
212.5405345126
  0
ARC
  5
3EA
100
AcDbEntity
  8
0
100
AcDbCircle
 62
7
  6
CONTINUOUS
 10
5.2566113882
 20
3.1737211057
 40
0.2470741542
100
AcDbArc
 50
210.1068696996
 51
212.5714859257
  0
ARC
  5
3EB
100
AcDbEntity
  8
0
100
AcDbCircle
 62
7
  6
CONTINUOUS
 10
5.2564967271
 20
3.1736541089
 40
0.2469413554
100
AcDbArc
 50
209.7985881713
 51
210.1067669939
  0
ARC
  5
3EC
100
AcDbEntity
  8
0
100
AcDbCircle
 62
7
  6
CONTINUOUS
 10
5.256313124
 20
3.1734205247
 40
0.2467015493
100
AcDbArc
 50
204.1367324137
 51
206.8908477641
  0
ARC
  5
3ED
100
AcDbEntity
  8
0
100
AcDbCircle
 62
7
  6
CONTINUOUS
 10
5.2560902244
 20
3.1734397511
 40
0.2464817035
100
AcDbArc
 50
204.449738629
 51
206.9182936093
  0
ARC
  5
3EE
100
AcDbEntity
  8
0
100
AcDbCircle
 62
7
  6
CONTINUOUS
 10
5.2559847947
 20
3.1733913947
 40
0.2463657138
100
AcDbArc
 50
204.1409908165
 51
204.4496494982
  0
ARC
  5
3EF
100
AcDbEntity
  8
0
100
AcDbCircle
 62
7
  6
CONTINUOUS
 10
5.2559009663
 20
3.1732459339
 40
0.2462538207
100
AcDbArc
 50
198.4730165051
 51
201.2332558646
  0
ARC
  5
3F0
100
AcDbEntity
  8
0
100
AcDbCircle
 62
7
  6
CONTINUOUS
 10
5.2556143922
 20
3.1732410195
 40
0.2459658662
100
AcDbArc
 50
198.4930731307
 51
201.2564049771
  0
ARC
  5
3F1
100
AcDbEntity
  8
0
100
AcDbCircle
 62
7
  6
CONTINUOUS
 10
5.2555141668
 20
3.1731248986
 40
0.2458483861
100
AcDbArc
 50
192.8018718279
 51
195.5694683132
  0
ARC
  5
3F2
100
AcDbEntity
  8
0
100
AcDbCircle
 62
7
  6
CONTINUOUS
 10
5.2553167438
 20
3.1731473368
 40
0.2456537633
100
AcDbArc
 50
194.8611059081
 51
195.5868777573
  0
ARC
  5
3F3
100
AcDbEntity
  8
0
100
AcDbCircle
 62
7
  6
CONTINUOUS
 10
5.2553019317
 20
3.1730801698
 40
0.2456314438
100
AcDbArc
 50
187.1261482633
 51
189.9127996264
  0
ARC
  5
3F4
100
AcDbEntity
  8
0
100
AcDbCircle
 62
7
  6
CONTINUOUS
 10
5.2552702945
 20
3.1731349928
 40
0.2456057017
100
AcDbArc
 50
194.1319280913
 51
194.8611017268
  0
ARC
  5
3F5
100
AcDbEntity
  8
0
100
AcDbCircle
 62
7
  6
CONTINUOUS
 10
5.2552316796
 20
3.173125227
 40
0.2455658711
100
AcDbArc
 50
193.5669556149
 51
194.1319182314
  0
ARC
  5
3F6
100
AcDbEntity
  8
0
100
AcDbCircle
 62
7
  6
CONTINUOUS
 10
5.255208612
 20
3.1731196398
 40
0.2455421365
100
AcDbArc
 50
193.0749580096
 51
193.5669509504
  0
ARC
  5
3F7
100
AcDbEntity
  8
0
100
AcDbCircle
 62
7
  6
CONTINUOUS
 10
5.2551789256
 20
3.1731127309
 40
0.2455116568
100
AcDbArc
 50
192.8030963383
 51
193.0749547421
  0
ARC
  5
3F8
100
AcDbEntity
  8
0
100
AcDbCircle
 62
7
  6
CONTINUOUS
 10
5.2551437154
 20
3.1730604396
 40
0.245471991
100
AcDbArc
 50
181.4465384814
 51
184.2335248781
  0
ARC
  5
3F9
100
AcDbEntity
  8
0
100
AcDbCircle
 62
7
  6
CONTINUOUS
 10
5.2550222087
 20
3.1730814758
 40
0.245351831
100
AcDbArc
 50
188.943835579
 51
189.780607183
  0
ARC
  5
3FA
100
AcDbEntity
  8
0
100
AcDbCircle
 62
7
  6
CONTINUOUS
 10
5.2549790485
 20
3.1730746657
 40
0.2453081367
100
AcDbArc
 50
187.6502418159
 51
188.9438197886
  0
ARC
  5
3FB
100
AcDbEntity
  8
0
100
AcDbCircle
 62
7
  6
CONTINUOUS
 10
5.2549482765
 20
3.1730704457
 40
0.2452770769
100
AcDbArc
 50
187.1262000564
 51
187.6502217445
  0
ARC
  5
3FC
100
AcDbEntity
  8
0
100
AcDbCircle
 62
7
  6
CONTINUOUS
 10
5.2548649779
 20
3.1730617989
 40
0.2451933194
100
AcDbArc
 50
183.8725400208
 51
184.0989753
  0
ARC
  5
3FD
100
AcDbEntity
  8
0
100
AcDbCircle
 62
7
  6
CONTINUOUS
 10
5.2548578252
 20
3.1730613016
 40
0.2451861495
100
AcDbArc
 50
182.550578852
 51
183.7548946621
  0
ARC
  5
3FE
100
AcDbEntity
  8
0
100
AcDbCircle
 62
7
  6
CONTINUOUS
 10
5.2548436369
 20
3.1730605246
 40
0.2451719407
100
AcDbArc
 50
181.4466310711
 51
182.4964142939
  0
ARC
  5
3FF
100
AcDbEntity
  8
0
100
AcDbCircle
 62
7
  6
CONTINUOUS
 10
5.2571410064
 20
3.226266767
 40
0.2477123442
100
AcDbArc
 50
215.4470057012
 51
218.2149502407
  0
ARC
  5
400
100
AcDbEntity
  8
0
100
AcDbCircle
 62
7
  6
CONTINUOUS
 10
5.256595015
 20
3.2259010045
 40
0.247054965
100
AcDbArc
 50
209.7987282241
 51
212.5715730057
  0
ARC
  5
401
100
AcDbEntity
  8
0
100
AcDbCircle
 62
7
  6
CONTINUOUS
 10
5.2563023824
 20
3.2248948023
 40
0.2466896474
100
AcDbArc
 50
153.0762821039
 51
155.8633355994
  0
ARC
  5
402
100
AcDbEntity
  8
0
100
AcDbCircle
 62
7
  6
CONTINUOUS
 10
5.2560752244
 20
3.2256224141
 40
0.2464650466
100
AcDbArc
 50
204.1411133783
 51
206.9183694928
  0
ARC
  5
403
100
AcDbEntity
  8
0
100
AcDbCircle
 62
7
  6
CONTINUOUS
 10
5.2558420783
 20
3.2250855432
 40
0.246191223
100
AcDbArc
 50
158.7399612418
 51
161.5273391956
  0
ARC
  5
404
100
AcDbEntity
  8
0
100
AcDbCircle
 62
7
  6
CONTINUOUS
 10
5.2556136486
 20
3.2254306605
 40
0.2459650746
100
AcDbArc
 50
198.4754052565
 51
201.2564087798
  0
ARC
  5
405
100
AcDbEntity
  8
0
100
AcDbCircle
 62
7
  6
CONTINUOUS
 10
5.2555141556
 20
3.2251852978
 40
0.2458483744
100
AcDbArc
 50
164.4110505808
 51
167.1981283715
  0
ARC
  5
406
100
AcDbEntity
  8
0
100
AcDbCircle
 62
7
  6
CONTINUOUS
 10
5.2553019482
 20
3.2252300208
 40
0.2456314605
100
AcDbArc
 50
170.087200504
 51
172.8738516775
  0
ARC
  5
407
100
AcDbEntity
  8
0
100
AcDbCircle
 62
7
  6
CONTINUOUS
 10
5.2552397105
 20
3.2253167851
 40
0.2455740642
100
AcDbArc
 50
192.8031709411
 51
195.5871079998
  0
ARC
  5
408
100
AcDbEntity
  8
0
100
AcDbCircle
 62
7
  6
CONTINUOUS
 10
5.2551436935
 20
3.2252497543
 40
0.2454719691
100
AcDbArc
 50
175.7664749711
 51
178.5534616162
  0
ARC
  5
409
100
AcDbEntity
  8
0
100
AcDbCircle
 62
7
  6
CONTINUOUS
 10
5.2549945511
 20
3.2252667306
 40
0.2453237845
100
AcDbArc
 50
187.1263360402
 51
189.9120823117
  0
ARC
  5
40A
100
AcDbEntity
  8
0
100
AcDbCircle
 62
7
  6
CONTINUOUS
 10
5.2548509936
 20
3.2252507645
 40
0.2451793033
100
AcDbArc
 50
181.4466640739
 51
184.2335259533
  0
ARC
  5
40B
100
AcDbEntity
  8
0
100
AcDbCircle
 62
7
  6
CONTINUOUS
 10
5.2596713143
 20
3.1779347487
 40
0.2524416207
100
AcDbArc
 50
265.8482528669
 51
268.5814026286
  0
ARC
  5
40C
100
AcDbEntity
  8
0
100
AcDbCircle
 62
7
  6
CONTINUOUS
 10
5.2596699776
 20
3.1776960758
 40
0.2523489395
100
AcDbArc
 50
271.3923523762
 51
274.1776294169
  0
ARC
  5
40D
100
AcDbEntity
  8
0
100
AcDbCircle
 62
7
  6
CONTINUOUS
 10
5.2596577804
 20
3.1778009165
 40
0.25230707
100
AcDbArc
 50
260.2763975764
 51
263.0104985635
  0
ARC
  5
40E
100
AcDbEntity
  8
0
100
AcDbCircle
 62
7
  6
CONTINUOUS
 10
5.2596585882
 20
3.1775139034
 40
0.2521660965
100
AcDbArc
 50
260.2506132705
 51
263.0364893916
  0
ARC
  5
40F
100
AcDbEntity
  8
0
100
AcDbCircle
 62
7
  6
CONTINUOUS
 10
5.2595991229
 20
3.1775094989
 40
0.2520097078
100
AcDbArc
 50
254.7008341115
 51
257.4371666933
  0
ARC
  5
410
100
AcDbEntity
  8
0
100
AcDbCircle
 62
7
  6
CONTINUOUS
 10
5.2596126594
 20
3.1772799959
 40
0.2519276759
100
AcDbArc
 50
254.6764586491
 51
257.4621813677
  0
ARC
  5
411
100
AcDbEntity
  8
0
100
AcDbCircle
 62
7
  6
CONTINUOUS
 10
5.2594806431
 20
3.1771236181
 40
0.2516059314
100
AcDbArc
 50
249.1199249235
 51
251.859201891
  0
ARC
  5
412
100
AcDbEntity
  8
0
100
AcDbCircle
 62
7
  6
CONTINUOUS
 10
5.2594979325
 20
3.1768957292
 40
0.2515265155
100
AcDbArc
 50
249.0968683018
 51
251.8829750489
  0
ARC
  5
413
100
AcDbEntity
  8
0
100
AcDbCircle
 62
7
  6
CONTINUOUS
 10
5.2592840142
 20
3.1766515018
 40
0.2510943564
100
AcDbArc
 50
243.5318920693
 51
246.274903605
  0
ARC
  5
414
100
AcDbEntity
  8
0
100
AcDbCircle
 62
7
  6
CONTINUOUS
 10
5.2593315562
 20
3.1764882287
 40
0.2510862504
100
AcDbArc
 50
243.5110117757
 51
246.2968258796
  0
ARC
  5
415
100
AcDbEntity
  8
0
100
AcDbCircle
 62
7
  6
CONTINUOUS
 10
5.2590109261
 20
3.1761400144
 40
0.2505143687
100
AcDbArc
 50
238.2406261631
 51
240.6826242841
  0
ARC
  5
416
100
AcDbEntity
  8
0
100
AcDbCircle
 62
7
  6
CONTINUOUS
 10
5.2590566319
 20
3.1759649138
 40
0.2504949215
100
AcDbArc
 50
237.9163841836
 51
240.6537993811
  0
ARC
  5
417
100
AcDbEntity
  8
0
100
AcDbCircle
 62
7
  6
CONTINUOUS
 10
5.2589396977
 20
3.1760241069
 40
0.2503783251
100
AcDbArc
 50
237.9351722178
 51
238.2405242829
  0
ARC
  5
418
100
AcDbEntity
  8
0
100
AcDbCircle
 62
7
  6
CONTINUOUS
 10
5.2587318994
 20
3.1754716586
 40
0.2499042119
100
AcDbArc
 50
232.3128289331
 51
235.0493360894
  0
ARC
  5
419
100
AcDbEntity
  8
0
100
AcDbCircle
 62
7
  6
CONTINUOUS
 10
5.2586445485
 20
3.1755881843
 40
0.2498517786
100
AcDbArc
 50
232.6349395684
 51
235.0812599734
  0
ARC
  5
41A
100
AcDbEntity
  8
0
100
AcDbCircle
 62
7
  6
CONTINUOUS
 10
5.258555926
 20
3.1754713248
 40
0.2497051162
100
AcDbArc
 50
232.3289276093
 51
232.63482825
  0
ARC
  5
41B
100
AcDbEntity
  8
0
100
AcDbCircle
 62
7
  6
CONTINUOUS
 10
5.258305785
 20
3.1751637899
 40
0.2493086471
100
AcDbArc
 50
229.1632017355
 51
229.4694266005
  0
ARC
  5
41C
100
AcDbEntity
  8
0
100
AcDbCircle
 62
7
  6
CONTINUOUS
 10
5.2582992798
 20
3.174935542
 40
0.2492150915
100
AcDbArc
 50
226.6985106968
 51
229.4363847997
  0
ARC
  5
41D
100
AcDbEntity
  8
0
100
AcDbCircle
 62
7
  6
CONTINUOUS
 10
5.2581899733
 20
3.1750317617
 40
0.2491330278
100
AcDbArc
 50
227.0188579354
 51
229.1634975297
  0
ARC
  5
41E
100
AcDbEntity
  8
0
100
AcDbCircle
 62
7
  6
CONTINUOUS
 10
5.2580979008
 20
3.1749324077
 40
0.2489975714
100
AcDbArc
 50
226.7122913065
 51
227.0187711651
  0
ARC
  5
41F
100
AcDbEntity
  8
0
100
AcDbCircle
 62
7
  6
CONTINUOUS
 10
5.2578136829
 20
3.1746455705
 40
0.2485937192
100
AcDbArc
 50
223.5405252966
 51
223.8473369923
  0
ARC
  5
420
100
AcDbEntity
  8
0
100
AcDbCircle
 62
7
  6
CONTINUOUS
 10
5.2578488826
 20
3.1744779511
 40
0.2485728527
100
AcDbArc
 50
221.073971969
 51
223.8137006694
  0
ARC
  5
421
100
AcDbEntity
  8
0
100
AcDbCircle
 62
7
  6
CONTINUOUS
 10
5.2576852068
 20
3.1745252558
 40
0.2484177076
100
AcDbArc
 50
221.3920675219
 51
223.5408224498
  0
ARC
  5
422
100
AcDbEntity
  8
0
100
AcDbCircle
 62
7
  6
CONTINUOUS
 10
5.2575843538
 20
3.1744358649
 40
0.2482829414
100
AcDbArc
 50
221.0849129736
 51
221.3919806414
  0
ARC
  5
423
100
AcDbEntity
  8
0
100
AcDbCircle
 62
7
  6
CONTINUOUS
 10
5.257319847
 20
3.1740358538
 40
0.2478831878
100
AcDbArc
 50
215.4381787947
 51
218.1818802756
  0
ARC
  5
424
100
AcDbEntity
  8
0
100
AcDbCircle
 62
7
  6
CONTINUOUS
 10
5.2596713143
 20
3.2301246615
 40
0.2524416207
100
AcDbArc
 50
265.8482528669
 51
268.5814026286
  0
ARC
  5
425
100
AcDbEntity
  8
0
100
AcDbCircle
 62
7
  6
CONTINUOUS
 10
5.2596577804
 20
3.2299908293
 40
0.25230707
100
AcDbArc
 50
260.2763975764
 51
263.0104985635
  0
ARC
  5
426
100
AcDbEntity
  8
0
100
AcDbCircle
 62
7
  6
CONTINUOUS
 10
5.2595991229
 20
3.2296994118
 40
0.2520097078
100
AcDbArc
 50
254.7008341115
 51
257.4371666932
  0
ARC
  5
427
100
AcDbEntity
  8
0
100
AcDbCircle
 62
7
  6
CONTINUOUS
 10
5.2594806431
 20
3.229313531
 40
0.2516059313
100
AcDbArc
 50
249.1199249235
 51
251.859201891
  0
ARC
  5
428
100
AcDbEntity
  8
0
100
AcDbCircle
 62
7
  6
CONTINUOUS
 10
5.2592840142
 20
3.2288414146
 40
0.2510943564
100
AcDbArc
 50
243.5318920693
 51
246.274903605
  0
ARC
  5
429
100
AcDbEntity
  8
0
100
AcDbCircle
 62
7
  6
CONTINUOUS
 10
5.2590010342
 20
3.2283130855
 40
0.2504948404
100
AcDbArc
 50
237.9353123023
 51
240.6827108519
  0
ARC
  5
42A
100
AcDbEntity
  8
0
100
AcDbCircle
 62
7
  6
CONTINUOUS
 10
5.2586320906
 20
3.22776097
 40
0.2498306039
100
AcDbArc
 50
232.3290795167
 51
235.0813542737
  0
ARC
  5
42B
100
AcDbEntity
  8
0
100
AcDbCircle
 62
7
  6
CONTINUOUS
 10
5.2581863585
 20
3.227217232
 40
0.2491273114
100
AcDbArc
 50
226.7124493052
 51
229.4699061599
  0
ARC
  5
42C
100
AcDbEntity
  8
0
100
AcDbCircle
 62
7
  6
CONTINUOUS
 10
5.2576812275
 20
3.2267111503
 40
0.2484120635
100
AcDbArc
 50
221.0850710346
 51
223.8478189371
  0
ARC
  5
42D
100
AcDbEntity
  8
0
100
AcDbCircle
 62
7
  6
CONTINUOUS
 10
1.8696717016
 20
5.9323322091
 40
0.01
100
AcDbArc
 50
180.0
 51
270.0
  0
ARC
  5
42E
100
AcDbEntity
  8
0
100
AcDbCircle
 62
7
  6
CONTINUOUS
 10
1.8696717016
 20
6.0373322091
 40
0.01
100
AcDbArc
 50
90.0
 51
180.0
  0
ARC
  5
42F
100
AcDbEntity
  8
0
100
AcDbCircle
 62
7
  6
CONTINUOUS
 10
3.2596717016
 20
5.9848322091
 40
0.5625
100
AcDbArc
 50
186.3795945674
 51
173.6204054326
  0
ARC
  5
430
100
AcDbEntity
  8
0
100
AcDbCircle
 62
7
  6
CONTINUOUS
 10
3.2596717016
 20
5.9848322091
 40
0.5485886871
100
AcDbArc
 50
186.5419561207
 51
173.4580438793
  0
ARC
  5
431
100
AcDbEntity
  8
0
100
AcDbCircle
 62
7
  6
CONTINUOUS
 10
3.2596717016
 20
5.9848322091
 40
0.3147829219
100
AcDbArc
 50
191.4522306314
 51
168.5477693686
  0
ARC
  5
432
100
AcDbEntity
  8
0
100
AcDbCircle
 62
7
  6
CONTINUOUS
 10
3.2596717016
 20
5.9848322091
 40
0.2509420131
100
AcDbArc
 50
194.4229987628
 51
165.5770012372
  0
ARC
  5
433
100
AcDbEntity
  8
0
100
AcDbCircle
 62
7
  6
CONTINUOUS
 10
3.2596717016
 20
5.9848322091
 40
0.25
100
AcDbArc
 50
187.0575437376
 51
189.8174562624
  0
ARC
  5
434
100
AcDbEntity
  8
0
100
AcDbCircle
 62
7
  6
CONTINUOUS
 10
3.2596717016
 20
5.9848322091
 40
0.25
100
AcDbArc
 50
181.4325437376
 51
184.1924562624
  0
ARC
  5
435
100
AcDbEntity
  8
0
100
AcDbCircle
 62
7
  6
CONTINUOUS
 10
3.2596717016
 20
5.9848322091
 40
0.25
100
AcDbArc
 50
175.8075437376
 51
178.5674562624
  0
ARC
  5
436
100
AcDbEntity
  8
0
100
AcDbCircle
 62
7
  6
CONTINUOUS
 10
3.2596717016
 20
5.9848322091
 40
0.25
100
AcDbArc
 50
170.1825437376
 51
172.9424562624
  0
ARC
  5
437
100
AcDbEntity
  8
0
100
AcDbCircle
 62
7
  6
CONTINUOUS
 10
3.2596717016
 20
5.9848322091
 40
0.25
100
AcDbArc
 50
192.6825437376
 51
167.3174562624
  0
CIRCLE
  5
438
100
AcDbEntity
  8
0
100
AcDbCircle
 62
7
  6
CONTINUOUS
 10
3.2596717016
 20
5.9848322091
 40
0.235
  0
ARC
  5
439
100
AcDbEntity
  8
0
100
AcDbCircle
 62
7
  6
CONTINUOUS
 10
5.2596720889
 20
3.1779347487
 40
0.2524416207
100
AcDbArc
 50
271.4185973714
 51
274.1517471331
  0
ARC
  5
43A
100
AcDbEntity
  8
0
100
AcDbCircle
 62
7
  6
CONTINUOUS
 10
5.2596734261
 20
3.1776960886
 40
0.2523489523
100
AcDbArc
 50
265.8223706792
 51
268.6076475777
  0
ARC
  5
43B
100
AcDbEntity
  8
0
100
AcDbCircle
 62
7
  6
CONTINUOUS
 10
5.2596856228
 20
3.1778009165
 40
0.25230707
100
AcDbArc
 50
276.9895014365
 51
279.7236024236
  0
ARC
  5
43C
100
AcDbEntity
  8
0
100
AcDbCircle
 62
7
  6
CONTINUOUS
 10
5.2596848111
 20
3.177513931
 40
0.2521661242
100
AcDbArc
 50
276.9635107271
 51
279.7493865413
  0
ARC
  5
43D
100
AcDbEntity
  8
0
100
AcDbCircle
 62
7
  6
CONTINUOUS
 10
5.2597376013
 20
3.1775364249
 40
0.2520374419
100
AcDbArc
 50
282.5629838881
 51
285.2990153072
  0
ARC
  5
43E
100
AcDbEntity
  8
0
100
AcDbCircle
 62
7
  6
CONTINUOUS
 10
5.2597307502
 20
3.1772799698
 40
0.2519276491
100
AcDbArc
 50
282.5378184972
 51
285.3235415119
  0
ARC
  5
43F
100
AcDbEntity
  8
0
100
AcDbCircle
 62
7
  6
CONTINUOUS
 10
5.2598502977
 20
3.1771587903
 40
0.2516432355
100
AcDbArc
 50
288.1410011859
 51
290.8798719996
  0
ARC
  5
440
100
AcDbEntity
  8
0
100
AcDbCircle
 62
7
  6
CONTINUOUS
 10
5.2598471529
 20
3.1768909815
 40
0.2515214802
100
AcDbArc
 50
288.1169970689
 51
290.9031596041
  0
ARC
  5
441
100
AcDbEntity
  8
0
100
AcDbCircle
 62
7
  6
CONTINUOUS
 10
5.2600401168
 20
3.1766926498
 40
0.2511397811
100
AcDbArc
 50
293.7253445119
 51
296.4678598138
  0
ARC
  5
442
100
AcDbEntity
  8
0
100
AcDbCircle
 62
7
  6
CONTINUOUS
 10
5.2600429601
 20
3.1764217974
 40
0.2510129159
100
AcDbArc
 50
293.7027670995
 51
296.4893952517
  0
ARC
  5
443
100
AcDbEntity
  8
0
100
AcDbCircle
 62
7
  6
CONTINUOUS
 10
5.2603087231
 20
3.176180279
 40
0.2505611072
100
AcDbArc
 50
299.3176035101
 51
301.7591460427
  0
ARC
  5
444
100
AcDbEntity
  8
0
100
AcDbCircle
 62
7
  6
CONTINUOUS
 10
5.2602962625
 20
3.1759489382
 40
0.2504763445
100
AcDbArc
 50
299.3460989745
 51
302.0837173621
  0
ARC
  5
445
100
AcDbEntity
  8
0
100
AcDbCircle
 62
7
  6
CONTINUOUS
 10
5.2604037053
 20
3.1760241071
 40
0.2503783254
100
AcDbArc
 50
301.7594757173
 51
302.0648277821
  0
ARC
  5
446
100
AcDbEntity
  8
0
100
AcDbCircle
 62
7
  6
CONTINUOUS
 10
5.26066897
 20
3.1756291036
 40
0.2499024373
100
AcDbArc
 50
304.918988016
 51
307.3648124421
  0
ARC
  5
447
100
AcDbEntity
  8
0
100
AcDbCircle
 62
7
  6
CONTINUOUS
 10
5.2606602916
 20
3.175405288
 40
0.2498218624
100
AcDbArc
 50
304.9502127266
 51
307.687622169
  0
ARC
  5
448
100
AcDbEntity
  8
0
100
AcDbCircle
 62
7
  6
CONTINUOUS
 10
5.2607874771
 20
3.1754713251
 40
0.2497051165
100
AcDbArc
 50
307.3651717501
 51
307.6710723906
  0
ARC
  5
449
100
AcDbEntity
  8
0
100
AcDbCircle
 62
7
  6
CONTINUOUS
 10
5.2610376182
 20
3.1751637899
 40
0.249308647
100
AcDbArc
 50
310.5305733995
 51
310.8367982645
  0
ARC
  5
44A
100
AcDbEntity
  8
0
100
AcDbCircle
 62
7
  6
CONTINUOUS
 10
5.2610605773
 20
3.1749172247
 40
0.2491904762
100
AcDbArc
 50
310.5634799321
 51
313.3016245662
  0
ARC
  5
44B
100
AcDbEntity
  8
0
100
AcDbCircle
 62
7
  6
CONTINUOUS
 10
5.2611231189
 20
3.1750655334
 40
0.2491783991
100
AcDbArc
 50
310.8366977452
 51
312.9809467898
  0
ARC
  5
44C
100
AcDbEntity
  8
0
100
AcDbCircle
 62
7
  6
CONTINUOUS
 10
5.2612455024
 20
3.1749324077
 40
0.2489975714
100
AcDbArc
 50
312.9812288349
 51
313.2877086935
  0
ARC
  5
44D
100
AcDbEntity
  8
0
100
AcDbCircle
 62
7
  6
CONTINUOUS
 10
5.2615297202
 20
3.1746455706
 40
0.2485937193
100
AcDbArc
 50
316.1526630078
 51
316.4594747033
  0
ARC
  5
44E
100
AcDbEntity
  8
0
100
AcDbCircle
 62
7
  6
CONTINUOUS
 10
5.2615565062
 20
3.1744212635
 40
0.2484888785
100
AcDbArc
 50
316.1858363106
 51
318.9264910382
  0
ARC
  5
44F
100
AcDbEntity
  8
0
100
AcDbCircle
 62
7
  6
CONTINUOUS
 10
5.2616247534
 20
3.1745558647
 40
0.2484630355
100
AcDbArc
 50
316.4593735751
 51
318.6077364532
  0
ARC
  5
450
100
AcDbEntity
  8
0
100
AcDbCircle
 62
7
  6
CONTINUOUS
 10
5.2617590494
 20
3.1744358649
 40
0.2482829414
100
AcDbArc
 50
318.6080193586
 51
318.9150870263
  0
ARC
  5
451
100
AcDbEntity
  8
0
100
AcDbCircle
 62
7
  6
CONTINUOUS
 10
5.2620415324
 20
3.1740224009
 40
0.2478607415
100
AcDbArc
 50
321.8179955037
 51
324.5619454696
  0
ARC
  5
452
100
AcDbEntity
  8
0
100
AcDbCircle
 62
7
  6
CONTINUOUS
 10
5.2596720889
 20
3.2301246615
 40
0.2524416207
100
AcDbArc
 50
271.4185973714
 51
274.1517471331
  0
ARC
  5
453
100
AcDbEntity
  8
0
100
AcDbCircle
 62
7
  6
CONTINUOUS
 10
5.2596856228
 20
3.2299908293
 40
0.25230707
100
AcDbArc
 50
276.9895014365
 51
279.7236024236
  0
ARC
  5
454
100
AcDbEntity
  8
0
100
AcDbCircle
 62
7
  6
CONTINUOUS
 10
5.2597376013
 20
3.2297263378
 40
0.2520374419
100
AcDbArc
 50
282.5629838881
 51
285.2990153072
  0
ARC
  5
455
100
AcDbEntity
  8
0
100
AcDbCircle
 62
7
  6
CONTINUOUS
 10
5.2598502977
 20
3.2293487032
 40
0.2516432355
100
AcDbArc
 50
288.1410011859
 51
290.8798719996
  0
ARC
  5
456
100
AcDbEntity
  8
0
100
AcDbCircle
 62
7
  6
CONTINUOUS
 10
5.2600401168
 20
3.2288825627
 40
0.2511397811
100
AcDbArc
 50
293.7253445119
 51
296.4678598138
  0
ARC
  5
457
100
AcDbEntity
  8
0
100
AcDbCircle
 62
7
  6
CONTINUOUS
 10
5.2603159308
 20
3.2283576285
 40
0.2505466238
100
AcDbArc
 50
299.3175731213
 51
302.0644037246
  0
ARC
  5
458
100
AcDbEntity
  8
0
100
AcDbCircle
 62
7
  6
CONTINUOUS
 10
5.2606780722
 20
3.2278062299
 40
0.2498867426
100
AcDbArc
 50
304.9189549441
 51
307.6706112655
  0
ARC
  5
459
100
AcDbEntity
  8
0
100
AcDbCircle
 62
7
  6
CONTINUOUS
 10
5.2611180737
 20
3.2272606524
 40
0.2491856389
100
AcDbArc
 50
310.5304166248
 51
313.2872279101
  0
ARC
  5
45A
100
AcDbEntity
  8
0
100
AcDbCircle
 62
7
  6
CONTINUOUS
 10
5.2616191779
 20
3.2267505043
 40
0.2484703351
100
AcDbArc
 50
316.152505087
 51
318.9146049413
  0
ARC
  5
45B
100
AcDbEntity
  8
0
100
AcDbCircle
 62
7
  6
CONTINUOUS
 10
5.2621451887
 20
3.1741199905
 40
0.2477839771
100
AcDbArc
 50
321.7853960615
 51
324.2451413539
  0
ARC
  5
45C
100
AcDbEntity
  8
0
100
AcDbCircle
 62
7
  6
CONTINUOUS
 10
5.2623027651
 20
3.1740045957
 40
0.2475886727
100
AcDbArc
 50
324.2455048858
 51
324.5531463218
  0
ARC
  5
45D
100
AcDbEntity
  8
0
100
AcDbCircle
 62
7
  6
CONTINUOUS
 10
5.2625789185
 20
3.1736631165
 40
0.2472141026
100
AcDbArc
 50
327.4590346716
 51
330.2079239715
  0
ARC
  5
45E
100
AcDbEntity
  8
0
100
AcDbCircle
 62
7
  6
CONTINUOUS
 10
5.2626920526
 20
3.1737454407
 40
0.2471209321
100
AcDbArc
 50
327.4287473758
 51
329.8928969989
  0
ARC
  5
45F
100
AcDbEntity
  8
0
100
AcDbCircle
 62
7
  6
CONTINUOUS
 10
5.262846676
 20
3.173654109
 40
0.2469413555
100
AcDbArc
 50
329.8932330062
 51
330.2014118286
  0
ARC
  5
460
100
AcDbEntity
  8
0
100
AcDbCircle
 62
7
  6
CONTINUOUS
 10
5.2630414797
 20
3.1734151791
 40
0.2466891421
100
AcDbArc
 50
333.109082997
 51
335.8633368545
  0
ARC
  5
461
100
AcDbEntity
  8
0
100
AcDbCircle
 62
7
  6
CONTINUOUS
 10
5.2632161038
 20
3.1734575814
 40
0.2465228337
100
AcDbArc
 50
333.0819123511
 51
335.5500554106
  0
ARC
  5
462
100
AcDbEntity
  8
0
100
AcDbCircle
 62
7
  6
CONTINUOUS
 10
5.2633586087
 20
3.1733913946
 40
0.2463657137
100
AcDbArc
 50
335.5503505017
 51
335.8590091837
  0
ARC
  5
463
100
AcDbEntity
  8
0
100
AcDbCircle
 62
7
  6
CONTINUOUS
 10
5.2635027079
 20
3.1732241719
 40
0.24618976
100
AcDbArc
 50
338.7663849606
 51
341.5273426727
  0
ARC
  5
464
100
AcDbEntity
  8
0
100
AcDbCircle
 62
7
  6
CONTINUOUS
 10
5.2636943663
 20
3.1732535434
 40
0.2460026944
100
AcDbArc
 50
338.7438019071
 51
341.5067199853
  0
ARC
  5
465
100
AcDbEntity
  8
0
100
AcDbCircle
 62
7
  6
CONTINUOUS
 10
5.2638292715
 20
3.1731248897
 40
0.2458483499
100
AcDbArc
 50
344.4305314823
 51
347.1981283621
  0
ARC
  5
466
100
AcDbEntity
  8
0
100
AcDbCircle
 62
7
  6
CONTINUOUS
 10
5.2640266755
 20
3.1731473324
 40
0.2456537466
100
AcDbArc
 50
344.4131222296
 51
345.139636425
  0
ARC
  5
467
100
AcDbEntity
  8
0
100
AcDbCircle
 62
7
  6
CONTINUOUS
 10
5.264041455
 20
3.1730801721
 40
0.2456314605
100
AcDbArc
 50
350.087200504
 51
352.8738516775
  0
ARC
  5
468
100
AcDbEntity
  8
0
100
AcDbCircle
 62
7
  6
CONTINUOUS
 10
5.2640731572
 20
3.1731349802
 40
0.2456056516
100
AcDbArc
 50
345.1396406499
 51
345.8688799973
  0
ARC
  5
469
100
AcDbEntity
  8
0
100
AcDbCircle
 62
7
  6
CONTINUOUS
 10
5.2641117686
 20
3.1731252159
 40
0.2455658248
100
AcDbArc
 50
345.8688898595
 51
346.4340461493
  0
ARC
  5
46A
100
AcDbEntity
  8
0
100
AcDbCircle
 62
7
  6
CONTINUOUS
 10
5.2641348116
 20
3.1731196351
 40
0.2455421155
100
AcDbArc
 50
346.4340508189
 51
346.9248203338
  0
ARC
  5
46B
100
AcDbEntity
  8
0
100
AcDbCircle
 62
7
  6
CONTINUOUS
 10
5.2641644664
 20
3.1731127335
 40
0.2455116682
100
AcDbArc
 50
346.9248235707
 51
347.1969036574
  0
ARC
  5
46C
100
AcDbEntity
  8
0
100
AcDbCircle
 62
7
  6
CONTINUOUS
 10
5.2641997097
 20
3.1730604386
 40
0.2454719691
100
AcDbArc
 50
355.7664749711
 51
358.5534616162
  0
ARC
  5
46D
100
AcDbEntity
  8
0
100
AcDbCircle
 62
7
  6
CONTINUOUS
 10
5.2643212014
 20
3.1730814746
 40
0.245351824
100
AcDbArc
 50
350.2193000483
 51
351.056618105
  0
ARC
  5
46E
100
AcDbEntity
  8
0
100
AcDbCircle
 62
7
  6
CONTINUOUS
 10
5.2643643667
 20
3.1730746639
 40
0.2453081246
100
AcDbArc
 50
351.0566339226
 51
352.3501667749
  0
ARC
  5
46F
100
AcDbEntity
  8
0
100
AcDbCircle
 62
7
  6
CONTINUOUS
 10
5.2643951396
 20
3.173070444
 40
0.2452770638
100
AcDbArc
 50
352.3501868441
 51
352.8737999538
  0
ARC
  5
470
100
AcDbEntity
  8
0
100
AcDbCircle
 62
7
  6
CONTINUOUS
 10
5.2644784261
 20
3.1730617988
 40
0.2451933186
100
AcDbArc
 50
355.9007714362
 51
356.1276550063
  0
ARC
  5
471
100
AcDbEntity
  8
0
100
AcDbCircle
 62
7
  6
CONTINUOUS
 10
5.2644855833
 20
3.1730613013
 40
0.2451861442
100
AcDbArc
 50
356.2453549603
 51
357.4495917209
  0
ARC
  5
472
100
AcDbEntity
  8
0
100
AcDbCircle
 62
7
  6
CONTINUOUS
 10
5.2644997682
 20
3.1730605245
 40
0.2451719388
100
AcDbArc
 50
357.5037553556
 51
358.553368934
  0
ARC
  5
473
100
AcDbEntity
  8
0
100
AcDbCircle
 62
7
  6
CONTINUOUS
 10
5.2621575774
 20
3.226300334
 40
0.2477683236
100
AcDbArc
 50
321.785362507
 51
324.552681551
  0
ARC
  5
474
100
AcDbEntity
  8
0
100
AcDbCircle
 62
7
  6
CONTINUOUS
 10
5.2627042786
 20
3.2259277026
 40
0.24710651
100
AcDbArc
 50
327.4287162505
 51
330.2009825196
  0
ARC
  5
475
100
AcDbEntity
  8
0
100
AcDbCircle
 62
7
  6
CONTINUOUS
 10
5.2630296797
 20
3.2248893855
 40
0.246702212
100
AcDbArc
 50
24.1367353821
 51
26.923646904
  0
ARC
  5
476
100
AcDbEntity
  8
0
100
AcDbCircle
 62
7
  6
CONTINUOUS
 10
5.2632274313
 20
3.2256418757
 40
0.2465101899
100
AcDbArc
 50
333.0818848561
 51
335.8586322729
  0
ARC
  5
477
100
AcDbEntity
  8
0
100
AcDbCircle
 62
7
  6
CONTINUOUS
 10
5.2634408198
 20
3.2250636809
 40
0.2462555377
100
AcDbArc
 50
18.4730248566
 51
21.2596746857
  0
ARC
  5
478
100
AcDbEntity
  8
0
100
AcDbCircle
 62
7
  6
CONTINUOUS
 10
5.2636949247
 20
3.2254432454
 40
0.2460020975
100
AcDbArc
 50
338.7438005293
 51
341.5243854344
  0
ARC
  5
479
100
AcDbEntity
  8
0
100
AcDbCircle
 62
7
  6
CONTINUOUS
 10
5.2638292133
 20
3.2251852892
 40
0.2458484098
100
AcDbArc
 50
12.8018718145
 51
15.5889492042
  0
ARC
  5
47A
100
AcDbEntity
  8
0
100
AcDbCircle
 62
7
  6
CONTINUOUS
 10
5.2640414715
 20
3.2252300231
 40
0.2456314437
100
AcDbArc
 50
7.1261482633
 51
9.9127996264
  0
ARC
  5
47B
100
AcDbEntity
  8
0
100
AcDbCircle
 62
7
  6
CONTINUOUS
 10
5.2640770287
 20
3.2253235298
 40
0.2456015599
100
AcDbArc
 50
344.4130478651
 51
347.1966731939
  0
ARC
  5
47C
100
AcDbEntity
  8
0
100
AcDbCircle
 62
7
  6
CONTINUOUS
 10
5.2641996878
 20
3.2252497533
 40
0.245471991
100
AcDbArc
 50
1.4465384814
 51
4.2335248781
  0
ARC
  5
47D
100
AcDbEntity
  8
0
100
AcDbCircle
 62
7
  6
CONTINUOUS
 10
5.2643488521
 20
3.2252667306
 40
0.2453237845
100
AcDbArc
 50
350.0879176882
 51
352.8736639598
  0
ARC
  5
47E
100
AcDbEntity
  8
0
100
AcDbCircle
 62
7
  6
CONTINUOUS
 10
5.2644924096
 20
3.2252507645
 40
0.2451793033
100
AcDbArc
 50
355.7664740467
 51
358.5533359261
  0
ARC
  5
47F
100
AcDbEntity
  8
0
100
AcDbCircle
 62
7
  6
CONTINUOUS
 10
5.2596717016
 20
5.9848322091
 40
0.5625
100
AcDbArc
 50
292.8876768477
 51
247.1123231523
  0
ARC
  5
480
100
AcDbEntity
  8
0
100
AcDbCircle
 62
7
  6
CONTINUOUS
 10
5.2596717016
 20
5.9848322091
 40
0.5508842833
100
AcDbArc
 50
293.3976926611
 51
246.6023073389
  0
ARC
  5
481
100
AcDbEntity
  8
0
100
AcDbCircle
 62
7
  6
CONTINUOUS
 10
5.2596717016
 20
5.9848322091
 40
0.3147829219
100
AcDbArc
 50
314.0267672076
 51
225.9732327924
  0
ARC
  5
482
100
AcDbEntity
  8
0
100
AcDbCircle
 62
7
  6
CONTINUOUS
 10
5.2596717016
 20
5.9848322091
 40
0.26
100
AcDbArc
 50
355.7524350706
 51
358.6225649294
  0
ARC
  5
483
100
AcDbEntity
  8
0
100
AcDbCircle
 62
7
  6
CONTINUOUS
 10
5.2596717016
 20
5.9848322091
 40
0.26
100
AcDbArc
 50
1.3774350705
 51
4.2475649295
  0
ARC
  5
484
100
AcDbEntity
  8
0
100
AcDbCircle
 62
7
  6
CONTINUOUS
 10
5.2596717016
 20
5.9848322091
 40
0.26
100
AcDbArc
 50
7.0024350705
 51
9.8725649295
  0
ARC
  5
485
100
AcDbEntity
  8
0
100
AcDbCircle
 62
7
  6
CONTINUOUS
 10
5.2596717016
 20
5.9848322091
 40
0.26
100
AcDbArc
 50
12.6274350705
 51
15.4975649295
  0
ARC
  5
486
100
AcDbEntity
  8
0
100
AcDbCircle
 62
7
  6
CONTINUOUS
 10
5.2596717016
 20
5.9848322091
 40
0.26
100
AcDbArc
 50
18.2524350705
 51
21.1225649295
  0
ARC
  5
487
100
AcDbEntity
  8
0
100
AcDbCircle
 62
7
  6
CONTINUOUS
 10
5.2596717016
 20
5.9848322091
 40
0.26
100
AcDbArc
 50
23.8774350705
 51
26.7475649295
  0
ARC
  5
488
100
AcDbEntity
  8
0
100
AcDbCircle
 62
7
  6
CONTINUOUS
 10
5.2596717016
 20
5.9848322091
 40
0.26
100
AcDbArc
 50
29.5024350705
 51
32.3725649295
  0
ARC
  5
489
100
AcDbEntity
  8
0
100
AcDbCircle
 62
7
  6
CONTINUOUS
 10
5.2596717016
 20
5.9848322091
 40
0.26
100
AcDbArc
 50
35.1274350705
 51
37.9975649295
  0
ARC
  5
48A
100
AcDbEntity
  8
0
100
AcDbCircle
 62
7
  6
CONTINUOUS
 10
5.2596717016
 20
5.9848322091
 40
0.26
100
AcDbArc
 50
40.7524350705
 51
43.6225649295
  0
ARC
  5
48B
100
AcDbEntity
  8
0
100
AcDbCircle
 62
7
  6
CONTINUOUS
 10
5.2596717016
 20
5.9848322091
 40
0.26
100
AcDbArc
 50
46.3774350705
 51
49.2475649295
  0
ARC
  5
48C
100
AcDbEntity
  8
0
100
AcDbCircle
 62
7
  6
CONTINUOUS
 10
5.2596717016
 20
5.9848322091
 40
0.26
100
AcDbArc
 50
52.0024350705
 51
54.8725649295
  0
ARC
  5
48D
100
AcDbEntity
  8
0
100
AcDbCircle
 62
7
  6
CONTINUOUS
 10
5.2596717016
 20
5.9848322091
 40
0.26
100
AcDbArc
 50
57.6274350705
 51
60.4975649295
  0
ARC
  5
48E
100
AcDbEntity
  8
0
100
AcDbCircle
 62
7
  6
CONTINUOUS
 10
5.2596717016
 20
5.9848322091
 40
0.26
100
AcDbArc
 50
63.2524350705
 51
66.1225649295
  0
ARC
  5
48F
100
AcDbEntity
  8
0
100
AcDbCircle
 62
7
  6
CONTINUOUS
 10
5.2596717016
 20
5.9848322091
 40
0.26
100
AcDbArc
 50
68.8774350705
 51
71.7475649295
  0
ARC
  5
490
100
AcDbEntity
  8
0
100
AcDbCircle
 62
7
  6
CONTINUOUS
 10
5.2596717016
 20
5.9848322091
 40
0.26
100
AcDbArc
 50
74.5024350705
 51
77.3725649295
  0
ARC
  5
491
100
AcDbEntity
  8
0
100
AcDbCircle
 62
7
  6
CONTINUOUS
 10
5.2596717016
 20
5.9848322091
 40
0.26
100
AcDbArc
 50
80.1274350705
 51
82.9975649295
  0
ARC
  5
492
100
AcDbEntity
  8
0
100
AcDbCircle
 62
7
  6
CONTINUOUS
 10
5.2596717016
 20
5.9848322091
 40
0.26
100
AcDbArc
 50
85.7524350705
 51
88.6225649295
  0
ARC
  5
493
100
AcDbEntity
  8
0
100
AcDbCircle
 62
7
  6
CONTINUOUS
 10
5.2596717016
 20
5.9848322091
 40
0.26
100
AcDbArc
 50
91.3774350705
 51
94.2475649295
  0
ARC
  5
494
100
AcDbEntity
  8
0
100
AcDbCircle
 62
7
  6
CONTINUOUS
 10
5.2596717016
 20
5.9848322091
 40
0.26
100
AcDbArc
 50
97.0024350705
 51
99.8725649295
  0
ARC
  5
495
100
AcDbEntity
  8
0
100
AcDbCircle
 62
7
  6
CONTINUOUS
 10
5.2596717016
 20
5.9848322091
 40
0.26
100
AcDbArc
 50
102.6274350705
 51
105.4975649295
  0
ARC
  5
496
100
AcDbEntity
  8
0
100
AcDbCircle
 62
7
  6
CONTINUOUS
 10
5.2596717016
 20
5.9848322091
 40
0.26
100
AcDbArc
 50
108.2524350705
 51
111.1225649295
  0
ARC
  5
497
100
AcDbEntity
  8
0
100
AcDbCircle
 62
7
  6
CONTINUOUS
 10
5.2596717016
 20
5.9848322091
 40
0.26
100
AcDbArc
 50
113.8774350705
 51
116.7475649295
  0
ARC
  5
498
100
AcDbEntity
  8
0
100
AcDbCircle
 62
7
  6
CONTINUOUS
 10
5.2596717016
 20
5.9848322091
 40
0.26
100
AcDbArc
 50
119.5024350705
 51
122.3725649295
  0
ARC
  5
499
100
AcDbEntity
  8
0
100
AcDbCircle
 62
7
  6
CONTINUOUS
 10
5.2596717016
 20
5.9848322091
 40
0.26
100
AcDbArc
 50
125.1274350705
 51
127.9975649295
  0
ARC
  5
49A
100
AcDbEntity
  8
0
100
AcDbCircle
 62
7
  6
CONTINUOUS
 10
5.2596717016
 20
5.9848322091
 40
0.26
100
AcDbArc
 50
130.7524350705
 51
133.6225649295
  0
ARC
  5
49B
100
AcDbEntity
  8
0
100
AcDbCircle
 62
7
  6
CONTINUOUS
 10
5.2596717016
 20
5.9848322091
 40
0.26
100
AcDbArc
 50
136.3774350705
 51
139.2475649295
  0
ARC
  5
49C
100
AcDbEntity
  8
0
100
AcDbCircle
 62
7
  6
CONTINUOUS
 10
5.2596717016
 20
5.9848322091
 40
0.26
100
AcDbArc
 50
142.0024350705
 51
144.8725649295
  0
ARC
  5
49D
100
AcDbEntity
  8
0
100
AcDbCircle
 62
7
  6
CONTINUOUS
 10
5.2596717016
 20
5.9848322091
 40
0.26
100
AcDbArc
 50
147.6274350705
 51
150.4975649295
  0
ARC
  5
49E
100
AcDbEntity
  8
0
100
AcDbCircle
 62
7
  6
CONTINUOUS
 10
5.2596717016
 20
5.9848322091
 40
0.26
100
AcDbArc
 50
153.2524350705
 51
156.1225649295
  0
ARC
  5
49F
100
AcDbEntity
  8
0
100
AcDbCircle
 62
7
  6
CONTINUOUS
 10
5.2596717016
 20
5.9848322091
 40
0.26
100
AcDbArc
 50
158.8774350705
 51
161.7475649295
  0
ARC
  5
4A0
100
AcDbEntity
  8
0
100
AcDbCircle
 62
7
  6
CONTINUOUS
 10
5.2596717016
 20
5.9848322091
 40
0.26
100
AcDbArc
 50
164.5024350705
 51
167.3725649295
  0
ARC
  5
4A1
100
AcDbEntity
  8
0
100
AcDbCircle
 62
7
  6
CONTINUOUS
 10
5.2596717016
 20
5.9848322091
 40
0.26
100
AcDbArc
 50
170.1274350705
 51
172.9975649295
  0
ARC
  5
4A2
100
AcDbEntity
  8
0
100
AcDbCircle
 62
7
  6
CONTINUOUS
 10
5.2596717016
 20
5.9848322091
 40
0.26
100
AcDbArc
 50
175.7524350705
 51
178.6225649295
  0
ARC
  5
4A3
100
AcDbEntity
  8
0
100
AcDbCircle
 62
7
  6
CONTINUOUS
 10
5.2596717016
 20
5.9848322091
 40
0.26
100
AcDbArc
 50
181.3774350706
 51
184.2475649294
  0
ARC
  5
4A4
100
AcDbEntity
  8
0
100
AcDbCircle
 62
7
  6
CONTINUOUS
 10
5.2596717016
 20
5.9848322091
 40
0.26
100
AcDbArc
 50
187.0024350706
 51
189.8725649294
  0
ARC
  5
4A5
100
AcDbEntity
  8
0
100
AcDbCircle
 62
7
  6
CONTINUOUS
 10
5.2596717016
 20
5.9848322091
 40
0.26
100
AcDbArc
 50
192.6274350706
 51
195.4975649294
  0
ARC
  5
4A6
100
AcDbEntity
  8
0
100
AcDbCircle
 62
7
  6
CONTINUOUS
 10
5.2596717016
 20
5.9848322091
 40
0.26
100
AcDbArc
 50
198.2524350706
 51
201.1225649294
  0
ARC
  5
4A7
100
AcDbEntity
  8
0
100
AcDbCircle
 62
7
  6
CONTINUOUS
 10
5.2596717016
 20
5.9848322091
 40
0.26
100
AcDbArc
 50
203.8774350706
 51
206.7475649294
  0
ARC
  5
4A8
100
AcDbEntity
  8
0
100
AcDbCircle
 62
7
  6
CONTINUOUS
 10
5.2596717016
 20
5.9848322091
 40
0.26
100
AcDbArc
 50
209.5024350706
 51
212.3725649294
  0
ARC
  5
4A9
100
AcDbEntity
  8
0
100
AcDbCircle
 62
7
  6
CONTINUOUS
 10
5.2596717016
 20
5.9848322091
 40
0.26
100
AcDbArc
 50
327.6274350706
 51
330.4975649294
  0
ARC
  5
4AA
100
AcDbEntity
  8
0
100
AcDbCircle
 62
7
  6
CONTINUOUS
 10
5.2596717016
 20
5.9848322091
 40
0.26
100
AcDbArc
 50
333.2524350706
 51
336.1225649294
  0
ARC
  5
4AB
100
AcDbEntity
  8
0
100
AcDbCircle
 62
7
  6
CONTINUOUS
 10
5.2596717016
 20
5.9848322091
 40
0.26
100
AcDbArc
 50
338.8774350706
 51
341.7475649294
  0
ARC
  5
4AC
100
AcDbEntity
  8
0
100
AcDbCircle
 62
7
  6
CONTINUOUS
 10
5.2596717016
 20
5.9848322091
 40
0.26
100
AcDbArc
 50
344.5024350706
 51
347.3725649294
  0
ARC
  5
4AD
100
AcDbEntity
  8
0
100
AcDbCircle
 62
7
  6
CONTINUOUS
 10
5.2596717016
 20
5.9848322091
 40
0.26
100
AcDbArc
 50
350.1274350706
 51
352.9975649294
  0
ARC
  5
4AE
100
AcDbEntity
  8
0
100
AcDbCircle
 62
7
  6
CONTINUOUS
 10
5.2596717016
 20
5.9848322091
 40
0.245
100
AcDbArc
 50
333.2422773783
 51
206.7610730656
  0
ARC
  5
4AF
100
AcDbEntity
  8
0
100
AcDbCircle
 62
7
  6
CONTINUOUS
 10
5.2596717016
 20
5.9848322091
 40
0.22025
100
AcDbArc
 50
353.3661848969
 51
186.6338151031
  0
ARC
  5
4B0
100
AcDbEntity
  8
0
100
AcDbCircle
 62
7
  6
CONTINUOUS
 10
5.2596717016
 20
5.9848322091
 40
0.21875
100
AcDbArc
 50
0.0
 51
180.0
  0
ARC
  5
4B1
100
AcDbEntity
  8
0
100
AcDbCircle
 62
7
  6
CONTINUOUS
 10
8.6496717016
 20
5.9323322091
 40
0.01
100
AcDbArc
 50
270.0
 51
360.0
  0
ARC
  5
4B2
100
AcDbEntity
  8
0
100
AcDbCircle
 62
7
  6
CONTINUOUS
 10
7.2596717016
 20
5.9848322091
 40
0.5625
100
AcDbArc
 50
6.3794345773
 51
353.6205654227
  0
ARC
  5
4B3
100
AcDbEntity
  8
0
100
AcDbCircle
 62
7
  6
CONTINUOUS
 10
7.2596717016
 20
5.9848322091
 40
0.5485886871
100
AcDbArc
 50
6.5420311983
 51
353.4579688017
  0
ARC
  5
4B4
100
AcDbEntity
  8
0
100
AcDbCircle
 62
7
  6
CONTINUOUS
 10
7.2596717016
 20
5.9848322091
 40
0.3147829219
100
AcDbArc
 50
11.4527817032
 51
348.5472182968
  0
ARC
  5
4B5
100
AcDbEntity
  8
0
100
AcDbCircle
 62
7
  6
CONTINUOUS
 10
7.2596717016
 20
5.9848322091
 40
0.2509420131
100
AcDbArc
 50
14.4227587287
 51
345.5772412713
  0
ARC
  5
4B6
100
AcDbEntity
  8
0
100
AcDbCircle
 62
7
  6
CONTINUOUS
 10
7.2596717016
 20
5.9848322091
 40
0.25
100
AcDbArc
 50
7.0575437376
 51
9.8174562624
  0
ARC
  5
4B7
100
AcDbEntity
  8
0
100
AcDbCircle
 62
7
  6
CONTINUOUS
 10
7.2596717016
 20
5.9848322091
 40
0.25
100
AcDbArc
 50
1.4325437376
 51
4.1924562624
  0
ARC
  5
4B8
100
AcDbEntity
  8
0
100
AcDbCircle
 62
7
  6
CONTINUOUS
 10
7.2596717016
 20
5.9848322091
 40
0.25
100
AcDbArc
 50
355.8075437376
 51
358.5674562624
  0
ARC
  5
4B9
100
AcDbEntity
  8
0
100
AcDbCircle
 62
7
  6
CONTINUOUS
 10
7.2596717016
 20
5.9848322091
 40
0.25
100
AcDbArc
 50
350.1825437376
 51
352.9424562624
  0
ARC
  5
4BA
100
AcDbEntity
  8
0
100
AcDbCircle
 62
7
  6
CONTINUOUS
 10
7.2596717016
 20
5.9848322091
 40
0.25
100
AcDbArc
 50
12.6825437376
 51
347.3174562624
  0
CIRCLE
  5
4BB
100
AcDbEntity
  8
0
100
AcDbCircle
 62
7
  6
CONTINUOUS
 10
7.2596717016
 20
5.9848322091
 40
0.235
  0
ARC
  5
4BC
100
AcDbEntity
  8
0
100
AcDbCircle
 62
7
  6
CONTINUOUS
 10
8.6496717016
 20
6.0373322091
 40
0.01
100
AcDbArc
 50
0.0
 51
90.0
  0
SPLINE
  5
4BD
100
AcDbEntity
  8
0
100
AcDbSpline
 62
7
  6
CONTINUOUS
 70
0
 71
3
 72
21
 73
17
 74
0
 42
0.0000001
 43
0.0000001
 44
0.0000000001
 40
0.0
 40
0.0
 40
0.0
 40
0.0
 40
0.0079268827
 40
0.0175192297
 40
0.0289292224
 40
0.0422318468
 40
0.0745579104
 40
0.1143970517
 40
0.1613856687
 40
0.2150395071
 40
0.2748090141
 40
0.3401215466
 40
0.4851232554
 40
0.6457885627
 40
0.8184585794
 40
1.0
 40
1.0
 40
1.0
 40
1.0
 10
5.5090018894
 20
3.2433709233
 30
0.0
 10
5.5089997598
 20
3.2433995648
 30
0.0
 10
5.5089868489
 20
3.2434622341
 30
0.0
 10
5.5089497533
 20
3.2435605029
 30
0.0
 10
5.5088934032
 20
3.2436715073
 30
0.0
 10
5.5087853999
 20
3.2438478731
 30
0.0
 10
5.5086000241
 20
3.2440965807
 30
0.0
 10
5.5083188658
 20
3.2444243877
 30
0.0
 10
5.5079694284
 20
3.2447946946
 30
0.0
 10
5.5075562084
 20
3.2452035139
 30
0.0
 10
5.5070840606
 20
3.2456468331
 30
0.0
 10
5.5063568678
 20
3.2463017231
 30
0.0
 10
5.5053350886
 20
3.2471753414
 30
0.0
 10
5.5039917132
 20
3.24827049
 30
0.0
 10
5.5025244199
 20
3.2494226353
 30
0.0
 10
5.5015033208
 20
3.2502001447
 30
0.0
 10
5.5009775287
 20
3.2505953517
 30
0.0
  0
SPLINE
  5
4BE
100
AcDbEntity
  8
0
100
AcDbSpline
 62
7
  6
CONTINUOUS
 70
0
 71
3
 72
21
 73
17
 74
0
 42
0.0000001
 43
0.0000001
 44
0.0000000001
 40
0.0
 40
0.0
 40
0.0
 40
0.0
 40
0.0083716417
 40
0.0183680855
 40
0.0301376339
 40
0.0437529982
 40
0.0765675658
 40
0.1167307187
 40
0.1638924227
 40
0.2175899762
 40
0.2772931464
 40
0.3424515191
 40
0.4869584764
 40
0.6469992206
 40
0.8190307008
 40
1.0
 40
1.0
 40
1.0
 40
1.0
 10
5.5060058527
 20
3.2675152846
 30
0.0
 10
5.5060006861
 20
3.267544766
 30
0.0
 10
5.505981597
 20
3.2676080882
 30
0.0
 10
5.5059351905
 20
3.2677055807
 30
0.0
 10
5.5058688308
 20
3.2678134998
 30
0.0
 10
5.505746038
 20
3.2679816676
 30
0.0
 10
5.5055409667
 20
3.2682143238
 30
0.0
 10
5.5052348387
 20
3.2685158563
 30
0.0
 10
5.5048585604
 20
3.2688517004
 30
0.0
 10
5.5044167953
 20
3.2692184055
 30
0.0
 10
5.5039145627
 20
3.2696126026
 30
0.0
 10
5.5031441318
 20
3.2701905562
 30
0.0
 10
5.5020654822
 20
3.2709549189
 30
0.0
 10
5.5006511949
 20
3.2719054011
 30
0.0
 10
5.4991092125
 20
3.2728989357
 30
0.0
 10
5.4980376254
 20
3.2735657453
 30
0.0
 10
5.497486046
 20
3.2739039495
 30
0.0
  0
SPLINE
  5
4BF
100
AcDbEntity
  8
0
100
AcDbSpline
 62
7
  6
CONTINUOUS
 70
0
 71
3
 72
21
 73
17
 74
0
 42
0.0000001
 43
0.0000001
 44
0.0000000001
 40
0.0
 40
0.0
 40
0.0
 40
0.0
 40
0.0087526622
 40
0.0190959658
 40
0.0311743737
 40
0.0450566417
 40
0.0782863605
 40
0.1187187583
 40
0.1660174085
 40
0.2197386816
 40
0.2793706643
 40
0.3443836222
 40
0.488447899
 40
0.6479533984
 40
0.819463897
 40
1.0
 40
1.0
 40
1.0
 40
1.0
 10
5.500633911
 20
3.2912531427
 30
0.0
 10
5.5006256103
 20
3.2912828491
 30
0.0
 10
5.500600212
 20
3.2913456323
 30
0.0
 10
5.5005444971
 20
3.291440574
 30
0.0
 10
5.5004683855
 20
3.2915436399
 30
0.0
 10
5.5003315585
 20
3.2917012767
 30
0.0
 10
5.5001083401
 20
3.291915029
 30
0.0
 10
5.4997799107
 20
3.2921870342
 30
0.0
 10
5.4993802944
 20
3.2924852951
 30
0.0
 10
5.4989142828
 20
3.2928069212
 30
0.0
 10
5.4983869829
 20
3.2931491646
 30
0.0
 10
5.4975811274
 20
3.2936465462
 30
0.0
 10
5.4964567747
 20
3.2942973624
 30
0.0
 10
5.4949864933
 20
3.2950983359
 30
0.0
 10
5.4933862337
 20
3.2959285649
 30
0.0
 10
5.4922756998
 20
3.2964816997
 30
0.0
 10
5.4917042811
 20
3.2967614153
 30
0.0
  0
SPLINE
  5
4C0
100
AcDbEntity
  8
0
100
AcDbSpline
 62
7
  6
CONTINUOUS
 70
0
 71
3
 72
9
 73
5
 74
0
 42
0.0000001
 43
0.0000001
 44
0.0000000001
 40
0.0
 40
0.0
 40
0.0
 40
0.0
 40
0.2173663264
 40
1.0
 40
1.0
 40
1.0
 40
1.0
 10
5.4970075086
 20
3.3030917149
 30
0.0
 10
5.4970092889
 20
3.3030863955
 30
0.0
 10
5.497016019
 20
3.3030614314
 30
0.0
 10
5.4970177337
 20
3.3030353716
 30
0.0
 10
5.4970177337
 20
3.3030151749
 30
0.0
  0
SPLINE
  5
4C1
100
AcDbEntity
  8
0
100
AcDbSpline
 62
7
  6
CONTINUOUS
 70
0
 71
3
 72
21
 73
17
 74
0
 42
0.0000001
 43
0.0000001
 44
0.0000000001
 40
0.0
 40
0.0
 40
0.0
 40
0.0
 40
0.0090679236
 40
0.0196985558
 40
0.0320318426
 40
0.0461328793
 40
0.0797002171
 40
0.1203439449
 40
0.1677416601
 40
0.221466029
 40
0.2810222675
 40
0.3458994879
 40
0.4895766389
 40
0.6486409167
 40
0.8197531292
 40
1.0
 40
1.0
 40
1.0
 40
1.0
 10
5.4929378028
 20
3.3143548278
 30
0.0
 10
5.4929263872
 20
3.3143841491
 30
0.0
 10
5.4928947805
 20
3.314445211
 30
0.0
 10
5.4928300885
 20
3.3145358651
 30
0.0
 10
5.4927448096
 20
3.3146323851
 30
0.0
 10
5.4925950978
 20
3.3147772874
 30
0.0
 10
5.492355735
 20
3.3149695115
 30
0.0
 10
5.4920081424
 20
3.3152090912
 30
0.0
 10
5.491589096
 20
3.3154670823
 30
0.0
 10
5.4911034705
 20
3.3157411723
 30
0.0
 10
5.4905563939
 20
3.3160292037
 30
0.0
 10
5.4897232053
 20
3.3164432364
 30
0.0
 10
5.488564545
 20
3.3169774153
 30
0.0
 10
5.4870533265
 20
3.3176256213
 30
0.0
 10
5.4854112328
 20
3.3182895677
 30
0.0
 10
5.4842732551
 20
3.3187272591
 30
0.0
 10
5.4836879157
 20
3.3189476193
 30
0.0
  0
SPLINE
  5
4C2
100
AcDbEntity
  8
0
100
AcDbSpline
 62
7
  6
CONTINUOUS
 70
0
 71
3
 72
9
 73
5
 74
0
 42
0.0000001
 43
0.0000001
 44
0.0000000001
 40
0.0
 40
0.0
 40
0.0
 40
0.0
 40
0.4335968269
 40
1.0
 40
1.0
 40
1.0
 40
1.0
 10
5.4881632405
 20
3.3257697319
 30
0.0
 10
5.4881687415
 20
3.3257574626
 30
0.0
 10
5.4881760902
 20
3.3257268849
 30
0.0
 10
5.4881776239
 20
3.325695855
 30
0.0
 10
5.4881776239
 20
3.3256782905
 30
0.0
  0
SPLINE
  5
4C3
100
AcDbEntity
  8
0
100
AcDbSpline
 62
7
  6
CONTINUOUS
 70
0
 71
3
 72
18
 73
14
 74
0
 42
0.0000001
 43
0.0000001
 44
0.0000000001
 40
0.0
 40
0.0
 40
0.0
 40
0.0
 40
0.0240758905
 40
0.0532236767
 40
0.0878631731
 40
0.1281436087
 40
0.1740798884
 40
0.2255741498
 40
0.344553492
 40
0.4834598899
 40
0.6403392207
 40
0.813180153
 40
1.0
 40
1.0
 40
1.0
 40
1.0
 10
5.4829919633
 20
3.3365968322
 30
0.0
 10
5.4829733621
 20
3.3366334601
 30
0.0
 10
5.4829216335
 20
3.3367090119
 30
0.0
 10
5.4828180662
 20
3.336817859
 30
0.0
 10
5.4826821359
 20
3.3369325409
 30
0.0
 10
5.4825144241
 20
3.3370527798
 30
0.0
 10
5.4823156249
 20
3.3371782477
 30
0.0
 10
5.4819946048
 20
3.3373609173
 30
0.0
 10
5.4815216575
 20
3.3375962342
 30
0.0
 10
5.4808737586
 20
3.3378813498
 30
0.0
 10
5.4801309985
 20
3.3381778291
 30
0.0
 10
5.4793039758
 20
3.3384827432
 30
0.0
 10
5.4787237559
 20
3.3386827669
 30
0.0
 10
5.4784215263
 20
3.3387841115
 30
0.0
  0
LINE
  5
4C4
100
AcDbEntity
  8
0
100
AcDbLine
 62
7
  6
CONTINUOUS
 10
5.1059529923
 20
2.9777073602
 11
5.1058482033
 21
2.9856397207
  0
LINE
  5
4C5
100
AcDbEntity
  8
0
100
AcDbLine
 62
7
  6
CONTINUOUS
 10
5.126004666
 20
2.9637271114
 11
5.1249606967
 21
2.9716028776
  0
LINE
  5
4C6
100
AcDbEntity
  8
0
100
AcDbLine
 62
7
  6
CONTINUOUS
 10
5.1473406088
 20
2.9517609833
 11
5.1453705307
 21
2.9594887464
  0
SPLINE
  5
4C7
100
AcDbEntity
  8
0
100
AcDbSpline
 62
7
  6
CONTINUOUS
 70
0
 71
3
 72
23
 73
19
 74
0
 42
0.0000001
 43
0.0000001
 44
0.0000000001
 40
0.0
 40
0.0
 40
0.0
 40
0.0
 40
0.0039924618
 40
0.009996132
 40
0.0181554845
 40
0.0285031572
 40
0.0410275521
 40
0.0556925706
 40
0.0912656672
 40
0.1348153062
 40
0.1858528756
 40
0.2438711143
 40
0.3083528341
 40
0.3787816576
 40
0.4546662643
 40
0.6209167983
 40
0.8037168799
 40
1.0
 40
1.0
 40
1.0
 40
1.0
 10
5.1697560203
 20
2.941923425
 30
0.0
 10
5.1697460248
 20
2.9419272425
 30
0.0
 10
5.1697245088
 20
2.941944518
 30
0.0
 10
5.1696932232
 20
2.9419815758
 30
0.0
 10
5.1696561445
 20
2.9420360264
 30
0.0
 10
5.1696137277
 20
2.9421075424
 30
0.0
 10
5.1695659775
 20
2.942196126
 30
0.0
 10
5.1694905165
 20
2.9423464603
 30
0.0
 10
5.1693852791
 20
2.9425747835
 30
0.0
 10
5.1692472501
 20
2.9428951531
 30
0.0
 10
5.1690920362
 20
2.9432735513
 30
0.0
 10
5.1689210462
 20
2.9437060597
 30
0.0
 10
5.1687356639
 20
2.9441887316
 30
0.0
 10
5.1685372202
 20
2.9447176575
 30
0.0
 10
5.1682479717
 20
2.9455037968
 30
0.0
 10
5.1678634032
 20
2.9465757272
 30
0.0
 10
5.1673805002
 20
2.9479551235
 30
0.0
 10
5.1670506941
 20
2.9489160344
 30
0.0
 10
5.1668811475
 20
2.9494139927
 30
0.0
  0
SPLINE
  5
4C8
100
AcDbEntity
  8
0
100
AcDbSpline
 62
7
  6
CONTINUOUS
 70
0
 71
3
 72
22
 73
18
 74
0
 42
0.0000001
 43
0.0000001
 44
0.0000000001
 40
0.0
 40
0.0
 40
0.0
 40
0.0
 40
0.0048638206
 40
0.0116249721
 40
0.0204418251
 40
0.0313631743
 40
0.0594802334
 40
0.0957379072
 40
0.1397527403
 40
0.1910563054
 40
0.2491580732
 40
0.3135557496
 40
0.3837470145
 40
0.4592538114
 40
0.6243757554
 40
0.8056220691
 40
1.0
 40
1.0
 40
1.0
 40
1.0
 10
5.1930358994
 20
2.9343086162
 30
0.0
 10
5.1930232136
 20
2.9343120943
 30
0.0
 10
5.1929951872
 20
2.9343277223
 30
0.0
 10
5.1929530473
 20
2.9343635169
 30
0.0
 10
5.1929037451
 20
2.934415738
 30
0.0
 10
5.1928217794
 20
2.9345159445
 30
0.0
 10
5.1927046787
 20
2.9346828157
 30
0.0
 10
5.1925478604
 20
2.9349305011
 30
0.0
 10
5.1923671483
 20
2.9352371055
 30
0.0
 10
5.1921642435
 20
2.9355990442
 30
0.0
 10
5.1919410297
 20
2.9360127237
 30
0.0
 10
5.1916992504
 20
2.9364743741
 30
0.0
 10
5.1914406239
 20
2.9369803035
 30
0.0
 10
5.1910641006
 20
2.9377318652
 30
0.0
 10
5.1905636426
 20
2.9387572201
 30
0.0
 10
5.1899352482
 20
2.9400777653
 30
0.0
 10
5.1895060003
 20
2.9409984889
 30
0.0
 10
5.1892853881
 20
2.9414756419
 30
0.0
  0
SPLINE
  5
4C9
100
AcDbEntity
  8
0
100
AcDbSpline
 62
7
  6
CONTINUOUS
 70
0
 71
3
 72
22
 73
18
 74
0
 42
0.0000001
 43
0.0000001
 44
0.0000000001
 40
0.0
 40
0.0
 40
0.0
 40
0.0
 40
0.005677479
 40
0.0131608565
 40
0.0226112821
 40
0.03408795
 40
0.0631096267
 40
0.1000352952
 40
0.144507173
 40
0.1960762989
 40
0.2542678658
 40
0.3185934953
 40
0.3885637188
 40
0.4637124994
 40
0.6277507747
 40
0.8074883993
 40
1.0
 40
1.0
 40
1.0
 40
1.0
 10
5.2169570433
 20
2.9289896055
 30
0.0
 10
5.2169417433
 20
2.9289922373
 30
0.0
 10
5.2169076369
 20
2.9290053482
 30
0.0
 10
5.2168550079
 20
2.9290379681
 30
0.0
 10
5.2167938786
 20
2.9290861419
 30
0.0
 10
5.2166932463
 20
2.9291785868
 30
0.0
 10
5.2165492104
 20
2.9293341225
 30
0.0
 10
5.2163563684
 20
2.9295665088
 30
0.0
 10
5.2161345802
 20
2.9298547112
 30
0.0
 10
5.2158859167
 20
2.9301953774
 30
0.0
 10
5.215612616
 20
2.9305851638
 30
0.0
 10
5.2153167893
 20
2.9310205277
 30
0.0
 10
5.2150005108
 20
2.9314980032
 30
0.0
 10
5.2145405317
 20
2.9322072937
 30
0.0
 10
5.2139292222
 20
2.9331761235
 30
0.0
 10
5.2131615593
 20
2.9344256168
 30
0.0
 10
5.2126370168
 20
2.935297968
 30
0.0
 10
5.2123674874
 20
2.9357501448
 30
0.0
  0
SPLINE
  5
4CA
100
AcDbEntity
  8
0
100
AcDbSpline
 62
7
  6
CONTINUOUS
 70
0
 71
3
 72
21
 73
17
 74
0
 42
0.0000001
 43
0.0000001
 44
0.0000000001
 40
0.0
 40
0.0
 40
0.0
 40
0.0
 40
0.0064240451
 40
0.0145799328
 40
0.0246260465
 40
0.0366277206
 40
0.0665098018
 40
0.1040748681
 40
0.1489884036
 40
0.2008192045
 40
0.2591066028
 40
0.3233747353
 40
0.4679609761
 40
0.6309809757
 40
0.8092824297
 40
1.0
 40
1.0
 40
1.0
 40
1.0
 10
5.2412901093
 20
2.9260176304
 30
0.0
 10
5.2412723655
 20
2.9260189299
 30
0.0
 10
5.2412326735
 20
2.9260286446
 30
0.0
 10
5.2411702183
 20
2.9260563737
 30
0.0
 10
5.2410979348
 20
2.9260987562
 30
0.0
 10
5.2409798418
 20
2.926180993
 30
0.0
 10
5.2408104177
 20
2.9263218857
 30
0.0
 10
5.2405834256
 20
2.9265348419
 30
0.0
 10
5.2403226967
 20
2.9268002615
 30
0.0
 10
5.2400306491
 20
2.9271150448
 30
0.0
 10
5.2397098427
 20
2.9274761066
 30
0.0
 10
5.2392277548
 20
2.9280373588
 30
0.0
 10
5.2385728739
 20
2.9288323694
 30
0.0
 10
5.2377362585
 20
2.9298864848
 30
0.0
 10
5.2368363689
 20
2.9310532995
 30
0.0
 10
5.2362211915
 20
2.9318694325
 30
0.0
 10
5.2359051521
 20
2.9322926409
 30
0.0
  0
SPLINE
  5
4CB
100
AcDbEntity
  8
0
100
AcDbSpline
 62
7
  6
CONTINUOUS
 70
0
 71
3
 72
21
 73
17
 74
0
 42
0.0000001
 43
0.0000001
 44
0.0000000001
 40
0.0
 40
0.0
 40
0.0
 40
0.0
 40
0.007097395
 40
0.0158663876
 40
0.0264601229
 40
0.0389471979
 40
0.0696303839
 40
0.1077955558
 40
0.1531283341
 40
0.2052129356
 40
0.2636008226
 40
0.3278269253
 40
0.4719385243
 40
0.6340202653
 40
0.8109785599
 40
1.0
 40
1.0
 40
1.0
 40
1.0
 10
5.2658017408
 20
2.9254216208
 30
0.0
 10
5.2657818087
 20
2.9254211397
 30
0.0
 10
5.2657371356
 20
2.9254266176
 30
0.0
 10
5.2656657586
 20
2.9254479175
 30
0.0
 10
5.2655832495
 20
2.9254828971
 30
0.0
 10
5.2654491944
 20
2.9255526841
 30
0.0
 10
5.2652563317
 20
2.9256758678
 30
0.0
 10
5.2649975357
 20
2.9258655114
 30
0.0
 10
5.2647004545
 20
2.926104023
 30
0.0
 10
5.2643678294
 20
2.9263885712
 30
0.0
 10
5.2640025291
 20
2.9267163473
 30
0.0
 10
5.2634541812
 20
2.927227015
 30
0.0
 10
5.2627090116
 20
2.9279534978
 30
0.0
 10
5.261756579
 20
2.9289205452
 30
0.0
 10
5.2607322333
 20
2.9299935737
 30
0.0
 10
5.2600315929
 20
2.9307460006
 30
0.0
 10
5.2596717016
 20
2.931136428
 30
0.0
  0
SPLINE
  5
4CC
100
AcDbEntity
  8
0
100
AcDbSpline
 62
7
  6
CONTINUOUS
 70
0
 71
3
 72
21
 73
17
 74
0
 42
0.0000001
 43
0.0000001
 44
0.0000000001
 40
0.0
 40
0.0
 40
0.0
 40
0.0
 40
0.0076937023
 40
0.0170101401
 40
0.0280964046
 40
0.0410225101
 40
0.0724359426
 40
0.1111534256
 40
0.1568772676
 40
0.2092044239
 40
0.2676961795
 40
0.3318963036
 40
0.4755957166
 40
0.6368309648
 40
0.8125557838
 40
1.0
 40
1.0
 40
1.0
 40
1.0
 10
5.290256729
 20
2.9272078942
 30
0.0
 10
5.2902349402
 20
2.927205236
 30
0.0
 10
5.2901860107
 20
2.9272057151
 30
0.0
 10
5.2901068269
 20
2.9272192343
 30
0.0
 10
5.2900152459
 20
2.9272453685
 30
0.0
 10
5.2898669921
 20
2.9273006973
 30
0.0
 10
5.2896530005
 20
2.9274033956
 30
0.0
 10
5.2893651851
 20
2.9275661501
 30
0.0
 10
5.2890347621
 20
2.9277739311
 30
0.0
 10
5.2886647756
 20
2.9280241905
 30
0.0
 10
5.2882583872
 20
2.9283144124
 30
0.0
 10
5.2876488273
 20
2.9287684294
 30
0.0
 10
5.2868199546
 20
2.9294183699
 30
0.0
 10
5.2857597869
 20
2.9302883189
 30
0.0
 10
5.2846195259
 20
2.9312570462
 30
0.0
 10
5.2838390874
 20
2.9319386273
 30
0.0
 10
5.2834382512
 20
2.9322926409
 30
0.0
  0
SPLINE
  5
4CD
100
AcDbEntity
  8
0
100
AcDbSpline
 62
7
  6
CONTINUOUS
 70
0
 71
3
 72
21
 73
17
 74
0
 42
0.0000001
 43
0.0000001
 44
0.0000000001
 40
0.0
 40
0.0
 40
0.0
 40
0.0
 40
0.0082106876
 40
0.0180049549
 40
0.0295239114
 40
0.0428378391
 40
0.0749019211
 40
0.114117174
 40
0.1601990798
 40
0.2127545172
 40
0.2713520927
 40
0.3355423016
 40
0.4788958834
 40
0.6393848096
 40
0.8139982031
 40
1.0
 40
1.0
 40
1.0
 40
1.0
 10
5.3144202102
 20
2.9313600469
 30
0.0
 10
5.3143969615
 20
2.931354879
 30
0.0
 10
5.3143446147
 20
2.9313497073
 30
0.0
 10
5.3142589226
 20
2.9313542993
 30
0.0
 10
5.314159619
 20
2.9313703441
 30
0.0
 10
5.3139991659
 20
2.9314094686
 30
0.0
 10
5.3137666718
 20
2.9314892345
 30
0.0
 10
5.31345302
 20
2.9316218806
 30
0.0
 10
5.3130926544
 20
2.9317954543
 30
0.0
 10
5.3126889039
 20
2.9320077068
 30
0.0
 10
5.3122452086
 20
2.9322564325
 30
0.0
 10
5.3115799676
 20
2.9326481839
 30
0.0
 10
5.3106745881
 20
2.9332141059
 30
0.0
 10
5.3095155074
 20
2.9339775262
 30
0.0
 10
5.3082686134
 20
2.934832032
 30
0.0
 10
5.3074145406
 20
2.9354359926
 30
0.0
 10
5.3069759158
 20
2.9357501448
 30
0.0
  0
SPLINE
  5
4CE
100
AcDbEntity
  8
0
100
AcDbSpline
 62
7
  6
CONTINUOUS
 70
0
 71
3
 72
21
 73
17
 74
0
 42
0.0000001
 43
0.0000001
 44
0.0000000001
 40
0.0
 40
0.0
 40
0.0
 40
0.0
 40
0.0086472337
 40
0.0188474254
 40
0.0307362423
 40
0.0443835245
 40
0.0770123961
 40
0.1166658182
 40
0.1630689949
 40
0.2158359272
 40
0.2745399326
 40
0.3387360147
 40
0.4818125129
 40
0.6416611402
 40
0.8152940917
 40
1.0
 40
1.0
 40
1.0
 40
1.0
 10
5.3380598712
 20
2.9378390453
 30
0.0
 10
5.3380356142
 20
2.9378311098
 30
0.0
 10
5.3379807885
 20
2.9378197708
 30
0.0
 10
5.3378900411
 20
2.9378145166
 30
0.0
 10
5.3377845286
 20
2.9378194521
 30
0.0
 10
5.3376140791
 20
2.9378409171
 30
0.0
 10
5.3373659814
 20
2.9378956677
 30
0.0
 10
5.3370300305
 20
2.9379953909
 30
0.0
 10
5.3366434734
 20
2.9381316678
 30
0.0
 10
5.3362099083
 20
2.9383025664
 30
0.0
 10
5.3357330396
 20
2.9385062119
 30
0.0
 10
5.3350181051
 20
2.9388305656
 30
0.0
 10
5.3340440041
 20
2.9393055663
 30
0.0
 10
5.3327955612
 20
2.9399536655
 30
0.0
 10
5.3314520561
 20
2.9406846551
 30
0.0
 10
5.3305310182
 20
2.9412046052
 30
0.0
 10
5.3300580151
 20
2.9414756419
 30
0.0
  0
SPLINE
  5
4CF
100
AcDbEntity
  8
0
100
AcDbSpline
 62
7
  6
CONTINUOUS
 70
0
 71
3
 72
21
 73
17
 74
0
 42
0.0000001
 43
0.0000001
 44
0.0000000001
 40
0.0
 40
0.0
 40
0.0
 40
0.0
 40
0.0090031245
 40
0.0195362892
 40
0.031730496
 40
0.0456547021
 40
0.0787583613
 40
0.1187868332
 40
0.1654716942
 40
0.2184313781
 40
0.2772412581
 40
0.341458562
 40
0.4843279276
 40
0.6436459642
 40
0.8164354031
 40
1.0
 40
1.0
 40
1.0
 40
1.0
 10
5.3609481506
 20
2.9465835219
 30
0.0
 10
5.3609233783
 20
2.9465726445
 30
0.0
 10
5.3608670904
 20
2.9465547788
 30
0.0
 10
5.3607728621
 20
2.9465390084
 30
0.0
 10
5.3606627843
 20
2.9465320617
 30
0.0
 10
5.3604847083
 20
2.9465347306
 30
0.0
 10
5.3602241313
 20
2.9465627789
 30
0.0
 10
5.3598697233
 20
2.9466272129
 30
0.0
 10
5.3594610377
 20
2.9467235294
 30
0.0
 10
5.3590019273
 20
2.9468501345
 30
0.0
 10
5.3584963454
 20
2.9470055065
 30
0.0
 10
5.3577381368
 20
2.9472578477
 30
0.0
 10
5.356703669
 20
2.947635638
 30
0.0
 10
5.3553761354
 20
2.9481603093
 30
0.0
 10
5.3539467849
 20
2.9487591554
 30
0.0
 10
5.3529659671
 20
2.9491891184
 30
0.0
 10
5.3524622557
 20
2.9494139927
 30
0.0
  0
LINE
  5
4D0
100
AcDbEntity
  8
0
100
AcDbLine
 62
7
  6
CONTINUOUS
 10
5.3828644255
 20
2.9575102821
 11
5.3824792815
 21
2.9574175888
  0
SPLINE
  5
4D1
100
AcDbEntity
  8
0
100
AcDbSpline
 62
7
  6
CONTINUOUS
 70
0
 71
3
 72
17
 73
13
 74
0
 42
0.0000001
 43
0.0000001
 44
0.0000000001
 40
0.0
 40
0.0
 40
0.0
 40
0.0
 40
0.0297972174
 40
0.0651980357
 40
0.1060418352
 40
0.152082512
 40
0.2585563468
 40
0.3821228218
 40
0.5202593377
 40
0.6706197369
 40
0.8311700387
 40
1.0
 40
1.0
 40
1.0
 40
1.0
 10
5.3824792815
 20
2.9574175888
 30
0.0
 10
5.3823922979
 20
2.9574108031
 30
0.0
 10
5.3822010979
 20
2.9574073525
 30
0.0
 10
5.3818909152
 20
2.9574241392
 30
0.0
 10
5.381534743
 20
2.9574621318
 30
0.0
 10
5.380974465
 20
2.957544255
 30
0.0
 10
5.3801806191
 20
2.9576989128
 30
0.0
 10
5.3791311097
 20
2.9579459417
 30
0.0
 10
5.3779648998
 20
2.9582558294
 30
0.0
 10
5.376701773
 20
2.9586212146
 30
0.0
 10
5.3753594307
 20
2.9590353206
 30
0.0
 10
5.3744420955
 20
2.9593331671
 30
0.0
 10
5.3739728725
 20
2.9594887464
 30
0.0
  0
LINE
  5
4D2
100
AcDbEntity
  8
0
100
AcDbLine
 62
7
  6
CONTINUOUS
 10
5.4035971418
 20
2.9705150146
 11
5.4031829073
 21
2.970373665
  0
SPLINE
  5
4D3
100
AcDbEntity
  8
0
100
AcDbSpline
 62
7
  6
CONTINUOUS
 70
0
 71
3
 72
16
 73
12
 74
0
 42
0.0000001
 43
0.0000001
 44
0.0000000001
 40
0.0
 40
0.0
 40
0.0
 40
0.0
 40
0.0305867794
 40
0.0666707138
 40
0.1080838509
 40
0.1545784771
 40
0.2616192119
 40
0.3853175354
 40
0.5231816341
 40
0.6728988136
 40
1.0
 40
1.0
 40
1.0
 40
1.0
 10
5.4031829073
 20
2.970373665
 30
0.0
 10
5.4030933142
 20
2.9703583374
 30
0.0
 10
5.4028961454
 20
2.9703359652
 30
0.0
 10
5.4025751165
 20
2.9703219919
 30
0.0
 10
5.4022065285
 20
2.9703246962
 30
0.0
 10
5.4016277092
 20
2.9703512902
 30
0.0
 10
5.4008069656
 20
2.9704272196
 30
0.0
 10
5.3997208263
 20
2.9705703693
 30
0.0
 10
5.398514049
 20
2.9707648176
 30
0.0
 10
5.3967174497
 20
2.9710953402
 30
0.0
 10
5.3953310805
 20
2.9713896593
 30
0.0
 10
5.3943827065
 20
2.9716028776
 30
0.0
  0
LINE
  5
4D4
100
AcDbEntity
  8
0
100
AcDbLine
 62
7
  6
CONTINUOUS
 10
5.4229459047
 20
2.9854732234
 11
5.4225044417
 21
2.9852769152
  0
SPLINE
  5
4D5
100
AcDbEntity
  8
0
100
AcDbSpline
 62
7
  6
CONTINUOUS
 70
0
 71
3
 72
16
 73
12
 74
0
 42
0.0000001
 43
0.0000001
 44
0.0000000001
 40
0.0
 40
0.0
 40
0.0
 40
0.0
 40
0.0313355386
 40
0.0680720269
 40
0.1100323246
 40
0.1569656043
 40
0.2645591238
 40
0.388391867
 40
0.5259986971
 40
0.6750975257
 40
1.0
 40
1.0
 40
1.0
 40
1.0
 10
5.4225044417
 20
2.9852769152
 30
0.0
 10
5.4224130708
 20
2.9852528591
 30
0.0
 10
5.4222118089
 20
2.9852111371
 30
0.0
 10
5.4218830507
 20
2.9851654947
 30
0.0
 10
5.4215056127
 20
2.9851318687
 30
0.0
 10
5.4209138349
 20
2.9851014821
 30
0.0
 10
5.4200741386
 20
2.9850965089
 30
0.0
 10
5.4189618423
 20
2.9851326825
 30
0.0
 10
5.4177261331
 20
2.985208296
 30
0.0
 10
5.4158882791
 20
2.9853617811
 30
0.0
 10
5.4144674835
 20
2.9855197022
 30
0.0
 10
5.4134952
 20
2.9856397207
 30
0.0
  0
LINE
  5
4D6
100
AcDbEntity
  8
0
100
AcDbLine
 62
7
  6
CONTINUOUS
 10
5.4319651271
 20
2.9935680454
 11
5.4319737282
 21
2.9936821291
  0
LINE
  5
4D7
100
AcDbEntity
  8
0
100
AcDbLine
 62
7
  6
CONTINUOUS
 10
5.4407234547
 20
3.0022413517
 11
5.4402578079
 21
3.001983813
  0
SPLINE
  5
4D8
100
AcDbEntity
  8
0
100
AcDbSpline
 62
7
  6
CONTINUOUS
 70
0
 71
3
 72
16
 73
12
 74
0
 42
0.0000001
 43
0.0000001
 44
0.0000000001
 40
0.0
 40
0.0
 40
0.0
 40
0.0
 40
0.0326659807
 40
0.0704132824
 40
0.1130818771
 40
0.1604544925
 40
0.2682669818
 40
0.3916915781
 40
0.5285304837
 40
0.6767140256
 40
1.0
 40
1.0
 40
1.0
 40
1.0
 10
5.4402578079
 20
3.001983813
 30
0.0
 10
5.4401724138
 20
3.0019533786
 30
0.0
 10
5.43998531
 20
3.0018962642
 30
0.0
 10
5.4396800616
 20
3.0018228987
 30
0.0
 10
5.4393317151
 20
3.0017558281
 30
0.0
 10
5.4387890878
 20
3.0016712905
 30
0.0
 10
5.4380203006
 20
3.0015856835
 30
0.0
 10
5.4370013822
 20
3.0015111889
 30
0.0
 10
5.4358688431
 20
3.0014607619
 30
0.0
 10
5.4341809772
 20
3.0014232247
 30
0.0
 10
5.4328722744
 20
3.0014302147
 30
0.0
 10
5.4319752216
 20
3.0014459325
 30
0.0
  0
LINE
  5
4D9
100
AcDbEntity
  8
0
100
AcDbLine
 62
7
  6
CONTINUOUS
 10
5.4488841288
 20
3.0111574551
 11
5.448898956
 21
3.011270077
  0
LINE
  5
4DA
100
AcDbEntity
  8
0
100
AcDbLine
 62
7
  6
CONTINUOUS
 10
5.4567575648
 20
3.0206581337
 11
5.4562720311
 21
3.0203334619
  0
SPLINE
  5
4DB
100
AcDbEntity
  8
0
100
AcDbSpline
 62
7
  6
CONTINUOUS
 70
0
 71
3
 72
15
 73
11
 74
0
 42
0.0000001
 43
0.0000001
 44
0.0000000001
 40
0.0
 40
0.0
 40
0.0
 40
0.0
 40
0.0341325282
 40
0.0729994231
 40
0.1643156773
 40
0.2723962261
 40
0.3953843775
 40
0.5313762208
 40
0.6785571513
 40
1.0
 40
1.0
 40
1.0
 40
1.0
 10
5.4562720311
 20
3.0203334619
 30
0.0
 10
5.456194281
 20
3.0202983048
 30
0.0
 10
5.4560250396
 20
3.0202296254
 30
0.0
 10
5.4556364996
 20
3.0200959088
 30
0.0
 10
5.4550614816
 20
3.0199384712
 30
0.0
 10
5.4542740448
 20
3.0197659023
 30
0.0
 10
5.4533708189
 20
3.019602962
 30
0.0
 10
5.4523668331
 20
3.01945064
 30
0.0
 10
5.4508676936
 20
3.0192570197
 30
0.0
 10
5.449701874
 20
3.0191389241
 30
0.0
 10
5.4489014529
 20
3.0190676541
 30
0.0
  0
LINE
  5
4DC
100
AcDbEntity
  8
0
100
AcDbLine
 62
7
  6
CONTINUOUS
 10
5.4639842998
 20
3.0303072246
 11
5.464001822
 21
3.0304161515
  0
LINE
  5
4DD
100
AcDbEntity
  8
0
100
AcDbLine
 62
7
  6
CONTINUOUS
 10
5.4708927681
 20
3.0405461096
 11
5.4703928856
 21
3.0401491446
  0
SPLINE
  5
4DE
100
AcDbEntity
  8
0
100
AcDbSpline
 62
7
  6
CONTINUOUS
 70
0
 71
3
 72
15
 73
11
 74
0
 42
0.0000001
 43
0.0000001
 44
0.0000000001
 40
0.0
 40
0.0
 40
0.0
 40
0.0
 40
0.035700191
 40
0.0757792344
 40
0.1685398693
 40
0.2769884341
 40
0.3995687445
 40
0.5346771841
 40
0.6807457158
 40
1.0
 40
1.0
 40
1.0
 40
1.0
 10
5.4703928856
 20
3.0401491446
 30
0.0
 10
5.4703235701
 20
3.0401108518
 30
0.0
 10
5.4701737606
 20
3.0400343902
 30
0.0
 10
5.4698330401
 20
3.0398803004
 30
0.0
 10
5.4693331345
 20
3.0396879938
 30
0.0
 10
5.4686509807
 20
3.0394627495
 30
0.0
 10
5.4678710671
 20
3.0392356677
 30
0.0
 10
5.4670046235
 20
3.0390086516
 30
0.0
 10
5.4657091544
 20
3.0386990952
 30
0.0
 10
5.4646989037
 20
3.0384864427
 30
0.0
 10
5.4640042226
 20
3.038348913
 30
0.0
  0
LINE
  5
4DF
100
AcDbEntity
  8
0
100
AcDbLine
 62
7
  6
CONTINUOUS
 10
5.4771197455
 20
3.0508338663
 11
5.4771368772
 21
3.0509359657
  0
LINE
  5
4E0
100
AcDbEntity
  8
0
100
AcDbLine
 62
7
  6
CONTINUOUS
 10
5.4829919633
 20
3.0617133607
 11
5.4826517852
 21
3.0613576077
  0
SPLINE
  5
4E1
100
AcDbEntity
  8
0
100
AcDbSpline
 62
7
  6
CONTINUOUS
 70
0
 71
3
 72
15
 73
11
 74
0
 42
0.0000001
 43
0.0000001
 44
0.0000000001
 40
0.0
 40
0.0
 40
0.0
 40
0.0
 40
0.0342247681
 40
0.0729276217
 40
0.1633651607
 40
0.2702541695
 40
0.3921824598
 40
0.5276259847
 40
0.6750460536
 40
1.0
 40
1.0
 40
1.0
 40
1.0
 10
5.4826517852
 20
3.0613576077
 30
0.0
 10
5.4825973886
 20
3.0613165908
 30
0.0
 10
5.4824781558
 20
3.061233575
 30
0.0
 10
5.482201516
 20
3.0610624353
 30
0.0
 10
5.4817863795
 20
3.0608414754
 30
0.0
 10
5.4812100415
 20
3.0605733133
 30
0.0
 10
5.4805410889
 20
3.0602931632
 30
0.0
 10
5.4797889631
 20
3.0600038157
 30
0.0
 10
5.4786498691
 20
3.059595702
 30
0.0
 10
5.4777556804
 20
3.0593041226
 30
0.0
 10
5.4771382534
 20
3.0591112461
 30
0.0
  0
SPLINE
  5
4E2
100
AcDbEntity
  8
0
100
AcDbSpline
 62
7
  6
CONTINUOUS
 70
0
 71
3
 72
9
 73
5
 74
0
 42
0.0000001
 43
0.0000001
 44
0.0000000001
 40
0.0
 40
0.0
 40
0.0
 40
0.0
 40
0.4335968252
 40
1.0
 40
1.0
 40
1.0
 40
1.0
 10
5.4881632405
 20
3.072540461
 30
0.0
 10
5.4881687415
 20
3.0725527303
 30
0.0
 10
5.4881760902
 20
3.072583308
 30
0.0
 10
5.4881776239
 20
3.0726143379
 30
0.0
 10
5.4881776239
 20
3.0726319025
 30
0.0
  0
LINE
  5
4E3
100
AcDbEntity
  8
0
100
AcDbLine
 62
7
  6
CONTINUOUS
 10
5.4929378028
 20
3.0839553651
 11
5.4925932152
 21
3.0835366508
  0
SPLINE
  5
4E4
100
AcDbEntity
  8
0
100
AcDbSpline
 62
7
  6
CONTINUOUS
 70
0
 71
3
 72
14
 73
10
 74
0
 42
0.0000001
 43
0.0000001
 44
0.0000000001
 40
0.0
 40
0.0
 40
0.0
 40
0.0
 40
0.076490897
 40
0.1689225317
 40
0.27644215
 40
0.3979680896
 40
0.5322972611
 40
0.6782130651
 40
1.0
 40
1.0
 40
1.0
 40
1.0
 10
5.4925932152
 20
3.0835366508
 30
0.0
 10
5.4924967609
 20
3.0834525163
 30
0.0
 10
5.4922724374
 20
3.083279753
 30
0.0
 10
5.4918871313
 20
3.0830234875
 30
0.0
 10
5.4914250376
 20
3.0827477535
 30
0.0
 10
5.4908919222
 20
3.0824551696
 30
0.0
 10
5.4902937134
 20
3.0821482328
 30
0.0
 10
5.4893873325
 20
3.081708451
 30
0.0
 10
5.4886737732
 20
3.0813866042
 30
0.0
 10
5.4881802885
 20
3.0811712021
 30
0.0
  0
SPLINE
  5
4E5
100
AcDbEntity
  8
0
100
AcDbSpline
 62
7
  6
CONTINUOUS
 70
0
 71
3
 72
9
 73
5
 74
0
 42
0.0000001
 43
0.0000001
 44
0.0000000001
 40
0.0
 40
0.0
 40
0.0
 40
0.0
 40
0.2173663262
 40
1.0
 40
1.0
 40
1.0
 40
1.0
 10
5.4970075086
 20
3.095218478
 30
0.0
 10
5.4970092889
 20
3.0952237974
 30
0.0
 10
5.497016019
 20
3.0952487615
 30
0.0
 10
5.4970177337
 20
3.0952748213
 30
0.0
 10
5.4970177337
 20
3.095295018
 30
0.0
  0
LINE
  5
4E6
100
AcDbEntity
  8
0
100
AcDbLine
 62
7
  6
CONTINUOUS
 10
5.5006339111
 20
3.1070570502
 11
5.5002914837
 21
3.1065738432
  0
SPLINE
  5
4E7
100
AcDbEntity
  8
0
100
AcDbSpline
 62
7
  6
CONTINUOUS
 70
0
 71
3
 72
13
 73
9
 74
0
 42
0.0000001
 43
0.0000001
 44
0.0000000001
 40
0.0
 40
0.0
 40
0.0
 40
0.0
 40
0.0810554297
 40
0.1761588875
 40
0.2846919168
 40
0.4059041331
 40
0.6828798437
 40
1.0
 40
1.0
 40
1.0
 40
1.0
 10
5.5002914837
 20
3.1065738432
 30
0.0
 10
5.5002158109
 20
3.1064978916
 30
0.0
 10
5.5000437669
 20
3.1063403821
 30
0.0
 10
5.4997517316
 20
3.106102455
 30
0.0
 10
5.4994073239
 20
3.1058453398
 30
0.0
 10
5.4988573227
 20
3.1054621172
 30
0.0
 10
5.4980599929
 20
3.104952106
 30
0.0
 10
5.497383994
 20
3.1045512148
 30
0.0
 10
5.4970206534
 20
3.1043416069
 30
0.0
  0
SPLINE
  5
4E8
100
AcDbEntity
  8
0
100
AcDbSpline
 62
7
  6
CONTINUOUS
 70
0
 71
3
 72
16
 73
12
 74
0
 42
0.0000001
 43
0.0000001
 44
0.0000000001
 40
0.0
 40
0.0
 40
0.0
 40
0.0
 40
0.024999737
 40
0.0546306156
 40
0.0893147711
 40
0.1292714114
 40
0.2251838072
 40
0.3422411144
 40
0.4795643094
 40
0.6359284997
 40
1.0
 40
1.0
 40
1.0
 40
1.0
 10
5.5060058527
 20
3.1307949084
 30
0.0
 10
5.5060009349
 20
3.1307668469
 30
0.0
 10
5.5059831755
 20
3.1307067502
 30
0.0
 10
5.5059402137
 20
3.1306142519
 30
0.0
 10
5.5058789928
 20
3.1305122059
 30
0.0
 10
5.5057660621
 20
3.1303538503
 30
0.0
 10
5.505577499
 20
3.1301351832
 30
0.0
 10
5.505295744
 20
3.1298521778
 30
0.0
 10
5.5049491836
 20
3.1295373088
 30
0.0
 10
5.5043761564
 20
3.1290539409
 30
0.0
 10
5.5039064734
 20
3.1286913297
 30
0.0
 10
5.5035741211
 20
3.1284429888
 30
0.0
  0
SPLINE
  5
4E9
100
AcDbEntity
  8
0
100
AcDbSpline
 62
7
  6
CONTINUOUS
 70
0
 71
3
 72
14
 73
10
 74
0
 42
0.0000001
 43
0.0000001
 44
0.0000000001
 40
0.0
 40
0.0
 40
0.0
 40
0.0
 40
0.0602653756
 40
0.1380117212
 40
0.2347141729
 40
0.3507220226
 40
0.4858503975
 40
0.6396230264
 40
1.0
 40
1.0
 40
1.0
 40
1.0
 10
5.5090018894
 20
3.1549392696
 30
0.0
 10
5.508998845
 20
3.1548983249
 30
0.0
 10
5.5089749897
 20
3.1548060842
 30
0.0
 10
5.5089074176
 20
3.1546608362
 30
0.0
 10
5.5088038827
 20
3.1544917842
 30
0.0
 10
5.5086648656
 20
3.1542997064
 30
0.0
 10
5.5084910905
 20
3.1540853224
 30
0.0
 10
5.50819858
 20
3.153753396
 30
0.0
 10
5.5079542512
 20
3.1535020871
 30
0.0
 10
5.5077799867
 20
3.1533291388
 30
0.0
  0
SPLINE
  5
4EA
100
AcDbEntity
  8
0
100
AcDbSpline
 62
7
  6
CONTINUOUS
 70
0
 71
3
 72
21
 73
17
 74
0
 42
0.0000001
 43
0.0000001
 44
0.0000000001
 40
0.0
 40
0.0
 40
0.0
 40
0.0
 40
0.1907175658
 40
0.3690190204
 40
0.53203902
 40
0.6766252413
 40
0.7408933726
 40
0.79918077
 40
0.8510115693
 40
0.8959251012
 40
0.9334901692
 40
0.9633722665
 40
0.975373942
 40
0.9854200592
 40
0.9935759522
 40
1.0
 40
1.0
 40
1.0
 40
1.0
 10
5.2834382512
 20
2.9322926409
 30
0.0
 10
5.2831222117
 20
2.9318694325
 30
0.0
 10
5.2825070343
 20
2.9310532995
 30
0.0
 10
5.2816071447
 20
2.9298864848
 30
0.0
 10
5.2807705294
 20
2.9288323695
 30
0.0
 10
5.2801156485
 20
2.9280373589
 30
0.0
 10
5.2796335607
 20
2.9274761067
 30
0.0
 10
5.2793127543
 20
2.927115045
 30
0.0
 10
5.2790207067
 20
2.9268002617
 30
0.0
 10
5.2787599777
 20
2.926534842
 30
0.0
 10
5.2785329856
 20
2.9263218858
 30
0.0
 10
5.2783635615
 20
2.9261809931
 30
0.0
 10
5.2782454684
 20
2.9260987563
 30
0.0
 10
5.278173185
 20
2.9260563737
 30
0.0
 10
5.2781107298
 20
2.9260286446
 30
0.0
 10
5.2780710377
 20
2.9260189299
 30
0.0
 10
5.2780532939
 20
2.9260176304
 30
0.0
  0
SPLINE
  5
4EB
100
AcDbEntity
  8
0
100
AcDbSpline
 62
7
  6
CONTINUOUS
 70
0
 71
3
 72
22
 73
18
 74
0
 42
0.0000001
 43
0.0000001
 44
0.0000000001
 40
0.0
 40
0.0
 40
0.0
 40
0.0
 40
0.192511596
 40
0.372249221
 40
0.5362874961
 40
0.611436265
 40
0.6814064807
 40
0.7457321091
 40
0.803923675
 40
0.8554927995
 40
0.8999646739
 40
0.9368903446
 40
0.9659120375
 40
0.9773887066
 40
0.9868391359
 40
0.9943225187
 40
1.0
 40
1.0
 40
1.0
 40
1.0
 10
5.3069759158
 20
2.9357501448
 30
0.0
 10
5.3067063864
 20
2.935297968
 30
0.0
 10
5.3061818439
 20
2.9344256168
 30
0.0
 10
5.305414181
 20
2.9331761235
 30
0.0
 10
5.3048028716
 20
2.9322072938
 30
0.0
 10
5.3043428924
 20
2.9314980033
 30
0.0
 10
5.304026614
 20
2.9310205279
 30
0.0
 10
5.3037307873
 20
2.930585164
 30
0.0
 10
5.3034574866
 20
2.9301953776
 30
0.0
 10
5.3032088231
 20
2.9298547114
 30
0.0
 10
5.302987035
 20
2.929566509
 30
0.0
 10
5.3027941929
 20
2.9293341226
 30
0.0
 10
5.3026501571
 20
2.9291785869
 30
0.0
 10
5.3025495247
 20
2.929086142
 30
0.0
 10
5.3024883954
 20
2.9290379681
 30
0.0
 10
5.3024357664
 20
2.9290053482
 30
0.0
 10
5.3024016599
 20
2.9289922373
 30
0.0
 10
5.3023863599
 20
2.9289896055
 30
0.0
  0
SPLINE
  5
4EC
100
AcDbEntity
  8
0
100
AcDbSpline
 62
7
  6
CONTINUOUS
 70
0
 71
3
 72
22
 73
18
 74
0
 42
0.0000001
 43
0.0000001
 44
0.0000000001
 40
0.0
 40
0.0
 40
0.0
 40
0.0
 40
0.1943779259
 40
0.37562424
 40
0.5407461836
 40
0.6162529685
 40
0.6864442259
 40
0.7508419011
 40
0.8089436681
 40
0.860247232
 40
0.9042620617
 40
0.9405197385
 40
0.9686368139
 40
0.9795581639
 40
0.9883750209
 40
0.9951361776
 40
1.0
 40
1.0
 40
1.0
 40
1.0
 10
5.3300580151
 20
2.9414756419
 30
0.0
 10
5.3298374029
 20
2.9409984889
 30
0.0
 10
5.329408155
 20
2.9400777653
 30
0.0
 10
5.3287797606
 20
2.9387572202
 30
0.0
 10
5.3282793026
 20
2.9377318652
 30
0.0
 10
5.3279027794
 20
2.9369803036
 30
0.0
 10
5.3276441529
 20
2.9364743743
 30
0.0
 10
5.3274023736
 20
2.9360127239
 30
0.0
 10
5.3271791598
 20
2.9355990444
 30
0.0
 10
5.326976255
 20
2.9352371056
 30
0.0
 10
5.3267955429
 20
2.9349305013
 30
0.0
 10
5.3266387246
 20
2.9346828159
 30
0.0
 10
5.3265216239
 20
2.9345159446
 30
0.0
 10
5.3264396582
 20
2.9344157381
 30
0.0
 10
5.3263903559
 20
2.9343635169
 30
0.0
 10
5.3263482161
 20
2.9343277223
 30
0.0
 10
5.3263201896
 20
2.9343120943
 30
0.0
 10
5.3263075038
 20
2.9343086162
 30
0.0
  0
SPLINE
  5
4ED
100
AcDbEntity
  8
0
100
AcDbSpline
 62
7
  6
CONTINUOUS
 70
0
 71
3
 72
23
 73
19
 74
0
 42
0.0000001
 43
0.0000001
 44
0.0000000001
 40
0.0
 40
0.0
 40
0.0
 40
0.0
 40
0.1962831148
 40
0.3790831966
 40
0.5453337296
 40
0.6212183242
 40
0.6916471405
 40
0.7561288592
 40
0.8141470971
 40
0.8651846654
 40
0.908734301
 40
0.9443074019
 40
0.95897243
 40
0.9714968316
 40
0.9818445049
 40
0.990003862
 40
0.9960075373
 40
1.0
 40
1.0
 40
1.0
 40
1.0
 10
5.3524622557
 20
2.9494139927
 30
0.0
 10
5.3522927091
 20
2.9489160345
 30
0.0
 10
5.351962903
 20
2.9479551236
 30
0.0
 10
5.35148
 20
2.9465757273
 30
0.0
 10
5.3510954316
 20
2.9455037969
 30
0.0
 10
5.350806183
 20
2.9447176576
 30
0.0
 10
5.3506077393
 20
2.9441887318
 30
0.0
 10
5.350422357
 20
2.9437060599
 30
0.0
 10
5.350251367
 20
2.9432735515
 30
0.0
 10
5.3500961532
 20
2.9428951533
 30
0.0
 10
5.3499581242
 20
2.9425747838
 30
0.0
 10
5.3498528868
 20
2.9423464605
 30
0.0
 10
5.3497774258
 20
2.9421961261
 30
0.0
 10
5.3497296756
 20
2.9421075425
 30
0.0
 10
5.3496872588
 20
2.9420360265
 30
0.0
 10
5.34965018
 20
2.9419815758
 30
0.0
 10
5.3496188944
 20
2.941944518
 30
0.0
 10
5.3495973784
 20
2.9419272425
 30
0.0
 10
5.3495873829
 20
2.941923425
 30
0.0
  0
LINE
  5
4EE
100
AcDbEntity
  8
0
100
AcDbLine
 62
7
  6
CONTINUOUS
 10
5.3739728725
 20
2.9594887464
 11
5.3720027945
 21
2.9517609833
  0
LINE
  5
4EF
100
AcDbEntity
  8
0
100
AcDbLine
 62
7
  6
CONTINUOUS
 10
5.3943827065
 20
2.9716028776
 11
5.3933387373
 21
2.9637271114
  0
LINE
  5
4F0
100
AcDbEntity
  8
0
100
AcDbLine
 62
7
  6
CONTINUOUS
 10
5.4134952
 20
2.9856397207
 11
5.4133904109
 21
2.9777073603
  0
SPLINE
  5
4F1
100
AcDbEntity
  8
0
100
AcDbSpline
 62
7
  6
CONTINUOUS
 70
0
 71
3
 72
14
 73
10
 74
0
 42
0.0000001
 43
0.0000001
 44
0.0000000001
 40
0.0
 40
0.0
 40
0.0
 40
0.0
 40
0.3603768945
 40
0.514149527
 40
0.6492778938
 40
0.7652857704
 40
0.8619882319
 40
0.9397345998
 40
1.0
 40
1.0
 40
1.0
 40
1.0
 10
5.0115634153
 20
3.15332914
 30
0.0
 10
5.011389151
 20
3.1535020882
 30
0.0
 10
5.0111448224
 20
3.1537533968
 30
0.0
 10
5.0108523123
 20
3.1540853229
 30
0.0
 10
5.0106785373
 20
3.1542997068
 30
0.0
 10
5.0105395203
 20
3.1544917844
 30
0.0
 10
5.0104359856
 20
3.1546608363
 30
0.0
 10
5.0103684135
 20
3.1548060843
 30
0.0
 10
5.0103445582
 20
3.1548983249
 30
0.0
 10
5.0103415138
 20
3.1549392696
 30
0.0
  0
SPLINE
  5
4F2
100
AcDbEntity
  8
0
100
AcDbSpline
 62
7
  6
CONTINUOUS
 70
0
 71
3
 72
16
 73
12
 74
0
 42
0.0000001
 43
0.0000001
 44
0.0000000001
 40
0.0
 40
0.0
 40
0.0
 40
0.0
 40
0.3640714274
 40
0.5204355888
 40
0.657758812
 40
0.7748161398
 40
0.8707285688
 40
0.9106852181
 40
0.9453693759
 40
0.9750002605
 40
1.0
 40
1.0
 40
1.0
 40
1.0
 10
5.0157692841
 20
3.1284429874
 30
0.0
 10
5.0154369315
 20
3.1286913283
 30
0.0
 10
5.0149672482
 20
3.1290539396
 30
0.0
 10
5.0143942208
 20
3.1295373078
 30
0.0
 10
5.01404766
 20
3.129852177
 30
0.0
 10
5.0137659047
 20
3.1301351827
 30
0.0
 10
5.0135773414
 20
3.1303538499
 30
0.0
 10
5.0134644105
 20
3.1305122056
 30
0.0
 10
5.0134031896
 20
3.1306142518
 30
0.0
 10
5.0133602278
 20
3.1307067501
 30
0.0
 10
5.0133424683
 20
3.1307668469
 30
0.0
 10
5.0133375505
 20
3.1307949083
 30
0.0
  0
SPLINE
  5
4F3
100
AcDbEntity
  8
0
100
AcDbSpline
 62
7
  6
CONTINUOUS
 70
0
 71
3
 72
18
 73
14
 74
0
 42
0.0000001
 43
0.0000001
 44
0.0000000001
 40
0.0
 40
0.0
 40
0.0
 40
0.0
 40
0.1888891956
 40
0.3629209468
 40
0.5202096022
 40
0.6588679483
 40
0.7771320502
 40
0.8281591784
 40
0.8735914862
 40
0.9133795991
 40
0.9475509953
 40
0.9762753199
 40
1.0
 40
1.0
 40
1.0
 40
1.0
 10
5.022322751
 20
3.1043416062
 30
0.0
 10
5.0220737458
 20
3.1044852551
 30
0.0
 10
5.0215976
 20
3.1047652436
 30
0.0
 10
5.0209236528
 20
3.1051808087
 30
0.0
 10
5.0203248532
 20
3.1055722166
 30
0.0
 10
5.0198093229
 20
3.1059352328
 30
0.0
 10
5.0194389899
 20
3.1062229873
 30
0.0
 10
5.0191924156
 20
3.1064375709
 30
0.0
 10
5.0190423352
 20
3.1065807868
 30
0.0
 10
5.0189183913
 20
3.1067138254
 30
0.0
 10
5.0188210503
 20
3.1068363939
 30
0.0
 10
5.018750723
 20
3.106948231
 30
0.0
 10
5.018719209
 20
3.1070222758
 30
0.0
 10
5.0187094922
 20
3.1070570502
 30
0.0
  0
SPLINE
  5
4F4
100
AcDbEntity
  8
0
100
AcDbSpline
 62
7
  6
CONTINUOUS
 70
0
 71
3
 72
9
 73
5
 74
0
 42
0.0000001
 43
0.0000001
 44
0.0000000001
 40
0.0
 40
0.0
 40
0.0
 40
0.0
 40
0.2849943621
 40
1.0
 40
1.0
 40
1.0
 40
1.0
 10
5.0223256696
 20
3.095295018
 30
0.0
 10
5.0223256696
 20
3.0952876665
 30
0.0
 10
5.02232637
 20
3.0952619156
 30
0.0
 10
5.022330041
 20
3.0952359682
 30
0.0
 10
5.0223358946
 20
3.095218478
 30
0.0
  0
SPLINE
  5
4F5
100
AcDbEntity
  8
0
100
AcDbSpline
 62
7
  6
CONTINUOUS
 70
0
 71
3
 72
18
 73
14
 74
0
 42
0.0000001
 43
0.0000001
 44
0.0000000001
 40
0.0
 40
0.0
 40
0.0
 40
0.0
 40
0.18724516
 40
0.3607798215
 40
0.5184644432
 40
0.6580822129
 40
0.777451371
 40
0.8289423258
 40
0.8747032586
 40
0.9146098926
 40
0.9486541953
 40
0.9769705661
 40
1.0
 40
1.0
 40
1.0
 40
1.0
 10
5.0311631164
 20
3.0811712013
 30
0.0
 10
5.0308446973
 20
3.0813101887
 30
0.0
 10
5.0302333142
 20
3.0815829453
 30
0.0
 10
5.0293628337
 20
3.0819926494
 30
0.0
 10
5.0285819419
 20
3.082384661
 30
0.0
 10
5.0279027848
 20
3.0827543932
 30
0.0
 10
5.0274094709
 20
3.0830526304
 30
0.0
 10
5.0270771523
 20
3.0832788981
 30
0.0
 10
5.0268732984
 20
3.0834314397
 30
0.0
 10
5.0267033799
 20
3.0835747341
 30
0.0
 10
5.0265681696
 20
3.083708307
 30
0.0
 10
5.0264683191
 20
3.0838317681
 30
0.0
 10
5.0264211032
 20
3.0839155457
 30
0.0
 10
5.0264056004
 20
3.0839553651
 30
0.0
  0
SPLINE
  5
4F6
100
AcDbEntity
  8
0
100
AcDbSpline
 62
7
  6
CONTINUOUS
 70
0
 71
3
 72
9
 73
5
 74
0
 42
0.0000001
 43
0.0000001
 44
0.0000000001
 40
0.0
 40
0.0
 40
0.0
 40
0.0
 40
0.5664031547
 40
1.0
 40
1.0
 40
1.0
 40
1.0
 10
5.0311657793
 20
3.0726319025
 30
0.0
 10
5.0311657793
 20
3.0726143379
 30
0.0
 10
5.031167313
 20
3.072583308
 30
0.0
 10
5.0311746617
 20
3.0725527303
 30
0.0
 10
5.0311801627
 20
3.072540461
 30
0.0
  0
SPLINE
  5
4F7
100
AcDbEntity
  8
0
100
AcDbSpline
 62
7
  6
CONTINUOUS
 70
0
 71
3
 72
18
 73
14
 74
0
 42
0.0000001
 43
0.0000001
 44
0.0000000001
 40
0.0
 40
0.0
 40
0.0
 40
0.0
 40
0.1856320019
 40
0.3585474287
 40
0.5164311453
 40
0.6568047911
 40
0.7771654394
 40
0.8291078905
 40
0.8752272937
 40
0.9153391948
 40
0.9493793152
 40
0.9774577146
 40
1.0
 40
1.0
 40
1.0
 40
1.0
 10
5.0422051485
 20
3.0591112465
 30
0.0
 10
5.0418231708
 20
3.0592305716
 30
0.0
 10
5.0410871889
 20
3.0594669121
 30
0.0
 10
5.0400340343
 20
3.0598281715
 30
0.0
 10
5.0390815139
 20
3.0601813557
 30
0.0
 10
5.0382457702
 20
3.0605222871
 30
0.0
 10
5.0376330094
 20
3.0608041353
 30
0.0
 10
5.0372160866
 20
3.0610232202
 30
0.0
 10
5.036958594
 20
3.0611732232
 30
0.0
 10
5.0367422543
 20
3.0613164386
 30
0.0
 10
5.0365683311
 20
3.0614523848
 30
0.0
 10
5.0364377358
 20
3.0615804366
 30
0.0
 10
5.0363734442
 20
3.0616700317
 30
0.0
 10
5.03635144
 20
3.0617133607
 30
0.0
  0
LINE
  5
4F8
100
AcDbEntity
  8
0
100
AcDbLine
 62
7
  6
CONTINUOUS
 10
5.042206526
 20
3.0509359657
 11
5.0422236577
 21
3.0508338663
  0
SPLINE
  5
4F9
100
AcDbEntity
  8
0
100
AcDbSpline
 62
7
  6
CONTINUOUS
 70
0
 71
3
 72
18
 73
14
 74
0
 42
0.0000001
 43
0.0000001
 44
0.0000000001
 40
0.0
 40
0.0
 40
0.0
 40
0.0
 40
0.1842134412
 40
0.3565279836
 40
0.5145288146
 40
0.6555473781
 40
0.7767922548
 40
0.8291571268
 40
0.8756150927
 40
0.9159393566
 40
0.9500025256
 40
0.9778846426
 40
1.0
 40
1.0
 40
1.0
 40
1.0
 10
5.0553391797
 20
3.0383489132
 30
0.0
 10
5.0548995848
 20
3.0384359421
 30
0.0
 10
5.0540500797
 20
3.0386110295
 30
0.0
 10
5.0528291978
 20
3.0388873236
 30
0.0
 10
5.0517171202
 20
3.039167164
 30
0.0
 10
5.0507338082
 20
3.0394476272
 30
0.0
 10
5.0500069603
 20
3.039688823
 30
0.0
 10
5.049508058
 20
3.039883301
 30
0.0
 10
5.0491981158
 20
3.04001972
 30
0.0
 10
5.0489359624
 20
3.0401531541
 30
0.0
 10
5.0487234072
 20
3.0402832508
 30
0.0
 10
5.0485617759
 20
3.0404091968
 30
0.0
 10
5.0484795946
 20
3.04050077
 30
0.0
 10
5.0484506352
 20
3.0405461096
 30
0.0
  0
LINE
  5
4FA
100
AcDbEntity
  8
0
100
AcDbLine
 62
7
  6
CONTINUOUS
 10
5.0553415812
 20
3.0304161515
 11
5.0553591034
 21
3.0303072246
  0
SPLINE
  5
4FB
100
AcDbEntity
  8
0
100
AcDbSpline
 62
7
  6
CONTINUOUS
 70
0
 71
3
 72
18
 73
14
 74
0
 42
0.0000001
 43
0.0000001
 44
0.0000000001
 40
0.0
 40
0.0
 40
0.0
 40
0.0
 40
0.1830025765
 40
0.3547855073
 40
0.5128982499
 40
0.6545035141
 40
0.7765581461
 40
0.8293132736
 40
0.8760820706
 40
0.9165917671
 40
0.9506625581
 40
0.9783292588
 40
1.0
 40
1.0
 40
1.0
 40
1.0
 10
5.0704419509
 20
3.0190676541
 30
0.0
 10
5.0699505107
 20
3.0191114122
 30
0.0
 10
5.0689983835
 20
3.0192035601
 30
0.0
 10
5.0676246796
 20
3.0193626987
 30
0.0
 10
5.0663655228
 20
3.0195383836
 30
0.0
 10
5.0652444316
 20
3.0197297092
 30
0.0
 10
5.0644097039
 20
3.0199079027
 30
0.0
 10
5.0638322984
 20
3.0200616062
 30
0.0
 10
5.0634717231
 20
3.0201740134
 30
0.0
 10
5.0631650562
 20
3.020288541
 30
0.0
 10
5.0629146374
 20
3.0204049357
 30
0.0
 10
5.0627223793
 20
3.020522393
 30
0.0
 10
5.0626219727
 20
3.0206122224
 30
0.0
 10
5.0625858385
 20
3.0206581337
 30
0.0
  0
LINE
  5
4FC
100
AcDbEntity
  8
0
100
AcDbLine
 62
7
  6
CONTINUOUS
 10
5.0704444472
 20
3.011270077
 11
5.0704592744
 21
3.0111574551
  0
SPLINE
  5
4FD
100
AcDbEntity
  8
0
100
AcDbSpline
 62
7
  6
CONTINUOUS
 70
0
 71
3
 72
20
 73
16
 74
0
 42
0.0000001
 43
0.0000001
 44
0.0000000001
 40
0.0
 40
0.0
 40
0.0
 40
0.0
 40
0.1819331336
 40
0.3533001103
 40
0.5115421048
 40
0.6537111271
 40
0.7177565315
 40
0.7765448194
 40
0.8296626833
 40
0.8539722873
 40
0.8767204702
 40
0.9173822483
 40
0.9514259173
 40
0.9788315259
 40
1.0
 40
1.0
 40
1.0
 40
1.0
 10
5.0873681826
 20
3.0014459325
 30
0.0
 10
5.086830876
 20
3.001436518
 30
0.0
 10
5.085787305
 20
3.0014260914
 30
0.0
 10
5.0842762726
 20
3.0014386647
 30
0.0
 10
5.0828832871
 20
3.0014818475
 30
0.0
 10
5.0818084573
 20
3.0015465501
 30
0.0
 10
5.0810289326
 20
3.0016183576
 30
0.0
 10
5.0805127177
 20
3.0016791609
 30
0.0
 10
5.0801147086
 20
3.001738778
 30
0.0
 10
5.0798235802
 20
3.001791823
 30
0.0
 10
5.0795698461
 20
3.0018444032
 30
0.0
 10
5.0792903408
 20
3.0019139012
 30
0.0
 10
5.0790035415
 20
3.0020090127
 30
0.0
 10
5.0787817561
 20
3.0021117956
 30
0.0
 10
5.0786632541
 20
3.0021962492
 30
0.0
 10
5.0786199485
 20
3.0022413517
 30
0.0
  0
LINE
  5
4FE
100
AcDbEntity
  8
0
100
AcDbLine
 62
7
  6
CONTINUOUS
 10
5.087369675
 20
2.9936821291
 11
5.0873782761
 21
2.9935680454
  0
SPLINE
  5
4FF
100
AcDbEntity
  8
0
100
AcDbSpline
 62
7
  6
CONTINUOUS
 70
0
 71
3
 72
22
 73
18
 74
0
 42
0.0000001
 43
0.0000001
 44
0.0000000001
 40
0.0
 40
0.0
 40
0.0
 40
0.0
 40
0.1811092677
 40
0.3522177787
 40
0.5106169374
 40
0.6532852208
 40
0.7176528838
 40
0.7767680981
 40
0.8301806023
 40
0.8546128532
 40
0.8774595124
 40
0.9182157424
 40
0.9521837181
 40
0.9665934039
 40
0.9793128446
 40
0.990407446
 40
1.0
 40
1.0
 40
1.0
 40
1.0
 10
5.1058482033
 20
2.9856397207
 30
0.0
 10
5.1052770655
 20
2.9855692196
 30
0.0
 10
5.1041652938
 20
2.9854402815
 30
0.0
 10
5.1025504447
 20
2.9852820173
 30
0.0
 10
5.1010542842
 20
2.9851684581
 30
0.0
 10
5.0998941812
 20
2.9851131374
 30
0.0
 10
5.0990485436
 20
2.985098752
 30
0.0
 10
5.0984864133
 20
2.9851029609
 30
0.0
 10
5.0980514369
 20
2.9851194878
 30
0.0
 10
5.0977322196
 20
2.9851414354
 30
0.0
 10
5.0974536491
 20
2.985167149
 30
0.0
 10
5.0971461195
 20
2.9852076423
 30
0.0
 10
5.0968683359
 20
2.9852654746
 30
0.0
 10
5.0966826129
 20
2.9853224816
 30
0.0
 10
5.0965694336
 20
2.9853669946
 30
0.0
 10
5.0964748405
 20
2.9854155909
 30
0.0
 10
5.0964206622
 20
2.9854534121
 30
0.0
 10
5.0963974985
 20
2.9854732234
 30
0.0
  0
SPLINE
  5
500
100
AcDbEntity
  8
0
100
AcDbSpline
 62
7
  6
CONTINUOUS
 70
0
 71
3
 72
21
 73
17
 74
0
 42
0.0000001
 43
0.0000001
 44
0.0000000001
 40
0.0
 40
0.0
 40
0.0
 40
0.0
 40
0.1817645679
 40
0.3532909291
 40
0.5118841659
 40
0.6545501063
 40
0.7188538349
 40
0.7778700918
 40
0.8311535109
 40
0.8782756746
 40
0.9188565316
 40
0.9526306287
 40
0.9669360311
 40
0.9795453677
 40
0.9905252137
 40
1.0
 40
1.0
 40
1.0
 40
1.0
 10
5.1249606967
 20
2.9716028776
 30
0.0
 10
5.1244076462
 20
2.9714785379
 30
0.0
 10
5.123330929
 20
2.971244615
 30
0.0
 10
5.1217651657
 20
2.970932969
 30
0.0
 10
5.1203130899
 20
2.9706764234
 30
0.0
 10
5.1191851152
 20
2.9705092189
 30
0.0
 10
5.1183612024
 20
2.970412484
 30
0.0
 10
5.1178127375
 20
2.9703615089
 30
0.0
 10
5.1173164402
 20
2.9703305049
 30
0.0
 10
5.1168767085
 20
2.9703202188
 30
0.0
 10
5.1164978563
 20
2.9703314829
 30
0.0
 10
5.1162223435
 20
2.9703601839
 30
0.0
 10
5.1160365785
 20
2.9703971229
 30
0.0
 10
5.1159226355
 20
2.970429078
 30
0.0
 10
5.1158264644
 20
2.9704668059
 30
0.0
 10
5.1157704894
 20
2.9704981001
 30
0.0
 10
5.1157462614
 20
2.9705150146
 30
0.0
  0
SPLINE
  5
501
100
AcDbEntity
  8
0
100
AcDbSpline
 62
7
  6
CONTINUOUS
 70
0
 71
3
 72
21
 73
17
 74
0
 42
0.0000001
 43
0.0000001
 44
0.0000000001
 40
0.0
 40
0.0
 40
0.0
 40
0.0
 40
0.1825832369
 40
0.3546699128
 40
0.5135692497
 40
0.656301844
 40
0.7205552084
 40
0.7794694225
 40
0.8326016031
 40
0.8795265285
 40
0.9198645595
 40
0.9533503741
 40
0.96749402
 40
0.9799283941
 40
0.9907213101
 40
1.0
 40
1.0
 40
1.0
 40
1.0
 10
5.1453705307
 20
2.9594887464
 30
0.0
 10
5.1448400464
 20
2.9593128548
 30
0.0
 10
5.1438071577
 20
2.9589784019
 30
0.0
 10
5.1423034721
 20
2.9585196019
 30
0.0
 10
5.1409078285
 20
2.95812572
 30
0.0
 10
5.1398218953
 20
2.9578507671
 30
0.0
 10
5.1390272363
 20
2.9576744982
 30
0.0
 10
5.1384977001
 20
2.957570169
 30
0.0
 10
5.1380175977
 20
2.9574903545
 30
0.0
 10
5.1375911144
 20
2.9574362002
 30
0.0
 10
5.1372223425
 20
2.9574089357
 30
0.0
 10
5.1369525867
 20
2.9574088535
 30
0.0
 10
5.1367693795
 20
2.9574257743
 30
0.0
 10
5.1366564739
 20
2.9574451112
 30
0.0
 10
5.1365604237
 20
2.9574718003
 30
0.0
 10
5.1365037442
 20
2.9574963792
 30
0.0
 10
5.1364789777
 20
2.9575102821
 30
0.0
  0
SPLINE
  5
502
100
AcDbEntity
  8
0
100
AcDbSpline
 62
7
  6
CONTINUOUS
 70
0
 71
3
 72
21
 73
17
 74
0
 42
0.0000001
 43
0.0000001
 44
0.0000000001
 40
0.0
 40
0.0
 40
0.0
 40
0.0
 40
0.1835645916
 40
0.3563540307
 40
0.5156720657
 40
0.6585414124
 40
0.7227587149
 40
0.7815685935
 40
0.8345282746
 40
0.8812131309
 40
0.9212416085
 40
0.9543452822
 40
0.9682694902
 40
0.9804637023
 40
0.9909968727
 40
1.0
 40
1.0
 40
1.0
 40
1.0
 10
5.1668811475
 20
2.9494139927
 30
0.0
 10
5.1663774361
 20
2.9491891184
 30
0.0
 10
5.1653966184
 20
2.9487591554
 30
0.0
 10
5.1639672679
 20
2.9481603094
 30
0.0
 10
5.1626397343
 20
2.947635638
 30
0.0
 10
5.1616052665
 20
2.9472578477
 30
0.0
 10
5.160847058
 20
2.9470055066
 30
0.0
 10
5.1603414762
 20
2.9468501346
 30
0.0
 10
5.1598823658
 20
2.9467235295
 30
0.0
 10
5.1594736802
 20
2.946627213
 30
0.0
 10
5.1591192722
 20
2.946562779
 30
0.0
 10
5.1588586951
 20
2.9465347305
 30
0.0
 10
5.158680619
 20
2.9465320617
 30
0.0
 10
5.1585705412
 20
2.9465390084
 30
0.0
 10
5.1584763128
 20
2.9465547787
 30
0.0
 10
5.1584200249
 20
2.9465726445
 30
0.0
 10
5.1583952526
 20
2.9465835219
 30
0.0
  0
SPLINE
  5
503
100
AcDbEntity
  8
0
100
AcDbSpline
 62
7
  6
CONTINUOUS
 70
0
 71
3
 72
21
 73
17
 74
0
 42
0.0000001
 43
0.0000001
 44
0.0000000001
 40
0.0
 40
0.0
 40
0.0
 40
0.0
 40
0.1847059035
 40
0.3583388554
 40
0.5181874818
 40
0.661263961
 40
0.7254600417
 40
0.7841640457
 40
0.8369309755
 40
0.8833341477
 40
0.922987574
 40
0.9556164605
 40
0.9692637444
 40
0.981152566
 40
0.9913527633
 40
1.0
 40
1.0
 40
1.0
 40
1.0
 10
5.1892853881
 20
2.9414756419
 30
0.0
 10
5.188812385
 20
2.9412046052
 30
0.0
 10
5.1878913472
 20
2.9406846551
 30
0.0
 10
5.1865478421
 20
2.9399536655
 30
0.0
 10
5.1852993992
 20
2.9393055664
 30
0.0
 10
5.1843252983
 20
2.9388305657
 30
0.0
 10
5.1836103638
 20
2.938506212
 30
0.0
 10
5.1831334951
 20
2.9383025665
 30
0.0
 10
5.18269993
 20
2.9381316679
 30
0.0
 10
5.182313373
 20
2.937995391
 30
0.0
 10
5.181977422
 20
2.9378956677
 30
0.0
 10
5.1817293243
 20
2.9378409171
 30
0.0
 10
5.1815588747
 20
2.9378194521
 30
0.0
 10
5.1814533622
 20
2.9378145166
 30
0.0
 10
5.1813626148
 20
2.9378197707
 30
0.0
 10
5.1813077891
 20
2.9378311098
 30
0.0
 10
5.181283532
 20
2.9378390453
 30
0.0
  0
SPLINE
  5
504
100
AcDbEntity
  8
0
100
AcDbSpline
 62
7
  6
CONTINUOUS
 70
0
 71
3
 72
21
 73
17
 74
0
 42
0.0000001
 43
0.0000001
 44
0.0000000001
 40
0.0
 40
0.0
 40
0.0
 40
0.0
 40
0.1860017922
 40
0.3606151861
 40
0.5211041119
 40
0.6644576744
 40
0.7286478819
 40
0.7872454562
 40
0.8398008914
 40
0.885882793
 40
0.9250980489
 40
0.9571621463
 40
0.9704760757
 40
0.9819950363
 40
0.9917893092
 40
1.0
 40
1.0
 40
1.0
 40
1.0
 10
5.2123674874
 20
2.9357501448
 30
0.0
 10
5.2119288626
 20
2.9354359926
 30
0.0
 10
5.2110747898
 20
2.934832032
 30
0.0
 10
5.2098278958
 20
2.9339775262
 30
0.0
 10
5.2086688152
 20
2.933214106
 30
0.0
 10
5.2077634358
 20
2.932648184
 30
0.0
 10
5.2070981948
 20
2.9322564326
 30
0.0
 10
5.2066544995
 20
2.932007707
 30
0.0
 10
5.206250749
 20
2.9317954545
 30
0.0
 10
5.2058903835
 20
2.9316218807
 30
0.0
 10
5.2055767316
 20
2.9314892346
 30
0.0
 10
5.2053442375
 20
2.9314094686
 30
0.0
 10
5.2051837843
 20
2.9313703441
 30
0.0
 10
5.2050844807
 20
2.9313542993
 30
0.0
 10
5.2049987886
 20
2.9313497073
 30
0.0
 10
5.2049464417
 20
2.931354879
 30
0.0
 10
5.204923193
 20
2.9313600469
 30
0.0
  0
SPLINE
  5
505
100
AcDbEntity
  8
0
100
AcDbSpline
 62
7
  6
CONTINUOUS
 70
0
 71
3
 72
21
 73
17
 74
0
 42
0.0000001
 43
0.0000001
 44
0.0000000001
 40
0.0
 40
0.0
 40
0.0
 40
0.0
 40
0.1874442118
 40
0.3631690313
 40
0.5244042793
 40
0.6681036731
 40
0.7323037959
 40
0.7907955504
 40
0.8431227047
 40
0.8888465426
 40
0.9275640279
 40
0.9589774759
 40
0.9719035831
 40
0.9829898514
 40
0.9923062945
 40
1.0
 40
1.0
 40
1.0
 40
1.0
 10
5.2359051521
 20
2.9322926409
 30
0.0
 10
5.2355043158
 20
2.9319386273
 30
0.0
 10
5.2347238773
 20
2.9312570462
 30
0.0
 10
5.2335836163
 20
2.9302883189
 30
0.0
 10
5.2325234487
 20
2.9294183699
 30
0.0
 10
5.2316945761
 20
2.9287684295
 30
0.0
 10
5.2310850162
 20
2.9283144126
 30
0.0
 10
5.2306786278
 20
2.9280241907
 30
0.0
 10
5.2303086413
 20
2.9277739312
 30
0.0
 10
5.2299782184
 20
2.9275661502
 30
0.0
 10
5.2296904029
 20
2.9274033957
 30
0.0
 10
5.2294764113
 20
2.9273006973
 30
0.0
 10
5.2293281574
 20
2.9272453685
 30
0.0
 10
5.2292365764
 20
2.9272192343
 30
0.0
 10
5.2291573926
 20
2.9272057151
 30
0.0
 10
5.229108463
 20
2.927205236
 30
0.0
 10
5.2290866741
 20
2.9272078942
 30
0.0
  0
SPLINE
  5
506
100
AcDbEntity
  8
0
100
AcDbSpline
 62
7
  6
CONTINUOUS
 70
0
 71
3
 72
21
 73
17
 74
0
 42
0.0000001
 43
0.0000001
 44
0.0000000001
 40
0.0
 40
0.0
 40
0.0
 40
0.0
 40
0.1890214359
 40
0.3659797312
 40
0.5280614724
 40
0.6721730521
 40
0.7363991536
 40
0.7947870395
 40
0.8468716391
 40
0.8922044135
 40
0.9303695872
 40
0.9610527889
 40
0.9735398654
 40
0.9841336042
 40
0.992902602
 40
1.0
 40
1.0
 40
1.0
 40
1.0
 10
5.2596717016
 20
2.931136428
 30
0.0
 10
5.2593118103
 20
2.9307460006
 30
0.0
 10
5.2586111699
 20
2.9299935737
 30
0.0
 10
5.2575868242
 20
2.9289205452
 30
0.0
 10
5.2566343917
 20
2.9279534978
 30
0.0
 10
5.2558892221
 20
2.9272270151
 30
0.0
 10
5.2553408742
 20
2.9267163474
 30
0.0
 10
5.254975574
 20
2.9263885713
 30
0.0
 10
5.2546429488
 20
2.9261040232
 30
0.0
 10
5.2543458677
 20
2.9258655115
 30
0.0
 10
5.2540870716
 20
2.9256758679
 30
0.0
 10
5.253894209
 20
2.9255526842
 30
0.0
 10
5.2537601538
 20
2.9254828971
 30
0.0
 10
5.2536776446
 20
2.9254479176
 30
0.0
 10
5.2536062677
 20
2.9254266176
 30
0.0
 10
5.2535615945
 20
2.9254211397
 30
0.0
 10
5.2535416624
 20
2.9254216208
 30
0.0
  0
SPLINE
  5
507
100
AcDbEntity
  8
0
100
AcDbSpline
 62
7
  6
CONTINUOUS
 70
0
 71
3
 72
21
 73
17
 74
0
 42
0.0000001
 43
0.0000001
 44
0.0000000001
 40
0.0
 40
0.0
 40
0.0
 40
0.0
 40
0.00755736
 40
0.0168385537
 40
0.0279884494
 40
0.0410755579
 40
0.0730905027
 40
0.1127477694
 40
0.1596650076
 40
0.2133364893
 40
0.2731955211
 40
0.3386511226
 40
0.4840380509
 40
0.6451294541
 40
0.8181803591
 40
1.0
 40
1.0
 40
1.0
 40
1.0
 10
5.5095935644
 20
3.2190608775
 30
0.0
 10
5.5095935644
 20
3.2190885746
 30
0.0
 10
5.5095851747
 20
3.2191502429
 30
0.0
 10
5.50955545
 20
3.2192486264
 30
0.0
 10
5.5095075317
 20
3.2193619388
 30
0.0
 10
5.5094127785
 20
3.2195451825
 30
0.0
 10
5.509246297
 20
3.2198080114
 30
0.0
 10
5.5089904721
 20
3.2201595213
 30
0.0
 10
5.5086696773
 20
3.2205612973
 30
0.0
 10
5.5082881731
 20
3.2210088559
 30
0.0
 10
5.5078505492
 20
3.2214975802
 30
0.0
 10
5.5071745178
 20
3.222223758
 30
0.0
 10
5.5062219593
 20
3.2231990499
 30
0.0
 10
5.5049668631
 20
3.2244293467
 30
0.0
 10
5.5035941308
 20
3.225729967
 30
0.0
 10
5.5026377212
 20
3.226611369
 30
0.0
 10
5.5021451044
 20
3.2270600966
 30
0.0
  0
SPLINE
  5
508
100
AcDbEntity
  8
0
100
AcDbSpline
 62
7
  6
CONTINUOUS
 70
0
 71
3
 72
21
 73
17
 74
0
 42
0.0000001
 43
0.0000001
 44
0.0000000001
 40
0.0
 40
0.0
 40
0.0
 40
0.0
 40
0.0075646986
 40
0.0169385255
 40
0.028228311
 40
0.0414799857
 40
0.073848698
 40
0.1138428484
 40
0.1610505579
 40
0.2149506324
 40
0.2749684627
 40
0.3405093023
 40
0.485844197
 40
0.6465948259
 40
0.8190358844
 40
1.0
 40
1.0
 40
1.0
 40
1.0
 10
5.5077775152
 20
3.1948324532
 30
0.0
 10
5.5077775152
 20
3.1948604119
 30
0.0
 10
5.5077697606
 20
3.194922966
 30
0.0
 10
5.5077426778
 20
3.1950238721
 30
0.0
 10
5.5076989729
 20
3.1951415141
 30
0.0
 10
5.5076125592
 20
3.1953333922
 30
0.0
 10
5.5074607457
 20
3.1956114553
 30
0.0
 10
5.5072272284
 20
3.1959867654
 30
0.0
 10
5.506934371
 20
3.1964184137
 30
0.0
 10
5.5065860714
 20
3.1969015112
 30
0.0
 10
5.5061865343
 20
3.1974309945
 30
0.0
 10
5.5055696996
 20
3.1982196666
 30
0.0
 10
5.5047003933
 20
3.1992832648
 30
0.0
 10
5.503554468
 20
3.2006305144
 30
0.0
 10
5.5023011686
 20
3.2020589998
 30
0.0
 10
5.5014274989
 20
3.2030300046
 30
0.0
 10
5.5009775287
 20
3.2035248415
 30
0.0
  0
SPLINE
  5
509
100
AcDbEntity
  8
0
100
AcDbSpline
 62
7
  6
CONTINUOUS
 70
0
 71
3
 72
21
 73
17
 74
0
 42
0.0000001
 43
0.0000001
 44
0.0000000001
 40
0.0
 40
0.0
 40
0.0
 40
0.0
 40
0.0075717473
 40
0.0170266765
 40
0.0284383358
 40
0.0418332669
 40
0.0745102624
 40
0.1147987127
 40
0.1622608685
 40
0.216361786
 40
0.2765196905
 40
0.3421363312
 40
0.4874278054
 40
0.6478811234
 40
0.8197876007
 40
1.0
 40
1.0
 40
1.0
 40
1.0
 10
5.5035720714
 20
3.1708969671
 30
0.0
 10
5.5035720714
 20
3.1709251602
 30
0.0
 10
5.5035650577
 20
3.1709885095
 30
0.0
 10
5.5035408613
 20
3.1710917044
 30
0.0
 10
5.5035017758
 20
3.1712132621
 30
0.0
 10
5.5034245031
 20
3.1714129461
 30
0.0
 10
5.5032887616
 20
3.1717047699
 30
0.0
 10
5.5030797911
 20
3.1721015955
 30
0.0
 10
5.5028176903
 20
3.1725602545
 30
0.0
 10
5.5025059543
 20
3.1730754905
 30
0.0
 10
5.5021483571
 20
3.1736418346
 30
0.0
 10
5.5015965548
 20
3.1744869765
 30
0.0
 10
5.5008187783
 20
3.1756303832
 30
0.0
 10
5.4997930939
 20
3.1770834115
 30
0.0
 10
5.498671324
 20
3.1786275435
 30
0.0
 10
5.497888965
 20
3.1796796669
 30
0.0
 10
5.497486046
 20
3.1802162437
 30
0.0
  0
SPLINE
  5
50A
100
AcDbEntity
  8
0
100
AcDbSpline
 62
7
  6
CONTINUOUS
 70
0
 71
3
 72
21
 73
17
 74
0
 42
0.0000001
 43
0.0000001
 44
0.0000000001
 40
0.0
 40
0.0
 40
0.0
 40
0.0
 40
0.0075782912
 40
0.0171029936
 40
0.0286190577
 40
0.0421366236
 40
0.0750777516
 40
0.1156188809
 40
0.1633000033
 40
0.2175741986
 40
0.2778533598
 40
0.343536071
 40
0.4887917777
 40
0.648990121
 40
0.8204362595
 40
1.0
 40
1.0
 40
1.0
 40
1.0
 10
5.4970177337
 20
3.1474849309
 30
0.0
 10
5.4970177337
 20
3.1475133297
 30
0.0
 10
5.4970115563
 20
3.1475773784
 30
0.0
 10
5.4969904638
 20
3.1476826034
 30
0.0
 10
5.4969563618
 20
3.1478076251
 30
0.0
 10
5.4968889478
 20
3.1480142123
 30
0.0
 10
5.4967705344
 20
3.1483181974
 30
0.0
 10
5.4965881135
 20
3.1487340494
 30
0.0
 10
5.4963592914
 20
3.1492165991
 30
0.0
 10
5.4960871243
 20
3.1497602643
 30
0.0
 10
5.4957749151
 20
3.1503592162
 30
0.0
 10
5.495293362
 20
3.1512542762
 30
0.0
 10
5.4946145151
 20
3.1524682425
 30
0.0
 10
5.493718979
 20
3.154014853
 30
0.0
 10
5.4927395652
 20
3.1556612961
 30
0.0
 10
5.4920562007
 20
3.1567852451
 30
0.0
 10
5.4917042811
 20
3.1573587779
 30
0.0
  0
SPLINE
  5
50B
100
AcDbEntity
  8
0
100
AcDbSpline
 62
7
  6
CONTINUOUS
 70
0
 71
3
 72
21
 73
17
 74
0
 42
0.0000001
 43
0.0000001
 44
0.0000000001
 40
0.0
 40
0.0
 40
0.0
 40
0.0
 40
0.0075841397
 40
0.0171674512
 40
0.0287709
 40
0.042391045
 40
0.0755532613
 40
0.1163062565
 40
0.1641713311
 40
0.2185914056
 40
0.2789729383
 40
0.3447117488
 40
0.4899385404
 40
0.6499233002
 40
0.8209824815
 40
1.0
 40
1.0
 40
1.0
 40
1.0
 10
5.4881776239
 20
3.1248218153
 30
0.0
 10
5.4881776239
 20
3.1248503898
 30
0.0
 10
5.4881723664
 20
3.1249150371
 30
0.0
 10
5.488154567
 20
3.1250220117
 30
0.0
 10
5.4881257668
 20
3.1251500123
 30
0.0
 10
5.4880688381
 20
3.1253625344
 30
0.0
 10
5.4879688496
 20
3.1256769693
 30
0.0
 10
5.4878147257
 20
3.1261091786
 30
0.0
 10
5.4876213835
 20
3.1266122704
 30
0.0
 10
5.4873914085
 20
3.1271803823
 30
0.0
 10
5.4871275972
 20
3.1278073752
 30
0.0
 10
5.4867208432
 20
3.1287453359
 30
0.0
 10
5.48614738
 20
3.1300199498
 30
0.0
 10
5.4853906417
 20
3.1316470417
 30
0.0
 10
5.4845630363
 20
3.1333814724
 30
0.0
 10
5.4839853839
 20
3.1345672372
 30
0.0
 10
5.4836879157
 20
3.1351725738
 30
0.0
  0
SPLINE
  5
50C
100
AcDbEntity
  8
0
100
AcDbSpline
 62
7
  6
CONTINUOUS
 70
0
 71
3
 72
20
 73
16
 74
0
 42
0.0000001
 43
0.0000001
 44
0.0000000001
 40
0.0
 40
0.0
 40
0.0
 40
0.0
 40
0.0075891541
 40
0.0172200744
 40
0.0425940333
 40
0.0759353043
 40
0.1168601538
 40
0.1648747163
 40
0.2194136008
 40
0.2798787763
 40
0.3456637464
 40
0.4908683188
 40
0.650680659
 40
0.8214261484
 40
1.0
 40
1.0
 40
1.0
 40
1.0
 10
5.4771368772
 20
3.1031258786
 30
0.0
 10
5.4771368772
 20
3.1031545976
 30
0.0
 10
5.4771326194
 20
3.1032197392
 30
0.0
 10
5.4771113918
 20
3.1033795653
 30
0.0
 10
5.4770596171
 20
3.1036332172
 30
0.0
 10
5.4769685584
 20
3.1039991316
 30
0.0
 10
5.4768441066
 20
3.1044448827
 30
0.0
 10
5.4766881379
 20
3.1049649687
 30
0.0
 10
5.47650256
 20
3.105553311
 30
0.0
 10
5.4762896931
 20
3.1062035079
 30
0.0
 10
5.4759615782
 20
3.1071769518
 30
0.0
 10
5.4754989484
 20
3.1085017319
 30
0.0
 10
5.4748883157
 20
3.1101954273
 30
0.0
 10
5.4742205055
 20
3.112002673
 30
0.0
 10
5.4737542483
 20
3.1132396254
 30
0.0
 10
5.4735141516
 20
3.1138712969
 30
0.0
  0
SPLINE
  5
50D
100
AcDbEntity
  8
0
100
AcDbSpline
 62
7
  6
CONTINUOUS
 70
0
 71
3
 72
20
 73
16
 74
0
 42
0.0000001
 43
0.0000001
 44
0.0000000001
 40
0.0
 40
0.0
 40
0.0
 40
0.0
 40
0.0075931341
 40
0.0172606822
 40
0.0427542258
 40
0.0762329412
 40
0.1172898131
 40
0.1654193038
 40
0.2200495868
 40
0.2805791306
 40
0.3463996157
 40
0.4915869272
 40
0.6512660565
 40
0.8217691351
 40
1.0
 40
1.0
 40
1.0
 40
1.0
 10
5.464001822
 20
3.0826060644
 30
0.0
 10
5.464001822
 20
3.082634896
 30
0.0
 10
5.4639986102
 20
3.082700422
 30
0.0
 10
5.4639826723
 20
3.0828620016
 30
0.0
 10
5.4639438145
 20
3.083119855
 30
0.0
 10
5.4638754424
 20
3.0834934742
 30
0.0
 10
5.46378198
 20
3.0839498013
 30
0.0
 10
5.4636648415
 20
3.0844831785
 30
0.0
 10
5.4635254626
 20
3.0850873382
 30
0.0
 10
5.4633655873
 20
3.0857556798
 30
0.0
 10
5.4631192109
 20
3.0867568585
 30
0.0
 10
5.4627718071
 20
3.0881208529
 30
0.0
 10
5.4623131771
 20
3.0898666307
 30
0.0
 10
5.4618116062
 20
3.091730816
 30
0.0
 10
5.4614613343
 20
3.0930078156
 30
0.0
 10
5.4612809679
 20
3.0936600899
 30
0.0
  0
LINE
  5
50E
100
AcDbEntity
  8
0
100
AcDbLine
 62
7
  6
CONTINUOUS
 10
5.448898956
 20
3.0634599898
 11
5.4471061767
 21
3.0747335979
  0
LINE
  5
50F
100
AcDbEntity
  8
0
100
AcDbLine
 62
7
  6
CONTINUOUS
 10
5.4319737282
 20
3.045872042
 11
5.431126289
 21
3.0572740934
  0
SPLINE
  5
510
100
AcDbEntity
  8
0
100
AcDbSpline
 62
7
  6
CONTINUOUS
 70
0
 71
3
 72
21
 73
17
 74
0
 42
0.0000001
 43
0.0000001
 44
0.0000000001
 40
0.0
 40
0.0
 40
0.0
 40
0.0
 40
0.1809692839
 40
0.3530007656
 40
0.5130414873
 40
0.6575484253
 40
0.7227067986
 40
0.7824099647
 40
0.8361075138
 40
0.8832692364
 40
0.9234324121
 40
0.9562469928
 40
0.9698623612
 40
0.9816319115
 40
0.9916283571
 40
1.0
 40
1.0
 40
1.0
 40
1.0
 10
5.0218573572
 20
3.2739039495
 30
0.0
 10
5.0213057778
 20
3.2735657453
 30
0.0
 10
5.0202341908
 20
3.2728989357
 30
0.0
 10
5.0186922085
 20
3.2719054012
 30
0.0
 10
5.0172779213
 20
3.2709549191
 30
0.0
 10
5.0161992718
 20
3.2701905566
 30
0.0
 10
5.015428841
 20
3.2696126029
 30
0.0
 10
5.0149266084
 20
3.2692184059
 30
0.0
 10
5.0144848433
 20
3.2688517008
 30
0.0
 10
5.0141085649
 20
3.2685158566
 30
0.0
 10
5.0138024367
 20
3.268214324
 30
0.0
 10
5.0135973653
 20
3.2679816677
 30
0.0
 10
5.0134745724
 20
3.2678134999
 30
0.0
 10
5.0134082127
 20
3.2677055807
 30
0.0
 10
5.0133618062
 20
3.2676080882
 30
0.0
 10
5.0133427171
 20
3.267544766
 30
0.0
 10
5.0133375505
 20
3.2675152846
 30
0.0
  0
SPLINE
  5
511
100
AcDbEntity
  8
0
100
AcDbSpline
 62
7
  6
CONTINUOUS
 70
0
 71
3
 72
21
 73
17
 74
0
 42
0.0000001
 43
0.0000001
 44
0.0000000001
 40
0.0
 40
0.0
 40
0.0
 40
0.0
 40
0.180536088
 40
0.352046588
 40
0.5115520669
 40
0.6556163227
 40
0.7206292814
 40
0.7802612611
 40
0.833982529
 40
0.8812811937
 40
0.9217136162
 40
0.9549433481
 40
0.9688256209
 40
0.980904031
 40
0.9912473364
 40
1.0
 40
1.0
 40
1.0
 40
1.0
 10
5.0276391221
 20
3.2967614153
 30
0.0
 10
5.0270677034
 20
3.2964816997
 30
0.0
 10
5.0259571696
 20
3.2959285649
 30
0.0
 10
5.0243569101
 20
3.295098336
 30
0.0
 10
5.0228866288
 20
3.2942973626
 30
0.0
 10
5.0217622763
 20
3.2936465464
 30
0.0
 10
5.0209564209
 20
3.2931491649
 30
0.0
 10
5.020429121
 20
3.2928069216
 30
0.0
 10
5.0199631093
 20
3.2924852955
 30
0.0
 10
5.0195634929
 20
3.2921870344
 30
0.0
 10
5.0192350633
 20
3.2919150292
 30
0.0
 10
5.0190118448
 20
3.2917012768
 30
0.0
 10
5.0188750178
 20
3.29154364
 30
0.0
 10
5.0187989061
 20
3.2914405741
 30
0.0
 10
5.0187431912
 20
3.2913456323
 30
0.0
 10
5.0187177929
 20
3.2912828491
 30
0.0
 10
5.0187094922
 20
3.2912531427
 30
0.0
  0
SPLINE
  5
512
100
AcDbEntity
  8
0
100
AcDbSpline
 62
7
  6
CONTINUOUS
 70
0
 71
3
 72
9
 73
5
 74
0
 42
0.0000001
 43
0.0000001
 44
0.0000000001
 40
0.0
 40
0.0
 40
0.0
 40
0.0
 40
0.2849943749
 40
1.0
 40
1.0
 40
1.0
 40
1.0
 10
5.0223256696
 20
3.3030151749
 30
0.0
 10
5.0223256696
 20
3.3030225264
 30
0.0
 10
5.02232637
 20
3.3030482773
 30
0.0
 10
5.022330041
 20
3.3030742247
 30
0.0
 10
5.0223358946
 20
3.3030917149
 30
0.0
  0
SPLINE
  5
513
100
AcDbEntity
  8
0
100
AcDbSpline
 62
7
  6
CONTINUOUS
 70
0
 71
3
 72
21
 73
17
 74
0
 42
0.0000001
 43
0.0000001
 44
0.0000000001
 40
0.0
 40
0.0
 40
0.0
 40
0.0
 40
0.1802468559
 40
0.3513590695
 40
0.5104233288
 40
0.654100457
 40
0.7189776782
 40
0.7785339148
 40
0.8322582782
 40
0.8796560038
 40
0.9202997577
 40
0.9538671092
 40
0.9679681512
 40
0.980301441
 40
0.9909320748
 40
1.0
 40
1.0
 40
1.0
 40
1.0
 10
5.0356554875
 20
3.3189476193
 30
0.0
 10
5.0350701482
 20
3.3187272591
 30
0.0
 10
5.0339321705
 20
3.3182895677
 30
0.0
 10
5.0322900769
 20
3.3176256213
 30
0.0
 10
5.0307788586
 20
3.3169774155
 30
0.0
 10
5.0296201984
 20
3.3164432366
 30
0.0
 10
5.0287870098
 20
3.3160292039
 30
0.0
 10
5.0282399332
 20
3.3157411726
 30
0.0
 10
5.0277543077
 20
3.3154670826
 30
0.0
 10
5.0273352613
 20
3.3152090915
 30
0.0
 10
5.0269876684
 20
3.3149695117
 30
0.0
 10
5.0267483055
 20
3.3147772875
 30
0.0
 10
5.0265985937
 20
3.3146323852
 30
0.0
 10
5.0265133148
 20
3.3145358652
 30
0.0
 10
5.0264486227
 20
3.314445211
 30
0.0
 10
5.026417016
 20
3.3143841491
 30
0.0
 10
5.0264056004
 20
3.3143548278
 30
0.0
  0
SPLINE
  5
514
100
AcDbEntity
  8
0
100
AcDbSpline
 62
7
  6
CONTINUOUS
 70
0
 71
3
 72
9
 73
5
 74
0
 42
0.0000001
 43
0.0000001
 44
0.0000000001
 40
0.0
 40
0.0
 40
0.0
 40
0.0
 40
0.5664031655
 40
1.0
 40
1.0
 40
1.0
 40
1.0
 10
5.0311657793
 20
3.3256782905
 30
0.0
 10
5.0311657793
 20
3.325695855
 30
0.0
 10
5.031167313
 20
3.3257268849
 30
0.0
 10
5.0311746617
 20
3.3257574626
 30
0.0
 10
5.0311801627
 20
3.3257697319
 30
0.0
  0
SPLINE
  5
515
100
AcDbEntity
  8
0
100
AcDbSpline
 62
7
  6
CONTINUOUS
 70
0
 71
3
 72
18
 73
14
 74
0
 42
0.0000001
 43
0.0000001
 44
0.0000000001
 40
0.0
 40
0.0
 40
0.0
 40
0.0
 40
0.1868197824
 40
0.3596607044
 40
0.5165400368
 40
0.6554464247
 40
0.7744257917
 40
0.8259200873
 40
0.8718563879
 40
0.9121368352
 40
0.9467763373
 40
0.9759241188
 40
1.0
 40
1.0
 40
1.0
 40
1.0
 10
5.0409218855
 20
3.3387841144
 30
0.0
 10
5.0406196554
 20
3.3386827697
 30
0.0
 10
5.0400394347
 20
3.3384827458
 30
0.0
 10
5.0392124105
 20
3.3381778313
 30
0.0
 10
5.0384696491
 20
3.3378813516
 30
0.0
 10
5.0378217489
 20
3.3375962358
 30
0.0
 10
5.0373488007
 20
3.3373609184
 30
0.0
 10
5.0370277798
 20
3.3371782486
 30
0.0
 10
5.0368289801
 20
3.3370527805
 30
0.0
 10
5.0366612679
 20
3.3369325414
 30
0.0
 10
5.0365253373
 20
3.3368178593
 30
0.0
 10
5.0364217699
 20
3.3367090121
 30
0.0
 10
5.0363700411
 20
3.3366334601
 30
0.0
 10
5.03635144
 20
3.3365968322
 30
0.0
  0
LINE
  5
516
100
AcDbEntity
  8
0
100
AcDbLine
 62
7
  6
CONTINUOUS
 10
5.0882171142
 20
3.0572740934
 11
5.087369675
 21
3.045872042
  0
LINE
  5
517
100
AcDbEntity
  8
0
100
AcDbLine
 62
7
  6
CONTINUOUS
 10
5.0722372265
 20
3.0747335979
 11
5.0704444472
 21
3.0634599898
  0
SPLINE
  5
518
100
AcDbEntity
  8
0
100
AcDbSpline
 62
7
  6
CONTINUOUS
 70
0
 71
3
 72
20
 73
16
 74
0
 42
0.0000001
 43
0.0000001
 44
0.0000000001
 40
0.0
 40
0.0
 40
0.0
 40
0.0
 40
0.1782308495
 40
0.3487339301
 40
0.5084130335
 40
0.6536003285
 40
0.7194208135
 40
0.7799503506
 40
0.8345806321
 40
0.8827101473
 40
0.923767039
 40
0.957245767
 40
0.9827393153
 40
0.9924068652
 40
1.0
 40
1.0
 40
1.0
 40
1.0
 10
5.0580624354
 20
3.0936600899
 30
0.0
 10
5.0578820689
 20
3.0930078157
 30
0.0
 10
5.057531797
 20
3.0917308161
 30
0.0
 10
5.0570302262
 20
3.089866631
 30
0.0
 10
5.0565715962
 20
3.0881208533
 30
0.0
 10
5.0562241924
 20
3.086756859
 30
0.0
 10
5.0559778161
 20
3.0857556805
 30
0.0
 10
5.0558179407
 20
3.0850873389
 30
0.0
 10
5.0556785619
 20
3.0844831791
 30
0.0
 10
5.0555614233
 20
3.0839498018
 30
0.0
 10
5.0554679608
 20
3.0834934744
 30
0.0
 10
5.0553995887
 20
3.0831198551
 30
0.0
 10
5.0553607309
 20
3.0828620017
 30
0.0
 10
5.0553447931
 20
3.082700422
 30
0.0
 10
5.0553415812
 20
3.082634896
 30
0.0
 10
5.0553415812
 20
3.0826060644
 30
0.0
  0
SPLINE
  5
519
100
AcDbEntity
  8
0
100
AcDbSpline
 62
7
  6
CONTINUOUS
 70
0
 71
3
 72
20
 73
16
 74
0
 42
0.0000001
 43
0.0000001
 44
0.0000000001
 40
0.0
 40
0.0
 40
0.0
 40
0.0
 40
0.1785738363
 40
0.3493193276
 40
0.5091316418
 40
0.6543361978
 40
0.7201211679
 40
0.7805863367
 40
0.8351252198
 40
0.8831398068
 40
0.924064676
 40
0.9574059595
 40
0.9827799231
 40
0.9924108451
 40
1.0
 40
1.0
 40
1.0
 40
1.0
 10
5.0458292516
 20
3.1138712969
 30
0.0
 10
5.0455891549
 20
3.1132396254
 30
0.0
 10
5.0451228977
 20
3.1120026731
 30
0.0
 10
5.0444550876
 20
3.1101954275
 30
0.0
 10
5.0438444549
 20
3.1085017323
 30
0.0
 10
5.0433818251
 20
3.1071769524
 30
0.0
 10
5.0430537104
 20
3.1062035086
 30
0.0
 10
5.0428408434
 20
3.1055533116
 30
0.0
 10
5.0426552655
 20
3.1049649693
 30
0.0
 10
5.0424992968
 20
3.1044448831
 30
0.0
 10
5.0423748449
 20
3.1039991319
 30
0.0
 10
5.0422837862
 20
3.1036332173
 30
0.0
 10
5.0422320115
 20
3.1033795654
 30
0.0
 10
5.0422107838
 20
3.1032197392
 30
0.0
 10
5.042206526
 20
3.1031545976
 30
0.0
 10
5.042206526
 20
3.1031258786
 30
0.0
  0
SPLINE
  5
51A
100
AcDbEntity
  8
0
100
AcDbSpline
 62
7
  6
CONTINUOUS
 70
0
 71
3
 72
21
 73
17
 74
0
 42
0.0000001
 43
0.0000001
 44
0.0000000001
 40
0.0
 40
0.0
 40
0.0
 40
0.0
 40
0.1790175031
 40
0.3500766864
 40
0.5100614203
 40
0.6552881955
 40
0.721027006
 40
0.7814085321
 40
0.8358286051
 40
0.8836937042
 40
0.924446719
 40
0.9576089479
 40
0.9712290955
 40
0.9828325464
 40
0.9924158596
 40
1.0
 40
1.0
 40
1.0
 40
1.0
 10
5.0356554875
 20
3.1351725738
 30
0.0
 10
5.0353580193
 20
3.1345672372
 30
0.0
 10
5.0347803669
 20
3.1333814725
 30
0.0
 10
5.0339527616
 20
3.1316470419
 30
0.0
 10
5.0331960233
 20
3.1300199501
 30
0.0
 10
5.0326225602
 20
3.1287453364
 30
0.0
 10
5.0322158063
 20
3.1278073758
 30
0.0
 10
5.031951995
 20
3.1271803829
 30
0.0
 10
5.03172202
 20
3.126612271
 30
0.0
 10
5.0315286777
 20
3.126109179
 30
0.0
 10
5.0313745536
 20
3.1256769695
 30
0.0
 10
5.0312745651
 20
3.1253625346
 30
0.0
 10
5.0312176365
 20
3.1251500124
 30
0.0
 10
5.0311888362
 20
3.1250220117
 30
0.0
 10
5.0311710368
 20
3.1249150371
 30
0.0
 10
5.0311657793
 20
3.1248503898
 30
0.0
 10
5.0311657793
 20
3.1248218153
 30
0.0
  0
SPLINE
  5
51B
100
AcDbEntity
  8
0
100
AcDbSpline
 62
7
  6
CONTINUOUS
 70
0
 71
3
 72
21
 73
17
 74
0
 42
0.0000001
 43
0.0000001
 44
0.0000000001
 40
0.0
 40
0.0
 40
0.0
 40
0.0
 40
0.1795637251
 40
0.3510098656
 40
0.511208183
 40
0.6564638733
 40
0.7221465845
 40
0.7824257393
 40
0.8366999331
 40
0.8843810801
 40
0.9249222289
 40
0.9578633694
 40
0.9713809378
 40
0.982897004
 40
0.9924217081
 40
1.0
 40
1.0
 40
1.0
 40
1.0
 10
5.0276391221
 20
3.1573587779
 30
0.0
 10
5.0272872025
 20
3.1567852452
 30
0.0
 10
5.026603838
 20
3.1556612961
 30
0.0
 10
5.0256244244
 20
3.1540148532
 30
0.0
 10
5.0247288883
 20
3.1524682429
 30
0.0
 10
5.0240500415
 20
3.1512542767
 30
0.0
 10
5.0235684884
 20
3.1503592168
 30
0.0
 10
5.0232562792
 20
3.1497602649
 30
0.0
 10
5.0229841121
 20
3.1492165996
 30
0.0
 10
5.0227552899
 20
3.1487340498
 30
0.0
 10
5.0225728689
 20
3.1483181976
 30
0.0
 10
5.0224544555
 20
3.1480142124
 30
0.0
 10
5.0223870414
 20
3.1478076252
 30
0.0
 10
5.0223529394
 20
3.1476826034
 30
0.0
 10
5.022331847
 20
3.1475773784
 30
0.0
 10
5.0223256696
 20
3.1475133297
 30
0.0
 10
5.0223256696
 20
3.1474849309
 30
0.0
  0
SPLINE
  5
51C
100
AcDbEntity
  8
0
100
AcDbSpline
 62
7
  6
CONTINUOUS
 70
0
 71
3
 72
21
 73
17
 74
0
 42
0.0000001
 43
0.0000001
 44
0.0000000001
 40
0.0
 40
0.0
 40
0.0
 40
0.0
 40
0.1802123839
 40
0.3521188631
 40
0.5125721553
 40
0.6578636131
 40
0.7234802539
 40
0.7836381521
 40
0.8377390682
 40
0.8852012485
 40
0.9254897183
 40
0.9581667262
 40
0.9715616598
 40
0.9829733212
 40
0.992428252
 40
1.0
 40
1.0
 40
1.0
 40
1.0
 10
5.0218573572
 20
3.1802162437
 30
0.0
 10
5.0214544382
 20
3.1796796669
 30
0.0
 10
5.0206720793
 20
3.1786275436
 30
0.0
 10
5.0195503095
 20
3.1770834117
 30
0.0
 10
5.0185246252
 20
3.1756303836
 30
0.0
 10
5.0177468487
 20
3.174486977
 30
0.0
 10
5.0171950465
 20
3.1736418351
 30
0.0
 10
5.0168374493
 20
3.1730754911
 30
0.0
 10
5.0165257132
 20
3.172560255
 30
0.0
 10
5.0162636123
 20
3.1721015959
 30
0.0
 10
5.0160546417
 20
3.1717047702
 30
0.0
 10
5.0159189001
 20
3.1714129462
 30
0.0
 10
5.0158416274
 20
3.1712132622
 30
0.0
 10
5.0158025419
 20
3.1710917044
 30
0.0
 10
5.0157783455
 20
3.1709885095
 30
0.0
 10
5.0157713318
 20
3.1709251602
 30
0.0
 10
5.0157713318
 20
3.1708969671
 30
0.0
  0
SPLINE
  5
51D
100
AcDbEntity
  8
0
100
AcDbSpline
 62
7
  6
CONTINUOUS
 70
0
 71
3
 72
21
 73
17
 74
0
 42
0.0000001
 43
0.0000001
 44
0.0000000001
 40
0.0
 40
0.0
 40
0.0
 40
0.0
 40
0.1809641002
 40
0.3534051606
 40
0.5141557637
 40
0.6594906421
 40
0.7250314818
 40
0.7850493059
 40
0.838949379
 40
0.886157113
 40
0.9261512828
 40
0.9585200075
 40
0.9717716847
 40
0.9830614722
 40
0.9924353007
 40
1.0
 40
1.0
 40
1.0
 40
1.0
 10
5.0183658745
 20
3.2035248415
 30
0.0
 10
5.0179159044
 20
3.2030300047
 30
0.0
 10
5.0170422346
 20
3.2020589999
 30
0.0
 10
5.0157889353
 20
3.2006305146
 30
0.0
 10
5.0146430101
 20
3.1992832652
 30
0.0
 10
5.0137737039
 20
3.198219667
 30
0.0
 10
5.0131568693
 20
3.197430995
 30
0.0
 10
5.0127573322
 20
3.1969015118
 30
0.0
 10
5.0124090325
 20
3.1964184142
 30
0.0
 10
5.0121161751
 20
3.1959867658
 30
0.0
 10
5.0118826576
 20
3.1956114555
 30
0.0
 10
5.0117308441
 20
3.1953333923
 30
0.0
 10
5.0116444304
 20
3.1951415142
 30
0.0
 10
5.0116007254
 20
3.1950238721
 30
0.0
 10
5.0115736426
 20
3.194922966
 30
0.0
 10
5.011565888
 20
3.1948604119
 30
0.0
 10
5.011565888
 20
3.1948324532
 30
0.0
  0
SPLINE
  5
51E
100
AcDbEntity
  8
0
100
AcDbSpline
 62
7
  6
CONTINUOUS
 70
0
 71
3
 72
21
 73
17
 74
0
 42
0.0000001
 43
0.0000001
 44
0.0000000001
 40
0.0
 40
0.0
 40
0.0
 40
0.0
 40
0.1818193504
 40
0.3548700181
 40
0.5159612145
 40
0.6613480242
 40
0.7268036115
 40
0.7866626522
 40
0.840334185
 40
0.8872515385
 40
0.926908931
 40
0.9589240405
 40
0.9720112713
 40
0.9831613063
 40
0.9924426073
 40
1.0
 40
1.0
 40
1.0
 40
1.0
 10
5.0171982988
 20
3.2270600966
 30
0.0
 10
5.016705683
 20
3.2266113699
 30
0.0
 10
5.0157492752
 20
3.2257299696
 30
0.0
 10
5.0143765454
 20
3.2244293517
 30
0.0
 10
5.013121451
 20
3.2231990571
 30
0.0
 10
5.0121688936
 20
3.2222237665
 30
0.0
 10
5.0114928626
 20
3.2214975896
 30
0.0
 10
5.0110552385
 20
3.2210088656
 30
0.0
 10
5.0106737339
 20
3.2205613069
 30
0.0
 10
5.0103529382
 20
3.2201595305
 30
0.0
 10
5.010097112
 20
3.2198080199
 30
0.0
 10
5.0099306293
 20
3.2195451901
 30
0.0
 10
5.0098358747
 20
3.2193619456
 30
0.0
 10
5.0097879551
 20
3.2192486323
 30
0.0
 10
5.0097582291
 20
3.2191502482
 30
0.0
 10
5.0097498388
 20
3.2190885794
 30
0.0
 10
5.0097498388
 20
3.2190608822
 30
0.0
  0
SPLINE
  5
51F
100
AcDbEntity
  8
0
100
AcDbSpline
 62
7
  6
CONTINUOUS
 70
0
 71
3
 72
21
 73
17
 74
0
 42
0.0000001
 43
0.0000001
 44
0.0000000001
 40
0.0
 40
0.0
 40
0.0
 40
0.0
 40
0.1815414051
 40
0.3542114237
 40
0.5148767067
 40
0.6598783979
 40
0.7251909308
 40
0.7849604326
 40
0.838614268
 40
0.8856029073
 40
0.9254420693
 40
0.9577681456
 40
0.9710707731
 40
0.9824807677
 40
0.9920731164
 40
1.0
 40
1.0
 40
1.0
 40
1.0
 10
5.0183658745
 20
3.2505953517
 30
0.0
 10
5.0178400824
 20
3.2502001447
 30
0.0
 10
5.0168189834
 20
3.2494226353
 30
0.0
 10
5.0153516902
 20
3.2482704902
 30
0.0
 10
5.0140083149
 20
3.2471753417
 30
0.0
 10
5.0129865358
 20
3.2463017234
 30
0.0
 10
5.012259343
 20
3.2456468335
 30
0.0
 10
5.0117871953
 20
3.2452035144
 30
0.0
 10
5.0113739752
 20
3.244794695
 30
0.0
 10
5.0110245378
 20
3.244424388
 30
0.0
 10
5.0107433793
 20
3.2440965809
 30
0.0
 10
5.0105580033
 20
3.2438478732
 30
0.0
 10
5.01045
 20
3.2436715073
 30
0.0
 10
5.01039365
 20
3.2435605029
 30
0.0
 10
5.0103565543
 20
3.2434622341
 30
0.0
 10
5.0103436434
 20
3.2433995649
 30
0.0
 10
5.0103415138
 20
3.2433709233
 30
0.0
  0
SPLINE
  5
520
100
AcDbEntity
  8
0
100
AcDbSpline
 62
7
  6
CONTINUOUS
 70
0
 71
3
 72
28
 73
24
 74
0
 42
0.0000001
 43
0.0000001
 44
0.0000000001
 40
0.0
 40
0.0
 40
0.0
 40
0.0
 40
0.0060548952
 40
0.008752077
 40
0.0114254411
 40
0.0173068815
 40
0.0247258426
 40
0.0341645112
 40
0.0458284394
 40
0.05979856
 40
0.0760840995
 40
0.0946603701
 40
0.1154869376
 40
0.1636602184
 40
0.2200638666
 40
0.284095996
 40
0.3551308889
 40
0.4325447133
 40
0.5157419888
 40
0.6041448177
 40
0.6972486548
 40
0.7945693441
 40
1.0
 40
1.0
 40
1.0
 40
1.0
 10
5.0157770628
 20
3.2796604434
 30
0.0
 10
5.0157808999
 20
3.279677279
 30
0.0
 10
5.0157900504
 20
3.2797014816
 30
0.0
 10
5.0158120651
 20
3.2797259363
 30
0.0
 10
5.0158392436
 20
3.2797436881
 30
0.0
 10
5.0158854337
 20
3.2797526388
 30
0.0
 10
5.0159502018
 20
3.2797436504
 30
0.0
 10
5.0160276242
 20
3.2797177956
 30
0.0
 10
5.0161181311
 20
3.2796748611
 30
0.0
 10
5.0162217402
 20
3.2796150499
 30
0.0
 10
5.0163381799
 20
3.2795385628
 30
0.0
 10
5.0164670893
 20
3.2794457446
 30
0.0
 10
5.0166648072
 20
3.2792931018
 30
0.0
 10
5.0169388464
 20
3.2790631197
 30
0.0
 10
5.0172963481
 20
3.2787414834
 30
0.0
 10
5.0176928698
 20
3.2783660143
 30
0.0
 10
5.0181247311
 20
3.2779409185
 30
0.0
 10
5.0185883271
 20
3.2774702724
 30
0.0
 10
5.0190802659
 20
3.2769581093
 30
0.0
 10
5.0195974171
 20
3.2764081847
 30
0.0
 10
5.0201369013
 20
3.2758240206
 30
0.0
 10
5.0208962548
 20
3.2749886712
 30
0.0
 10
5.0214702564
 20
3.2743436856
 30
0.0
 10
5.0218573572
 20
3.2739039495
 30
0.0
  0
LINE
  5
521
100
AcDbEntity
  8
0
100
AcDbLine
 62
7
  6
CONTINUOUS
 10
5.0625858385
 20
3.0206581337
 11
5.0625145311
 21
3.0208386716
  0
LINE
  5
522
100
AcDbEntity
  8
0
100
AcDbLine
 62
7
  6
CONTINUOUS
 10
5.0786199485
 20
3.0022413517
 11
5.0785308403
 21
3.0024349449
  0
SPLINE
  5
523
100
AcDbEntity
  8
0
100
AcDbSpline
 62
7
  6
CONTINUOUS
 70
0
 71
3
 72
27
 73
23
 74
0
 42
0.0000001
 43
0.0000001
 44
0.0000000001
 40
0.0
 40
0.0
 40
0.0
 40
0.0
 40
0.0067840554
 40
0.0127237138
 40
0.0189808721
 40
0.0265626996
 40
0.0360335417
 40
0.0476550557
 40
0.0615419812
 40
0.0777265226
 40
0.0961946161
 40
0.1169117652
 40
0.1648810662
 40
0.2211132998
 40
0.2850066656
 40
0.3559309154
 40
0.4332521578
 40
0.5163656934
 40
0.6046827441
 40
0.6976882241
 40
0.7948912741
 40
1.0
 40
1.0
 40
1.0
 40
1.0
 10
5.0115678969
 20
3.255701661
 30
0.0
 10
5.0115703543
 20
3.2557212327
 30
0.0
 10
5.0115795505
 20
3.2557580329
 30
0.0
 10
5.0116156634
 20
3.255802467
 30
0.0
 10
5.0116702984
 20
3.255825531
 30
0.0
 10
5.0117387199
 20
3.2558292723
 30
0.0
 10
5.0118214798
 20
3.2558165557
 30
0.0
 10
5.0119192077
 20
3.2557876663
 30
0.0
 10
5.0120319416
 20
3.2557427793
 30
0.0
 10
5.0121594357
 20
3.2556820777
 30
0.0
 10
5.0123013051
 20
3.2556058707
 30
0.0
 10
5.0125198968
 20
3.2554775803
 30
0.0
 10
5.0128244763
 20
3.255279388
 30
0.0
 10
5.0132235397
 20
3.25499708
 30
0.0
 10
5.0136676914
 20
3.2546633475
 30
0.0
 10
5.0141526647
 20
3.2542821536
 30
0.0
 10
5.0146742882
 20
3.253857331
 30
0.0
 10
5.0152286154
 20
3.2533927078
 30
0.0
 10
5.0158120056
 20
3.2528918572
 30
0.0
 10
5.0164211088
 20
3.2523581335
 30
0.0
 10
5.0172789073
 20
3.2515930236
 30
0.0
 10
5.0179279685
 20
3.2510002014
 30
0.0
 10
5.0183658745
 20
3.2505953517
 30
0.0
  0
LINE
  5
524
100
AcDbEntity
  8
0
100
AcDbLine
 62
7
  6
CONTINUOUS
 10
5.0963974985
 20
2.9854732234
 11
5.096291635
 21
2.9856744322
  0
SPLINE
  5
525
100
AcDbEntity
  8
0
100
AcDbSpline
 62
7
  6
CONTINUOUS
 70
0
 71
3
 72
27
 73
23
 74
0
 42
0.0000001
 43
0.0000001
 44
0.0000000001
 40
0.0
 40
0.0
 40
0.0
 40
0.0
 40
0.0074252718
 40
0.0139216841
 40
0.0205554488
 40
0.0283279874
 40
0.0378652257
 40
0.0494786797
 40
0.0633138753
 40
0.0794258249
 40
0.0978119296
 40
0.1184435819
 40
0.1662479795
 40
0.2223381159
 40
0.2861120138
 40
0.3569348535
 40
0.434163005
 40
0.5171822624
 40
0.6053935302
 40
0.6982710249
 40
0.7953175225
 40
1.0
 40
1.0
 40
1.0
 40
1.0
 10
5.0097499302
 20
3.2314464925
 30
0.0
 10
5.0097504901
 20
3.2314685195
 30
0.0
 10
5.0097563131
 20
3.2315102635
 30
0.0
 10
5.0097880643
 20
3.2315645545
 30
0.0
 10
5.0098412122
 20
3.2315999154
 30
0.0
 10
5.0099112435
 20
3.2316165519
 30
0.0
 10
5.0099974986
 20
3.2316173342
 30
0.0
 10
5.0101005751
 20
3.2316029892
 30
0.0
 10
5.0102205318
 20
3.2315737383
 30
0.0
 10
5.010357138
 20
3.2315297376
 30
0.0
 10
5.0105099915
 20
3.2314712691
 30
0.0
 10
5.0107466299
 20
3.2313692372
 30
0.0
 10
5.0110782499
 20
3.2312057324
 30
0.0
 10
5.0115147573
 20
3.2309667733
 30
0.0
 10
5.0120023457
 20
3.2306794822
 30
0.0
 10
5.0125361626
 20
3.2303475049
 30
0.0
 10
5.0131114779
 20
3.2299743689
 30
0.0
 10
5.0137237904
 20
3.2295636309
 30
0.0
 10
5.0143689488
 20
3.2291186247
 30
0.0
 10
5.0150431323
 20
3.2286424831
 30
0.0
 10
5.0159930619
 20
3.2279577555
 30
0.0
 10
5.016712614
 20
3.227424827
 30
0.0
 10
5.0171982988
 20
3.2270600966
 30
0.0
  0
SPLINE
  5
526
100
AcDbEntity
  8
0
100
AcDbSpline
 62
7
  6
CONTINUOUS
 70
0
 71
3
 72
29
 73
25
 74
0
 42
0.0000001
 43
0.0000001
 44
0.0000000001
 40
0.0
 40
0.0
 40
0.0
 40
0.0
 40
0.2056479395
 40
0.3030364658
 40
0.3962015998
 40
0.4846738599
 40
0.5679693734
 40
0.645533946
 40
0.7167906178
 40
0.7811370579
 40
0.8379584956
 40
0.886654602
 40
0.9077756787
 40
0.9266568906
 40
0.9432464859
 40
0.957501537
 40
0.9693938782
 40
0.9789351079
 40
0.9862143203
 40
0.9890842445
 40
0.9915214754
 40
0.9936438657
 40
0.9956309145
 40
1.0
 40
1.0
 40
1.0
 40
1.0
 10
5.4836879157
 20
3.3189476193
 30
0.0
 10
5.4839666968
 20
3.319440954
 30
0.0
 10
5.4843803887
 20
3.3201662951
 30
0.0
 10
5.4849285786
 20
3.3211104065
 30
0.0
 10
5.4853184751
 20
3.3217730614
 30
0.0
 10
5.485692834
 20
3.3223997852
 30
0.0
 10
5.4860496937
 20
3.3229868683
 30
0.0
 10
5.4863869191
 20
3.3235303452
 30
0.0
 10
5.4867021994
 20
3.324025951
 30
0.0
 10
5.4869930576
 20
3.3244693007
 30
0.0
 10
5.4872569626
 20
3.3248558942
 30
0.0
 10
5.4874607984
 20
3.3251391975
 30
0.0
 10
5.4876092223
 20
3.3253333955
 30
0.0
 10
5.4877068302
 20
3.3254550273
 30
0.0
 10
5.4877957948
 20
3.3255592746
 30
0.0
 10
5.4878758128
 20
3.3256457164
 30
0.0
 10
5.4879466482
 20
3.3257140761
 30
0.0
 10
5.4880080669
 20
3.3257640454
 30
0.0
 10
5.4880546533
 20
3.325792658
 30
0.0
 10
5.4880873863
 20
3.3258045196
 30
0.0
 10
5.4881077459
 20
3.325807862
 30
0.0
 10
5.4881259689
 20
3.3258061041
 30
0.0
 10
5.488147644
 20
3.3257962008
 30
0.0
 10
5.4881583152
 20
3.3257807172
 30
0.0
 10
5.4881632405
 20
3.3257697319
 30
0.0
  0
SPLINE
  5
527
100
AcDbEntity
  8
0
100
AcDbSpline
 62
7
  6
CONTINUOUS
 70
0
 71
3
 72
27
 73
23
 74
0
 42
0.0000001
 43
0.0000001
 44
0.0000000001
 40
0.0
 40
0.0
 40
0.0
 40
0.0
 40
0.2056284527
 40
0.3030193168
 40
0.3961842397
 40
0.4846461462
 40
0.5679108513
 40
0.6454119672
 40
0.7165631729
 40
0.7807510877
 40
0.8373549719
 40
0.8857731865
 40
0.92544528
 40
0.9418654761
 40
0.9559571885
 40
0.9677090895
 40
0.977166727
 40
0.984476622
 40
0.9900193209
 40
0.9924079009
 40
0.9947538309
 40
1.0
 40
1.0
 40
1.0
 40
1.0
 10
5.4917042811
 20
3.2967614153
 30
0.0
 10
5.4920381471
 20
3.2972306686
 30
0.0
 10
5.4925334049
 20
3.297919866
 30
0.0
 10
5.4931891705
 20
3.2988149543
 30
0.0
 10
5.4936553159
 20
3.2994421513
 30
0.0
 10
5.4941025328
 20
3.3000340962
 30
0.0
 10
5.4945284059
 20
3.3005871509
 30
0.0
 10
5.4949303092
 20
3.3010974283
 30
0.0
 10
5.495305395
 20
3.301560759
 30
0.0
 10
5.4956506362
 20
3.3019728591
 30
0.0
 10
5.4959628985
 20
3.3023294205
 30
0.0
 10
5.4962389786
 20
3.3026261518
 30
0.0
 10
5.496447524
 20
3.3028318148
 30
0.0
 10
5.4965951257
 20
3.302961711
 30
0.0
 10
5.4966877995
 20
3.3030354596
 30
0.0
 10
5.4967692821
 20
3.3030916257
 30
0.0
 10
5.4968396039
 20
3.3031300272
 30
0.0
 10
5.4968987837
 20
3.3031509701
 30
0.0
 10
5.4969428004
 20
3.3031530095
 30
0.0
 10
5.4969701206
 20
3.3031427412
 30
0.0
 10
5.4969925869
 20
3.3031254725
 30
0.0
 10
5.4970028454
 20
3.3031056482
 30
0.0
 10
5.4970075086
 20
3.3030917149
 30
0.0
  0
SPLINE
  5
528
100
AcDbEntity
  8
0
100
AcDbSpline
 62
7
  6
CONTINUOUS
 70
0
 71
3
 72
28
 73
24
 74
0
 42
0.0000001
 43
0.0000001
 44
0.0000000001
 40
0.0
 40
0.0
 40
0.0
 40
0.0
 40
0.2054306393
 40
0.3027513261
 40
0.3958551673
 40
0.4842579946
 40
0.5674552512
 40
0.6448690568
 40
0.7159039488
 40
0.7799360812
 40
0.8363397303
 40
0.8845130092
 40
0.9053395792
 40
0.9239158622
 40
0.9402014163
 40
0.9541715458
 40
0.9658354792
 40
0.975274153
 40
0.9826931169
 40
0.9885745582
 40
0.9912479228
 40
0.9939451049
 40
1.0
 40
1.0
 40
1.0
 40
1.0
 10
5.497486046
 20
3.2739039495
 30
0.0
 10
5.4978731467
 20
3.2743436856
 30
0.0
 10
5.4984471484
 20
3.2749886711
 30
0.0
 10
5.4992065018
 20
3.2758240205
 30
0.0
 10
5.499745986
 20
3.2764081846
 30
0.0
 10
5.5002631372
 20
3.2769581092
 30
0.0
 10
5.5007550759
 20
3.2774702722
 30
0.0
 10
5.5012186718
 20
3.2779409182
 30
0.0
 10
5.5016505331
 20
3.278366014
 30
0.0
 10
5.5020470547
 20
3.2787414831
 30
0.0
 10
5.5024045565
 20
3.2790631194
 30
0.0
 10
5.5026785956
 20
3.2792931016
 30
0.0
 10
5.5028763136
 20
3.2794457443
 30
0.0
 10
5.503005223
 20
3.2795385626
 30
0.0
 10
5.5031216628
 20
3.2796150498
 30
0.0
 10
5.503225272
 20
3.2796748611
 30
0.0
 10
5.5033157789
 20
3.2797177956
 30
0.0
 10
5.5033932013
 20
3.2797436504
 30
0.0
 10
5.5034579695
 20
3.2797526388
 30
0.0
 10
5.5035041595
 20
3.2797436881
 30
0.0
 10
5.5035313381
 20
3.2797259363
 30
0.0
 10
5.5035533528
 20
3.2797014816
 30
0.0
 10
5.5035625033
 20
3.279677279
 30
0.0
 10
5.5035663404
 20
3.2796604434
 30
0.0
  0
SPLINE
  5
529
100
AcDbEntity
  8
0
100
AcDbSpline
 62
7
  6
CONTINUOUS
 70
0
 71
3
 72
27
 73
23
 74
0
 42
0.0000001
 43
0.0000001
 44
0.0000000001
 40
0.0
 40
0.0
 40
0.0
 40
0.0
 40
0.2051087091
 40
0.302311757
 40
0.3953172409
 40
0.4836342892
 40
0.5667478048
 40
0.6440690296
 40
0.7149932792
 40
0.7788866479
 40
0.8351188816
 40
0.8830881803
 40
0.9038053353
 40
0.9222734428
 40
0.9384579979
 40
0.9523449303
 40
0.9639664499
 40
0.9734372968
 40
0.9810191264
 40
0.9872762858
 40
0.9932159448
 40
1.0
 40
1.0
 40
1.0
 40
1.0
 10
5.5009775287
 20
3.2505953517
 30
0.0
 10
5.5014154347
 20
3.2510002013
 30
0.0
 10
5.5020644958
 20
3.2515930235
 30
0.0
 10
5.5029222943
 20
3.2523581334
 30
0.0
 10
5.5035313975
 20
3.2528918571
 30
0.0
 10
5.5041147877
 20
3.2533927077
 30
0.0
 10
5.5046691147
 20
3.2538573308
 30
0.0
 10
5.5051907381
 20
3.2542821534
 30
0.0
 10
5.5056757115
 20
3.2546633472
 30
0.0
 10
5.5061198631
 20
3.2549970797
 30
0.0
 10
5.5065189265
 20
3.2552793877
 30
0.0
 10
5.506823506
 20
3.25547758
 30
0.0
 10
5.5070420977
 20
3.2556058704
 30
0.0
 10
5.5071839672
 20
3.2556820776
 30
0.0
 10
5.5073114614
 20
3.2557427792
 30
0.0
 10
5.5074241954
 20
3.2557876663
 30
0.0
 10
5.5075219233
 20
3.2558165556
 30
0.0
 10
5.5076046833
 20
3.2558292723
 30
0.0
 10
5.5076731048
 20
3.255825531
 30
0.0
 10
5.5077277397
 20
3.255802467
 30
0.0
 10
5.5077638527
 20
3.2557580329
 30
0.0
 10
5.5077730489
 20
3.2557212327
 30
0.0
 10
5.5077755063
 20
3.255701661
 30
0.0
  0
LINE
  5
52A
100
AcDbEntity
  8
0
100
AcDbLine
 62
7
  6
CONTINUOUS
 10
5.1157462614
 20
2.9705150146
 11
5.115625869
 21
2.9707185463
  0
SPLINE
  5
52B
100
AcDbEntity
  8
0
100
AcDbSpline
 62
7
  6
CONTINUOUS
 70
0
 71
3
 72
27
 73
23
 74
0
 42
0.0000001
 43
0.0000001
 44
0.0000000001
 40
0.0
 40
0.0
 40
0.0
 40
0.0
 40
0.2046824597
 40
0.3017289546
 40
0.3946064524
 40
0.4828177171
 40
0.5658369542
 40
0.6430650897
 40
0.7138879291
 40
0.7776618286
 40
0.8337519638
 40
0.881556359
 40
0.9021880205
 40
0.9205741404
 40
0.936686102
 40
0.9505213032
 40
0.9621347637
 40
0.9716720073
 40
0.9794445481
 40
0.9860783148
 40
0.9925747277
 40
1.0
 40
1.0
 40
1.0
 40
1.0
 10
5.5021451044
 20
3.2270600966
 30
0.0
 10
5.5026307892
 20
3.227424827
 30
0.0
 10
5.5033503412
 20
3.2279577554
 30
0.0
 10
5.5043002707
 20
3.228642483
 30
0.0
 10
5.5049744543
 20
3.2291186246
 30
0.0
 10
5.5056196126
 20
3.2295636308
 30
0.0
 10
5.506231925
 20
3.2299743687
 30
0.0
 10
5.5068072402
 20
3.2303475047
 30
0.0
 10
5.5073410571
 20
3.2306794819
 30
0.0
 10
5.5078286455
 20
3.2309667731
 30
0.0
 10
5.5082651529
 20
3.2312057322
 30
0.0
 10
5.5085967728
 20
3.231369237
 30
0.0
 10
5.5088334113
 20
3.2314712689
 30
0.0
 10
5.5089862649
 20
3.2315297375
 30
0.0
 10
5.5091228712
 20
3.2315737382
 30
0.0
 10
5.5092428279
 20
3.2316029891
 30
0.0
 10
5.5093459045
 20
3.2316173341
 30
0.0
 10
5.5094321597
 20
3.2316165519
 30
0.0
 10
5.509502191
 20
3.2315999154
 30
0.0
 10
5.5095553388
 20
3.2315645545
 30
0.0
 10
5.5095870901
 20
3.2315102635
 30
0.0
 10
5.5095929131
 20
3.2314685195
 30
0.0
 10
5.509593473
 20
3.2314464925
 30
0.0
  0
SPLINE
  5
52C
100
AcDbEntity
  8
0
100
AcDbSpline
 62
7
  6
CONTINUOUS
 70
0
 71
3
 72
27
 73
23
 74
0
 42
0.0000001
 43
0.0000001
 44
0.0000000001
 40
0.0
 40
0.0
 40
0.0
 40
0.0
 40
0.202925104
 40
0.3915189203
 40
0.4792418754
 40
0.5618971268
 40
0.638891767
 40
0.7096181771
 40
0.773439475
 40
0.8297291485
 40
0.8778943472
 40
0.8987712969
 40
0.91744828
 40
0.9338985339
 40
0.9481218688
 40
0.9601749663
 40
0.9654313922
 40
0.9702089315
 40
0.978494212
 40
0.985605315
 40
0.99243861
 40
1.0
 40
1.0
 40
1.0
 40
1.0
 10
5.5009775287
 20
3.2035248415
 30
0.0
 10
5.5015028021
 20
3.2038416817
 30
0.0
 10
5.5025206312
 20
3.2044457701
 30
0.0
 10
5.5037795424
 20
3.205162902
 30
0.0
 10
5.5047319264
 20
3.2056830812
 30
0.0
 10
5.5053931072
 20
3.2060324815
 30
0.0
 10
5.5060141111
 20
3.2063477644
 30
0.0
 10
5.5065900463
 20
3.2066257935
 30
0.0
 10
5.5071157859
 20
3.2068634933
 30
0.0
 10
5.5075860573
 20
3.2070576836
 30
0.0
 10
5.5079425555
 20
3.2071866328
 30
0.0
 10
5.5081963593
 20
3.2072636545
 30
0.0
 10
5.5083603708
 20
3.2073058794
 30
0.0
 10
5.5085067551
 20
3.2073351752
 30
0.0
 10
5.50863504
 20
3.2073512697
 30
0.0
 10
5.5087305968
 20
3.207353708
 30
0.0
 10
5.5087971978
 20
3.2073478729
 30
0.0
 10
5.5088517422
 20
3.2073381101
 30
0.0
 10
5.5089101244
 20
3.2073181794
 30
0.0
 10
5.5089649248
 20
3.2072765889
 30
0.0
 10
5.5089973187
 20
3.2072181608
 30
0.0
 10
5.5090027294
 20
3.2071740567
 30
0.0
 10
5.5090027294
 20
3.2071511989
 30
0.0
  0
SPLINE
  5
52D
100
AcDbEntity
  8
0
100
AcDbSpline
 62
7
  6
CONTINUOUS
 70
0
 71
3
 72
25
 73
21
 74
0
 42
0.0000001
 43
0.0000001
 44
0.0000000001
 40
0.0
 40
0.0
 40
0.0
 40
0.0
 40
0.2007694503
 40
0.3877299773
 40
0.4748566037
 40
0.5570760846
 40
0.6338066907
 40
0.7044522711
 40
0.768387297
 40
0.824996561
 40
0.8736972274
 40
0.9140009612
 40
0.9309145336
 40
0.9456545868
 40
0.958270974
 40
0.9688877489
 40
0.9777550897
 40
0.9853515566
 40
0.9924526868
 40
1.0
 40
1.0
 40
1.0
 40
1.0
 10
5.497486046
 20
3.1802162437
 30
0.0
 10
5.498044478
 20
3.1804806073
 30
0.0
 10
5.499126779
 20
3.1809830866
 30
0.0
 10
5.5004635774
 20
3.1815736748
 30
0.0
 10
5.5014746531
 20
3.1819980503
 30
0.0
 10
5.5021770582
 20
3.182281138
 30
0.0
 10
5.5028368069
 20
3.1825341394
 30
0.0
 10
5.5034487114
 20
3.1827544196
 30
0.0
 10
5.5040073305
 20
3.182939377
 30
0.0
 10
5.5045071122
 20
3.1830864796
 30
0.0
 10
5.504942455
 20
3.1831933317
 30
0.0
 10
5.5052638226
 20
3.1832505064
 30
0.0
 10
5.5054844237
 20
3.1832712496
 30
0.0
 10
5.5056207698
 20
3.1832744271
 30
0.0
 10
5.5057375655
 20
3.1832661011
 30
0.0
 10
5.5058347063
 20
3.1832460613
 30
0.0
 10
5.5059122884
 20
3.1832136982
 30
0.0
 10
5.5059698398
 20
3.1831673645
 30
0.0
 10
5.506004491
 20
3.183106382
 30
0.0
 10
5.5060107004
 20
3.1830606975
 30
0.0
 10
5.5060107004
 20
3.1830374714
 30
0.0
  0
SPLINE
  5
52E
100
AcDbEntity
  8
0
100
AcDbSpline
 62
7
  6
CONTINUOUS
 70
0
 71
3
 72
25
 73
21
 74
0
 42
0.0000001
 43
0.0000001
 44
0.0000000001
 40
0.0
 40
0.0
 40
0.0
 40
0.0
 40
0.1986706278
 40
0.3840509555
 40
0.4706054379
 40
0.5524111158
 40
0.6288967558
 40
0.6994767799
 40
0.76353579
 40
0.8204681307
 40
0.869698342
 40
0.910741565
 40
0.9281013503
 40
0.9433346563
 40
0.9564832734
 40
0.9676539885
 40
0.9770600435
 40
0.985106836
 40
0.9924638512
 40
1.0
 40
1.0
 40
1.0
 40
1.0
 10
5.4917042811
 20
3.1573587779
 30
0.0
 10
5.4922905571
 20
3.1575676569
 30
0.0
 10
5.4934270499
 20
3.1579626527
 30
0.0
 10
5.4948287906
 20
3.1584197851
 30
0.0
 10
5.4958887479
 20
3.1587431764
 30
0.0
 10
5.4966256168
 20
3.1589562603
 30
0.0
 10
5.4973177614
 20
3.1591435101
 30
0.0
 10
5.4979597438
 20
3.159302806
 30
0.0
 10
5.4985458699
 20
3.1594320879
 30
0.0
 10
5.4990703266
 20
3.1595293642
 30
0.0
 10
5.4995272565
 20
3.1595927971
 30
0.0
 10
5.4998639679
 20
3.1596177812
 30
0.0
 10
5.5000947726
 20
3.1596164933
 30
0.0
 10
5.500237826
 20
3.1596060372
 30
0.0
 10
5.5003603226
 20
3.1595860119
 30
0.0
 10
5.5004620756
 20
3.1595562548
 30
0.0
 10
5.5005430379
 20
3.1595162747
 30
0.0
 10
5.5006028442
 20
3.1594648391
 30
0.0
 10
5.500639316
 20
3.1594011217
 30
0.0
 10
5.5006462921
 20
3.1593538826
 30
0.0
 10
5.5006462921
 20
3.1593302741
 30
0.0
  0
SPLINE
  5
52F
100
AcDbEntity
  8
0
100
AcDbSpline
 62
7
  6
CONTINUOUS
 70
0
 71
3
 72
25
 73
21
 74
0
 42
0.0000001
 43
0.0000001
 44
0.0000000001
 40
0.0
 40
0.0
 40
0.0
 40
0.0
 40
0.196648885
 40
0.3805167359
 40
0.4665282223
 40
0.5479453301
 40
0.6242065446
 40
0.6947358873
 40
0.7589268283
 40
0.8161815491
 40
0.8659295422
 40
0.9076858011
 40
0.9254713752
 40
0.9411716967
 40
0.9548198512
 40
0.9665056927
 40
0.9764090473
 40
0.984872424
 40
0.9924720491
 40
1.0
 40
1.0
 40
1.0
 40
1.0
 10
5.4836879157
 20
3.1351725738
 30
0.0
 10
5.4842964391
 20
3.1353234846
 30
0.0
 10
5.4854762868
 20
3.1356061361
 30
0.0
 10
5.4869294121
 20
3.1359241984
 30
0.0
 10
5.4880279882
 20
3.1361424083
 30
0.0
 10
5.4887922258
 20
3.1362824719
 30
0.0
 10
5.4895101012
 20
3.1364011318
 30
0.0
 10
5.4901759777
 20
3.1364968043
 30
0.0
 10
5.4907839618
 20
3.1365679917
 30
0.0
 10
5.4913280306
 20
3.136613266
 30
0.0
 10
5.4918021236
 20
3.1366313666
 30
0.0
 10
5.4921508975
 20
3.1366228772
 30
0.0
 10
5.4923896891
 20
3.136598734
 30
0.0
 10
5.4925380564
 20
3.1365740639
 30
0.0
 10
5.4926650607
 20
3.1365418569
 30
0.0
 10
5.4927704473
 20
3.136502005
 30
0.0
 10
5.4928540721
 20
3.1364541282
 30
0.0
 10
5.4929156221
 20
3.1363973004
 30
0.0
 10
5.4929534833
 20
3.1363306842
 30
0.0
 10
5.4929611668
 20
3.136281921
 30
0.0
 10
5.4929611668
 20
3.1362579203
 30
0.0
  0
SPLINE
  5
530
100
AcDbEntity
  8
0
100
AcDbSpline
 62
7
  6
CONTINUOUS
 70
0
 71
3
 72
25
 73
21
 74
0
 42
0.0000001
 43
0.0000001
 44
0.0000000001
 40
0.0
 40
0.0
 40
0.0
 40
0.0
 40
0.1947160777
 40
0.3771466853
 40
0.4626463007
 40
0.54370079
 40
0.6197575401
 40
0.6902491801
 40
0.7545768159
 40
0.812148866
 40
0.8623976467
 40
0.9048350498
 40
0.9230236456
 40
0.9391630334
 40
0.9532773759
 40
0.9654403221
 40
0.9758016054
 40
0.9846492992
 40
0.9924774492
 40
1.0
 40
1.0
 40
1.0
 40
1.0
 10
5.4735141516
 20
3.1138712969
 30
0.0
 10
5.4741390968
 20
3.1139623069
 30
0.0
 10
5.4753510085
 20
3.1141288217
 30
0.0
 10
5.4768414802
 20
3.1143035485
 30
0.0
 10
5.4779680591
 20
3.1144133996
 30
0.0
 10
5.4787523042
 20
3.1144781303
 30
0.0
 10
5.4794889945
 20
3.1145260237
 30
0.0
 10
5.4801723476
 20
3.1145560489
 30
0.0
 10
5.4807963259
 20
3.1145672859
 30
0.0
 10
5.4813547504
 20
3.1145588895
 30
0.0
 10
5.4818414126
 20
3.114530192
 30
0.0
 10
5.4821988701
 20
3.1144872715
 30
0.0
 10
5.4824433698
 20
3.1144396583
 30
0.0
 10
5.4825956109
 20
3.1144003332
 30
0.0
 10
5.482725892
 20
3.1143555787
 30
0.0
 10
5.4828339045
 20
3.1143053447
 30
0.0
 10
5.4829194376
 20
3.1142493556
 30
0.0
 10
5.4829822001
 20
3.1141869162
 30
0.0
 10
5.4830210273
 20
3.1141172611
 30
0.0
 10
5.4830293364
 20
3.1140670079
 30
0.0
 10
5.4830293364
 20
3.1140426094
 30
0.0
  0
SPLINE
  5
531
100
AcDbEntity
  8
0
100
AcDbSpline
 62
7
  6
CONTINUOUS
 70
0
 71
3
 72
25
 73
21
 74
0
 42
0.0000001
 43
0.0000001
 44
0.0000000001
 40
0.0
 40
0.0
 40
0.0
 40
0.0
 40
0.1928804703
 40
0.3739538549
 40
0.4589737246
 40
0.5396915839
 40
0.6155628949
 40
0.6860279222
 40
0.7504942443
 40
0.8083750719
 40
0.8591037373
 40
0.9021867199
 40
0.9207542119
 40
0.9373039738
 40
0.9518513204
 40
0.9644546445
 40
0.9752366526
 40
0.9844380334
 40
0.9924802752
 40
1.0
 40
1.0
 40
1.0
 40
1.0
 10
5.4612809679
 20
3.0936600899
 30
0.0
 10
5.4619163353
 20
3.0936898399
 30
0.0
 10
5.463148674
 20
3.0937375381
 30
0.0
 10
5.4646621102
 20
3.0937660506
 30
0.0
 10
5.4658058255
 20
3.0937654117
 30
0.0
 10
5.4666025224
 20
3.093753224
 30
0.0
 10
5.4673509279
 20
3.0937288575
 30
0.0
 10
5.4680451691
 20
3.0936918462
 30
0.0
 10
5.4686791205
 20
3.0936418584
 30
0.0
 10
5.4692465037
 20
3.0935786459
 30
0.0
 10
5.4697410187
 20
3.0935021449
 30
0.0
 10
5.4701037137
 20
3.0934241653
 30
0.0
 10
5.470351599
 20
3.0933526819
 30
0.0
 10
5.4705062399
 20
3.0932984027
 30
0.0
 10
5.4706385395
 20
3.0932408543
 30
0.0
 10
5.4707481485
 20
3.0931800453
 30
0.0
 10
5.4708348086
 20
3.0931157979
 30
0.0
 10
5.4708982361
 20
3.0930475956
 30
0.0
 10
5.4709376146
 20
3.0929747905
 30
0.0
 10
5.4709464499
 20
3.0929230849
 30
0.0
 10
5.4709464499
 20
3.092898287
 30
0.0
  0
SPLINE
  5
532
100
AcDbEntity
  8
0
100
AcDbSpline
 62
7
  6
CONTINUOUS
 70
0
 71
3
 72
24
 73
20
 74
0
 42
0.0000001
 43
0.0000001
 44
0.0000000001
 40
0.0
 40
0.0
 40
0.0
 40
0.0
 40
0.1911499959
 40
0.3709512208
 40
0.4555248541
 40
0.5359326822
 40
0.6116374253
 40
0.6820860488
 40
0.7466915271
 40
0.8048705861
 40
0.8560560809
 40
0.8997473439
 40
0.935587825
 40
0.9505358868
 40
0.9635446073
 40
0.9747124626
 40
0.9842387133
 40
0.9924806905
 40
1.0
 40
1.0
 40
1.0
 40
1.0
 10
5.4471061767
 20
3.0747335979
 30
0.0
 10
5.4477458511
 20
3.0747013178
 30
0.0
 10
5.4489867466
 20
3.0746286648
 30
0.0
 10
5.4505085607
 20
3.0745094955
 30
0.0
 10
5.4516583998
 20
3.0743972988
 30
0.0
 10
5.4524598708
 20
3.0743073489
 30
0.0
 10
5.4532127783
 20
3.0742099278
 30
0.0
 10
5.4539112096
 20
3.0741051376
 30
0.0
 10
5.454549024
 20
3.0739932495
 30
0.0
 10
5.4551198542
 20
3.0738745923
 30
0.0
 10
5.4556175147
 20
3.0737498027
 30
0.0
 10
5.4560359009
 20
3.0736194674
 30
0.0
 10
5.4563302956
 20
3.0735011288
 30
0.0
 10
5.4565194197
 20
3.0734010476
 30
0.0
 10
5.4566295759
 20
3.073329557
 30
0.0
 10
5.4567165659
 20
3.0732569811
 30
0.0
 10
5.4567800991
 20
3.0731829296
 30
0.0
 10
5.4568196237
 20
3.0731068966
 30
0.0
 10
5.4568288721
 20
3.0730537795
 30
0.0
 10
5.4568288721
 20
3.0730285844
 30
0.0
  0
SPLINE
  5
533
100
AcDbEntity
  8
0
100
AcDbSpline
 62
7
  6
CONTINUOUS
 70
0
 71
3
 72
23
 73
19
 74
0
 42
0.0000001
 43
0.0000001
 44
0.0000000001
 40
0.0
 40
0.0
 40
0.0
 40
0.0
 40
0.1895234734
 40
0.3681345571
 40
0.5324108792
 40
0.6079649274
 40
0.6784040555
 40
0.7431456784
 40
0.8016089549
 40
0.8532250869
 40
0.8974850482
 40
0.9340096636
 40
0.9493268334
 40
0.9627073729
 40
0.9742280616
 40
0.9840518126
 40
0.9924791561
 40
1.0
 40
1.0
 40
1.0
 40
1.0
 10
5.431126289
 20
3.0572740934
 30
0.0
 10
5.4317640986
 20
3.0571796124
 30
0.0
 10
5.4330015782
 20
3.0569862629
 30
0.0
 10
5.4347855184
 20
3.0566719967
 30
0.0
 10
5.4361813417
 20
3.0563912322
 30
0.0
 10
5.4372106857
 20
3.0561572267
 30
0.0
 10
5.4379065722
 20
3.0559845671
 30
0.0
 10
5.4385420838
 20
3.0558106933
 30
0.0
 10
5.4391108733
 20
3.0556365384
 30
0.0
 10
5.43960677
 20
3.0554633333
 30
0.0
 10
5.4400236789
 20
3.0552922591
 30
0.0
 10
5.4403165129
 20
3.055145434
 30
0.0
 10
5.440504502
 20
3.0550272146
 30
0.0
 10
5.4406141626
 20
3.0549450578
 30
0.0
 10
5.4407006747
 20
3.0548641537
 30
0.0
 10
5.4407637486
 20
3.0547842316
 30
0.0
 10
5.4408030244
 20
3.0547049279
 30
0.0
 10
5.4408125629
 20
3.0546504441
 30
0.0
 10
5.4408125629
 20
3.0546248578
 30
0.0
  0
SPLINE
  5
534
100
AcDbEntity
  8
0
100
AcDbSpline
 62
7
  6
CONTINUOUS
 70
0
 71
3
 72
23
 73
19
 74
0
 42
0.0000001
 43
0.0000001
 44
0.0000000001
 40
0.0
 40
0.0
 40
0.0
 40
0.0
 40
0.1880038094
 40
0.3655079531
 40
0.5291384066
 40
0.6045568487
 40
0.6749923199
 40
0.7398658299
 40
0.79859806
 40
0.8506176577
 40
0.8954064604
 40
0.9325626229
 40
0.9482185724
 40
0.9619391441
 40
0.9737817153
 40
0.9838772367
 40
0.992475926
 40
1.0
 40
1.0
 40
1.0
 40
1.0
 10
5.4134952
 20
3.041449721
 30
0.0
 10
5.4141249768
 20
3.0412934721
 30
0.0
 10
5.4153470427
 20
3.0409802095
 30
0.0
 10
5.4171073404
 20
3.0404934272
 30
0.0
 10
5.418483872
 20
3.0400778894
 30
0.0
 10
5.4194987438
 20
3.0397446113
 30
0.0
 10
5.4201853735
 20
3.0395046609
 30
0.0
 10
5.4208124475
 20
3.0392693196
 30
0.0
 10
5.4213736999
 20
3.0390401323
 30
0.0
 10
5.4218630335
 20
3.0388189205
 30
0.0
 10
5.4222744209
 20
3.0386074585
 30
0.0
 10
5.4225629206
 20
3.0384324736
 30
0.0
 10
5.422748027
 20
3.0382963206
 30
0.0
 10
5.4228561485
 20
3.0382036004
 30
0.0
 10
5.4229413765
 20
3.0381144482
 30
0.0
 10
5.423003425
 20
3.0380286953
 30
0.0
 10
5.4230420692
 20
3.0379461144
 30
0.0
 10
5.4230517683
 20
3.0378903134
 30
0.0
 10
5.4230517683
 20
3.0378643451
 30
0.0
  0
LINE
  5
535
100
AcDbEntity
  8
0
100
AcDbLine
 62
7
  6
CONTINUOUS
 10
5.4133891376
 20
3.0300116024
 11
5.4134952
 21
3.041449721
  0
SPLINE
  5
536
100
AcDbEntity
  8
0
100
AcDbSpline
 62
7
  6
CONTINUOUS
 70
0
 71
3
 72
21
 73
17
 74
0
 42
0.0000001
 43
0.0000001
 44
0.0000000001
 40
0.0
 40
0.0
 40
0.0
 40
0.0
 40
0.1866162202
 40
0.3631192394
 40
0.526178416
 40
0.6719246546
 40
0.7369330235
 40
0.7959255345
 40
0.8483275503
 40
0.8936112896
 40
0.9313526358
 40
0.9473203969
 40
0.9613527239
 40
0.9734896763
 40
0.9838340768
 40
1.0
 40
1.0
 40
1.0
 40
1.0
 10
5.3943827065
 20
3.0274128779
 30
0.0
 10
5.3949983475
 20
3.0271958961
 30
0.0
 10
5.3961931257
 20
3.0267646919
 30
0.0
 10
5.397912836
 20
3.0261085483
 30
0.0
 10
5.3994849266
 20
3.0254676758
 30
0.0
 10
5.4006810152
 20
3.0249385973
 30
0.0
 10
5.4015308538
 20
3.0245284585
 30
0.0
 10
5.4020791425
 20
3.0242452255
 30
0.0
 10
5.4025571802
 20
3.0239768869
 30
0.0
 10
5.4029590645
 20
3.0237257714
 30
0.0
 10
5.4032404962
 20
3.0235232314
 30
0.0
 10
5.4034210101
 20
3.0233694776
 30
0.0
 10
5.4035265328
 20
3.0232664789
 30
0.0
 10
5.4036097719
 20
3.0231689841
 30
0.0
 10
5.403684236
 20
3.0230567227
 30
0.0
 10
5.4037175342
 20
3.0229650055
 30
0.0
 10
5.4037175342
 20
3.0229084592
 30
0.0
  0
LINE
  5
537
100
AcDbEntity
  8
0
100
AcDbLine
 62
7
  6
CONTINUOUS
 10
5.3933241641
 20
3.0160314159
 11
5.3943827065
 21
3.0274128779
  0
SPLINE
  5
538
100
AcDbEntity
  8
0
100
AcDbSpline
 62
7
  6
CONTINUOUS
 70
0
 71
3
 72
22
 73
18
 74
0
 42
0.0000001
 43
0.0000001
 44
0.0000000001
 40
0.0
 40
0.0
 40
0.0
 40
0.0
 40
0.1852902962
 40
0.3608304376
 40
0.5233296387
 40
0.6689553257
 40
0.7340759674
 40
0.7932970221
 40
0.8460402699
 40
0.8917683285
 40
0.9300357476
 40
0.9462835936
 40
0.9605956815
 40
0.9729966329
 40
0.9835644774
 40
0.9924654554
 40
1.0
 40
1.0
 40
1.0
 40
1.0
 10
5.3739728725
 20
3.0152987466
 30
0.0
 10
5.3745683997
 20
3.0150226608
 30
0.0
 10
5.3757242754
 20
3.0144766663
 30
0.0
 10
5.3773867616
 20
3.0136558632
 30
0.0
 10
5.3789066131
 20
3.0128644077
 30
0.0
 10
5.3800621939
 20
3.0122211374
 30
0.0
 10
5.3808829805
 20
3.011730072
 30
0.0
 10
5.3814130133
 20
3.0113943286
 30
0.0
 10
5.3818751357
 20
3.0110801857
 30
0.0
 10
5.3822636235
 20
3.0107905605
 30
0.0
 10
5.3825353478
 20
3.0105612603
 30
0.0
 10
5.3827095622
 20
3.0103905025
 30
0.0
 10
5.3828115417
 20
3.0102773591
 30
0.0
 10
5.382891828
 20
3.0101722573
 30
0.0
 10
5.3829501534
 20
3.0100751996
 30
0.0
 10
5.3829864409
 20
3.0099861924
 30
0.0
 10
5.3829960601
 20
3.0099279254
 30
0.0
 10
5.3829960601
 20
3.0099012334
 30
0.0
  0
LINE
  5
539
100
AcDbEntity
  8
0
100
AcDbLine
 62
7
  6
CONTINUOUS
 10
5.3719720443
 20
3.0040661192
 11
5.3739728725
 21
3.0152987466
  0
SPLINE
  5
53A
100
AcDbEntity
  8
0
100
AcDbSpline
 62
7
  6
CONTINUOUS
 70
0
 71
3
 72
22
 73
18
 74
0
 42
0.0000001
 43
0.0000001
 44
0.0000000001
 40
0.0
 40
0.0
 40
0.0
 40
0.0
 40
0.1840945903
 40
0.3587741539
 40
0.5207832083
 40
0.6663207717
 40
0.7315543121
 40
0.7909934215
 40
0.8440559724
 40
0.890195051
 40
0.9289449395
 40
0.9454482513
 40
0.9600147386
 40
0.9726553138
 40
0.9834262101
 40
0.9924588623
 40
1.0
 40
1.0
 40
1.0
 40
1.0
 10
5.3524622557
 20
3.0052239929
 30
0.0
 10
5.353031876
 20
3.0048910117
 30
0.0
 10
5.3541375813
 20
3.0042344972
 30
0.0
 10
5.3557267972
 20
3.0032553788
 30
0.0
 10
5.3571797244
 20
3.002319134
 30
0.0
 10
5.3582837419
 20
3.0015661959
 30
0.0
 10
5.3590676763
 20
3.0009974444
 30
0.0
 10
5.3595743362
 20
3.0006112187
 30
0.0
 10
5.360016078
 20
3.0002530478
 30
0.0
 10
5.3603874187
 20
2.9999264022
 30
0.0
 10
5.3606468679
 20
2.9996714448
 30
0.0
 10
5.3608131711
 20
2.9994843328
 30
0.0
 10
5.3609106053
 20
2.9993615226
 30
0.0
 10
5.3609872764
 20
2.9992488698
 30
0.0
 10
5.3610429314
 20
2.9991464513
 30
0.0
 10
5.3610775259
 20
2.9990543671
 30
0.0
 10
5.361086905
 20
2.9989949624
 30
0.0
 10
5.361086905
 20
2.9989679345
 30
0.0
  0
SPLINE
  5
53B
100
AcDbEntity
  8
0
100
AcDbSpline
 62
7
  6
CONTINUOUS
 70
0
 71
3
 72
20
 73
16
 74
0
 42
0.0000001
 43
0.0000001
 44
0.0000000001
 40
0.0
 40
0.0
 40
0.0
 40
0.0
 40
0.0075923415
 40
0.0172526903
 40
0.0427227515
 40
0.0761744744
 40
0.117205409
 40
0.1653123112
 40
0.2199246217
 40
0.2804415003
 40
0.3462549887
 40
0.4914456611
 40
0.6511509552
 40
0.8217016854
 40
1.0
 40
1.0
 40
1.0
 40
1.0
 10
5.3495384108
 20
2.9942309447
 30
0.0
 10
5.3495384108
 20
2.9942597541
 30
0.0
 10
5.3495418593
 20
2.9943252042
 30
0.0
 10
5.3495589873
 20
2.9944864373
 30
0.0
 10
5.3496007499
 20
2.9947434605
 30
0.0
 10
5.3496742267
 20
2.9951155576
 30
0.0
 10
5.3497746635
 20
2.9955697951
 30
0.0
 10
5.3499005416
 20
2.9961005462
 30
0.0
 10
5.3500503188
 20
2.9967015806
 30
0.0
 10
5.3502221215
 20
2.9973663371
 30
0.0
 10
5.3504868905
 20
2.9983620364
 30
0.0
 10
5.3508602242
 20
2.9997182835
 30
0.0
 10
5.3513530678
 20
3.0014537703
 30
0.0
 10
5.3518920563
 20
3.0033067049
 30
0.0
 10
5.3522684417
 20
3.0045757902
 30
0.0
 10
5.3524622557
 20
3.0052239929
 30
0.0
  0
SPLINE
  5
53C
100
AcDbEntity
  8
0
100
AcDbSpline
 62
7
  6
CONTINUOUS
 70
0
 71
3
 72
22
 73
18
 74
0
 42
0.0000001
 43
0.0000001
 44
0.0000000001
 40
0.0
 40
0.0
 40
0.0
 40
0.0
 40
0.183005616
 40
0.3569040542
 40
0.5184712021
 40
0.6639335822
 40
0.7292720577
 40
0.7889111518
 40
0.8422647331
 40
0.88877669
 40
0.9279623695
 40
0.9446956954
 40
0.9594908108
 40
0.9723464996
 40
0.9832998724
 40
0.992451735
 40
1.0
 40
1.0
 40
1.0
 40
1.0
 10
5.3300580151
 20
2.9972856422
 30
0.0
 10
5.330596178
 20
2.9968985339
 30
0.0
 10
5.3316409151
 20
2.9961368617
 30
0.0
 10
5.3331415209
 20
2.9950073033
 30
0.0
 10
5.3345134852
 20
2.9939334658
 30
0.0
 10
5.3355553907
 20
2.9930764238
 30
0.0
 10
5.3362950334
 20
2.9924339545
 30
0.0
 10
5.3367734298
 20
2.9919997632
 30
0.0
 10
5.3371905262
 20
2.9915997622
 30
0.0
 10
5.3375411352
 20
2.9912379501
 30
0.0
 10
5.3377858668
 20
2.9909586539
 30
0.0
 10
5.3379427063
 20
2.9907560232
 30
0.0
 10
5.3380346665
 20
2.9906240327
 30
0.0
 10
5.3381070007
 20
2.9905042079
 30
0.0
 10
5.3381594735
 20
2.9903966945
 30
0.0
 10
5.3381920565
 20
2.9903016702
 30
0.0
 10
5.338201066
 20
2.9902411992
 30
0.0
 10
5.338201066
 20
2.9902138561
 30
0.0
  0
SPLINE
  5
53D
100
AcDbEntity
  8
0
100
AcDbSpline
 62
7
  6
CONTINUOUS
 70
0
 71
3
 72
21
 73
17
 74
0
 42
0.0000001
 43
0.0000001
 44
0.0000000001
 40
0.0
 40
0.0
 40
0.0
 40
0.0
 40
0.0075881014
 40
0.0172093642
 40
0.0288692452
 40
0.0425556033
 40
0.0758605991
 40
0.1167505908
 40
0.1647347815
 40
0.2192494676
 40
0.2796975332
 40
0.3454729573
 40
0.4906815735
 40
0.6505283272
 40
0.8213368204
 40
1.0
 40
1.0
 40
1.0
 40
1.0
 10
5.3262393118
 20
2.9866206105
 30
0.0
 10
5.3262393118
 20
2.9866493002
 30
0.0
 10
5.3262438042
 20
2.9867143406
 30
0.0
 10
5.3262589306
 20
2.9868224699
 30
0.0
 10
5.3262834186
 20
2.9869524335
 30
0.0
 10
5.3263318205
 20
2.9871688659
 30
0.0
 10
5.3264168289
 20
2.9874901828
 30
0.0
 10
5.3265479093
 20
2.9879331687
 30
0.0
 10
5.3267123524
 20
2.9884497958
 30
0.0
 10
5.3269079575
 20
2.9890340167
 30
0.0
 10
5.3271323431
 20
2.9896794877
 30
0.0
 10
5.3274782266
 20
2.9906457054
 30
0.0
 10
5.3279659042
 20
2.991960269
 30
0.0
 10
5.3286095649
 20
2.993640398
 30
0.0
 10
5.3293134975
 20
2.9954328122
 30
0.0
 10
5.3298049451
 20
2.9966593359
 30
0.0
 10
5.3300580151
 20
2.9972856422
 30
0.0
  0
SPLINE
  5
53E
100
AcDbEntity
  8
0
100
AcDbSpline
 62
7
  6
CONTINUOUS
 70
0
 71
3
 72
21
 73
17
 74
0
 42
0.0000001
 43
0.0000001
 44
0.0000000001
 40
0.0
 40
0.0
 40
0.0
 40
0.0
 40
0.1820239205
 40
0.3552206879
 40
0.5163938183
 40
0.6617935736
 40
0.7272289895
 40
0.7870501964
 40
0.8406670911
 40
0.8875148563
 40
0.9270913908
 40
0.959021401
 40
0.9720689673
 40
0.9831852671
 40
0.9924442866
 40
1.0
 40
1.0
 40
1.0
 40
1.0
 10
5.3069759158
 20
2.991560145
 30
0.0
 10
5.3074773692
 20
2.9911222121
 30
0.0
 10
5.3084509191
 20
2.9902617859
 30
0.0
 10
5.3098484307
 20
2.9889911174
 30
0.0
 10
5.3111261752
 20
2.9877882159
 30
0.0
 10
5.3120960278
 20
2.9868336195
 30
0.0
 10
5.3127843635
 20
2.9861220899
 30
0.0
 10
5.3132298901
 20
2.9856429137
 30
0.0
 10
5.313618284
 20
2.9852036806
 30
0.0
 10
5.3139448765
 20
2.9848089031
 30
0.0
 10
5.3142053327
 20
2.98446297
 30
0.0
 10
5.3143748694
 20
2.9842037126
 30
0.0
 10
5.3144713592
 20
2.9840224921
 30
0.0
 10
5.3145201547
 20
2.9839101939
 30
0.0
 10
5.3145504308
 20
2.9838124
 30
0.0
 10
5.3145589463
 20
2.9837509402
 30
0.0
 10
5.3145589463
 20
2.9837233048
 30
0.0
  0
SPLINE
  5
53F
100
AcDbEntity
  8
0
100
AcDbSpline
 62
7
  6
CONTINUOUS
 70
0
 71
3
 72
21
 73
17
 74
0
 42
0.0000001
 43
0.0000001
 44
0.0000000001
 40
0.0
 40
0.0
 40
0.0
 40
0.0
 40
0.007582909
 40
0.0171541539
 40
0.028739635
 40
0.0423386929
 40
0.0754554493
 40
0.1161648541
 40
0.1639920554
 40
0.2183820723
 40
0.2787424907
 40
0.344469707
 40
0.4897023677
 40
0.6497310557
 40
0.8208699242
 40
1.0
 40
1.0
 40
1.0
 40
1.0
 10
5.3022991303
 20
2.9813084083
 30
0.0
 10
5.3022991303
 20
2.9813369464
 30
0.0
 10
5.3023045988
 20
2.9814014696
 30
0.0
 10
5.3023231449
 20
2.9815080807
 30
0.0
 10
5.3023531483
 20
2.9816354628
 30
0.0
 10
5.3024124563
 20
2.9818467527
 30
0.0
 10
5.3025166254
 20
2.9821590185
 30
0.0
 10
5.3026771749
 20
2.9825878319
 30
0.0
 10
5.3028785745
 20
2.9830866587
 30
0.0
 10
5.3031181318
 20
2.9836496948
 30
0.0
 10
5.3033929348
 20
2.9842708656
 30
0.0
 10
5.3038166683
 20
2.9851999208
 30
0.0
 10
5.3044140572
 20
2.9864619447
 30
0.0
 10
5.3052023195
 20
2.9880723259
 30
0.0
 10
5.3060644032
 20
2.9897884874
 30
0.0
 10
5.3066660757
 20
2.9909614136
 30
0.0
 10
5.3069759158
 20
2.991560145
 30
0.0
  0
SPLINE
  5
540
100
AcDbEntity
  8
0
100
AcDbSpline
 62
7
  6
CONTINUOUS
 70
0
 71
3
 72
21
 73
17
 74
0
 42
0.0000001
 43
0.0000001
 44
0.0000000001
 40
0.0
 40
0.0
 40
0.0
 40
0.0
 40
0.1811452166
 40
0.353715255
 40
0.514537786
 40
0.659883446
 40
0.7254061481
 40
0.785390298
 40
0.8392419775
 40
0.8863882966
 40
0.9263113206
 40
0.9586054125
 40
0.9718223878
 40
0.9830826669
 40
0.9924369145
 40
1.0
 40
1.0
 40
1.0
 40
1.0
 10
5.2834382512
 20
2.9881026412
 30
0.0
 10
5.2838980941
 20
2.9876176888
 30
0.0
 10
5.2847909208
 20
2.9866658927
 30
0.0
 10
5.2860718486
 20
2.9852648076
 30
0.0
 10
5.2872430296
 20
2.9839426203
 30
0.0
 10
5.2881315811
 20
2.9828979394
 30
0.0
 10
5.2887620956
 20
2.9821226541
 30
0.0
 10
5.2891704431
 20
2.9816019048
 30
0.0
 10
5.2895264236
 20
2.9811264225
 30
0.0
 10
5.289825743
 20
2.9807011747
 30
0.0
 10
5.2900644192
 20
2.9803309635
 30
0.0
 10
5.2902196185
 20
2.9800561631
 30
0.0
 10
5.2903079576
 20
2.9798661348
 30
0.0
 10
5.2903526353
 20
2.9797494206
 30
0.0
 10
5.2903803273
 20
2.9796490558
 30
0.0
 10
5.2903882324
 20
2.9795866909
 30
0.0
 10
5.2903882324
 20
2.979558788
 30
0.0
  0
SPLINE
  5
541
100
AcDbEntity
  8
0
100
AcDbSpline
 62
7
  6
CONTINUOUS
 70
0
 71
3
 72
21
 73
17
 74
0
 42
0.0000001
 43
0.0000001
 44
0.0000000001
 40
0.0
 40
0.0
 40
0.0
 40
0.0
 40
0.0075768908
 40
0.0170870581
 40
0.0285814064
 40
0.0420734714
 40
0.0749596587
 40
0.1154481902
 40
0.1630836945
 40
0.2173217569
 40
0.2775756022
 40
0.343244485
 40
0.488507522
 40
0.6487589188
 40
0.8203009855
 40
1.0
 40
1.0
 40
1.0
 40
1.0
 10
5.2779484234
 20
2.9783454975
 30
0.0
 10
5.2779484234
 20
2.9783738531
 30
0.0
 10
5.2779547942
 20
2.9784377549
 30
0.0
 10
5.2779765938
 20
2.9785425523
 30
0.0
 10
5.2780118324
 20
2.9786668451
 30
0.0
 10
5.2780814948
 20
2.9788719797
 30
0.0
 10
5.2782038594
 20
2.9791734065
 30
0.0
 10
5.2783923405
 20
2.9795852552
 30
0.0
 10
5.2786287597
 20
2.9800627776
 30
0.0
 10
5.2789099605
 20
2.9806004603
 30
0.0
 10
5.2792325319
 20
2.9811925503
 30
0.0
 10
5.2797301134
 20
2.9820771085
 30
0.0
 10
5.2804315367
 20
2.9832762296
 30
0.0
 10
5.2813567878
 20
2.9848031463
 30
0.0
 10
5.282368703
 20
2.9864280587
 30
0.0
 10
5.2830746819
 20
2.9875368878
 30
0.0
 10
5.2834382512
 20
2.9881026412
 30
0.0
  0
SPLINE
  5
542
100
AcDbEntity
  8
0
100
AcDbSpline
 62
7
  6
CONTINUOUS
 70
0
 71
3
 72
21
 73
17
 74
0
 42
0.0000001
 43
0.0000001
 44
0.0000000001
 40
0.0
 40
0.0
 40
0.0
 40
0.0
 40
0.1803705014
 40
0.3523893269
 40
0.5129049927
 40
0.658205407
 40
0.7238060345
 40
0.7839344285
 40
0.8379931013
 40
0.8854018221
 40
0.9256285202
 40
0.9582408794
 40
0.9716057827
 40
0.9829918883
 40
0.9924297819
 40
1.0
 40
1.0
 40
1.0
 40
1.0
 10
5.2596717016
 20
2.9869464282
 30
0.0
 10
5.2600854343
 20
2.9864187275
 30
0.0
 10
5.2608887811
 20
2.9853838545
 30
0.0
 10
5.2620407617
 20
2.9838643068
 30
0.0
 10
5.263094065
 20
2.9824337652
 30
0.0
 10
5.2638928529
 20
2.9813073196
 30
0.0
 10
5.2644595802
 20
2.9804741781
 30
0.0
 10
5.2648268102
 20
2.9799156697
 30
0.0
 10
5.2651469441
 20
2.9794072653
 30
0.0
 10
5.2654161086
 20
2.9789543475
 30
0.0
 10
5.2656307158
 20
2.9785620947
 30
0.0
 10
5.2657701429
 20
2.9782731947
 30
0.0
 10
5.265849512
 20
2.9780751698
 30
0.0
 10
5.2658896571
 20
2.9779544445
 30
0.0
 10
5.2659145147
 20
2.9778517367
 30
0.0
 10
5.2659217016
 20
2.9777885559
 30
0.0
 10
5.2659217016
 20
2.9777604125
 30
0.0
  0
SPLINE
  5
543
100
AcDbEntity
  8
0
100
AcDbSpline
 62
7
  6
CONTINUOUS
 70
0
 71
3
 72
31
 73
27
 74
0
 42
0.0000001
 43
0.0000001
 44
0.0000000001
 40
0.0
 40
0.0
 40
0.0
 40
0.0
 40
0.0314058583
 40
0.0628133532
 40
0.0942156785
 40
0.1256140081
 40
0.1883739706
 40
0.2511006833
 40
0.2824580406
 40
0.313803838
 40
0.3451371993
 40
0.3764573683
 40
0.4390369632
 40
0.5015578658
 40
0.5640188691
 40
0.6264210662
 40
0.6576105523
 40
0.6887867763
 40
0.7199504988
 40
0.751102594
 40
0.8133569054
 40
0.875577803
 40
0.9066884727
 40
0.9377947691
 40
0.9688981211
 40
1.0
 40
1.0
 40
1.0
 40
1.0
 10
5.2596717016
 20
3.0107165094
 30
0.0
 10
5.2560929422
 20
3.0107165094
 30
0.0
 10
5.248934008
 20
3.0108905881
 30
0.0
 10
5.2382225055
 20
3.0116729163
 30
0.0
 10
5.2275620484
 20
3.0129749786
 30
0.0
 10
5.2134561855
 20
3.0153986369
 30
0.0
 10
5.196075247
 20
3.0197090628
 30
0.0
 10
5.1792003555
 20
3.0256881634
 30
0.0
 10
5.1661083792
 20
3.0314349211
 30
0.0
 10
5.1565141352
 20
3.0362171349
 30
0.0
 10
5.1471683813
 20
3.0414598236
 30
0.0
 10
5.1350741787
 20
3.0490435103
 30
0.0
 10
5.1206823537
 20
3.0596119832
 30
0.0
 10
5.1047508026
 20
3.0739099681
 30
0.0
 10
5.0903105512
 20
3.0896853969
 30
0.0
 10
5.0796315265
 20
3.1039434114
 30
0.0
 10
5.0719694846
 20
3.1159253398
 30
0.0
 10
5.0666749552
 20
3.1251802571
 30
0.0
 10
5.0618454255
 20
3.1346813142
 30
0.0
 10
5.0560437091
 20
3.1476418566
 30
0.0
 10
5.0500058935
 20
3.164349186
 30
0.0
 10
5.0456507294
 20
3.1815671579
 30
0.0
 10
5.0432025687
 20
3.1955390591
 30
0.0
 10
5.041887651
 20
3.2060961217
 30
0.0
 10
5.0410974681
 20
3.216703853
 30
0.0
 10
5.0409217016
 20
3.2237935291
 30
0.0
 10
5.0409217016
 20
3.2273376494
 30
0.0
  0
SPLINE
  5
544
100
AcDbEntity
  8
0
100
AcDbSpline
 62
7
  6
CONTINUOUS
 70
0
 71
3
 72
31
 73
27
 74
0
 42
0.0000001
 43
0.0000001
 44
0.0000000001
 40
0.0
 40
0.0
 40
0.0
 40
0.0
 40
0.0314058583
 40
0.0628133532
 40
0.0942156785
 40
0.1256140081
 40
0.1883739706
 40
0.2511006833
 40
0.2824580406
 40
0.313803838
 40
0.3451371993
 40
0.3764573683
 40
0.4390369632
 40
0.5015578658
 40
0.5640188691
 40
0.6264210662
 40
0.6576105523
 40
0.6887867763
 40
0.7199504988
 40
0.751102594
 40
0.8133569054
 40
0.875577803
 40
0.9066884727
 40
0.9377947691
 40
0.9688981211
 40
1.0
 40
1.0
 40
1.0
 40
1.0
 10
5.2596717016
 20
3.0315924745
 30
0.0
 10
5.2560929422
 20
3.0315924745
 30
0.0
 10
5.248934008
 20
3.0317665532
 30
0.0
 10
5.2382225055
 20
3.0325488815
 30
0.0
 10
5.2275620484
 20
3.0338509438
 30
0.0
 10
5.2134561855
 20
3.036274602
 30
0.0
 10
5.196075247
 20
3.0405850279
 30
0.0
 10
5.1792003555
 20
3.0465641286
 30
0.0
 10
5.1661083792
 20
3.0523108862
 30
0.0
 10
5.1565141352
 20
3.0570931001
 30
0.0
 10
5.1471683813
 20
3.0623357888
 30
0.0
 10
5.1350741787
 20
3.0699194754
 30
0.0
 10
5.1206823537
 20
3.0804879483
 30
0.0
 10
5.1047508026
 20
3.0947859332
 30
0.0
 10
5.0903105512
 20
3.110561362
 30
0.0
 10
5.0796315265
 20
3.1248193766
 30
0.0
 10
5.0719694846
 20
3.1368013049
 30
0.0
 10
5.0666749552
 20
3.1460562223
 30
0.0
 10
5.0618454255
 20
3.1555572794
 30
0.0
 10
5.0560437091
 20
3.1685178218
 30
0.0
 10
5.0500058935
 20
3.1852251512
 30
0.0
 10
5.0456507294
 20
3.2024431231
 30
0.0
 10
5.0432025687
 20
3.2164150243
 30
0.0
 10
5.041887651
 20
3.2269720868
 30
0.0
 10
5.0410974681
 20
3.2375798181
 30
0.0
 10
5.0409217016
 20
3.2446694942
 30
0.0
 10
5.0409217016
 20
3.2482136145
 30
0.0
  0
SPLINE
  5
545
100
AcDbEntity
  8
0
100
AcDbSpline
 62
7
  6
CONTINUOUS
 70
0
 71
3
 72
39
 73
35
 74
0
 42
0.0000001
 43
0.0000001
 44
0.0000000001
 40
0.0
 40
0.0
 40
0.0
 40
0.0
 40
0.0311585229
 40
0.0623061141
 40
0.0934446822
 40
0.1245762698
 40
0.1557030259
 40
0.1868271731
 40
0.2179509736
 40
0.2490766936
 40
0.2802065687
 40
0.3113427717
 40
0.3424873824
 40
0.3736423565
 40
0.4048094953
 40
0.4359904174
 40
0.4671865343
 40
0.4983990305
 40
0.5296288491
 40
0.5608766781
 40
0.5921429386
 40
0.623427778
 40
0.6547310674
 40
0.6860524069
 40
0.7173911335
 40
0.7487463291
 40
0.7801168288
 40
0.8115012497
 40
0.8428980107
 40
0.874305309
 40
0.9057213993
 40
0.9371436118
 40
0.9685712677
 40
1.0
 40
1.0
 40
1.0
 40
1.0
 10
5.0409133194
 20
3.3123495122
 30
0.0
 10
5.0391748493
 20
3.3079625867
 30
0.0
 10
5.0359660939
 20
3.299081488
 30
0.0
 10
5.0319788335
 20
3.2854941953
 30
0.0
 10
5.0288321359
 20
3.2716916154
 30
0.0
 10
5.0265378857
 20
3.2577253679
 30
0.0
 10
5.0251044772
 20
3.2436468605
 30
0.0
 10
5.0245372219
 20
3.2295081316
 30
0.0
 10
5.0248382118
 20
3.2153613835
 30
0.0
 10
5.0260063424
 20
3.2012588645
 30
0.0
 10
5.0280373125
 20
3.1872526588
 30
0.0
 10
5.030923609
 20
3.1733944931
 30
0.0
 10
5.0346545577
 20
3.1597355435
 30
0.0
 10
5.0392163717
 20
3.1463262488
 30
0.0
 10
5.0445921997
 20
3.133216126
 30
0.0
 10
5.0507621883
 20
3.1204535879
 30
0.0
 10
5.0577035574
 20
3.1080857681
 30
0.0
 10
5.0653906556
 20
3.0961583295
 30
0.0
 10
5.0737950803
 20
3.0847153047
 30
0.0
 10
5.0828857874
 20
3.0737989382
 30
0.0
 10
5.0926292036
 20
3.0634495312
 30
0.0
 10
5.1029893503
 20
3.0537052942
 30
0.0
 10
5.113927976
 20
3.0446022085
 30
0.0
 10
5.1254046775
 20
3.0361738678
 30
0.0
 10
5.1373770707
 20
3.0284513738
 30
0.0
 10
5.1498009478
 20
3.0214632268
 30
0.0
 10
5.1626304375
 20
3.0152352193
 30
0.0
 10
5.1758181773
 20
3.0097903417
 30
0.0
 10
5.1893154767
 20
3.0051487089
 30
0.0
 10
5.2030725291
 20
3.0013274063
 30
0.0
 10
5.21703844
 20
2.9983406134
 30
0.0
 10
5.2311619614
 20
2.996199179
 30
0.0
 10
5.2453901107
 20
2.9949112523
 30
0.0
 10
5.2549119455
 20
2.9946246532
 30
0.0
 10
5.2596717016
 20
2.9946246532
 30
0.0
  0
SPLINE
  5
546
100
AcDbEntity
  8
0
100
AcDbSpline
 62
7
  6
CONTINUOUS
 70
0
 71
3
 72
39
 73
35
 74
0
 42
0.0000001
 43
0.0000001
 44
0.0000000001
 40
0.0
 40
0.0
 40
0.0
 40
0.0
 40
0.0314287323
 40
0.0628563882
 40
0.0942786007
 40
0.1256946909
 40
0.1571019893
 40
0.1884987503
 40
0.2198831712
 40
0.2512536709
 40
0.2826088665
 40
0.3139475931
 40
0.3452689326
 40
0.376572222
 40
0.4078570614
 40
0.4391233219
 40
0.4703711509
 40
0.5016009695
 40
0.5328134657
 40
0.5640095826
 40
0.5951905047
 40
0.6263576435
 40
0.6575126176
 40
0.6886572283
 40
0.7197934313
 40
0.7509233064
 40
0.7820490264
 40
0.8131728269
 40
0.8442969741
 40
0.8754237302
 40
0.9065553178
 40
0.9376938859
 40
0.9688414771
 40
1.0
 40
1.0
 40
1.0
 40
1.0
 10
5.2596717016
 20
2.9946246532
 30
0.0
 10
5.2644314577
 20
2.9946246532
 30
0.0
 10
5.2739532925
 20
2.9949112523
 30
0.0
 10
5.2881814418
 20
2.996199179
 30
0.0
 10
5.3023049632
 20
2.9983406134
 30
0.0
 10
5.3162708742
 20
3.0013274063
 30
0.0
 10
5.3300279265
 20
3.0051487089
 30
0.0
 10
5.3435252259
 20
3.0097903417
 30
0.0
 10
5.3567129658
 20
3.0152352193
 30
0.0
 10
5.3695424554
 20
3.0214632268
 30
0.0
 10
5.3819663325
 20
3.0284513738
 30
0.0
 10
5.3939387257
 20
3.0361738678
 30
0.0
 10
5.4054154272
 20
3.0446022085
 30
0.0
 10
5.4163540529
 20
3.0537052942
 30
0.0
 10
5.4267141996
 20
3.0634495313
 30
0.0
 10
5.4364576158
 20
3.0737989382
 30
0.0
 10
5.4455483229
 20
3.0847153047
 30
0.0
 10
5.4539527476
 20
3.0961583295
 30
0.0
 10
5.4616398458
 20
3.1080857681
 30
0.0
 10
5.4685812149
 20
3.1204535879
 30
0.0
 10
5.4747512035
 20
3.133216126
 30
0.0
 10
5.4801270315
 20
3.1463262489
 30
0.0
 10
5.4846888455
 20
3.1597355435
 30
0.0
 10
5.4884197942
 20
3.1733944931
 30
0.0
 10
5.4913060907
 20
3.1872526588
 30
0.0
 10
5.4933370608
 20
3.2012588645
 30
0.0
 10
5.4945051914
 20
3.2153613835
 30
0.0
 10
5.4948061814
 20
3.2295081316
 30
0.0
 10
5.494238926
 20
3.2436468605
 30
0.0
 10
5.4928055175
 20
3.2577253679
 30
0.0
 10
5.4905112673
 20
3.2716916154
 30
0.0
 10
5.4873645697
 20
3.2854941953
 30
0.0
 10
5.4833773093
 20
3.2990814881
 30
0.0
 10
5.4801685539
 20
3.3079625867
 30
0.0
 10
5.4784300838
 20
3.3123495122
 30
0.0
  0
SPLINE
  5
547
100
AcDbEntity
  8
0
100
AcDbSpline
 62
7
  6
CONTINUOUS
 70
0
 71
3
 72
21
 73
17
 74
0
 42
0.0000001
 43
0.0000001
 44
0.0000000001
 40
0.0
 40
0.0
 40
0.0
 40
0.0
 40
0.0075702174
 40
0.0170081094
 40
0.028394213
 40
0.0417591137
 40
0.0743714606
 40
0.1145981391
 40
0.1620068354
 40
0.2160655096
 40
0.2761939099
 40
0.3417945373
 40
0.487094968
 40
0.6476106596
 40
0.8196294832
 40
1.0
 40
1.0
 40
1.0
 40
1.0
 10
5.2534217016
 20
2.9777604125
 30
0.0
 10
5.2534217016
 20
2.9777885559
 30
0.0
 10
5.2534288885
 20
2.9778517366
 30
0.0
 10
5.2534537461
 20
2.9779544444
 30
0.0
 10
5.2534938912
 20
2.9780751698
 30
0.0
 10
5.2535732603
 20
2.9782731946
 30
0.0
 10
5.2537126873
 20
2.9785620945
 30
0.0
 10
5.2539272944
 20
2.9789543471
 30
0.0
 10
5.2541964588
 20
2.9794072647
 30
0.0
 10
5.2545165927
 20
2.9799156691
 30
0.0
 10
5.2548838226
 20
2.9804741775
 30
0.0
 10
5.25545055
 20
2.9813073192
 30
0.0
 10
5.256249338
 20
2.9824337649
 30
0.0
 10
5.2573026413
 20
2.9838643066
 30
0.0
 10
5.258454622
 20
2.9853838544
 30
0.0
 10
5.2592579688
 20
2.9864187274
 30
0.0
 10
5.2596717016
 20
2.9869464282
 30
0.0
  0
SPLINE
  5
548
100
AcDbEntity
  8
0
100
AcDbSpline
 62
7
  6
CONTINUOUS
 70
0
 71
3
 72
21
 73
17
 74
0
 42
0.0000001
 43
0.0000001
 44
0.0000000001
 40
0.0
 40
0.0
 40
0.0
 40
0.0
 40
0.1796989991
 40
0.3512410677
 40
0.5114924387
 40
0.6567554593
 40
0.7224243422
 40
0.782678181
 40
0.836916242
 40
0.8845517708
 40
0.9250403219
 40
0.9579265216
 40
0.9714185892
 40
0.9829129395
 40
0.9924231085
 40
1.0
 40
1.0
 40
1.0
 40
1.0
 10
5.2359051521
 20
2.9881026412
 30
0.0
 10
5.2362687212
 20
2.9875368879
 30
0.0
 10
5.2369747002
 20
2.9864280588
 30
0.0
 10
5.2379866153
 20
2.9848031465
 30
0.0
 10
5.2389118663
 20
2.9832762299
 30
0.0
 10
5.2396132895
 20
2.982077109
 30
0.0
 10
5.240110871
 20
2.9811925509
 30
0.0
 10
5.2404334424
 20
2.9806004609
 30
0.0
 10
5.2407146432
 20
2.9800627781
 30
0.0
 10
5.2409510625
 20
2.9795852556
 30
0.0
 10
5.2411395437
 20
2.9791734067
 30
0.0
 10
5.2412619084
 20
2.9788719798
 30
0.0
 10
5.2413315708
 20
2.9786668451
 30
0.0
 10
5.2413668093
 20
2.9785425524
 30
0.0
 10
5.241388609
 20
2.978437755
 30
0.0
 10
5.2413949798
 20
2.9783738531
 30
0.0
 10
5.2413949798
 20
2.9783454975
 30
0.0
  0
SPLINE
  5
549
100
AcDbEntity
  8
0
100
AcDbSpline
 62
7
  6
CONTINUOUS
 70
0
 71
3
 72
21
 73
17
 74
0
 42
0.0000001
 43
0.0000001
 44
0.0000000001
 40
0.0
 40
0.0
 40
0.0
 40
0.0
 40
0.0075630849
 40
0.0169173309
 40
0.028177608
 40
0.0413945807
 40
0.0736886603
 40
0.1136116649
 40
0.1607579595
 40
0.2146096405
 40
0.2745937964
 40
0.3401164984
 40
0.4854621747
 40
0.6462847315
 40
0.818854768
 40
1.0
 40
1.0
 40
1.0
 40
1.0
 10
5.2289551708
 20
2.979558788
 30
0.0
 10
5.2289551708
 20
2.9795866909
 30
0.0
 10
5.2289630759
 20
2.9796490558
 30
0.0
 10
5.2289907679
 20
2.9797494206
 30
0.0
 10
5.2290354456
 20
2.9798661348
 30
0.0
 10
5.2291237846
 20
2.980056163
 30
0.0
 10
5.2292789839
 20
2.9803309633
 30
0.0
 10
5.2295176599
 20
2.9807011743
 30
0.0
 10
5.2298169792
 20
2.981126422
 30
0.0
 10
5.2301729597
 20
2.9816019043
 30
0.0
 10
5.2305813072
 20
2.9821226536
 30
0.0
 10
5.2312118217
 20
2.982897939
 30
0.0
 10
5.2321003733
 20
2.98394262
 30
0.0
 10
5.2332715544
 20
2.9852648074
 30
0.0
 10
5.2345524823
 20
2.9866658926
 30
0.0
 10
5.235445309
 20
2.9876176887
 30
0.0
 10
5.2359051521
 20
2.9881026412
 30
0.0
  0
SPLINE
  5
54A
100
AcDbEntity
  8
0
100
AcDbSpline
 62
7
  6
CONTINUOUS
 70
0
 71
3
 72
21
 73
17
 74
0
 42
0.0000001
 43
0.0000001
 44
0.0000000001
 40
0.0
 40
0.0
 40
0.0
 40
0.0
 40
0.1791300604
 40
0.3502689309
 40
0.510297593
 40
0.6555302373
 40
0.7212574536
 40
0.7816178654
 40
0.8360078809
 40
0.8838351067
 40
0.9245445311
 40
0.9576613
 40
0.9712603605
 40
0.9828458437
 40
0.9924170903
 40
1.0
 40
1.0
 40
1.0
 40
1.0
 10
5.2123674874
 20
2.991560145
 30
0.0
 10
5.2126773275
 20
2.9909614137
 30
0.0
 10
5.213279
 20
2.9897884875
 30
0.0
 10
5.2141410836
 20
2.9880723261
 30
0.0
 10
5.2149293458
 20
2.9864619451
 30
0.0
 10
5.2155267346
 20
2.9851999213
 30
0.0
 10
5.2159504682
 20
2.9842708662
 30
0.0
 10
5.2162252712
 20
2.9836496955
 30
0.0
 10
5.2164648284
 20
2.9830866593
 30
0.0
 10
5.2166662281
 20
2.9825878323
 30
0.0
 10
5.2168267777
 20
2.9821590187
 30
0.0
 10
5.2169309469
 20
2.9818467528
 30
0.0
 10
5.2169902549
 20
2.9816354628
 30
0.0
 10
5.2170202583
 20
2.9815080807
 30
0.0
 10
5.2170388044
 20
2.9814014696
 30
0.0
 10
5.2170442729
 20
2.9813369464
 30
0.0
 10
5.2170442729
 20
2.9813084083
 30
0.0
  0
SPLINE
  5
54B
100
AcDbEntity
  8
0
100
AcDbSpline
 62
7
  6
CONTINUOUS
 70
0
 71
3
 72
21
 73
17
 74
0
 42
0.0000001
 43
0.0000001
 44
0.0000000001
 40
0.0
 40
0.0
 40
0.0
 40
0.0
 40
0.0075557128
 40
0.0168147307
 40
0.0279310285
 40
0.0409785923
 40
0.0729085903
 40
0.1124851055
 40
0.1593328463
 40
0.2129497424
 40
0.2727709552
 40
0.3382063709
 40
0.4836061424
 40
0.6447792985
 40
0.817976064
 40
1.0
 40
1.0
 40
1.0
 40
1.0
 10
5.2047844569
 20
2.9837233048
 30
0.0
 10
5.2047844569
 20
2.9837509402
 30
0.0
 10
5.2047929724
 20
2.9838124
 30
0.0
 10
5.2048232485
 20
2.9839101938
 30
0.0
 10
5.204872044
 20
2.9840224921
 30
0.0
 10
5.2049685337
 20
2.9842037125
 30
0.0
 10
5.2051380704
 20
2.9844629698
 30
0.0
 10
5.2053985264
 20
2.9848089028
 30
0.0
 10
5.2057251188
 20
2.9852036802
 30
0.0
 10
5.2061135126
 20
2.9856429132
 30
0.0
 10
5.2065590393
 20
2.9861220895
 30
0.0
 10
5.207247375
 20
2.9868336191
 30
0.0
 10
5.2082172277
 20
2.9877882157
 30
0.0
 10
5.2094949723
 20
2.9889911172
 30
0.0
 10
5.210892484
 20
2.9902617859
 30
0.0
 10
5.211866034
 20
2.9911222121
 30
0.0
 10
5.2123674874
 20
2.991560145
 30
0.0
  0
SPLINE
  5
54C
100
AcDbEntity
  8
0
100
AcDbSpline
 62
7
  6
CONTINUOUS
 70
0
 71
3
 72
21
 73
17
 74
0
 42
0.0000001
 43
0.0000001
 44
0.0000000001
 40
0.0
 40
0.0
 40
0.0
 40
0.0
 40
0.1786631642
 40
0.3494716594
 40
0.5093183872
 40
0.6545269869
 40
0.7203024109
 40
0.78075047
 40
0.8352651546
 40
0.8832493698
 40
0.9241393812
 40
0.9574443895
 40
0.9711307503
 40
0.9827906334
 40
0.9924118979
 40
1.0
 40
1.0
 40
1.0
 40
1.0
 10
5.1892853881
 20
2.9972856422
 30
0.0
 10
5.1895384581
 20
2.9966593359
 30
0.0
 10
5.1900299057
 20
2.9954328123
 30
0.0
 10
5.1907338382
 20
2.9936403982
 30
0.0
 10
5.1913774989
 20
2.9919602693
 30
0.0
 10
5.1918651764
 20
2.9906457059
 30
0.0
 10
5.1922110599
 20
2.9896794883
 30
0.0
 10
5.1924354455
 20
2.9890340174
 30
0.0
 10
5.1926310506
 20
2.9884497964
 30
0.0
 10
5.1927954938
 20
2.9879331692
 30
0.0
 10
5.1929265743
 20
2.9874901831
 30
0.0
 10
5.1930115826
 20
2.9871688661
 30
0.0
 10
5.1930599846
 20
2.9869524336
 30
0.0
 10
5.1930844726
 20
2.9868224699
 30
0.0
 10
5.193099599
 20
2.9867143406
 30
0.0
 10
5.1931040914
 20
2.9866493002
 30
0.0
 10
5.1931040914
 20
2.9866206105
 30
0.0
  0
SPLINE
  5
54D
100
AcDbEntity
  8
0
100
AcDbSpline
 62
7
  6
CONTINUOUS
 70
0
 71
3
 72
22
 73
18
 74
0
 42
0.0000001
 43
0.0000001
 44
0.0000000001
 40
0.0
 40
0.0
 40
0.0
 40
0.0
 40
0.0075482644
 40
0.0167001255
 40
0.0276534963
 40
0.0405091827
 40
0.0553042928
 40
0.0720376119
 40
0.1112232721
 40
0.1577352046
 40
0.2110887873
 40
0.2707278872
 40
0.3360663623
 40
0.4815287586
 40
0.6430959322
 40
0.8169943684
 40
1.0
 40
1.0
 40
1.0
 40
1.0
 10
5.1811423372
 20
2.9902138561
 30
0.0
 10
5.1811423372
 20
2.9902411992
 30
0.0
 10
5.1811513467
 20
2.9903016702
 30
0.0
 10
5.1811839297
 20
2.9903966945
 30
0.0
 10
5.1812364025
 20
2.9905042078
 30
0.0
 10
5.1813087366
 20
2.9906240326
 30
0.0
 10
5.1814006968
 20
2.9907560231
 30
0.0
 10
5.1815575362
 20
2.9909586537
 30
0.0
 10
5.1818022677
 20
2.9912379498
 30
0.0
 10
5.1821528766
 20
2.9915997619
 30
0.0
 10
5.1825699729
 20
2.9919997628
 30
0.0
 10
5.1830483693
 20
2.992433954
 30
0.0
 10
5.1837880121
 20
2.9930764235
 30
0.0
 10
5.1848299177
 20
2.9939334655
 30
0.0
 10
5.1862018821
 20
2.9950073031
 30
0.0
 10
5.1877024881
 20
2.9961368616
 30
0.0
 10
5.1887472252
 20
2.9968985339
 30
0.0
 10
5.1892853881
 20
2.9972856422
 30
0.0
  0
SPLINE
  5
54E
100
AcDbEntity
  8
0
100
AcDbSpline
 62
7
  6
CONTINUOUS
 70
0
 71
3
 72
20
 73
16
 74
0
 42
0.0000001
 43
0.0000001
 44
0.0000000001
 40
0.0
 40
0.0
 40
0.0
 40
0.0
 40
0.1782982993
 40
0.3488490314
 40
0.5085542996
 40
0.6537449556
 40
0.7195584438
 40
0.7800753156
 40
0.8346876248
 40
0.8827945515
 40
0.9238255058
 40
0.9572772413
 40
0.9827473072
 40
0.9924076578
 40
1.0
 40
1.0
 40
1.0
 40
1.0
 10
5.1668811475
 20
3.0052239929
 30
0.0
 10
5.1670749615
 20
3.0045757902
 30
0.0
 10
5.1674513469
 20
3.003306705
 30
0.0
 10
5.1679903354
 20
3.0014537706
 30
0.0
 10
5.1684831789
 20
2.9997182839
 30
0.0
 10
5.1688565126
 20
2.998362037
 30
0.0
 10
5.1691212815
 20
2.9973663377
 30
0.0
 10
5.1692930842
 20
2.9967015813
 30
0.0
 10
5.1694428615
 20
2.9961005468
 30
0.0
 10
5.1695687396
 20
2.9955697956
 30
0.0
 10
5.1696691765
 20
2.9951155578
 30
0.0
 10
5.1697426533
 20
2.9947434606
 30
0.0
 10
5.1697844159
 20
2.9944864373
 30
0.0
 10
5.1698015439
 20
2.9943252043
 30
0.0
 10
5.1698049924
 20
2.9942597541
 30
0.0
 10
5.1698049924
 20
2.9942309447
 30
0.0
  0
SPLINE
  5
54F
100
AcDbEntity
  8
0
100
AcDbSpline
 62
7
  6
CONTINUOUS
 70
0
 71
3
 72
22
 73
18
 74
0
 42
0.0000001
 43
0.0000001
 44
0.0000000001
 40
0.0
 40
0.0
 40
0.0
 40
0.0
 40
0.0075411372
 40
0.0165737878
 40
0.0273446822
 40
0.0399852551
 40
0.0545517372
 40
0.0710550422
 40
0.1098049115
 40
0.1559439656
 40
0.209006518
 40
0.2684456329
 40
0.3336791729
 40
0.4792167524
 40
0.6412258324
 40
0.8159053941
 40
1.0
 40
1.0
 40
1.0
 40
1.0
 10
5.1582564982
 20
2.9989679345
 30
0.0
 10
5.1582564982
 20
2.9989949624
 30
0.0
 10
5.1582658773
 20
2.9990543671
 30
0.0
 10
5.1583004718
 20
2.9991464513
 30
0.0
 10
5.1583561268
 20
2.9992488697
 30
0.0
 10
5.1584327978
 20
2.9993615225
 30
0.0
 10
5.158530232
 20
2.9994843327
 30
0.0
 10
5.1586965351
 20
2.9996714446
 30
0.0
 10
5.1589559842
 20
2.9999264019
 30
0.0
 10
5.1593273247
 20
3.0002530474
 30
0.0
 10
5.1597690665
 20
3.0006112183
 30
0.0
 10
5.1602757264
 20
3.0009974441
 30
0.0
 10
5.1610596609
 20
3.0015661956
 30
0.0
 10
5.1621636784
 20
3.0023191338
 30
0.0
 10
5.1636166058
 20
3.0032553787
 30
0.0
 10
5.1652058218
 20
3.0042344971
 30
0.0
 10
5.1663115272
 20
3.0048910116
 30
0.0
 10
5.1668811475
 20
3.0052239929
 30
0.0
  0
LINE
  5
550
100
AcDbEntity
  8
0
100
AcDbLine
 62
7
  6
CONTINUOUS
 10
5.1453705307
 20
3.0152987466
 11
5.1473713589
 21
3.0040661192
  0
SPLINE
  5
551
100
AcDbEntity
  8
0
100
AcDbSpline
 62
7
  6
CONTINUOUS
 70
0
 71
3
 72
22
 73
18
 74
0
 42
0.0000001
 43
0.0000001
 44
0.0000000001
 40
0.0
 40
0.0
 40
0.0
 40
0.0
 40
0.0075345441
 40
0.0164355207
 40
0.0270033633
 40
0.0394043123
 40
0.0537163951
 40
0.0699642344
 40
0.1082316344
 40
0.1539596686
 40
0.2067029179
 40
0.2659239778
 40
0.331044619
 40
0.4766703221
 40
0.6391695487
 40
0.8147096881
 40
1.0
 40
1.0
 40
1.0
 40
1.0
 10
5.1363473431
 20
3.0099012334
 30
0.0
 10
5.1363473431
 20
3.0099279254
 30
0.0
 10
5.1363569623
 20
3.0099861924
 30
0.0
 10
5.1363932498
 20
3.0100751996
 30
0.0
 10
5.1364515751
 20
3.0101722573
 30
0.0
 10
5.1365318614
 20
3.0102773591
 30
0.0
 10
5.1366338409
 20
3.0103905024
 30
0.0
 10
5.1368080553
 20
3.0105612601
 30
0.0
 10
5.1370797794
 20
3.0107905602
 30
0.0
 10
5.1374682671
 20
3.0110801854
 30
0.0
 10
5.1379303894
 20
3.0113943282
 30
0.0
 10
5.1384604222
 20
3.0117300717
 30
0.0
 10
5.1392812088
 20
3.0122211371
 30
0.0
 10
5.1404367897
 20
3.0128644075
 30
0.0
 10
5.1419566414
 20
3.0136558631
 30
0.0
 10
5.1436191277
 20
3.0144766662
 30
0.0
 10
5.1447750034
 20
3.0150226608
 30
0.0
 10
5.1453705307
 20
3.0152987466
 30
0.0
  0
LINE
  5
552
100
AcDbEntity
  8
0
100
AcDbLine
 62
7
  6
CONTINUOUS
 10
5.1249606967
 20
3.0274128779
 11
5.1260192391
 21
3.0160314159
  0
SPLINE
  5
553
100
AcDbEntity
  8
0
100
AcDbSpline
 62
7
  6
CONTINUOUS
 70
0
 71
3
 72
21
 73
17
 74
0
 42
0.0000001
 43
0.0000001
 44
0.0000000001
 40
0.0
 40
0.0
 40
0.0
 40
0.0
 40
0.0161659214
 40
0.02651032
 40
0.0386472702
 40
0.0526795921
 40
0.0686473466
 40
0.1063886738
 40
0.1516723887
 40
0.204074406
 40
0.263066922
 40
0.3280752901
 40
0.4738215447
 40
0.6368807468
 40
0.8133837641
 40
1.0
 40
1.0
 40
1.0
 40
1.0
 10
5.115625869
 20
3.0229084592
 30
0.0
 10
5.115625869
 20
3.0229650055
 30
0.0
 10
5.1156591672
 20
3.0230567227
 30
0.0
 10
5.1157336312
 20
3.023168984
 30
0.0
 10
5.1158168704
 20
3.0232664788
 30
0.0
 10
5.115922393
 20
3.0233694775
 30
0.0
 10
5.1161029068
 20
3.0235232313
 30
0.0
 10
5.1163843384
 20
3.0237257712
 30
0.0
 10
5.1167862226
 20
3.0239768866
 30
0.0
 10
5.1172642602
 20
3.0242452252
 30
0.0
 10
5.1178125488
 20
3.0245284582
 30
0.0
 10
5.1186623875
 20
3.024938597
 30
0.0
 10
5.1198584763
 20
3.0254676757
 30
0.0
 10
5.121430567
 20
3.0261085482
 30
0.0
 10
5.1231502774
 20
3.0267646919
 30
0.0
 10
5.1243450557
 20
3.0271958961
 30
0.0
 10
5.1249606967
 20
3.0274128779
 30
0.0
  0
LINE
  5
554
100
AcDbEntity
  8
0
100
AcDbLine
 62
7
  6
CONTINUOUS
 10
5.1058482033
 20
3.041449721
 11
5.1059542656
 21
3.0300116024
  0
SPLINE
  5
555
100
AcDbEntity
  8
0
100
AcDbSpline
 62
7
  6
CONTINUOUS
 70
0
 71
3
 72
23
 73
19
 74
0
 42
0.0000001
 43
0.0000001
 44
0.0000000001
 40
0.0
 40
0.0
 40
0.0
 40
0.0
 40
0.0075240736
 40
0.0161227616
 40
0.0262182811
 40
0.0380608501
 40
0.0517814169
 40
0.0674373598
 40
0.1045935035
 40
0.1493822818
 40
0.201401881
 40
0.2601341158
 40
0.3250076249
 40
0.3954430965
 40
0.4708615542
 40
0.634492033
 40
0.8119961747
 40
1.0
 40
1.0
 40
1.0
 40
1.0
 10
5.096291635
 20
3.0378643451
 30
0.0
 10
5.096291635
 20
3.0378903134
 30
0.0
 10
5.096301334
 20
3.0379461144
 30
0.0
 10
5.0963399782
 20
3.0380286953
 30
0.0
 10
5.0964020267
 20
3.0381144482
 30
0.0
 10
5.0964872547
 20
3.0382036004
 30
0.0
 10
5.0965953761
 20
3.0382963206
 30
0.0
 10
5.0967804824
 20
3.0384324735
 30
0.0
 10
5.0970689819
 20
3.0386074583
 30
0.0
 10
5.0974803692
 20
3.0388189203
 30
0.0
 10
5.0979697027
 20
3.039040132
 30
0.0
 10
5.0985309551
 20
3.0392693194
 30
0.0
 10
5.0991580292
 20
3.0395046607
 30
0.0
 10
5.0998446589
 20
3.0397446112
 30
0.0
 10
5.1008595309
 20
3.0400778893
 30
0.0
 10
5.1022360626
 20
3.0404934272
 30
0.0
 10
5.1039963604
 20
3.0409802095
 30
0.0
 10
5.1052184264
 20
3.0412934721
 30
0.0
 10
5.1058482033
 20
3.041449721
 30
0.0
  0
SPLINE
  5
556
100
AcDbEntity
  8
0
100
AcDbSpline
 62
7
  6
CONTINUOUS
 70
0
 71
3
 72
23
 73
19
 74
0
 42
0.0000001
 43
0.0000001
 44
0.0000000001
 40
0.0
 40
0.0
 40
0.0
 40
0.0
 40
0.0075208435
 40
0.0159481858
 40
0.025771935
 40
0.0372926215
 40
0.0506731562
 40
0.0659903195
 40
0.1025149162
 40
0.1467748532
 40
0.1983909867
 40
0.2568542674
 40
0.3215958894
 40
0.3920350178
 40
0.4675890815
 40
0.6318654289
 40
0.8104765107
 40
1.0
 40
1.0
 40
1.0
 40
1.0
 10
5.0785308403
 20
3.0546248578
 30
0.0
 10
5.0785308403
 20
3.0546504441
 30
0.0
 10
5.0785403788
 20
3.0547049279
 30
0.0
 10
5.0785796546
 20
3.0547842316
 30
0.0
 10
5.0786427285
 20
3.0548641537
 30
0.0
 10
5.0787292405
 20
3.0549450577
 30
0.0
 10
5.0788389011
 20
3.0550272145
 30
0.0
 10
5.0790268901
 20
3.0551454339
 30
0.0
 10
5.079319724
 20
3.0552922589
 30
0.0
 10
5.0797366327
 20
3.0554633331
 30
0.0
 10
5.0802325293
 20
3.0556365382
 30
0.0
 10
5.0808013189
 20
3.0558106932
 30
0.0
 10
5.0814368304
 20
3.0559845669
 30
0.0
 10
5.082132717
 20
3.0561572265
 30
0.0
 10
5.0831620612
 20
3.0563912321
 30
0.0
 10
5.0845578846
 20
3.0566719966
 30
0.0
 10
5.0863418249
 20
3.0569862628
 30
0.0
 10
5.0875793046
 20
3.0571796124
 30
0.0
 10
5.0882171142
 20
3.0572740934
 30
0.0
  0
SPLINE
  5
557
100
AcDbEntity
  8
0
100
AcDbSpline
 62
7
  6
CONTINUOUS
 70
0
 71
3
 72
24
 73
20
 74
0
 42
0.0000001
 43
0.0000001
 44
0.0000000001
 40
0.0
 40
0.0
 40
0.0
 40
0.0
 40
0.0075193092
 40
0.0157612852
 40
0.0252875342
 40
0.0364553874
 40
0.0494641032
 40
0.0644121586
 40
0.1002526212
 40
0.1439438597
 40
0.1951293561
 40
0.253308419
 40
0.3179138961
 40
0.3883625199
 40
0.4640672786
 40
0.544475128
 40
0.6290487651
 40
0.8088499881
 40
1.0
 40
1.0
 40
1.0
 40
1.0
 10
5.0625145311
 20
3.0730285844
 30
0.0
 10
5.0625145311
 20
3.0730537795
 30
0.0
 10
5.0625237795
 20
3.0731068966
 30
0.0
 10
5.0625633041
 20
3.0731829296
 30
0.0
 10
5.0626268373
 20
3.073256981
 30
0.0
 10
5.0627138272
 20
3.073329557
 30
0.0
 10
5.0628239834
 20
3.0734010475
 30
0.0
 10
5.0630131074
 20
3.0735011287
 30
0.0
 10
5.0633075019
 20
3.0736194673
 30
0.0
 10
5.063725888
 20
3.0737498026
 30
0.0
 10
5.0642235484
 20
3.0738745922
 30
0.0
 10
5.0647943787
 20
3.0739932494
 30
0.0
 10
5.0654321931
 20
3.0741051375
 30
0.0
 10
5.0661306244
 20
3.0742099277
 30
0.0
 10
5.0668835321
 20
3.0743073489
 30
0.0
 10
5.0676850032
 20
3.0743972987
 30
0.0
 10
5.0688348423
 20
3.0745094955
 30
0.0
 10
5.0703566565
 20
3.0746286648
 30
0.0
 10
5.0715975521
 20
3.0747013178
 30
0.0
 10
5.0722372265
 20
3.0747335979
 30
0.0
  0
SPLINE
  5
558
100
AcDbEntity
  8
0
100
AcDbSpline
 62
7
  6
CONTINUOUS
 70
0
 71
3
 72
25
 73
21
 74
0
 42
0.0000001
 43
0.0000001
 44
0.0000000001
 40
0.0
 40
0.0
 40
0.0
 40
0.0
 40
0.0075197246
 40
0.0155619653
 40
0.0247633445
 40
0.0355453505
 40
0.04814867
 40
0.0626960102
 40
0.0792457656
 40
0.0978132458
 40
0.1408962039
 40
0.1916248709
 40
0.249505702
 40
0.3139720228
 40
0.3844370502
 40
0.4603083768
 40
0.5410262574
 40
0.626046131
 40
0.8071195135
 40
1.0
 40
1.0
 40
1.0
 40
1.0
 10
5.0483969533
 20
3.092898287
 30
0.0
 10
5.0483969533
 20
3.0929230849
 30
0.0
 10
5.0484057886
 20
3.0929747905
 30
0.0
 10
5.0484451671
 20
3.0930475956
 30
0.0
 10
5.0485085945
 20
3.0931157979
 30
0.0
 10
5.0485952547
 20
3.0931800452
 30
0.0
 10
5.0487048636
 20
3.0932408543
 30
0.0
 10
5.0488371632
 20
3.0932984027
 30
0.0
 10
5.048991804
 20
3.0933526819
 30
0.0
 10
5.0492396891
 20
3.0934241652
 30
0.0
 10
5.049602384
 20
3.0935021448
 30
0.0
 10
5.050096899
 20
3.0935786458
 30
0.0
 10
5.0506642821
 20
3.0936418583
 30
0.0
 10
5.0512982336
 20
3.0936918462
 30
0.0
 10
5.0519924748
 20
3.0937288575
 30
0.0
 10
5.0527408804
 20
3.093753224
 30
0.0
 10
5.0535375774
 20
3.0937654117
 30
0.0
 10
5.0546812928
 20
3.0937660506
 30
0.0
 10
5.0561947291
 20
3.0937375381
 30
0.0
 10
5.0574270678
 20
3.0936898399
 30
0.0
 10
5.0580624354
 20
3.0936600899
 30
0.0
  0
LINE
  5
559
100
AcDbEntity
  8
0
100
AcDbLine
 62
7
  6
CONTINUOUS
 10
5.2659217016
 20
2.9255704996
 11
5.2658017408
 21
2.9254216208
  0
SPLINE
  5
55A
100
AcDbEntity
  8
0
100
AcDbSpline
 62
7
  6
CONTINUOUS
 70
0
 71
3
 72
25
 73
21
 74
0
 42
0.0000001
 43
0.0000001
 44
0.0000000001
 40
0.0
 40
0.0
 40
0.0
 40
0.0
 40
0.0075225506
 40
0.0153506996
 40
0.0241983919
 40
0.0345596733
 40
0.0467226149
 40
0.0608369511
 40
0.0769763325
 40
0.0951649165
 40
0.1376022953
 40
0.1878510774
 40
0.2454231306
 40
0.3097507649
 40
0.380242405
 40
0.4562991707
 40
0.5373536813
 40
0.6228533005
 40
0.805283906
 40
1.0
 40
1.0
 40
1.0
 40
1.0
 10
5.0363140668
 20
3.1140426094
 30
0.0
 10
5.0363140668
 20
3.1140670079
 30
0.0
 10
5.0363223759
 20
3.1141172611
 30
0.0
 10
5.0363612031
 20
3.1141869162
 30
0.0
 10
5.0364239655
 20
3.1142493556
 30
0.0
 10
5.0365094986
 20
3.1143053447
 30
0.0
 10
5.0366175111
 20
3.1143555787
 30
0.0
 10
5.0367477921
 20
3.1144003331
 30
0.0
 10
5.0369000332
 20
3.1144396582
 30
0.0
 10
5.0371445327
 20
3.1144872715
 30
0.0
 10
5.0375019901
 20
3.114530192
 30
0.0
 10
5.0379886523
 20
3.1145588895
 30
0.0
 10
5.0385470768
 20
3.1145672859
 30
0.0
 10
5.039171055
 20
3.1145560489
 30
0.0
 10
5.0398544082
 20
3.1145260237
 30
0.0
 10
5.0405910986
 20
3.1144781304
 30
0.0
 10
5.0413753439
 20
3.1144133996
 30
0.0
 10
5.0425019228
 20
3.1143035485
 30
0.0
 10
5.0439923946
 20
3.1141288218
 30
0.0
 10
5.0452043064
 20
3.1139623069
 30
0.0
 10
5.0458292516
 20
3.1138712969
 30
0.0
  0
SPLINE
  5
55B
100
AcDbEntity
  8
0
100
AcDbSpline
 62
7
  6
CONTINUOUS
 70
0
 71
3
 72
25
 73
21
 74
0
 42
0.0000001
 43
0.0000001
 44
0.0000000001
 40
0.0
 40
0.0
 40
0.0
 40
0.0
 40
0.0075279508
 40
0.015127575
 40
0.0235909502
 40
0.033494303
 40
0.04518014
 40
0.0588282884
 40
0.0745286035
 40
0.0923141659
 40
0.1340704004
 40
0.183818395
 40
0.2410731185
 40
0.3052640578
 40
0.3757934004
 40
0.4520546306
 40
0.5334717597
 40
0.6194832498
 40
0.8033510987
 40
1.0
 40
1.0
 40
1.0
 40
1.0
 10
5.0263822364
 20
3.1362579203
 30
0.0
 10
5.0263822364
 20
3.136281921
 30
0.0
 10
5.0263899199
 20
3.1363306842
 30
0.0
 10
5.0264277811
 20
3.1363973004
 30
0.0
 10
5.026489331
 20
3.1364541281
 30
0.0
 10
5.0265729559
 20
3.136502005
 30
0.0
 10
5.0266783424
 20
3.1365418569
 30
0.0
 10
5.0268053466
 20
3.1365740639
 30
0.0
 10
5.0269537139
 20
3.136598734
 30
0.0
 10
5.0271925053
 20
3.1366228772
 30
0.0
 10
5.0275412792
 20
3.1366313666
 30
0.0
 10
5.0280153721
 20
3.136613266
 30
0.0
 10
5.0285594409
 20
3.1365679917
 30
0.0
 10
5.029167425
 20
3.1364968044
 30
0.0
 10
5.0298333016
 20
3.1364011318
 30
0.0
 10
5.0305511771
 20
3.1362824719
 30
0.0
 10
5.0313154148
 20
3.1361424084
 30
0.0
 10
5.0324139909
 20
3.1359241985
 30
0.0
 10
5.0338671163
 20
3.1356061361
 30
0.0
 10
5.035046964
 20
3.1353234846
 30
0.0
 10
5.0356554875
 20
3.1351725738
 30
0.0
  0
LINE
  5
55C
100
AcDbEntity
  8
0
100
AcDbLine
 62
7
  6
CONTINUOUS
 10
5.2903882324
 20
2.9273688752
 11
5.290256729
 21
2.9272078942
  0
SPLINE
  5
55D
100
AcDbEntity
  8
0
100
AcDbSpline
 62
7
  6
CONTINUOUS
 70
0
 71
3
 72
25
 73
21
 74
0
 42
0.0000001
 43
0.0000001
 44
0.0000000001
 40
0.0
 40
0.0
 40
0.0
 40
0.0
 40
0.0075361487
 40
0.0148931632
 40
0.0229399543
 40
0.0323460075
 40
0.0435167183
 40
0.0566653293
 40
0.0718986292
 40
0.0892584028
 40
0.1303016013
 40
0.1795318141
 40
0.2364641571
 40
0.3005231653
 40
0.3711031893
 40
0.4475888449
 40
0.5293945441
 40
0.6159490301
 40
0.8013293557
 40
1.0
 40
1.0
 40
1.0
 40
1.0
 10
5.0186971111
 20
3.1593302741
 30
0.0
 10
5.0186971111
 20
3.1593538826
 30
0.0
 10
5.0187040872
 20
3.1594011217
 30
0.0
 10
5.018740559
 20
3.1594648391
 30
0.0
 10
5.0188003653
 20
3.1595162747
 30
0.0
 10
5.0188813276
 20
3.1595562548
 30
0.0
 10
5.0189830805
 20
3.1595860119
 30
0.0
 10
5.0191055771
 20
3.1596060372
 30
0.0
 10
5.0192486303
 20
3.1596164933
 30
0.0
 10
5.019479435
 20
3.1596177812
 30
0.0
 10
5.0198161463
 20
3.1595927972
 30
0.0
 10
5.0202730761
 20
3.1595293643
 30
0.0
 10
5.0207975328
 20
3.159432088
 30
0.0
 10
5.0213836589
 20
3.1593028061
 30
0.0
 10
5.0220256414
 20
3.1591435102
 30
0.0
 10
5.022717786
 20
3.1589562603
 30
0.0
 10
5.023454655
 20
3.1587431765
 30
0.0
 10
5.0245146125
 20
3.1584197852
 30
0.0
 10
5.0259163532
 20
3.1579626527
 30
0.0
 10
5.027052846
 20
3.1575676569
 30
0.0
 10
5.0276391221
 20
3.1573587779
 30
0.0
  0
LINE
  5
55E
100
AcDbEntity
  8
0
100
AcDbLine
 62
7
  6
CONTINUOUS
 10
5.1364789777
 20
2.9575102821
 11
5.1363473431
 21
2.9577113206
  0
SPLINE
  5
55F
100
AcDbEntity
  8
0
100
AcDbSpline
 62
7
  6
CONTINUOUS
 70
0
 71
3
 72
25
 73
21
 74
0
 42
0.0000001
 43
0.0000001
 44
0.0000000001
 40
0.0
 40
0.0
 40
0.0
 40
0.0
 40
0.0075473132
 40
0.0146484428
 40
0.0222449084
 40
0.0311122476
 40
0.0417290182
 40
0.0543453996
 40
0.0690854467
 40
0.0859990073
 40
0.1263027166
 40
0.1750033845
 40
0.2316126504
 40
0.2955476741
 40
0.3661932543
 40
0.442923876
 40
0.5251433782
 40
0.6122700082
 40
0.7992305331
 40
1.0
 40
1.0
 40
1.0
 40
1.0
 10
5.0133327028
 20
3.1830374714
 30
0.0
 10
5.0133327028
 20
3.1830606975
 30
0.0
 10
5.0133389122
 20
3.183106382
 30
0.0
 10
5.0133735634
 20
3.1831673645
 30
0.0
 10
5.0134311148
 20
3.1832136981
 30
0.0
 10
5.0135086969
 20
3.1832460613
 30
0.0
 10
5.0136058376
 20
3.1832661011
 30
0.0
 10
5.0137226332
 20
3.1832744271
 30
0.0
 10
5.0138589793
 20
3.1832712496
 30
0.0
 10
5.0140795803
 20
3.1832505065
 30
0.0
 10
5.0144009478
 20
3.1831933318
 30
0.0
 10
5.0148362905
 20
3.1830864797
 30
0.0
 10
5.0153360722
 20
3.1829393772
 30
0.0
 10
5.0158946914
 20
3.1827544197
 30
0.0
 10
5.0165065958
 20
3.1825341395
 30
0.0
 10
5.0171663446
 20
3.1822811382
 30
0.0
 10
5.0178687499
 20
3.1819980503
 30
0.0
 10
5.0188798256
 20
3.1815736749
 30
0.0
 10
5.0202166241
 20
3.1809830867
 30
0.0
 10
5.0212989251
 20
3.1804806074
 30
0.0
 10
5.0218573572
 20
3.1802162437
 30
0.0
  0
LINE
  5
560
100
AcDbEntity
  8
0
100
AcDbLine
 62
7
  6
CONTINUOUS
 10
5.3145589463
 20
2.9315333919
 11
5.3144202102
 21
2.9313600469
  0
SPLINE
  5
561
100
AcDbEntity
  8
0
100
AcDbSpline
 62
7
  6
CONTINUOUS
 70
0
 71
3
 72
27
 73
23
 74
0
 42
0.0000001
 43
0.0000001
 44
0.0000000001
 40
0.0
 40
0.0
 40
0.0
 40
0.0
 40
0.0075613901
 40
0.0143946846
 40
0.0215057864
 40
0.0297910653
 40
0.0345686029
 40
0.0398250265
 40
0.0518781182
 40
0.0661014471
 40
0.0825516894
 40
0.1012286577
 40
0.1221055977
 40
0.1702707979
 40
0.2265604728
 40
0.2903817682
 40
0.3611081779
 40
0.4381028339
 40
0.5207581065
 40
0.6084810651
 40
0.7970748793
 40
1.0
 40
1.0
 40
1.0
 40
1.0
 10
5.0103406738
 20
3.2071511989
 30
0.0
 10
5.0103406738
 20
3.2071740567
 30
0.0
 10
5.0103460845
 20
3.2072181608
 30
0.0
 10
5.0103784784
 20
3.2072765889
 30
0.0
 10
5.0104332788
 20
3.2073181794
 30
0.0
 10
5.010491661
 20
3.2073381101
 30
0.0
 10
5.0105462054
 20
3.2073478729
 30
0.0
 10
5.0106128063
 20
3.207353708
 30
0.0
 10
5.0107083631
 20
3.2073512697
 30
0.0
 10
5.0108366479
 20
3.2073351752
 30
0.0
 10
5.0109830321
 20
3.2073058794
 30
0.0
 10
5.0111470436
 20
3.2072636547
 30
0.0
 10
5.0114008473
 20
3.207186633
 30
0.0
 10
5.0117573454
 20
3.2070576838
 30
0.0
 10
5.0122276169
 20
3.2068634935
 30
0.0
 10
5.0127533565
 20
3.2066257937
 30
0.0
 10
5.0133292917
 20
3.2063477646
 30
0.0
 10
5.0139502957
 20
3.2060324816
 30
0.0
 10
5.0146114766
 20
3.2056830813
 30
0.0
 10
5.0155638607
 20
3.2051629021
 30
0.0
 10
5.0168227719
 20
3.2044457702
 30
0.0
 10
5.0178406011
 20
3.2038416817
 30
0.0
 10
5.0183658745
 20
3.2035248415
 30
0.0
  0
LINE
  5
562
100
AcDbEntity
  8
0
100
AcDbLine
 62
7
  6
CONTINUOUS
 10
5.338201066
 20
2.9380239432
 11
5.3380598712
 21
2.9378390453
  0
LINE
  5
563
100
AcDbEntity
  8
0
100
AcDbLine
 62
7
  6
CONTINUOUS
 10
5.361086905
 20
2.9467780217
 11
5.3609481506
 21
2.9465835219
  0
LINE
  5
564
100
AcDbEntity
  8
0
100
AcDbLine
 62
7
  6
CONTINUOUS
 10
5.3829960601
 20
2.9577113206
 11
5.3828644255
 21
2.9575102821
  0
LINE
  5
565
100
AcDbEntity
  8
0
100
AcDbLine
 62
7
  6
CONTINUOUS
 10
5.4037175342
 20
2.9707185463
 11
5.4035971418
 21
2.9705150146
  0
LINE
  5
566
100
AcDbEntity
  8
0
100
AcDbLine
 62
7
  6
CONTINUOUS
 10
5.1583952526
 20
2.9465835219
 11
5.1582564982
 21
2.9467780217
  0
LINE
  5
567
100
AcDbEntity
  8
0
100
AcDbLine
 62
7
  6
CONTINUOUS
 10
5.4230517683
 20
2.9856744322
 11
5.4229459047
 21
2.9854732234
  0
LINE
  5
568
100
AcDbEntity
  8
0
100
AcDbLine
 62
7
  6
CONTINUOUS
 10
5.4408125629
 20
3.0024349449
 11
5.4407234547
 21
3.0022413517
  0
LINE
  5
569
100
AcDbEntity
  8
0
100
AcDbLine
 62
7
  6
CONTINUOUS
 10
5.4568288721
 20
3.0208386716
 11
5.4567575648
 21
3.0206581337
  0
LINE
  5
56A
100
AcDbEntity
  8
0
100
AcDbLine
 62
7
  6
CONTINUOUS
 10
5.4709464499
 20
3.0407083741
 11
5.4708927681
 21
3.0405461096
  0
LINE
  5
56B
100
AcDbEntity
  8
0
100
AcDbLine
 62
7
  6
CONTINUOUS
 10
5.4830293364
 20
3.0618526966
 11
5.4829919633
 21
3.0617133607
  0
LINE
  5
56C
100
AcDbEntity
  8
0
100
AcDbLine
 62
7
  6
CONTINUOUS
 10
5.4929611668
 20
3.0840680075
 11
5.4929378028
 21
3.0839553651
  0
LINE
  5
56D
100
AcDbEntity
  8
0
100
AcDbLine
 62
7
  6
CONTINUOUS
 10
5.181283532
 20
2.9378390453
 11
5.1811423372
 21
2.9380239432
  0
LINE
  5
56E
100
AcDbEntity
  8
0
100
AcDbLine
 62
7
  6
CONTINUOUS
 10
5.204923193
 20
2.9313600469
 11
5.2047844569
 21
2.9315333919
  0
LINE
  5
56F
100
AcDbEntity
  8
0
100
AcDbLine
 62
7
  6
CONTINUOUS
 10
5.2290866741
 20
2.9272078942
 11
5.2289551708
 21
2.9273688752
  0
LINE
  5
570
100
AcDbEntity
  8
0
100
AcDbLine
 62
7
  6
CONTINUOUS
 10
5.2535416624
 20
2.9254216208
 11
5.2534217016
 21
2.9255704996
  0
SPLINE
  5
571
100
AcDbEntity
  8
0
100
AcDbSpline
 62
7
  6
CONTINUOUS
 70
0
 71
3
 72
31
 73
27
 74
0
 42
0.0000001
 43
0.0000001
 44
0.0000000001
 40
0.0
 40
0.0
 40
0.0
 40
0.0
 40
0.0311018789
 40
0.0622052309
 40
0.0933115273
 40
0.124422197
 40
0.1866430946
 40
0.248897406
 40
0.2800495012
 40
0.3112132237
 40
0.3423894477
 40
0.3735789338
 40
0.4359811309
 40
0.4984421342
 40
0.5609630368
 40
0.6235426317
 40
0.6548628007
 40
0.686196162
 40
0.7175419594
 40
0.7488993167
 40
0.8116260294
 40
0.8743859919
 40
0.9057843215
 40
0.9371866468
 40
0.9685941417
 40
1.0
 40
1.0
 40
1.0
 40
1.0
 10
5.4784217016
 20
3.2273376494
 30
0.0
 10
5.4784217016
 20
3.2237935291
 30
0.0
 10
5.4782459351
 20
3.216703853
 30
0.0
 10
5.4774557522
 20
3.2060961217
 30
0.0
 10
5.4761408345
 20
3.1955390591
 30
0.0
 10
5.4736926738
 20
3.1815671579
 30
0.0
 10
5.4693375097
 20
3.164349186
 30
0.0
 10
5.4632996941
 20
3.1476418566
 30
0.0
 10
5.4574979777
 20
3.1346813142
 30
0.0
 10
5.452668448
 20
3.1251802571
 30
0.0
 10
5.4473739186
 20
3.1159253398
 30
0.0
 10
5.4397118767
 20
3.1039434114
 30
0.0
 10
5.429032852
 20
3.0896853969
 30
0.0
 10
5.4145926006
 20
3.0739099681
 30
0.0
 10
5.3986610495
 20
3.0596119832
 30
0.0
 10
5.3842692245
 20
3.0490435103
 30
0.0
 10
5.3721750219
 20
3.0414598236
 30
0.0
 10
5.362829268
 20
3.0362171349
 30
0.0
 10
5.353235024
 20
3.0314349211
 30
0.0
 10
5.3401430477
 20
3.0256881634
 30
0.0
 10
5.3232681562
 20
3.0197090628
 30
0.0
 10
5.3058872177
 20
3.0153986369
 30
0.0
 10
5.2917813548
 20
3.0129749786
 30
0.0
 10
5.2811208977
 20
3.0116729163
 30
0.0
 10
5.2704093952
 20
3.0108905881
 30
0.0
 10
5.263250461
 20
3.0107165094
 30
0.0
 10
5.2596717016
 20
3.0107165094
 30
0.0
  0
LINE
  5
572
100
AcDbEntity
  8
0
100
AcDbLine
 62
7
  6
CONTINUOUS
 10
5.2780532939
 20
2.9260176304
 11
5.2779484234
 21
2.9261555846
  0
LINE
  5
573
100
AcDbEntity
  8
0
100
AcDbLine
 62
7
  6
CONTINUOUS
 10
5.3023863599
 20
2.9289896055
 11
5.3022991303
 21
2.9291184954
  0
LINE
  5
574
100
AcDbEntity
  8
0
100
AcDbLine
 62
7
  6
CONTINUOUS
 10
5.3263075038
 20
2.9343086162
 11
5.3262393118
 21
2.9344306977
  0
SPLINE
  5
575
100
AcDbEntity
  8
0
100
AcDbSpline
 62
7
  6
CONTINUOUS
 70
0
 71
3
 72
31
 73
27
 74
0
 42
0.0000001
 43
0.0000001
 44
0.0000000001
 40
0.0
 40
0.0
 40
0.0
 40
0.0
 40
0.0311018789
 40
0.0622052309
 40
0.0933115273
 40
0.124422197
 40
0.1866430946
 40
0.248897406
 40
0.2800495012
 40
0.3112132237
 40
0.3423894477
 40
0.3735789338
 40
0.4359811309
 40
0.4984421342
 40
0.5609630368
 40
0.6235426317
 40
0.6548628007
 40
0.686196162
 40
0.7175419594
 40
0.7488993167
 40
0.8116260294
 40
0.8743859919
 40
0.9057843215
 40
0.9371866468
 40
0.9685941417
 40
1.0
 40
1.0
 40
1.0
 40
1.0
 10
5.4784217016
 20
3.2482136145
 30
0.0
 10
5.4784217016
 20
3.2446694942
 30
0.0
 10
5.4782459351
 20
3.2375798181
 30
0.0
 10
5.4774557522
 20
3.2269720868
 30
0.0
 10
5.4761408345
 20
3.2164150243
 30
0.0
 10
5.4736926738
 20
3.2024431231
 30
0.0
 10
5.4693375097
 20
3.1852251512
 30
0.0
 10
5.4632996941
 20
3.1685178218
 30
0.0
 10
5.4574979777
 20
3.1555572794
 30
0.0
 10
5.452668448
 20
3.1460562223
 30
0.0
 10
5.4473739186
 20
3.1368013049
 30
0.0
 10
5.4397118767
 20
3.1248193766
 30
0.0
 10
5.429032852
 20
3.110561362
 30
0.0
 10
5.4145926006
 20
3.0947859332
 30
0.0
 10
5.3986610495
 20
3.0804879483
 30
0.0
 10
5.3842692245
 20
3.0699194754
 30
0.0
 10
5.3721750219
 20
3.0623357888
 30
0.0
 10
5.362829268
 20
3.0570931001
 30
0.0
 10
5.353235024
 20
3.0523108862
 30
0.0
 10
5.3401430477
 20
3.0465641286
 30
0.0
 10
5.3232681562
 20
3.0405850279
 30
0.0
 10
5.3058872177
 20
3.036274602
 30
0.0
 10
5.2917813548
 20
3.0338509438
 30
0.0
 10
5.2811208977
 20
3.0325488815
 30
0.0
 10
5.2704093952
 20
3.0317665532
 30
0.0
 10
5.263250461
 20
3.0315924745
 30
0.0
 10
5.2596717016
 20
3.0315924745
 30
0.0
  0
SPLINE
  5
576
100
AcDbEntity
  8
0
100
AcDbSpline
 62
7
  6
CONTINUOUS
 70
0
 71
3
 72
29
 73
25
 74
0
 42
0.0000001
 43
0.0000001
 44
0.0000000001
 40
0.0
 40
0.0
 40
0.0
 40
0.0
 40
0.0043690852
 40
0.0063561337
 40
0.0084785237
 40
0.0109157542
 40
0.0137856772
 40
0.0210648853
 40
0.0306061099
 40
0.0424984452
 40
0.0567534832
 40
0.0733430643
 40
0.0922242687
 40
0.1133453468
 40
0.1620414539
 40
0.2188628895
 40
0.2832093264
 40
0.3544660013
 40
0.4320305944
 40
0.5153261244
 40
0.6037983848
 40
0.6969635148
 40
0.7943520441
 40
1.0
 40
1.0
 40
1.0
 40
1.0
 10
5.0311801627
 20
3.3257697319
 30
0.0
 10
5.031185088
 20
3.3257807172
 30
0.0
 10
5.0311957592
 20
3.3257962009
 30
0.0
 10
5.0312174343
 20
3.3258061041
 30
0.0
 10
5.0312356573
 20
3.325807862
 30
0.0
 10
5.0312560169
 20
3.3258045196
 30
0.0
 10
5.0312887498
 20
3.325792658
 30
0.0
 10
5.0313353363
 20
3.3257640454
 30
0.0
 10
5.0313967549
 20
3.3257140762
 30
0.0
 10
5.0314675903
 20
3.3256457165
 30
0.0
 10
5.0315476083
 20
3.3255592748
 30
0.0
 10
5.0316365728
 20
3.3254550276
 30
0.0
 10
5.0317341806
 20
3.3253333958
 30
0.0
 10
5.0318826046
 20
3.3251391978
 30
0.0
 10
5.0320864403
 20
3.3248558946
 30
0.0
 10
5.0323503453
 20
3.3244693011
 30
0.0
 10
5.0326412036
 20
3.3240259514
 30
0.0
 10
5.0329564839
 20
3.3235303455
 30
0.0
 10
5.0332937093
 20
3.3229868685
 30
0.0
 10
5.0336505691
 20
3.3223997854
 30
0.0
 10
5.034024928
 20
3.3217730616
 30
0.0
 10
5.0344148246
 20
3.3211104067
 30
0.0
 10
5.0349630144
 20
3.3201662951
 30
0.0
 10
5.0353767064
 20
3.319440954
 30
0.0
 10
5.0356554875
 20
3.3189476193
 30
0.0
  0
LINE
  5
577
100
AcDbEntity
  8
0
100
AcDbLine
 62
7
  6
CONTINUOUS
 10
5.3495873829
 20
2.941923425
 11
5.3495384108
 21
2.9420410319
  0
LINE
  5
578
100
AcDbEntity
  8
0
100
AcDbLine
 62
7
  6
CONTINUOUS
 10
5.3720027945
 20
2.9517609833
 11
5.3719720443
 21
2.9518762064
  0
LINE
  5
579
100
AcDbEntity
  8
0
100
AcDbLine
 62
7
  6
CONTINUOUS
 10
5.1059542656
 20
2.9778216896
 11
5.1059529923
 21
2.9777073602
  0
LINE
  5
57A
100
AcDbEntity
  8
0
100
AcDbLine
 62
7
  6
CONTINUOUS
 10
5.0264056004
 20
3.0839553651
 11
5.0263822364
 21
3.0840680075
  0
LINE
  5
57B
100
AcDbEntity
  8
0
100
AcDbLine
 62
7
  6
CONTINUOUS
 10
5.1260192391
 20
2.963841503
 11
5.126004666
 21
2.9637271114
  0
SPLINE
  5
57C
100
AcDbEntity
  8
0
100
AcDbSpline
 62
7
  6
CONTINUOUS
 70
0
 71
3
 72
27
 73
23
 74
0
 42
0.0000001
 43
0.0000001
 44
0.0000000001
 40
0.0
 40
0.0
 40
0.0
 40
0.0
 40
0.0052461691
 40
0.0075920986
 40
0.0099806783
 40
0.0155233761
 40
0.0228332675
 40
0.0322908996
 40
0.0440427955
 40
0.0581344967
 40
0.0745546779
 40
0.114226761
 40
0.1626449771
 40
0.2192488596
 40
0.2834367712
 40
0.3545879789
 40
0.4320891146
 40
0.5153538375
 40
0.6038157448
 40
0.6969806638
 40
0.7943715307
 40
1.0
 40
1.0
 40
1.0
 40
1.0
 10
5.0223358946
 20
3.3030917149
 30
0.0
 10
5.0223405578
 20
3.3031056482
 30
0.0
 10
5.0223508163
 20
3.3031254725
 30
0.0
 10
5.0223732826
 20
3.3031427412
 30
0.0
 10
5.0224006028
 20
3.3031530095
 30
0.0
 10
5.0224446195
 20
3.3031509701
 30
0.0
 10
5.0225037993
 20
3.3031300273
 30
0.0
 10
5.022574121
 20
3.3030916258
 30
0.0
 10
5.0226556036
 20
3.3030354597
 30
0.0
 10
5.0227482773
 20
3.3029617112
 30
0.0
 10
5.0228958789
 20
3.3028318151
 30
0.0
 10
5.0231044243
 20
3.3026261521
 30
0.0
 10
5.0233805044
 20
3.3023294208
 30
0.0
 10
5.0236927667
 20
3.3019728594
 30
0.0
 10
5.0240380079
 20
3.3015607593
 30
0.0
 10
5.0244130937
 20
3.3010974287
 30
0.0
 10
5.0248149972
 20
3.3005871512
 30
0.0
 10
5.0252408703
 20
3.3000340964
 30
0.0
 10
5.0256880872
 20
3.2994421514
 30
0.0
 10
5.0261542326
 20
3.2988149544
 30
0.0
 10
5.0268099982
 20
3.2979198661
 30
0.0
 10
5.0273052561
 20
3.2972306686
 30
0.0
 10
5.0276391221
 20
3.2967614153
 30
0.0
  0
LINE
  5
57D
100
AcDbEntity
  8
0
100
AcDbLine
 62
7
  6
CONTINUOUS
 10
5.1473713589
 20
2.9518762064
 11
5.1473406088
 21
2.9517609833
  0
LINE
  5
57E
100
AcDbEntity
  8
0
100
AcDbLine
 62
7
  6
CONTINUOUS
 10
5.3933387373
 20
2.9637271114
 11
5.3933241641
 21
2.963841503
  0
LINE
  5
57F
100
AcDbEntity
  8
0
100
AcDbLine
 62
7
  6
CONTINUOUS
 10
5.1698049924
 20
2.9420410319
 11
5.1697560203
 21
2.941923425
  0
LINE
  5
580
100
AcDbEntity
  8
0
100
AcDbLine
 62
7
  6
CONTINUOUS
 10
5.03635144
 20
3.0617133607
 11
5.0363140668
 21
3.0618526966
  0
LINE
  5
581
100
AcDbEntity
  8
0
100
AcDbLine
 62
7
  6
CONTINUOUS
 10
5.1931040914
 20
2.9344306977
 11
5.1930358994
 21
2.9343086162
  0
LINE
  5
582
100
AcDbEntity
  8
0
100
AcDbLine
 62
7
  6
CONTINUOUS
 10
5.2170442729
 20
2.9291184954
 11
5.2169570433
 21
2.9289896055
  0
LINE
  5
583
100
AcDbEntity
  8
0
100
AcDbLine
 62
7
  6
CONTINUOUS
 10
5.4133904109
 20
2.9777073603
 11
5.4133891376
 21
2.9778216896
  0
LINE
  5
584
100
AcDbEntity
  8
0
100
AcDbLine
 62
7
  6
CONTINUOUS
 10
5.2413949798
 20
2.9261555846
 11
5.2412901093
 21
2.9260176304
  0
LINE
  5
585
100
AcDbEntity
  8
0
100
AcDbLine
 62
7
  6
CONTINUOUS
 10
5.0484506352
 20
3.0405461096
 11
5.0483969533
 21
3.0407083741
  0
ENDSEC
  0
SECTION
  2
OBJECTS
  0
DICTIONARY
  5
C
100
AcDbDictionary
280
0
281
1
  3
ACAD_GROUP
350
D
  3
ACAD_MLINESTYLE
350
17
  3
ACAD_LAYOUT
350
1A
  3
ACAD_PLOTSETTINGS
350
19
  3
ACAD_PLOTSTYLENAME
350
E
  0
DICTIONARY
  5
D
102
{ACAD_REACTORS
330
C
102
}
100
AcDbDictionary
280
0
281
1
  0
ACDBDICTIONARYWDFLT
  5
E
102
{ACAD_REACTORS
330
C
102
}
100
AcDbDictionary
281
1
  3
Normal
350
F
100
AcDbDictionaryWithDefault
340
F
  0
DICTIONARY
  5
17
102
{ACAD_REACTORS
330
C
102
}
100
AcDbDictionary
280
0
281
1
  3
Standard
350
18
  0
DICTIONARY
  5
19
102
{ACAD_REACTORS
330
C
102
}
100
AcDbDictionary
281
1
  0
DICTIONARY
  5
1A
102
{ACAD_REACTORS
330
C
102
}
100
AcDbDictionary
281
1
  3
Model
350
586
  3
Layout1
350
587
  0
ACDBPLACEHOLDER
  5
F
102
{ACAD_REACTORS
330
E
102
}
  0
MLINESTYLE
  5
18
102
{ACAD_REACTORS
330
17
102
}
100
AcDbMlineStyle
  2
STANDARD
 70
0
  3

 62
256
 51
90.0
 52
90.0
 71
2
 49
0.5
 62
256
  6
BYLAYER
 49
-0.5
 62
256
  6
BYLAYER
  0
LAYOUT
  5
586
102
{ACAD_REACTORS
330
1A
102
}
100
AcDbPlotSettings
  1

  2
none_device
  4
ANSI_A_(11.00_x_8.50_Inches)
  6

 40
0.0
 41
0.0
 42
0.0
 43
0.0
 44
279.4
 45
215.9
 46
0.0
 47
0.0
 48
0.0
 49
0.0
140
0.0
141
0.0
142
1.0
143
1.0
 70
1024
 72
0
 73
0
 74
0
  7

 75
0
147
1.0
148
0.0
149
0.0
100
AcDbLayout
  1
Model
 70
0
 71
0
 10
0.0
 20
0.0
 11
11.0
 21
8.5
 12
0.0
 22
0.0
 32
0.0
 14
0.0
 24
0.0
 34
0.0
 15
0.0
 25
0.0
 35
0.0
146
0.0
 13
0.0
 23
0.0
 33
0.0
 16
1.0
 26
0.0
 36
0.0
 17
0.0
 27
1.0
 37
0.0
 76
0
330
203
345
0
346
0
  0
LAYOUT
  5
587
102
{ACAD_REACTORS
330
1A
102
}
100
AcDbPlotSettings
  1

  2
none_device
  4
ANSI_A_(11.00_x_8.50_Inches)
  6

 40
0.0
 41
0.0
 42
0.0
 43
0.0
 44
279.4
 45
215.9
 46
0.0
 47
0.0
 48
0.0
 49
0.0
140
0.0
141
0.0
142
1.0
143
1.0
 70
0
 72
0
 73
0
 74
0
  7

 75
0
147
1.0
148
0.0
149
0.0
100
AcDbLayout
  1
Layout1
 70
0
 71
1
 10
0.0
 20
0.0
 11
11.0
 21
8.5
 12
0.0
 22
0.0
 32
0.0
 14
0.0
 24
0.0
 34
0.0
 15
0.0
 25
0.0
 35
0.0
146
0.0
 13
0.0
 23
0.0
 33
0.0
 16
1.0
 26
0.0
 36
0.0
 17
0.0
 27
1.0
 37
0.0
 76
0
330
204
345
0
346
0
  0
ENDSEC
  0
EOF
