999
DXF file: E:\BT Custom\CADOUTPUT\_TOP.dxf
999
Pro/ENGINEER 2018400 by Parametric Technology Corporation
  0
SECTION
  2
HEADER
  9
$ACADVER
  1
AC1018
  9
$DWGCODEPAGE
  3
ANSI_1252
  9
$EXTMAX
 10
22.0
 20
17.0
 30
0.0
  9
$EXTMIN
 10
0.0
 20
0.0
 30
0.0
  9
$LIMMIN
 10
0.0
 20
0.0
  9
$LIMMAX
 10
22.0
 20
17.0
  9
$VIEWCTR
 10
11.0
 20
8.5
  9
$VIEWSIZE
 40
17.0
  9
$CLAYER
  8
0
  9
$LTSCALE
 40
1.21
  9
$CELTYPE
  6
BYLAYER
  9
$DIMSCALE
 40
1.0
  9
$DIMASZ
 40
0.1
  9
$DIMEXO
 40
0.0625
  9
$DIMDLI
 40
0.836
  9
$DIMEXE
 40
0.125
  9
$DIMCEN
 40
0.198
  9
$DIMLFAC
 40
1.0
  9
$DIMBLK
  1
_FILLED
  9
$DIMALT
 70
1
  9
$DIMALTD
 70
2
  9
$DIMALTTD
 70
2
  9
$DIMALTF
 40
25.4
  9
$DIMTXT
 40
0.08
  9
$DIMTOL
 70
1
  9
$DIMLIM
 70
0
  9
$DIMTFAC
 40
1.0
  9
$DIMTP
 40
0.001
  9
$DIMTM
 40
0.001
  9
$DIMGAP
 40
0.09
  9
$DIMDSEP
 70
46
  9
$AUNITS
 70
0
  9
$PDMODE
 70
3
  9
$PDSIZE
 40
0.06
  9
$HANDSEED
  5
442
  9
$TILEMODE
 70
1
  9
$MEASUREMENT
 70
0
  9
$INSUNITS
 70
1
  0
ENDSEC
  0
SECTION
  2
CLASSES
  0
CLASS
  1
ACDBDICTIONARYWDFLT
  2
AcDbDictionaryWithDefault
  3
AutoCAD 2000
 90
0
 91
1
280
0
281
0
  0
CLASS
  1
ACDBPLACEHOLDER
  2
AcDbPlaceHolder
  3
AutoCAD 2000
 90
0
 91
1
280
0
281
0
  0
CLASS
  1
LAYOUT
  2
AcDbLayout
  3
AutoCAD 2000
 90
0
 91
0
280
0
281
0
  0
ENDSEC
  0
SECTION
  2
TABLES
  0
TABLE
  2
VPORT
  5
8
100
AcDbSymbolTable
 70
2
  0
VPORT
  5
1F4
100
AcDbSymbolTableRecord
100
AcDbViewportTableRecord
  2
*ACTIVE
 70
0
 10
0.0
 20
0.0
 11
1.0
 21
1.0
 12
11.0
 22
8.5
 13
0.0
 23
0.0
 14
1.0
 24
1.0
 15
0.0
 25
0.0
 16
0.0
 26
0.0
 36
1.0
 17
0.0
 27
0.0
 37
0.0
 40
17.0
 41
1.2941176471
 42
50.0
 43
0.0
 44
0.0
 50
0.0
 51
0.0
 71
0
 72
100
 73
1
 74
1
 75
0
 76
0
 77
0
 78
0
  0
ENDTAB
  0
TABLE
  2
LTYPE
  5
5
100
AcDbSymbolTable
 70
6
  0
LTYPE
  5
14
100
AcDbSymbolTableRecord
100
AcDbLinetypeTableRecord
  2
BYBLOCK
 70
0
  3

 72
65
 73
0
 40
0.0
  0
LTYPE
  5
15
100
AcDbSymbolTableRecord
100
AcDbLinetypeTableRecord
  2
BYLAYER
 70
0
  3

 72
65
 73
0
 40
0.0
  0
LTYPE
  5
16
100
AcDbSymbolTableRecord
100
AcDbLinetypeTableRecord
  2
CONTINUOUS
 70
64
  3
Solid line
 72
65
 73
0
 40
0.0
  0
LTYPE
  5
1F5
100
AcDbSymbolTableRecord
100
AcDbLinetypeTableRecord
  2
CENTER
 70
64
  3
____ _ ____ _ ____ _ ____ _ ____ _ ____ _ ____
 72
65
 73
4
 40
0.6
 49
0.375
 74
0
 49
-0.075
 74
0
 49
0.075
 74
0
 49
-0.075
 74
0
  0
LTYPE
  5
1F6
100
AcDbSymbolTableRecord
100
AcDbLinetypeTableRecord
  2
HIDDEN
 70
64
  3
- - - - - - - - - - - - - - - - - - - -
 72
65
 73
2
 40
0.2
 49
0.1
 74
0
 49
-0.1
 74
0
  0
LTYPE
  5
1F7
100
AcDbSymbolTableRecord
100
AcDbLinetypeTableRecord
  2
PHANTOM
 70
64
  3
_____ _ _ _____ _ _ _____ _ _ _____
 72
65
 73
6
 40
0.8
 49
0.45
 74
0
 49
-0.05
 74
0
 49
0.1
 74
0
 49
-0.05
 74
0
 49
0.1
 74
0
 49
-0.05
 74
0
  0
LTYPE
  5
1F8
100
AcDbSymbolTableRecord
100
AcDbLinetypeTableRecord
  2
DOT
 70
64
  3
. . . . . . . . . . . . . . . . . . . .
 72
65
 73
2
 40
0.2
 49
0.1
 74
0
 49
-0.1
 74
0
  0
LTYPE
  5
1F9
100
AcDbSymbolTableRecord
100
AcDbLinetypeTableRecord
  2
DASHED
 70
64
  3
- - - - - - - - - - - - - - - - - - - -
 72
65
 73
2
 40
0.2
 49
0.1
 74
0
 49
-0.1
 74
0
  0
ENDTAB
  0
TABLE
  2
LAYER
  5
2
100
AcDbSymbolTable
 70
36
  0
LAYER
  5
10
100
AcDbSymbolTableRecord
100
AcDbLayerTableRecord
  2
0
 70
0
 62
7
  6
CONTINUOUS
370
-3
390
F
  0
LAYER
  5
1FA
100
AcDbSymbolTableRecord
100
AcDbLayerTableRecord
  2
DEFAULT_1
 70
0
 62
7
  6
CENTER
370
-3
390
F
  0
LAYER
  5
1FB
100
AcDbSymbolTableRecord
100
AcDbLayerTableRecord
  2
DEFAULT_2
 70
0
 62
8
  6
HIDDEN
370
-3
390
F
  0
LAYER
  5
1FC
100
AcDbSymbolTableRecord
100
AcDbLayerTableRecord
  2
DEFAULT_3
 70
0
 62
7
  6
PHANTOM
370
-3
390
F
  0
LAYER
  5
1FD
100
AcDbSymbolTableRecord
100
AcDbLayerTableRecord
  2
ALL_FEATURES
 70
0
 62
7
  6
CONTINUOUS
370
-3
390
F
  0
LAYER
  5
1FE
100
AcDbSymbolTableRecord
100
AcDbLayerTableRecord
  2
AXES_FEATURES
 70
0
 62
7
  6
CONTINUOUS
370
-3
390
F
  0
LAYER
  5
1FF
100
AcDbSymbolTableRecord
100
AcDbLayerTableRecord
  2
DIMENSIONS
 70
0
 62
7
  6
CONTINUOUS
370
-3
390
F
  0
ENDTAB
  0
TABLE
  2
STYLE
  5
3
100
AcDbSymbolTable
 70
1
  0
STYLE
  5
11
100
AcDbSymbolTableRecord
100
AcDbTextStyleTableRecord
  2
STANDARD
 70
0
 40
0.0
 41
0.8
 50
0.0
 71
0
 42
0.2
  3
txt
  4

  0
STYLE
  5
200
100
AcDbSymbolTableRecord
100
AcDbTextStyleTableRecord
  2
TEXTSTYLE_1
 70
0
 40
0.0
 41
0.8
 50
0.0
 71
0
 42
0.2
  3
gdt
  4

  0
ENDTAB
  0
TABLE
  2
VIEW
  5
6
100
AcDbSymbolTable
 70
0
  0
ENDTAB
  0
TABLE
  2
UCS
  5
7
100
AcDbSymbolTable
 70
0
  0
ENDTAB
  0
TABLE
  2
APPID
  5
9
100
AcDbSymbolTable
 70
1
  0
APPID
  5
201
100
AcDbSymbolTableRecord
100
AcDbRegAppTableRecord
  2
ACAD
 70
0
  0
ENDTAB
  0
TABLE
  2
BLOCK_RECORD
  5
1
100
AcDbSymbolTable
 70
0
  0
BLOCK_RECORD
  5
202
100
AcDbSymbolTableRecord
100
AcDbBlockTableRecord
  2
*Model_Space
  0
BLOCK_RECORD
  5
203
100
AcDbSymbolTableRecord
100
AcDbBlockTableRecord
  2
*Paper_Space
  0
BLOCK_RECORD
  5
204
100
AcDbSymbolTableRecord
100
AcDbBlockTableRecord
  2
_FILLED
  0
ENDTAB
  0
TABLE
  2
DIMSTYLE
  5
A
100
AcDbSymbolTable
 70
1
100
AcDbDimStyleTable
 71
0
  0
DIMSTYLE
105
205
100
AcDbSymbolTableRecord
100
AcDbDimStyleTableRecord
  2
STANDARD
 70
0
  3

  4

 40
1.0
 41
0.1
 42
0.0625
 43
0.38
 44
0.125
 45
0.0
 46
0.0
 47
0.001
 48
0.001
140
0.08
141
0.09
142
0.0
143
25.4
144
1.0
145
0.0
146
1.0
147
0.09
 71
1.0
 72
0.0
 73
1
 74
1
 75
0
 76
0
 77
0
 78
4
 79
1
170
1
171
2
172
0
173
0
174
0
175
0
176
0
177
0
178
0
270
2
179
3
271
3
272
3
273
2
274
2
275
0
280
0
281
0
282
0
283
1
284
4
285
0
286
0
287
3
288
0
340
11
278
46
341
204
342
204
343
204
344
204
  0
ENDTAB
  0
ENDSEC
  0
SECTION
  2
BLOCKS
  0
BLOCK
  5
20
100
AcDbEntity
  8
0
100
AcDbBlockBegin
  2
*Model_Space
 70
0
 10
0.0
 20
0.0
 30
0.0
  3
*Model_Space
  1

  0
ENDBLK
  5
21
100
AcDbEntity
  8
0
100
AcDbBlockEnd
  0
BLOCK
  5
1C
100
AcDbEntity
  8
0
100
AcDbBlockBegin
  2
*Paper_Space
 70
0
 10
0.0
 20
0.0
 30
0.0
  3
*Paper_Space
  1

  0
ENDBLK
  5
1D
100
AcDbEntity
  8
0
100
AcDbBlockEnd
  0
BLOCK
  5
206
100
AcDbEntity
  8
0
100
AcDbBlockBegin
  2
_FILLED
 70
64
 10
0.0
 20
0.0
  3
_FILLED
  1

  0
SOLID
  5
207
100
AcDbEntity
  8
0
  6
BYBLOCK
 62
0
100
AcDbTrace
 10
0.0
 20
0.0
 11
-1.0
 21
0.2
 12
-1.0
 22
-0.2
 13
-1.0
 23
-0.2
  0
ENDBLK
  5
208
100
AcDbEntity
  8
0
  6
BYBLOCK
 62
0
100
AcDbBlockEnd
  0
ENDSEC
  0
SECTION
  2
ENTITIES
  0
LINE
  5
209
100
AcDbEntity
  8
0
100
AcDbLine
 62
7
  6
CONTINUOUS
 10
4.2473183383
 20
10.1284583128
 11
4.2473183383
 21
10.338458313
  0
LINE
  5
20A
100
AcDbEntity
  8
0
100
AcDbLine
 62
9
  6
CONTINUOUS
 10
4.2673183383
 20
10.3584583129
 11
4.2673183383
 21
10.1084583129
  0
LINE
  5
20B
100
AcDbEntity
  8
0
100
AcDbLine
 62
7
  6
CONTINUOUS
 10
6.5726262742
 20
10.0763995842
 11
6.5832531793
 21
10.092685686
  0
LINE
  5
20C
100
AcDbEntity
  8
0
100
AcDbLine
 62
7
  6
CONTINUOUS
 10
6.9997852392
 20
10.7160699672
 11
7.0107648948
 21
10.7321203686
  0
LINE
  5
20D
100
AcDbEntity
  8
0
100
AcDbLine
 62
7
  6
CONTINUOUS
 10
6.5595175988
 20
10.1236838235
 11
6.5716896495
 21
10.1388498845
  0
LINE
  5
20E
100
AcDbEntity
  8
0
100
AcDbLine
 62
7
  6
CONTINUOUS
 10
6.6688638294
 20
9.9066981796
 11
6.6724493882
 21
9.9258113162
  0
LINE
  5
20F
100
AcDbEntity
  8
0
100
AcDbLine
 62
7
  6
CONTINUOUS
 10
6.8187159966
 20
10.6611432129
 11
6.8227176529
 21
10.6801735826
  0
LINE
  5
210
100
AcDbEntity
  8
0
100
AcDbLine
 62
7
  6
CONTINUOUS
 10
6.6386580975
 20
9.9453666477
 11
6.6440998058
 21
9.9640363031
  0
LINE
  5
211
100
AcDbEntity
  8
0
100
AcDbLine
 62
7
  6
CONTINUOUS
 10
6.8617372302
 20
10.6814907411
 11
6.8675849199
 21
10.7000372434
  0
LINE
  5
212
100
AcDbEntity
  8
0
100
AcDbLine
 62
7
  6
CONTINUOUS
 10
6.6123879871
 20
9.986809596
 11
6.6196334383
 21
10.0048559712
  0
LINE
  5
213
100
AcDbEntity
  8
0
100
AcDbLine
 62
7
  6
CONTINUOUS
 10
6.9065457113
 20
10.697523472
 11
6.9141831179
 21
10.715407494
  0
LINE
  5
214
100
AcDbEntity
  8
0
100
AcDbLine
 62
7
  6
CONTINUOUS
 10
6.5903064937
 20
10.0306279062
 11
6.5992859102
 21
10.0478772048
  0
LINE
  5
215
100
AcDbEntity
  8
0
100
AcDbLine
 62
7
  6
CONTINUOUS
 10
6.9527099098
 20
10.7090870017
 11
6.9620634809
 21
10.7261363105
  0
LINE
  5
216
100
AcDbEntity
  8
0
100
AcDbLine
 62
7
  6
CONTINUOUS
 10
7.0473183383
 20
10.7184051186
 11
7.0598183383
 21
10.7333020385
  0
LINE
  5
217
100
AcDbEntity
  8
0
100
AcDbLine
 62
7
  6
CONTINUOUS
 10
6.5511067111
 20
10.1720252513
 11
6.564706684
 21
10.1859252138
  0
LINE
  5
218
100
AcDbEntity
  8
0
100
AcDbLine
 62
7
  6
CONTINUOUS
 10
7.0948514374
 20
10.7160699672
 11
7.1087514
 21
10.7296699401
  0
LINE
  5
219
100
AcDbEntity
  8
0
100
AcDbLine
 62
7
  6
CONTINUOUS
 10
6.5474746127
 20
10.2209583129
 11
6.5623715326
 21
10.2334583129
  0
LINE
  5
21A
100
AcDbEntity
  8
0
100
AcDbLine
 62
7
  6
CONTINUOUS
 10
7.1419267668
 20
10.7090870017
 11
7.1570928277
 21
10.7212590525
  0
LINE
  5
21B
100
AcDbEntity
  8
0
100
AcDbLine
 62
7
  6
CONTINUOUS
 10
6.5486562826
 20
10.2700117564
 11
6.564706684
 21
10.280991412
  0
LINE
  5
21C
100
AcDbEntity
  8
0
100
AcDbLine
 62
7
  6
CONTINUOUS
 10
7.1880909653
 20
10.697523472
 11
7.204377067
 21
10.708150377
  0
LINE
  5
21D
100
AcDbEntity
  8
0
100
AcDbLine
 62
7
  6
CONTINUOUS
 10
6.5546403407
 20
10.3187131703
 11
6.5716896495
 21
10.3280667414
  0
LINE
  5
21E
100
AcDbEntity
  8
0
100
AcDbLine
 62
7
  6
CONTINUOUS
 10
6.7398834663
 20
9.839143972
 11
6.7396713416
 21
9.8585893628
  0
LINE
  5
21F
100
AcDbEntity
  8
0
100
AcDbLine
 62
7
  6
CONTINUOUS
 10
6.7396713416
 20
10.608327263
 11
6.7398834663
 21
10.6277726539
  0
LINE
  5
220
100
AcDbEntity
  8
0
100
AcDbLine
 62
7
  6
CONTINUOUS
 10
6.7027142852
 20
9.8711765903
 11
6.7044091635
 21
9.8905491381
  0
LINE
  5
221
100
AcDbEntity
  8
0
100
AcDbLine
 62
7
  6
CONTINUOUS
 10
6.7778963285
 20
10.6366768454
 11
6.7800134133
 21
10.6560078096
  0
LINE
  5
222
100
AcDbEntity
  8
0
100
AcDbLine
 62
7
  6
CONTINUOUS
 10
7.4257728472
 20
10.5602184462
 11
7.4221872884
 21
10.5411053096
  0
LINE
  5
223
100
AcDbEntity
  8
0
100
AcDbLine
 62
7
  6
CONTINUOUS
 10
7.27592068
 20
9.8057734129
 11
7.2719190236
 21
9.7867430433
  0
LINE
  5
224
100
AcDbEntity
  8
0
100
AcDbLine
 62
7
  6
CONTINUOUS
 10
7.4559785791
 20
10.5215499782
 11
7.4505368708
 21
10.5028803228
  0
LINE
  5
225
100
AcDbEntity
  8
0
100
AcDbLine
 62
7
  6
CONTINUOUS
 10
7.2328994464
 20
9.7854258848
 11
7.2270517567
 21
9.7668793825
  0
LINE
  5
226
100
AcDbEntity
  8
0
100
AcDbLine
 62
7
  6
CONTINUOUS
 10
7.4822486895
 20
10.4801070299
 11
7.4750032383
 21
10.4620606547
  0
LINE
  5
227
100
AcDbEntity
  8
0
100
AcDbLine
 62
7
  6
CONTINUOUS
 10
7.1880909653
 20
9.7693931539
 11
7.1804535586
 21
9.7515091319
  0
LINE
  5
228
100
AcDbEntity
  8
0
100
AcDbLine
 62
7
  6
CONTINUOUS
 10
7.5043301829
 20
10.4362887196
 11
7.4953507664
 21
10.419039421
  0
LINE
  5
229
100
AcDbEntity
  8
0
100
AcDbLine
 62
7
  6
CONTINUOUS
 10
7.1419267668
 20
9.7578296242
 11
7.1325731957
 21
9.7407803154
  0
LINE
  5
22A
100
AcDbEntity
  8
0
100
AcDbLine
 62
7
  6
CONTINUOUS
 10
7.5220104024
 20
10.3905170417
 11
7.5113834973
 21
10.3742309399
  0
LINE
  5
22B
100
AcDbEntity
  8
0
100
AcDbLine
 62
7
  6
CONTINUOUS
 10
7.0948514374
 20
9.7508466587
 11
7.0838717818
 21
9.7347962573
  0
LINE
  5
22C
100
AcDbEntity
  8
0
100
AcDbLine
 62
7
  6
CONTINUOUS
 10
7.5351190778
 20
10.3432328023
 11
7.5229470271
 21
10.3280667414
  0
LINE
  5
22D
100
AcDbEntity
  8
0
100
AcDbLine
 62
7
  6
CONTINUOUS
 10
7.0473183383
 20
9.7485115073
 11
7.0348183383
 21
9.7336145874
  0
LINE
  5
22E
100
AcDbEntity
  8
0
100
AcDbLine
 62
7
  6
CONTINUOUS
 10
7.5435299654
 20
10.2948913746
 11
7.5299299925
 21
10.280991412
  0
LINE
  5
22F
100
AcDbEntity
  8
0
100
AcDbLine
 62
7
  6
CONTINUOUS
 10
6.9997852392
 20
9.7508466587
 11
6.9858852766
 21
9.7372466858
  0
LINE
  5
230
100
AcDbEntity
  8
0
100
AcDbLine
 62
7
  6
CONTINUOUS
 10
7.5471620639
 20
10.2459583129
 11
7.532265144
 21
10.2334583129
  0
LINE
  5
231
100
AcDbEntity
  8
0
100
AcDbLine
 62
7
  6
CONTINUOUS
 10
6.9527099098
 20
9.7578296242
 11
6.9375438489
 21
9.7456575734
  0
LINE
  5
232
100
AcDbEntity
  8
0
100
AcDbLine
 62
7
  6
CONTINUOUS
 10
7.545980394
 20
10.1969048694
 11
7.5299299925
 21
10.1859252138
  0
LINE
  5
233
100
AcDbEntity
  8
0
100
AcDbLine
 62
7
  6
CONTINUOUS
 10
6.9065457113
 20
9.7693931539
 11
6.8902596095
 21
9.7587662488
  0
LINE
  5
234
100
AcDbEntity
  8
0
100
AcDbLine
 62
7
  6
CONTINUOUS
 10
7.2328994464
 20
10.6814907411
 11
7.250148745
 21
10.6904701575
  0
LINE
  5
235
100
AcDbEntity
  8
0
100
AcDbLine
 62
7
  6
CONTINUOUS
 10
6.5652863979
 20
10.3665581907
 11
6.5832531793
 21
10.3742309399
  0
LINE
  5
236
100
AcDbEntity
  8
0
100
AcDbLine
 62
7
  6
CONTINUOUS
 10
7.27592068
 20
10.6611432129
 11
7.2939670552
 21
10.6683886642
  0
LINE
  5
237
100
AcDbEntity
  8
0
100
AcDbLine
 62
7
  6
CONTINUOUS
 10
6.5807394079
 20
10.4131917313
 11
6.5992859102
 21
10.419039421
  0
LINE
  5
238
100
AcDbEntity
  8
0
100
AcDbLine
 62
7
  6
CONTINUOUS
 10
6.7800134133
 20
9.8109088163
 11
6.7778963285
 21
9.8302397804
  0
LINE
  5
239
100
AcDbEntity
  8
0
100
AcDbLine
 62
7
  6
CONTINUOUS
 10
6.7044091635
 20
10.5763674877
 11
6.7027142852
 21
10.5957400356
  0
LINE
  5
23A
100
AcDbEntity
  8
0
100
AcDbLine
 62
7
  6
CONTINUOUS
 10
7.3547532103
 20
10.6277726539
 11
7.354965335
 21
10.608327263
  0
LINE
  5
23B
100
AcDbEntity
  8
0
100
AcDbLine
 62
7
  6
CONTINUOUS
 10
7.354965335
 20
9.8585893628
 11
7.3547532103
 21
9.839143972
  0
LINE
  5
23C
100
AcDbEntity
  8
0
100
AcDbLine
 62
7
  6
CONTINUOUS
 10
7.3919223914
 20
10.5957400356
 11
7.3902275131
 21
10.5763674877
  0
LINE
  5
23D
100
AcDbEntity
  8
0
100
AcDbLine
 62
7
  6
CONTINUOUS
 10
7.3167403481
 20
9.8302397804
 11
7.3146232632
 21
9.8109088163
  0
LINE
  5
23E
100
AcDbEntity
  8
0
100
AcDbLine
 62
7
  6
CONTINUOUS
 10
7.5399963359
 20
10.1482034556
 11
7.5229470271
 21
10.1388498845
  0
LINE
  5
23F
100
AcDbEntity
  8
0
100
AcDbLine
 62
7
  6
CONTINUOUS
 10
6.8617372302
 20
9.7854258848
 11
6.8444879316
 21
9.7764464683
  0
LINE
  5
240
100
AcDbEntity
  8
0
100
AcDbLine
 62
7
  6
CONTINUOUS
 10
7.5292675193
 20
10.1003230926
 11
7.5113834973
 21
10.092685686
  0
LINE
  5
241
100
AcDbEntity
  8
0
100
AcDbLine
 62
7
  6
CONTINUOUS
 10
6.8187159966
 20
9.8057734129
 11
6.8006696213
 21
9.7985279617
  0
LINE
  5
242
100
AcDbEntity
  8
0
100
AcDbLine
 62
7
  6
CONTINUOUS
 10
7.3167403481
 20
10.6366768454
 11
7.3354100035
 21
10.6421185537
  0
LINE
  5
243
100
AcDbEntity
  8
0
100
AcDbLine
 62
7
  6
CONTINUOUS
 10
11.4940336079
 20
3.8838576276
 11
11.4750032383
 21
3.8798559712
  0
LINE
  5
244
100
AcDbEntity
  8
0
100
AcDbLine
 62
7
  6
CONTINUOUS
 10
10.720558205
 20
3.7300038041
 11
10.7396713416
 21
3.7335893628
  0
LINE
  5
245
100
AcDbEntity
  8
0
100
AcDbLine
 62
7
  6
CONTINUOUS
 10
11.4698678349
 20
3.841153388
 11
11.4505368708
 21
3.8390363031
  0
LINE
  5
246
100
AcDbEntity
  8
0
100
AcDbLine
 62
7
  6
CONTINUOUS
 10
10.6850366156
 20
3.7638542598
 11
10.7044091635
 21
3.7655491381
  0
LINE
  5
247
100
AcDbEntity
  8
0
100
AcDbLine
 62
7
  6
CONTINUOUS
 10
11.4416326793
 20
3.801023441
 11
11.4221872884
 21
3.8008113162
  0
LINE
  5
248
100
AcDbEntity
  8
0
100
AcDbLine
 62
7
  6
CONTINUOUS
 10
10.6530039973
 20
3.801023441
 11
10.6724493882
 21
3.8008113162
  0
LINE
  5
249
100
AcDbEntity
  8
0
100
AcDbLine
 62
7
  6
CONTINUOUS
 10
11.4096000609
 20
3.7638542598
 11
11.3902275131
 21
3.7655491381
  0
LINE
  5
24A
100
AcDbEntity
  8
0
100
AcDbLine
 62
7
  6
CONTINUOUS
 10
10.6247688417
 20
3.841153388
 11
10.6440998058
 21
3.8390363031
  0
LINE
  5
24B
100
AcDbEntity
  8
0
100
AcDbLine
 62
7
  6
CONTINUOUS
 10
11.3740784716
 20
3.7300038041
 11
11.354965335
 21
3.7335893628
  0
LINE
  5
24C
100
AcDbEntity
  8
0
100
AcDbLine
 62
7
  6
CONTINUOUS
 10
10.6006030686
 20
3.8838576276
 11
10.6196334383
 21
3.8798559712
  0
LINE
  5
24D
100
AcDbEntity
  8
0
100
AcDbLine
 62
7
  6
CONTINUOUS
 10
6.8227176529
 20
9.7867430433
 11
6.8187159966
 21
9.8057734129
  0
LINE
  5
24E
100
AcDbEntity
  8
0
100
AcDbLine
 62
7
  6
CONTINUOUS
 10
6.6724493882
 20
10.5411053096
 11
6.6688638294
 21
10.5602184462
  0
LINE
  5
24F
100
AcDbEntity
  8
0
100
AcDbLine
 62
7
  6
CONTINUOUS
 10
7.3146232632
 20
10.6560078096
 11
7.3167403481
 21
10.6366768454
  0
LINE
  5
250
100
AcDbEntity
  8
0
100
AcDbLine
 62
7
  6
CONTINUOUS
 10
7.3902275131
 20
9.8905491381
 11
7.3919223914
 21
9.8711765903
  0
LINE
  5
251
100
AcDbEntity
  8
0
100
AcDbLine
 62
7
  6
CONTINUOUS
 10
7.5138972687
 20
10.0537248945
 11
7.4953507664
 21
10.0478772048
  0
LINE
  5
252
100
AcDbEntity
  8
0
100
AcDbLine
 62
7
  6
CONTINUOUS
 10
6.7778963285
 20
9.8302397804
 11
6.759226673
 21
9.8247980721
  0
LINE
  5
253
100
AcDbEntity
  8
0
100
AcDbLine
 62
7
  6
CONTINUOUS
 10
11.3354100035
 20
3.6997980721
 11
11.3167403481
 21
3.7052397804
  0
LINE
  5
254
100
AcDbEntity
  8
0
100
AcDbLine
 62
7
  6
CONTINUOUS
 10
10.5807394079
 20
3.9287248945
 11
10.5992859102
 21
3.9228772048
  0
LINE
  5
255
100
AcDbEntity
  8
0
100
AcDbLine
 62
7
  6
CONTINUOUS
 10
11.2939670552
 20
3.6735279617
 11
11.27592068
 21
3.6807734129
  0
LINE
  5
256
100
AcDbEntity
  8
0
100
AcDbLine
 62
7
  6
CONTINUOUS
 10
10.5653691572
 20
3.9753230926
 11
10.5832531793
 21
3.967685686
  0
LINE
  5
257
100
AcDbEntity
  8
0
100
AcDbLine
 62
7
  6
CONTINUOUS
 10
11.250148745
 20
3.6514464683
 11
11.2328994464
 21
3.6604258848
  0
LINE
  5
258
100
AcDbEntity
  8
0
100
AcDbLine
 62
7
  6
CONTINUOUS
 10
10.5546403407
 20
4.0232034556
 11
10.5716896495
 21
4.0138498845
  0
LINE
  5
259
100
AcDbEntity
  8
0
100
AcDbLine
 62
7
  6
CONTINUOUS
 10
11.204377067
 20
3.6337662488
 11
11.1880909653
 21
3.6443931539
  0
LINE
  5
25A
100
AcDbEntity
  8
0
100
AcDbLine
 62
7
  6
CONTINUOUS
 10
10.5486562826
 20
4.0719048694
 11
10.564706684
 21
4.0609252138
  0
LINE
  5
25B
100
AcDbEntity
  8
0
100
AcDbLine
 62
7
  6
CONTINUOUS
 10
6.8675849199
 20
9.7668793825
 11
6.8617372302
 21
9.7854258848
  0
LINE
  5
25C
100
AcDbEntity
  8
0
100
AcDbLine
 62
7
  6
CONTINUOUS
 10
6.6440998058
 20
10.5028803228
 11
6.6386580975
 21
10.5215499782
  0
LINE
  5
25D
100
AcDbEntity
  8
0
100
AcDbLine
 62
7
  6
CONTINUOUS
 10
7.4221872884
 20
9.9258113162
 11
7.4257728472
 21
9.9066981796
  0
LINE
  5
25E
100
AcDbEntity
  8
0
100
AcDbLine
 62
7
  6
CONTINUOUS
 10
10.5287466047
 20
10.2719726886
 11
10.5447970061
 21
10.2829523442
  0
LINE
  5
25F
100
AcDbEntity
  8
0
100
AcDbLine
 62
7
  6
CONTINUOUS
 10
11.1938984041
 20
10.7166680321
 11
11.2101845059
 21
10.7272949372
  0
LINE
  5
260
100
AcDbEntity
  8
0
100
AcDbLine
 62
7
  6
CONTINUOUS
 10
10.5350187383
 20
10.3226161497
 11
10.5520680471
 21
10.3319697208
  0
LINE
  5
261
100
AcDbEntity
  8
0
100
AcDbLine
 62
7
  6
CONTINUOUS
 10
11.2405554159
 20
10.6999738864
 11
11.2578047144
 21
10.7089533029
  0
LINE
  5
262
100
AcDbEntity
  8
0
100
AcDbLine
 62
7
  6
CONTINUOUS
 10
10.5462245971
 20
10.3724009721
 11
10.5641086191
 21
10.3800383787
  0
LINE
  5
263
100
AcDbEntity
  8
0
100
AcDbLine
 62
7
  6
CONTINUOUS
 10
11.2853514489
 20
10.6787869406
 11
11.3033978242
 21
10.6860323918
  0
LINE
  5
264
100
AcDbEntity
  8
0
100
AcDbLine
 62
7
  6
CONTINUOUS
 10
10.5622562626
 20
10.4208477008
 11
10.5808027649
 21
10.4266953905
  0
LINE
  5
265
100
AcDbEntity
  8
0
100
AcDbLine
 62
7
  6
CONTINUOUS
 10
11.327855093
 20
10.6533112367
 11
11.3465247484
 21
10.658752945
  0
LINE
  5
266
100
AcDbEntity
  8
0
100
AcDbLine
 62
7
  6
CONTINUOUS
 10
10.6006030686
 20
4.3330589983
 11
10.6098183383
 21
4.3349967611
  0
LINE
  5
267
100
AcDbEntity
  8
0
100
AcDbLine
 62
7
  6
CONTINUOUS
 10
11.4940336079
 20
4.3330589983
 11
11.4848183383
 21
4.3349967611
  0
LINE
  5
268
100
AcDbEntity
  8
0
100
AcDbLine
 62
7
  6
CONTINUOUS
 10
11.5138972687
 20
4.2881917313
 11
11.4953507664
 21
4.294039421
  0
LINE
  5
269
100
AcDbEntity
  8
0
100
AcDbLine
 62
7
  6
CONTINUOUS
 10
11.5292675193
 20
4.2415935333
 11
11.5113834973
 21
4.2492309399
  0
LINE
  5
26A
100
AcDbEntity
  8
0
100
AcDbLine
 62
7
  6
CONTINUOUS
 10
11.5399963359
 20
4.1937131703
 11
11.5229470271
 21
4.2030667414
  0
LINE
  5
26B
100
AcDbEntity
  8
0
100
AcDbLine
 62
7
  6
CONTINUOUS
 10
11.1570928277
 20
3.6206575734
 11
11.1419267668
 21
3.6328296242
  0
LINE
  5
26C
100
AcDbEntity
  8
0
100
AcDbLine
 62
7
  6
CONTINUOUS
 10
10.5623715326
 20
4.1084583129
 11
10.5474746127
 21
4.1209583129
  0
LINE
  5
26D
100
AcDbEntity
  8
0
100
AcDbLine
 62
7
  6
CONTINUOUS
 10
11.1087514
 20
3.6122466858
 11
11.0948514374
 21
3.6258466587
  0
LINE
  5
26E
100
AcDbEntity
  8
0
100
AcDbLine
 62
7
  6
CONTINUOUS
 10
10.5511067111
 20
4.1698913746
 11
10.564706684
 21
4.155991412
  0
LINE
  5
26F
100
AcDbEntity
  8
0
100
AcDbLine
 62
7
  6
CONTINUOUS
 10
6.5992859102
 20
10.419039421
 11
6.5903064937
 21
10.4362887196
  0
LINE
  5
270
100
AcDbEntity
  8
0
100
AcDbLine
 62
7
  6
CONTINUOUS
 10
6.9141831179
 20
9.7515091319
 11
6.9065457113
 21
9.7693931539
  0
LINE
  5
271
100
AcDbEntity
  8
0
100
AcDbLine
 62
7
  6
CONTINUOUS
 10
6.6196334383
 20
10.4620606547
 11
6.6123879871
 21
10.4801070299
  0
LINE
  5
272
100
AcDbEntity
  8
0
100
AcDbLine
 62
7
  6
CONTINUOUS
 10
7.2270517567
 20
10.7000372434
 11
7.2328994464
 21
10.6814907411
  0
LINE
  5
273
100
AcDbEntity
  8
0
100
AcDbLine
 62
7
  6
CONTINUOUS
 10
7.4505368708
 20
9.9640363031
 11
7.4559785791
 21
9.9453666477
  0
LINE
  5
274
100
AcDbEntity
  8
0
100
AcDbLine
 62
7
  6
CONTINUOUS
 10
7.2719190236
 20
10.6801735826
 11
7.27592068
 21
10.6611432129
  0
LINE
  5
275
100
AcDbEntity
  8
0
100
AcDbLine
 62
7
  6
CONTINUOUS
 10
10.5398959964
 20
10.1197808442
 11
10.5520680471
 21
10.1349469051
  0
LINE
  5
276
100
AcDbEntity
  8
0
100
AcDbLine
 62
7
  6
CONTINUOUS
 10
11.0473183383
 20
10.7384111309
 11
11.0598183383
 21
10.7533080508
  0
LINE
  5
277
100
AcDbEntity
  8
0
100
AcDbLine
 62
7
  6
CONTINUOUS
 10
10.5311970332
 20
10.1700643192
 11
10.5447970061
 21
10.1839642817
  0
LINE
  5
278
100
AcDbEntity
  8
0
100
AcDbLine
 62
7
  6
CONTINUOUS
 10
11.0968123695
 20
10.7359796451
 11
11.1107123321
 21
10.749579618
  0
LINE
  5
279
100
AcDbEntity
  8
0
100
AcDbLine
 62
7
  6
CONTINUOUS
 10
10.5274686004
 20
10.2209583129
 11
10.5423655203
 21
10.2334583129
  0
LINE
  5
27A
100
AcDbEntity
  8
0
100
AcDbLine
 62
7
  6
CONTINUOUS
 10
11.1458297461
 20
10.7287086041
 11
11.160995807
 21
10.7408806549
  0
LINE
  5
27B
100
AcDbEntity
  8
0
100
AcDbLine
 62
7
  6
CONTINUOUS
 10
11.5596179383
 20
10.1443004762
 11
11.5425686295
 21
10.1349469051
  0
LINE
  5
27C
100
AcDbEntity
  8
0
100
AcDbLine
 62
7
  6
CONTINUOUS
 10
11.5484120795
 20
10.0945156537
 11
11.5305280575
 21
10.0868782471
  0
LINE
  5
27D
100
AcDbEntity
  8
0
100
AcDbLine
 62
7
  6
CONTINUOUS
 10
11.532380414
 20
10.0460689251
 11
11.5138339117
 21
10.0402212354
  0
LINE
  5
27E
100
AcDbEntity
  8
0
100
AcDbLine
 62
7
  6
CONTINUOUS
 10
11.545980394
 20
4.1450117564
 11
11.5299299925
 21
4.155991412
  0
LINE
  5
27F
100
AcDbEntity
  8
0
100
AcDbLine
 62
7
  6
CONTINUOUS
 10
11.532265144
 20
4.1084583129
 11
11.5471620639
 21
4.0959583129
  0
LINE
  5
280
100
AcDbEntity
  8
0
100
AcDbLine
 62
7
  6
CONTINUOUS
 10
11.5435299654
 20
4.0470252513
 11
11.5299299925
 21
4.0609252138
  0
LINE
  5
281
100
AcDbEntity
  8
0
100
AcDbLine
 62
7
  6
CONTINUOUS
 10
11.0598183383
 20
3.6086145874
 11
11.0473183383
 21
3.6235115073
  0
LINE
  5
282
100
AcDbEntity
  8
0
100
AcDbLine
 62
7
  6
CONTINUOUS
 10
10.5595175988
 20
4.2182328023
 11
10.5716896495
 21
4.2030667414
  0
LINE
  5
283
100
AcDbEntity
  8
0
100
AcDbLine
 62
7
  6
CONTINUOUS
 10
11.0107648948
 20
3.6097962573
 11
10.9997852392
 21
3.6258466587
  0
LINE
  5
284
100
AcDbEntity
  8
0
100
AcDbLine
 62
7
  6
CONTINUOUS
 10
7.0107648948
 20
9.7347962573
 11
6.9997852392
 21
9.7508466587
  0
LINE
  5
285
100
AcDbEntity
  8
0
100
AcDbLine
 62
7
  6
CONTINUOUS
 10
6.5832531793
 20
10.3742309399
 11
6.5726262742
 21
10.3905170417
  0
LINE
  5
286
100
AcDbEntity
  8
0
100
AcDbLine
 62
7
  6
CONTINUOUS
 10
10.5726262742
 20
4.2655170417
 11
10.5832531793
 21
4.2492309399
  0
LINE
  5
287
100
AcDbEntity
  8
0
100
AcDbLine
 62
7
  6
CONTINUOUS
 10
6.9620634809
 20
9.7407803154
 11
6.9527099098
 21
9.7578296242
  0
LINE
  5
288
100
AcDbEntity
  8
0
100
AcDbLine
 62
7
  6
CONTINUOUS
 10
7.1804535586
 20
10.715407494
 11
7.1880909653
 21
10.697523472
  0
LINE
  5
289
100
AcDbEntity
  8
0
100
AcDbLine
 62
7
  6
CONTINUOUS
 10
7.4750032383
 20
10.0048559712
 11
7.4822486895
 21
9.986809596
  0
LINE
  5
28A
100
AcDbEntity
  8
0
100
AcDbLine
 62
7
  6
CONTINUOUS
 10
10.5718233484
 20
10.0229719368
 11
10.5808027649
 21
10.0402212354
  0
LINE
  5
28B
100
AcDbEntity
  8
0
100
AcDbLine
 62
7
  6
CONTINUOUS
 10
10.9488069304
 20
10.7287086041
 11
10.9581605015
 21
10.7457579129
  0
LINE
  5
28C
100
AcDbEntity
  8
0
100
AcDbLine
 62
7
  6
CONTINUOUS
 10
10.553481714
 20
10.0705921454
 11
10.5641086191
 21
10.0868782471
  0
LINE
  5
28D
100
AcDbEntity
  8
0
100
AcDbLine
 62
7
  6
CONTINUOUS
 10
10.9978243071
 20
10.7359796451
 11
11.0088039626
 21
10.7520300465
  0
LINE
  5
28E
100
AcDbEntity
  8
0
100
AcDbLine
 62
7
  6
CONTINUOUS
 10
11.5634396433
 20
10.2968523067
 11
11.5498396704
 21
10.2829523442
  0
LINE
  5
28F
100
AcDbEntity
  8
0
100
AcDbLine
 62
7
  6
CONTINUOUS
 10
11.5671680762
 20
10.2459583129
 11
11.5522706249
 21
10.233457867
  0
LINE
  5
290
100
AcDbEntity
  8
0
100
AcDbLine
 62
7
  6
CONTINUOUS
 10
11.5658900719
 20
10.1949439373
 11
11.5498396704
 21
10.1839642817
  0
LINE
  5
291
100
AcDbEntity
  8
0
100
AcDbLine
 62
7
  6
CONTINUOUS
 10
14.5807394079
 20
10.4131917313
 11
14.5992859102
 21
10.419039421
  0
LINE
  5
292
100
AcDbEntity
  8
0
100
AcDbLine
 62
7
  6
CONTINUOUS
 10
15.3167403481
 20
10.6366768454
 11
15.3354100035
 21
10.6421185537
  0
LINE
  5
293
100
AcDbEntity
  8
0
100
AcDbLine
 62
7
  6
CONTINUOUS
 10
7.0598183383
 20
9.7336145874
 11
7.0473183383
 21
9.7485115073
  0
LINE
  5
294
100
AcDbEntity
  8
0
100
AcDbLine
 62
7
  6
CONTINUOUS
 10
11.5351190778
 20
3.9986838235
 11
11.5229470271
 21
4.0138498845
  0
LINE
  5
295
100
AcDbEntity
  8
0
100
AcDbLine
 62
7
  6
CONTINUOUS
 10
6.5716896495
 20
10.3280667414
 11
6.5595175988
 21
10.3432328023
  0
LINE
  5
296
100
AcDbEntity
  8
0
100
AcDbLine
 62
7
  6
CONTINUOUS
 10
7.5113834973
 20
10.092685686
 11
7.5220104024
 21
10.0763995842
  0
LINE
  5
297
100
AcDbEntity
  8
0
100
AcDbLine
 62
7
  6
CONTINUOUS
 10
11.5220104024
 20
3.9513995842
 11
11.5113834973
 21
3.967685686
  0
LINE
  5
298
100
AcDbEntity
  8
0
100
AcDbLine
 62
7
  6
CONTINUOUS
 10
10.9620634809
 20
3.6157803154
 11
10.9527099098
 21
3.6328296242
  0
LINE
  5
299
100
AcDbEntity
  8
0
100
AcDbLine
 62
7
  6
CONTINUOUS
 10
7.1325731957
 20
10.7261363105
 11
7.1419267668
 21
10.7090870017
  0
LINE
  5
29A
100
AcDbEntity
  8
0
100
AcDbLine
 62
7
  6
CONTINUOUS
 10
7.4953507664
 20
10.0478772048
 11
7.5043301829
 21
10.0306279062
  0
LINE
  5
29B
100
AcDbEntity
  8
0
100
AcDbLine
 62
7
  6
CONTINUOUS
 10
10.5903064937
 20
4.3112887196
 11
10.5992859102
 21
4.294039421
  0
LINE
  5
29C
100
AcDbEntity
  8
0
100
AcDbLine
 62
7
  6
CONTINUOUS
 10
10.9141831179
 20
3.6265091319
 11
10.9065457113
 21
3.6443931539
  0
LINE
  5
29D
100
AcDbEntity
  8
0
100
AcDbLine
 62
7
  6
CONTINUOUS
 10
10.8540812607
 20
10.6999738864
 11
10.8599289504
 21
10.7185203887
  0
LINE
  5
29E
100
AcDbEntity
  8
0
100
AcDbLine
 62
7
  6
CONTINUOUS
 10
10.5947442594
 20
9.9773788271
 11
10.6019897106
 21
9.9954252023
  0
LINE
  5
29F
100
AcDbEntity
  8
0
100
AcDbLine
 62
7
  6
CONTINUOUS
 10
10.9007382725
 20
10.7166680321
 11
10.9083756791
 21
10.7345520541
  0
LINE
  5
2A0
100
AcDbEntity
  8
0
100
AcDbLine
 62
7
  6
CONTINUOUS
 10
11.5411549625
 20
10.3963244805
 11
11.5305280575
 21
10.3800383787
  0
LINE
  5
2A1
100
AcDbEntity
  8
0
100
AcDbLine
 62
7
  6
CONTINUOUS
 10
11.5547406802
 20
10.3471357817
 11
11.5425686295
 21
10.3319697208
  0
LINE
  5
2A2
100
AcDbEntity
  8
0
100
AcDbLine
 62
7
  6
CONTINUOUS
 10
14.5653691572
 20
10.3665935333
 11
14.5832531793
 21
10.3742309399
  0
LINE
  5
2A3
100
AcDbEntity
  8
0
100
AcDbLine
 62
7
  6
CONTINUOUS
 10
15.27592068
 20
10.6611432129
 11
15.2939670552
 21
10.6683886642
  0
LINE
  5
2A4
100
AcDbEntity
  8
0
100
AcDbLine
 62
7
  6
CONTINUOUS
 10
15.5138972687
 20
10.0537248945
 11
15.4953507664
 21
10.0478772048
  0
LINE
  5
2A5
100
AcDbEntity
  8
0
100
AcDbLine
 62
7
  6
CONTINUOUS
 10
14.7778963285
 20
9.8302397804
 11
14.759226673
 21
9.8247980721
  0
LINE
  5
2A6
100
AcDbEntity
  8
0
100
AcDbLine
 62
7
  6
CONTINUOUS
 10
7.1087514
 20
9.7372466858
 11
7.0948514374
 21
9.7508466587
  0
LINE
  5
2A7
100
AcDbEntity
  8
0
100
AcDbLine
 62
7
  6
CONTINUOUS
 10
6.564706684
 20
10.280991412
 11
6.5511067111
 21
10.2948913746
  0
LINE
  5
2A8
100
AcDbEntity
  8
0
100
AcDbLine
 62
7
  6
CONTINUOUS
 10
7.0348183383
 20
10.7333020385
 11
7.0473183383
 21
10.7184051186
  0
LINE
  5
2A9
100
AcDbEntity
  8
0
100
AcDbLine
 62
7
  6
CONTINUOUS
 10
7.5229470271
 20
10.1388498845
 11
7.5351190778
 21
10.1236838235
  0
LINE
  5
2AA
100
AcDbEntity
  8
0
100
AcDbLine
 62
7
  6
CONTINUOUS
 10
7.0838717818
 20
10.7321203686
 11
7.0948514374
 21
10.7160699672
  0
LINE
  5
2AB
100
AcDbEntity
  8
0
100
AcDbLine
 62
7
  6
CONTINUOUS
 10
11.5043301829
 20
3.9056279062
 11
11.4953507664
 21
3.9228772048
  0
LINE
  5
2AC
100
AcDbEntity
  8
0
100
AcDbLine
 62
7
  6
CONTINUOUS
 10
10.8675849199
 20
3.6418793825
 11
10.8617372302
 21
3.6604258848
  0
LINE
  5
2AD
100
AcDbEntity
  8
0
100
AcDbLine
 62
7
  6
CONTINUOUS
 10
10.8227176529
 20
3.6617430433
 11
10.8187159966
 21
3.6807734129
  0
LINE
  5
2AE
100
AcDbEntity
  8
0
100
AcDbLine
 62
7
  6
CONTINUOUS
 10
10.7800134133
 20
3.6859088163
 11
10.7778963285
 21
3.7052397804
  0
LINE
  5
2AF
100
AcDbEntity
  8
0
100
AcDbLine
 62
7
  6
CONTINUOUS
 10
10.7667815835
 20
10.6533112367
 11
10.7688986684
 21
10.6726422009
  0
LINE
  5
2B0
100
AcDbEntity
  8
0
100
AcDbLine
 62
7
  6
CONTINUOUS
 10
10.8092852276
 20
10.6787869406
 11
10.813286884
 21
10.6978173103
  0
LINE
  5
2B1
100
AcDbEntity
  8
0
100
AcDbLine
 62
7
  6
CONTINUOUS
 10
11.4998924172
 20
10.4895377988
 11
11.492646966
 21
10.4714914236
  0
LINE
  5
2B2
100
AcDbEntity
  8
0
100
AcDbLine
 62
7
  6
CONTINUOUS
 10
11.5228133282
 20
10.4439446891
 11
11.5138339117
 21
10.4266953905
  0
LINE
  5
2B3
100
AcDbEntity
  8
0
100
AcDbLine
 62
7
  6
CONTINUOUS
 10
14.5546403407
 20
10.3187131703
 11
14.5716896495
 21
10.3280667414
  0
LINE
  5
2B4
100
AcDbEntity
  8
0
100
AcDbLine
 62
7
  6
CONTINUOUS
 10
15.2328994464
 20
10.6814907411
 11
15.250148745
 21
10.6904701575
  0
LINE
  5
2B5
100
AcDbEntity
  8
0
100
AcDbLine
 62
7
  6
CONTINUOUS
 10
15.5113834973
 20
10.092685686
 11
15.5293502787
 21
10.1003584351
  0
LINE
  5
2B6
100
AcDbEntity
  8
0
100
AcDbLine
 62
7
  6
CONTINUOUS
 10
14.8187159966
 20
9.8057734129
 11
14.8006696213
 21
9.7985279617
  0
LINE
  5
2B7
100
AcDbEntity
  8
0
100
AcDbLine
 62
7
  6
CONTINUOUS
 10
7.1570928277
 20
9.7456575734
 11
7.1419267668
 21
9.7578296242
  0
LINE
  5
2B8
100
AcDbEntity
  8
0
100
AcDbLine
 62
7
  6
CONTINUOUS
 10
6.5623715326
 20
10.2334583129
 11
6.5474746127
 21
10.2459583129
  0
LINE
  5
2B9
100
AcDbEntity
  8
0
100
AcDbLine
 62
7
  6
CONTINUOUS
 10
6.9858852766
 20
10.7296699401
 11
6.9997852392
 21
10.7160699672
  0
LINE
  5
2BA
100
AcDbEntity
  8
0
100
AcDbLine
 62
7
  6
CONTINUOUS
 10
7.5299299925
 20
10.1859252138
 11
7.5435299654
 21
10.1720252513
  0
LINE
  5
2BB
100
AcDbEntity
  8
0
100
AcDbLine
 62
7
  6
CONTINUOUS
 10
11.4822486895
 20
3.861809596
 11
11.4750032383
 21
3.8798559712
  0
LINE
  5
2BC
100
AcDbEntity
  8
0
100
AcDbLine
 62
7
  6
CONTINUOUS
 10
11.4559785791
 20
3.8203666477
 11
11.4505368708
 21
3.8390363031
  0
LINE
  5
2BD
100
AcDbEntity
  8
0
100
AcDbLine
 62
7
  6
CONTINUOUS
 10
10.6902627765
 20
10.5905138747
 11
10.6885678982
 21
10.6098864226
  0
LINE
  5
2BE
100
AcDbEntity
  8
0
100
AcDbLine
 62
7
  6
CONTINUOUS
 10
11.3919223914
 20
3.7461765903
 11
11.3902275131
 21
3.7655491381
  0
LINE
  5
2BF
100
AcDbEntity
  8
0
100
AcDbLine
 62
7
  6
CONTINUOUS
 10
10.7398834663
 20
3.714143972
 11
10.7396713416
 21
3.7335893628
  0
LINE
  5
2C0
100
AcDbEntity
  8
0
100
AcDbLine
 62
7
  6
CONTINUOUS
 10
10.6098183383
 20
10.2334583129
 11
10.6098183383
 21
4.1084583129
  0
LINE
  5
2C1
100
AcDbEntity
  8
0
100
AcDbLine
 62
7
  6
CONTINUOUS
 10
10.7269796617
 20
10.6237921197
 11
10.7271917864
 21
10.6432375106
  0
LINE
  5
2C2
100
AcDbEntity
  8
0
100
AcDbLine
 62
7
  6
CONTINUOUS
 10
10.7027142852
 20
3.7461765903
 11
10.7044091635
 21
3.7655491381
  0
LINE
  5
2C3
100
AcDbEntity
  8
0
100
AcDbLine
 62
7
  6
CONTINUOUS
 10
11.4412377038
 20
10.5729101261
 11
11.4376521451
 21
10.5537969895
  0
LINE
  5
2C4
100
AcDbEntity
  8
0
100
AcDbLine
 62
7
  6
CONTINUOUS
 10
11.4726129704
 20
10.5326647231
 11
11.4671712621
 21
10.5139950677
  0
LINE
  5
2C5
100
AcDbEntity
  8
0
100
AcDbLine
 62
7
  6
CONTINUOUS
 10
15.1419267668
 20
10.7090870017
 11
15.1570928277
 21
10.7212590525
  0
LINE
  5
2C6
100
AcDbEntity
  8
0
100
AcDbLine
 62
7
  6
CONTINUOUS
 10
14.5486562826
 20
10.2700117564
 11
14.564706684
 21
10.280991412
  0
LINE
  5
2C7
100
AcDbEntity
  8
0
100
AcDbLine
 62
7
  6
CONTINUOUS
 10
15.1880909653
 20
10.697523472
 11
15.204377067
 21
10.708150377
  0
LINE
  5
2C8
100
AcDbEntity
  8
0
100
AcDbLine
 62
7
  6
CONTINUOUS
 10
15.5399963359
 20
10.1482034556
 11
15.5229470271
 21
10.1388498845
  0
LINE
  5
2C9
100
AcDbEntity
  8
0
100
AcDbLine
 62
7
  6
CONTINUOUS
 10
14.8617372302
 20
9.7854258848
 11
14.8444879316
 21
9.7764464683
  0
LINE
  5
2CA
100
AcDbEntity
  8
0
100
AcDbLine
 62
7
  6
CONTINUOUS
 10
7.204377067
 20
9.7587662488
 11
7.1880909653
 21
9.7693931539
  0
LINE
  5
2CB
100
AcDbEntity
  8
0
100
AcDbLine
 62
7
  6
CONTINUOUS
 10
6.564706684
 20
10.1859252138
 11
6.5486562826
 21
10.1969048694
  0
LINE
  5
2CC
100
AcDbEntity
  8
0
100
AcDbLine
 62
7
  6
CONTINUOUS
 10
6.9375438489
 20
10.7212590525
 11
6.9527099098
 21
10.7090870017
  0
LINE
  5
2CD
100
AcDbEntity
  8
0
100
AcDbLine
 62
7
  6
CONTINUOUS
 10
7.5322651439
 20
10.2334583129
 11
7.5471620639
 21
10.2209583129
  0
LINE
  5
2CE
100
AcDbEntity
  8
0
100
AcDbLine
 62
7
  6
CONTINUOUS
 10
11.4257728472
 20
3.7816981796
 11
11.4221872884
 21
3.8008113162
  0
LINE
  5
2CF
100
AcDbEntity
  8
0
100
AcDbLine
 62
7
  6
CONTINUOUS
 10
11.3674448901
 20
10.6432375106
 11
11.3676570148
 21
10.6237921197
  0
LINE
  5
2D0
100
AcDbEntity
  8
0
100
AcDbLine
 62
7
  6
CONTINUOUS
 10
11.4848183383
 20
10.2334583129
 11
11.4848183383
 21
4.1084583129
  0
LINE
  5
2D1
100
AcDbEntity
  8
0
100
AcDbLine
 62
7
  6
CONTINUOUS
 10
11.3547532103
 20
3.714143972
 11
11.354965335
 21
3.7335893628
  0
LINE
  5
2D2
100
AcDbEntity
  8
0
100
AcDbLine
 62
7
  6
CONTINUOUS
 10
11.4060687784
 20
10.6098864226
 11
11.4043739001
 21
10.5905138747
  0
LINE
  5
2D3
100
AcDbEntity
  8
0
100
AcDbLine
 62
7
  6
CONTINUOUS
 10
10.6688638294
 20
3.7816981796
 11
10.6724493882
 21
3.8008113162
  0
LINE
  5
2D4
100
AcDbEntity
  8
0
100
AcDbLine
 62
7
  6
CONTINUOUS
 10
15.0948514374
 20
10.7160699672
 11
15.1087514
 21
10.7296699401
  0
LINE
  5
2D5
100
AcDbEntity
  8
0
100
AcDbLine
 62
7
  6
CONTINUOUS
 10
14.5474746127
 20
10.2209583129
 11
14.5623715326
 21
10.2334583129
  0
LINE
  5
2D6
100
AcDbEntity
  8
0
100
AcDbLine
 62
7
  6
CONTINUOUS
 10
15.545980394
 20
10.1969048694
 11
15.5299299925
 21
10.1859252138
  0
LINE
  5
2D7
100
AcDbEntity
  8
0
100
AcDbLine
 62
7
  6
CONTINUOUS
 10
14.9065457113
 20
9.7693931539
 11
14.8902596095
 21
9.7587662488
  0
LINE
  5
2D8
100
AcDbEntity
  8
0
100
AcDbLine
 62
7
  6
CONTINUOUS
 10
7.250148745
 20
9.7764464683
 11
7.2328994464
 21
9.7854258848
  0
LINE
  5
2D9
100
AcDbEntity
  8
0
100
AcDbLine
 62
7
  6
CONTINUOUS
 10
6.5716896495
 20
10.1388498845
 11
6.5546403407
 21
10.1482034556
  0
LINE
  5
2DA
100
AcDbEntity
  8
0
100
AcDbLine
 62
7
  6
CONTINUOUS
 10
6.8902596095
 20
10.708150377
 11
6.9065457113
 21
10.697523472
  0
LINE
  5
2DB
100
AcDbEntity
  8
0
100
AcDbLine
 62
7
  6
CONTINUOUS
 10
7.5299299925
 20
10.280991412
 11
7.545980394
 21
10.2700117564
  0
LINE
  5
2DC
100
AcDbEntity
  8
0
100
AcDbLine
 62
7
  6
CONTINUOUS
 10
10.6274654145
 20
10.5139950677
 11
10.6220237062
 21
10.5326647231
  0
LINE
  5
2DD
100
AcDbEntity
  8
0
100
AcDbLine
 62
7
  6
CONTINUOUS
 10
10.6569845315
 20
10.5537969895
 11
10.6533989728
 21
10.5729101261
  0
LINE
  5
2DE
100
AcDbEntity
  8
0
100
AcDbLine
 62
7
  6
CONTINUOUS
 10
11.3257380082
 20
10.6726422009
 11
11.327855093
 21
10.6533112367
  0
LINE
  5
2DF
100
AcDbEntity
  8
0
100
AcDbLine
 62
7
  6
CONTINUOUS
 10
11.3146232632
 20
3.6859088163
 11
11.3167403481
 21
3.7052397804
  0
LINE
  5
2E0
100
AcDbEntity
  8
0
100
AcDbLine
 62
7
  6
CONTINUOUS
 10
11.2719190236
 20
3.6617430433
 11
11.27592068
 21
3.6807734129
  0
LINE
  5
2E1
100
AcDbEntity
  8
0
100
AcDbLine
 62
7
  6
CONTINUOUS
 10
10.6386580975
 20
3.8203666477
 11
10.6440998058
 21
3.8390363031
  0
LINE
  5
2E2
100
AcDbEntity
  8
0
100
AcDbLine
 62
7
  6
CONTINUOUS
 10
10.6123879871
 20
3.861809596
 11
10.6196334383
 21
3.8798559712
  0
LINE
  5
2E3
100
AcDbEntity
  8
0
100
AcDbLine
 62
7
  6
CONTINUOUS
 10
14.5595175988
 20
10.1236838235
 11
14.5716896495
 21
10.1388498845
  0
LINE
  5
2E4
100
AcDbEntity
  8
0
100
AcDbLine
 62
7
  6
CONTINUOUS
 10
15.0473183383
 20
10.7184051186
 11
15.0598183383
 21
10.7333020385
  0
LINE
  5
2E5
100
AcDbEntity
  8
0
100
AcDbLine
 62
7
  6
CONTINUOUS
 10
14.5511067111
 20
10.1720252513
 11
14.564706684
 21
10.1859252138
  0
LINE
  5
2E6
100
AcDbEntity
  8
0
100
AcDbLine
 62
7
  6
CONTINUOUS
 10
15.5471620639
 20
10.2459583129
 11
15.532265144
 21
10.2334583129
  0
LINE
  5
2E7
100
AcDbEntity
  8
0
100
AcDbLine
 62
7
  6
CONTINUOUS
 10
14.9527099098
 20
9.7578296242
 11
14.9375438489
 21
9.7456575734
  0
LINE
  5
2E8
100
AcDbEntity
  8
0
100
AcDbLine
 62
7
  6
CONTINUOUS
 10
6.5992859102
 20
10.0478772048
 11
6.5807394079
 21
10.0537248945
  0
LINE
  5
2E9
100
AcDbEntity
  8
0
100
AcDbLine
 62
7
  6
CONTINUOUS
 10
7.2939670552
 20
9.7985279617
 11
7.27592068
 21
9.8057734129
  0
LINE
  5
2EA
100
AcDbEntity
  8
0
100
AcDbLine
 62
7
  6
CONTINUOUS
 10
6.5652863979
 20
10.1003584351
 11
6.5832531793
 21
10.092685686
  0
LINE
  5
2EB
100
AcDbEntity
  8
0
100
AcDbLine
 62
7
  6
CONTINUOUS
 10
6.8444879316
 20
10.6904701575
 11
6.8617372302
 21
10.6814907411
  0
LINE
  5
2EC
100
AcDbEntity
  8
0
100
AcDbLine
 62
7
  6
CONTINUOUS
 10
7.5229470271
 20
10.3280667414
 11
7.5399963359
 21
10.3187131703
  0
LINE
  5
2ED
100
AcDbEntity
  8
0
100
AcDbLine
 62
7
  6
CONTINUOUS
 10
10.5808027649
 20
10.4266953905
 11
10.5718233484
 21
10.4439446891
  0
LINE
  5
2EE
100
AcDbEntity
  8
0
100
AcDbLine
 62
7
  6
CONTINUOUS
 10
10.6019897106
 20
10.4714914236
 11
10.5947442594
 21
10.4895377988
  0
LINE
  5
2EF
100
AcDbEntity
  8
0
100
AcDbLine
 62
7
  6
CONTINUOUS
 10
11.2813497926
 20
10.6978173103
 11
11.2853514489
 21
10.6787869406
  0
LINE
  5
2F0
100
AcDbEntity
  8
0
100
AcDbLine
 62
7
  6
CONTINUOUS
 10
11.2270517567
 20
3.6418793825
 11
11.2328994464
 21
3.6604258848
  0
LINE
  5
2F1
100
AcDbEntity
  8
0
100
AcDbLine
 62
7
  6
CONTINUOUS
 10
10.5903064937
 20
3.9056279062
 11
10.5992859102
 21
3.9228772048
  0
LINE
  5
2F2
100
AcDbEntity
  8
0
100
AcDbLine
 62
7
  6
CONTINUOUS
 10
10.5726262742
 20
3.9513995842
 11
10.5832531793
 21
3.967685686
  0
LINE
  5
2F3
100
AcDbEntity
  8
0
100
AcDbLine
 62
7
  6
CONTINUOUS
 10
14.5726262742
 20
10.0763995842
 11
14.5832531793
 21
10.092685686
  0
LINE
  5
2F4
100
AcDbEntity
  8
0
100
AcDbLine
 62
7
  6
CONTINUOUS
 10
14.9997852392
 20
10.7160699672
 11
15.0107648948
 21
10.7321203686
  0
LINE
  5
2F5
100
AcDbEntity
  8
0
100
AcDbLine
 62
7
  6
CONTINUOUS
 10
15.0473183383
 20
9.7485115073
 11
15.0348183383
 21
9.7336145874
  0
LINE
  5
2F6
100
AcDbEntity
  8
0
100
AcDbLine
 62
7
  6
CONTINUOUS
 10
15.5435299654
 20
10.2948913746
 11
15.5299299925
 21
10.280991412
  0
LINE
  5
2F7
100
AcDbEntity
  8
0
100
AcDbLine
 62
7
  6
CONTINUOUS
 10
14.9997852392
 20
9.7508466587
 11
14.9858852766
 21
9.7372466858
  0
LINE
  5
2F8
100
AcDbEntity
  8
0
100
AcDbLine
 62
7
  6
CONTINUOUS
 10
15.4940336079
 20
10.0088576276
 11
15.4750032383
 21
10.0048559712
  0
LINE
  5
2F9
100
AcDbEntity
  8
0
100
AcDbLine
 62
7
  6
CONTINUOUS
 10
6.6196334383
 20
10.0048559712
 11
6.6006030686
 21
10.0088576276
  0
LINE
  5
2FA
100
AcDbEntity
  8
0
100
AcDbLine
 62
7
  6
CONTINUOUS
 10
7.3354100035
 20
9.8247980721
 11
7.3167403481
 21
9.8302397804
  0
LINE
  5
2FB
100
AcDbEntity
  8
0
100
AcDbLine
 62
7
  6
CONTINUOUS
 10
6.8006696213
 20
10.6683886642
 11
6.8187159966
 21
10.6611432129
  0
LINE
  5
2FC
100
AcDbEntity
  8
0
100
AcDbLine
 62
7
  6
CONTINUOUS
 10
7.5113834973
 20
10.3742309399
 11
7.5292675193
 21
10.3665935333
  0
LINE
  5
2FD
100
AcDbEntity
  8
0
100
AcDbLine
 62
7
  6
CONTINUOUS
 10
10.5447970061
 20
10.2829523442
 11
10.5311970332
 21
10.2968523067
  0
LINE
  5
2FE
100
AcDbEntity
  8
0
100
AcDbLine
 62
7
  6
CONTINUOUS
 10
10.5520680471
 20
10.3319697208
 11
10.5398959964
 21
10.3471357817
  0
LINE
  5
2FF
100
AcDbEntity
  8
0
100
AcDbLine
 62
7
  6
CONTINUOUS
 10
10.5641086191
 20
10.3800383787
 11
10.553481714
 21
10.3963244805
  0
LINE
  5
300
100
AcDbEntity
  8
0
100
AcDbLine
 62
7
  6
CONTINUOUS
 10
11.5138339117
 20
10.0402212354
 11
11.5228133282
 21
10.0229719368
  0
LINE
  5
301
100
AcDbEntity
  8
0
100
AcDbLine
 62
7
  6
CONTINUOUS
 10
11.1862609975
 20
10.7345520541
 11
11.1938984041
 21
10.7166680321
  0
LINE
  5
302
100
AcDbEntity
  8
0
100
AcDbLine
 62
7
  6
CONTINUOUS
 10
11.492646966
 20
9.9954252023
 11
11.4998924172
 21
9.9773788271
  0
LINE
  5
303
100
AcDbEntity
  8
0
100
AcDbLine
 62
7
  6
CONTINUOUS
 10
11.2347077261
 20
10.7185203887
 11
11.2405554159
 21
10.6999738864
  0
LINE
  5
304
100
AcDbEntity
  8
0
100
AcDbLine
 62
7
  6
CONTINUOUS
 10
11.1804535586
 20
3.6265091319
 11
11.1880909653
 21
3.6443931539
  0
LINE
  5
305
100
AcDbEntity
  8
0
100
AcDbLine
 62
7
  6
CONTINUOUS
 10
11.5043301829
 20
4.3112887196
 11
11.4953507664
 21
4.294039421
  0
LINE
  5
306
100
AcDbEntity
  8
0
100
AcDbLine
 62
7
  6
CONTINUOUS
 10
14.5903064937
 20
10.0306279062
 11
14.5992859102
 21
10.0478772048
  0
LINE
  5
307
100
AcDbEntity
  8
0
100
AcDbLine
 62
7
  6
CONTINUOUS
 10
14.9527099098
 20
10.7090870017
 11
14.9620634809
 21
10.7261363105
  0
LINE
  5
308
100
AcDbEntity
  8
0
100
AcDbLine
 62
7
  6
CONTINUOUS
 10
11.1325731957
 20
3.6157803154
 11
11.1419267668
 21
3.6328296242
  0
LINE
  5
309
100
AcDbEntity
  8
0
100
AcDbLine
 62
7
  6
CONTINUOUS
 10
11.5220104024
 20
4.2655170417
 11
11.5113834973
 21
4.2492309399
  0
LINE
  5
30A
100
AcDbEntity
  8
0
100
AcDbLine
 62
7
  6
CONTINUOUS
 10
15.0948514374
 20
9.7508466587
 11
15.0838717818
 21
9.7347962573
  0
LINE
  5
30B
100
AcDbEntity
  8
0
100
AcDbLine
 62
7
  6
CONTINUOUS
 10
15.5351190778
 20
10.3432328023
 11
15.5229470271
 21
10.3280667414
  0
LINE
  5
30C
100
AcDbEntity
  8
0
100
AcDbLine
 62
7
  6
CONTINUOUS
 10
10.5595175988
 20
3.9986838235
 11
10.5716896495
 21
4.0138498845
  0
LINE
  5
30D
100
AcDbEntity
  8
0
100
AcDbLine
 62
7
  6
CONTINUOUS
 10
10.5511067111
 20
4.0470252513
 11
10.564706684
 21
4.0609252138
  0
LINE
  5
30E
100
AcDbEntity
  8
0
100
AcDbLine
 62
7
  6
CONTINUOUS
 10
14.7396713416
 20
9.8585893628
 11
14.720558205
 21
9.8550038041
  0
LINE
  5
30F
100
AcDbEntity
  8
0
100
AcDbLine
 62
7
  6
CONTINUOUS
 10
15.4698678349
 20
9.966153388
 11
15.4505368708
 21
9.9640363031
  0
LINE
  5
310
100
AcDbEntity
  8
0
100
AcDbLine
 62
7
  6
CONTINUOUS
 10
14.7044091635
 20
9.8905491381
 11
14.6850366156
 21
9.8888542598
  0
LINE
  5
311
100
AcDbEntity
  8
0
100
AcDbLine
 62
7
  6
CONTINUOUS
 10
7.4096000609
 20
9.8888542598
 11
7.3902275131
 21
9.8905491381
  0
LINE
  5
312
100
AcDbEntity
  8
0
100
AcDbLine
 62
7
  6
CONTINUOUS
 10
6.6440998058
 20
9.9640363031
 11
6.6247688417
 21
9.966153388
  0
LINE
  5
313
100
AcDbEntity
  8
0
100
AcDbLine
 62
7
  6
CONTINUOUS
 10
7.3740784716
 20
9.8550038041
 11
7.354965335
 21
9.8585893628
  0
LINE
  5
314
100
AcDbEntity
  8
0
100
AcDbLine
 62
7
  6
CONTINUOUS
 10
6.759226673
 20
10.6421185537
 11
6.7778963285
 21
10.6366768454
  0
LINE
  5
315
100
AcDbEntity
  8
0
100
AcDbLine
 62
7
  6
CONTINUOUS
 10
7.4953507664
 20
10.419039421
 11
7.5138972687
 21
10.4131917313
  0
LINE
  5
316
100
AcDbEntity
  8
0
100
AcDbLine
 62
7
  6
CONTINUOUS
 10
10.5520680471
 20
10.1349469051
 11
10.5350187383
 21
10.1443004762
  0
LINE
  5
317
100
AcDbEntity
  8
0
100
AcDbLine
 62
7
  6
CONTINUOUS
 10
10.5447970061
 20
10.1839642817
 11
10.5287466047
 21
10.1949439373
  0
LINE
  5
318
100
AcDbEntity
  8
0
100
AcDbLine
 62
7
  6
CONTINUOUS
 10
10.5423655203
 20
10.2334583129
 11
10.5274686004
 21
10.2459583129
  0
LINE
  5
319
100
AcDbEntity
  8
0
100
AcDbLine
 62
7
  6
CONTINUOUS
 10
11.0348183383
 20
10.7533080508
 11
11.0473183383
 21
10.7384111309
  0
LINE
  5
31A
100
AcDbEntity
  8
0
100
AcDbLine
 62
7
  6
CONTINUOUS
 10
11.5425686295
 20
10.1349469051
 11
11.5547406802
 21
10.1197808442
  0
LINE
  5
31B
100
AcDbEntity
  8
0
100
AcDbLine
 62
7
  6
CONTINUOUS
 10
11.0858327139
 20
10.7520300465
 11
11.0968123695
 21
10.7359796451
  0
LINE
  5
31C
100
AcDbEntity
  8
0
100
AcDbLine
 62
7
  6
CONTINUOUS
 10
11.5305280575
 20
10.0868782471
 11
11.5411549625
 21
10.0705921454
  0
LINE
  5
31D
100
AcDbEntity
  8
0
100
AcDbLine
 62
7
  6
CONTINUOUS
 10
11.1364761751
 20
10.7457579129
 11
11.1458297461
 21
10.7287086041
  0
LINE
  5
31E
100
AcDbEntity
  8
0
100
AcDbLine
 62
7
  6
CONTINUOUS
 10
14.8617372302
 20
10.6814907411
 11
14.8675849199
 21
10.7000372434
  0
LINE
  5
31F
100
AcDbEntity
  8
0
100
AcDbLine
 62
7
  6
CONTINUOUS
 10
14.6123879871
 20
9.986809596
 11
14.6196334383
 21
10.0048559712
  0
LINE
  5
320
100
AcDbEntity
  8
0
100
AcDbLine
 62
7
  6
CONTINUOUS
 10
14.9065457113
 20
10.697523472
 11
14.9141831179
 21
10.715407494
  0
LINE
  5
321
100
AcDbEntity
  8
0
100
AcDbLine
 62
7
  6
CONTINUOUS
 10
15.5043301829
 20
10.4362887196
 11
15.4953507664
 21
10.419039421
  0
LINE
  5
322
100
AcDbEntity
  8
0
100
AcDbLine
 62
7
  6
CONTINUOUS
 10
15.1419267668
 20
9.7578296242
 11
15.1325731957
 21
9.7407803154
  0
LINE
  5
323
100
AcDbEntity
  8
0
100
AcDbLine
 62
7
  6
CONTINUOUS
 10
15.5220104024
 20
10.3905170417
 11
15.5113834973
 21
10.3742309399
  0
LINE
  5
324
100
AcDbEntity
  8
0
100
AcDbLine
 62
7
  6
CONTINUOUS
 10
11.0838717818
 20
3.6097962573
 11
11.0948514374
 21
3.6258466587
  0
LINE
  5
325
100
AcDbEntity
  8
0
100
AcDbLine
 62
7
  6
CONTINUOUS
 10
11.5351190778
 20
4.2182328023
 11
11.5229470271
 21
4.2030667414
  0
LINE
  5
326
100
AcDbEntity
  8
0
100
AcDbLine
 62
7
  6
CONTINUOUS
 10
11.0348183383
 20
3.6086145874
 11
11.0473183383
 21
3.6235115073
  0
LINE
  5
327
100
AcDbEntity
  8
0
100
AcDbLine
 62
7
  6
CONTINUOUS
 10
11.5435299654
 20
4.1698913746
 11
11.5299299925
 21
4.155991412
  0
LINE
  5
328
100
AcDbEntity
  8
0
100
AcDbLine
 62
7
  6
CONTINUOUS
 10
10.5474746127
 20
4.0959583129
 11
10.5623715326
 21
4.1084583129
  0
LINE
  5
329
100
AcDbEntity
  8
0
100
AcDbLine
 62
7
  6
CONTINUOUS
 10
10.5486562826
 20
4.1450117564
 11
10.564706684
 21
4.155991412
  0
LINE
  5
32A
100
AcDbEntity
  8
0
100
AcDbLine
 62
7
  6
CONTINUOUS
 10
10.5546403407
 20
4.1937131703
 11
10.5716896495
 21
4.2030667414
  0
LINE
  5
32B
100
AcDbEntity
  8
0
100
AcDbLine
 62
7
  6
CONTINUOUS
 10
14.6006030686
 20
10.4580589983
 11
14.6196334383
 21
10.4620606547
  0
LINE
  5
32C
100
AcDbEntity
  8
0
100
AcDbLine
 62
7
  6
CONTINUOUS
 10
11.5116773356
 20
9.9994268586
 11
11.492646966
 21
9.9954252023
  0
LINE
  5
32D
100
AcDbEntity
  8
0
100
AcDbLine
 62
7
  6
CONTINUOUS
 10
15.354965335
 20
10.608327263
 11
15.3740784716
 21
10.6119128218
  0
LINE
  5
32E
100
AcDbEntity
  8
0
100
AcDbLine
 62
7
  6
CONTINUOUS
 10
11.4865022262
 20
9.9550386431
 11
11.4848183383
 21
9.9548542273
  0
LINE
  5
32F
100
AcDbEntity
  8
0
100
AcDbLine
 62
7
  6
CONTINUOUS
 10
14.6247688417
 20
10.5007632379
 11
14.6440998058
 21
10.5028803228
  0
LINE
  5
330
100
AcDbEntity
  8
0
100
AcDbLine
 62
7
  6
CONTINUOUS
 10
15.4416326793
 20
9.926023441
 11
15.4221872884
 21
9.9258113162
  0
LINE
  5
331
100
AcDbEntity
  8
0
100
AcDbLine
 62
7
  6
CONTINUOUS
 10
7.4416326793
 20
9.926023441
 11
7.4221872884
 21
9.9258113162
  0
LINE
  5
332
100
AcDbEntity
  8
0
100
AcDbLine
 62
7
  6
CONTINUOUS
 10
17.8273183384
 20
10.1084583129
 11
15.5314381672
 21
10.1084583129
  0
LINE
  5
333
100
AcDbEntity
  8
0
100
AcDbLine
 62
7
  6
CONTINUOUS
 10
6.5631985093
 20
10.1084583129
 11
4.2673183382
 21
10.1084583129
  0
LINE
  5
334
100
AcDbEntity
  8
0
100
AcDbLine
 62
9
  6
CONTINUOUS
 10
4.2473183383
 20
10.1284583129
 11
6.5633495316
 21
10.1284583129
  0
LINE
  5
335
100
AcDbEntity
  8
0
100
AcDbLine
 62
9
  6
CONTINUOUS
 10
15.531287145
 20
10.1284583129
 11
17.8473183383
 21
10.1284583129
  0
LINE
  5
336
100
AcDbEntity
  8
0
100
AcDbLine
 62
7
  6
CONTINUOUS
 10
6.6724493882
 20
9.9258113162
 11
6.6530039973
 21
9.926023441
  0
LINE
  5
337
100
AcDbEntity
  8
0
100
AcDbLine
 62
7
  6
CONTINUOUS
 10
14.6724493882
 20
9.9258113162
 11
14.6530039973
 21
9.926023441
  0
LINE
  5
338
100
AcDbEntity
  8
0
100
AcDbLine
 62
7
  6
CONTINUOUS
 10
10.6098183383
 20
9.9548542273
 11
10.6081344504
 21
9.9550386431
  0
LINE
  5
339
100
AcDbEntity
  8
0
100
AcDbLine
 62
7
  6
CONTINUOUS
 10
7.4505368708
 20
10.5028803228
 11
7.4698678349
 21
10.5007632379
  0
LINE
  5
33A
100
AcDbEntity
  8
0
100
AcDbLine
 62
7
  6
CONTINUOUS
 10
6.720558205
 20
10.6119128218
 11
6.7396713416
 21
10.608327263
  0
LINE
  5
33B
100
AcDbEntity
  8
0
100
AcDbLine
 62
7
  6
CONTINUOUS
 10
7.4750032383
 20
10.4620606547
 11
7.4940336079
 21
10.4580589983
  0
LINE
  5
33C
100
AcDbEntity
  8
0
100
AcDbLine
 62
7
  6
CONTINUOUS
 10
10.6019897106
 20
9.9954252023
 11
10.582959341
 21
9.9994268586
  0
LINE
  5
33D
100
AcDbEntity
  8
0
100
AcDbLine
 62
7
  6
CONTINUOUS
 10
10.5808027649
 20
10.0402212354
 11
10.5622562626
 21
10.0460689251
  0
LINE
  5
33E
100
AcDbEntity
  8
0
100
AcDbLine
 62
7
  6
CONTINUOUS
 10
10.5641086191
 20
10.0868782471
 11
10.5462245971
 21
10.0945156537
  0
LINE
  5
33F
100
AcDbEntity
  8
0
100
AcDbLine
 62
7
  6
CONTINUOUS
 10
10.8844521707
 20
10.7272949372
 11
10.9007382725
 21
10.7166680321
  0
LINE
  5
340
100
AcDbEntity
  8
0
100
AcDbLine
 62
7
  6
CONTINUOUS
 10
11.5498396704
 20
10.2829523442
 11
11.5658900719
 21
10.2719726886
  0
LINE
  5
341
100
AcDbEntity
  8
0
100
AcDbLine
 62
7
  6
CONTINUOUS
 10
10.9336408695
 20
10.7408806549
 11
10.9488069304
 21
10.7287086041
  0
LINE
  5
342
100
AcDbEntity
  8
0
100
AcDbLine
 62
7
  6
CONTINUOUS
 10
11.5522711708
 20
10.2334583008
 11
11.5671680762
 21
10.2209583129
  0
LINE
  5
343
100
AcDbEntity
  8
0
100
AcDbLine
 62
7
  6
CONTINUOUS
 10
10.9839243445
 20
10.749579618
 11
10.9978243071
 21
10.7359796451
  0
LINE
  5
344
100
AcDbEntity
  8
0
100
AcDbLine
 62
7
  6
CONTINUOUS
 10
11.5498396704
 20
10.1839642817
 11
11.5634396433
 21
10.1700643192
  0
LINE
  5
345
100
AcDbEntity
  8
0
100
AcDbLine
 62
7
  6
CONTINUOUS
 10
14.6688638294
 20
9.9066981796
 11
14.6724493882
 21
9.9258113162
  0
LINE
  5
346
100
AcDbEntity
  8
0
100
AcDbLine
 62
7
  6
CONTINUOUS
 10
14.8187159966
 20
10.6611432129
 11
14.8227176529
 21
10.6801735826
  0
LINE
  5
347
100
AcDbEntity
  8
0
100
AcDbLine
 62
7
  6
CONTINUOUS
 10
14.6386580975
 20
9.9453666477
 11
14.6440998058
 21
9.9640363031
  0
LINE
  5
348
100
AcDbEntity
  8
0
100
AcDbLine
 62
7
  6
CONTINUOUS
 10
15.4822486895
 20
10.4801070299
 11
15.4750032383
 21
10.4620606547
  0
LINE
  5
349
100
AcDbEntity
  8
0
100
AcDbLine
 62
7
  6
CONTINUOUS
 10
15.1880909653
 20
9.7693931539
 11
15.1804535586
 21
9.7515091319
  0
LINE
  5
34A
100
AcDbEntity
  8
0
100
AcDbLine
 62
7
  6
CONTINUOUS
 10
10.9858852766
 20
3.6122466858
 11
10.9997852392
 21
3.6258466587
  0
LINE
  5
34B
100
AcDbEntity
  8
0
100
AcDbLine
 62
7
  6
CONTINUOUS
 10
11.5471620639
 20
4.1209583129
 11
11.532265144
 21
4.1084583129
  0
LINE
  5
34C
100
AcDbEntity
  8
0
100
AcDbLine
 62
7
  6
CONTINUOUS
 10
10.9375438489
 20
3.6206575734
 11
10.9527099098
 21
3.6328296242
  0
LINE
  5
34D
100
AcDbEntity
  8
0
100
AcDbLine
 62
7
  6
CONTINUOUS
 10
11.545980394
 20
4.0719048694
 11
11.5299299925
 21
4.0609252138
  0
LINE
  5
34E
100
AcDbEntity
  8
0
100
AcDbLine
 62
7
  6
CONTINUOUS
 10
10.8902596095
 20
3.6337662488
 11
10.9065457113
 21
3.6443931539
  0
LINE
  5
34F
100
AcDbEntity
  8
0
100
AcDbLine
 62
7
  6
CONTINUOUS
 10
10.5653691572
 20
4.2415935333
 11
10.5832531793
 21
4.2492309399
  0
LINE
  5
350
100
AcDbEntity
  8
0
100
AcDbLine
 62
7
  6
CONTINUOUS
 10
10.5807394079
 20
4.2881917313
 11
10.5992859102
 21
4.294039421
  0
LINE
  5
351
100
AcDbEntity
  8
0
100
AcDbLine
 62
7
  6
CONTINUOUS
 10
10.582959341
 20
10.4674897672
 11
10.6019897106
 21
10.4714914236
  0
LINE
  5
352
100
AcDbEntity
  8
0
100
AcDbLine
 62
7
  6
CONTINUOUS
 10
11.3676570148
 20
10.6237921197
 11
11.3867701514
 21
10.6273776785
  0
LINE
  5
353
100
AcDbEntity
  8
0
100
AcDbLine
 62
7
  6
CONTINUOUS
 10
6.7396713416
 20
9.8585893628
 11
6.720558205
 21
9.8550038041
  0
LINE
  5
354
100
AcDbEntity
  8
0
100
AcDbLine
 62
7
  6
CONTINUOUS
 10
7.4698678349
 20
9.966153388
 11
7.4505368708
 21
9.9640363031
  0
LINE
  5
355
100
AcDbEntity
  8
0
100
AcDbLine
 62
7
  6
CONTINUOUS
 10
10.6081344504
 20
10.5118779828
 11
10.6274654145
 21
10.5139950677
  0
LINE
  5
356
100
AcDbEntity
  8
0
100
AcDbLine
 62
7
  6
CONTINUOUS
 10
15.3902275131
 20
10.5763674877
 11
15.4096000609
 21
10.5780623661
  0
LINE
  5
357
100
AcDbEntity
  8
0
100
AcDbLine
 62
7
  6
CONTINUOUS
 10
6.7044091635
 20
9.8905491381
 11
6.6850366156
 21
9.8888542598
  0
LINE
  5
358
100
AcDbEntity
  8
0
100
AcDbLine
 62
7
  6
CONTINUOUS
 10
11.4043739001
 20
10.5905138747
 11
11.4237464479
 21
10.592208753
  0
LINE
  5
359
100
AcDbEntity
  8
0
100
AcDbLine
 62
7
  6
CONTINUOUS
 10
14.6530039973
 20
10.5408931849
 11
14.6724493882
 21
10.5411053096
  0
LINE
  5
35A
100
AcDbEntity
  8
0
100
AcDbLine
 62
7
  6
CONTINUOUS
 10
10.6375391407
 20
10.5535848648
 11
10.6569845315
 21
10.5537969895
  0
LINE
  5
35B
100
AcDbEntity
  8
0
100
AcDbLine
 62
7
  6
CONTINUOUS
 10
6.6530039973
 20
10.5408931849
 11
6.6724493882
 21
10.5411053096
  0
LINE
  5
35C
100
AcDbEntity
  8
0
100
AcDbLine
 62
9
  6
CONTINUOUS
 10
17.8473183383
 20
10.3384583129
 11
15.531287145
 21
10.3384583129
  0
LINE
  5
35D
100
AcDbEntity
  8
0
100
AcDbLine
 62
9
  6
CONTINUOUS
 10
6.5633495316
 20
10.3384583129
 11
4.2473183383
 21
10.3384583129
  0
LINE
  5
35E
100
AcDbEntity
  8
0
100
AcDbLine
 62
7
  6
CONTINUOUS
 10
4.2673183381
 20
10.3584583129
 11
6.5631985093
 21
10.3584583129
  0
LINE
  5
35F
100
AcDbEntity
  8
0
100
AcDbLine
 62
7
  6
CONTINUOUS
 10
15.5314381672
 20
10.3584583129
 11
17.8273183383
 21
10.3584583129
  0
LINE
  5
360
100
AcDbEntity
  8
0
100
AcDbLine
 62
7
  6
CONTINUOUS
 10
7.4221872884
 20
10.5411053096
 11
7.4416326793
 21
10.5408931849
  0
LINE
  5
361
100
AcDbEntity
  8
0
100
AcDbLine
 62
7
  6
CONTINUOUS
 10
11.4376521451
 20
10.5537969895
 11
11.4570975359
 21
10.5535848648
  0
LINE
  5
362
100
AcDbEntity
  8
0
100
AcDbLine
 62
7
  6
CONTINUOUS
 10
15.4221872884
 20
10.5411053096
 11
15.4416326793
 21
10.5408931849
  0
LINE
  5
363
100
AcDbEntity
  8
0
100
AcDbLine
 62
7
  6
CONTINUOUS
 10
6.6850366156
 20
10.5780623661
 11
6.7044091635
 21
10.5763674877
  0
LINE
  5
364
100
AcDbEntity
  8
0
100
AcDbLine
 62
7
  6
CONTINUOUS
 10
15.4096000609
 20
9.8888542598
 11
15.3902275131
 21
9.8905491381
  0
LINE
  5
365
100
AcDbEntity
  8
0
100
AcDbLine
 62
7
  6
CONTINUOUS
 10
10.6708902287
 20
10.592208753
 11
10.6902627765
 21
10.5905138747
  0
LINE
  5
366
100
AcDbEntity
  8
0
100
AcDbLine
 62
7
  6
CONTINUOUS
 10
14.6440998058
 20
9.9640363031
 11
14.6247688417
 21
9.966153388
  0
LINE
  5
367
100
AcDbEntity
  8
0
100
AcDbLine
 62
7
  6
CONTINUOUS
 10
11.4671712621
 20
10.5139950677
 11
11.4865022262
 21
10.5118779828
  0
LINE
  5
368
100
AcDbEntity
  8
0
100
AcDbLine
 62
7
  6
CONTINUOUS
 10
10.7078665251
 20
10.6273776785
 11
10.7269796617
 21
10.6237921197
  0
LINE
  5
369
100
AcDbEntity
  8
0
100
AcDbLine
 62
7
  6
CONTINUOUS
 10
15.3740784716
 20
9.8550038041
 11
15.354965335
 21
9.8585893628
  0
LINE
  5
36A
100
AcDbEntity
  8
0
100
AcDbLine
 62
7
  6
CONTINUOUS
 10
11.492646966
 20
10.4714914236
 11
11.5116773356
 21
10.4674897672
  0
LINE
  5
36B
100
AcDbEntity
  8
0
100
AcDbLine
 62
7
  6
CONTINUOUS
 10
10.7481119281
 20
10.658752945
 11
10.7667815835
 21
10.6533112367
  0
LINE
  5
36C
100
AcDbEntity
  8
0
100
AcDbLine
 62
7
  6
CONTINUOUS
 10
11.5138339117
 20
10.4266953905
 11
11.532380414
 21
10.4208477008
  0
LINE
  5
36D
100
AcDbEntity
  8
0
100
AcDbLine
 62
7
  6
CONTINUOUS
 10
10.7912388524
 20
10.6860323918
 11
10.8092852276
 21
10.6787869406
  0
LINE
  5
36E
100
AcDbEntity
  8
0
100
AcDbLine
 62
7
  6
CONTINUOUS
 10
11.5305280575
 20
10.3800383787
 11
11.5484120795
 21
10.3724009721
  0
LINE
  5
36F
100
AcDbEntity
  8
0
100
AcDbLine
 62
7
  6
CONTINUOUS
 10
10.8368319621
 20
10.7089533029
 11
10.8540812607
 21
10.6999738864
  0
LINE
  5
370
100
AcDbEntity
  8
0
100
AcDbLine
 62
7
  6
CONTINUOUS
 10
11.5425686295
 20
10.3319697208
 11
11.5596179383
 21
10.3226161497
  0
LINE
  5
371
100
AcDbEntity
  8
0
100
AcDbLine
 62
7
  6
CONTINUOUS
 10
14.7398834663
 20
9.839143972
 11
14.7396713416
 21
9.8585893628
  0
LINE
  5
372
100
AcDbEntity
  8
0
100
AcDbLine
 62
7
  6
CONTINUOUS
 10
14.7396713416
 20
10.608327263
 11
14.7398834663
 21
10.6277726539
  0
LINE
  5
373
100
AcDbEntity
  8
0
100
AcDbLine
 62
7
  6
CONTINUOUS
 10
14.7027142852
 20
9.8711765903
 11
14.7044091635
 21
9.8905491381
  0
LINE
  5
374
100
AcDbEntity
  8
0
100
AcDbLine
 62
7
  6
CONTINUOUS
 10
14.7778963285
 20
10.6366768454
 11
14.7800134133
 21
10.6560078096
  0
LINE
  5
375
100
AcDbEntity
  8
0
100
AcDbLine
 62
7
  6
CONTINUOUS
 10
15.27592068
 20
9.8057734129
 11
15.2719190236
 21
9.7867430433
  0
LINE
  5
376
100
AcDbEntity
  8
0
100
AcDbLine
 62
7
  6
CONTINUOUS
 10
15.4559785791
 20
10.5215499782
 11
15.4505368708
 21
10.5028803228
  0
LINE
  5
377
100
AcDbEntity
  8
0
100
AcDbLine
 62
7
  6
CONTINUOUS
 10
15.2328994464
 20
9.7854258848
 11
15.2270517567
 21
9.7668793825
  0
LINE
  5
378
100
AcDbEntity
  8
0
100
AcDbLine
 62
7
  6
CONTINUOUS
 10
11.5399963359
 20
4.0232034556
 11
11.5229470271
 21
4.0138498845
  0
LINE
  5
379
100
AcDbEntity
  8
0
100
AcDbLine
 62
7
  6
CONTINUOUS
 10
10.8444879316
 20
3.6514464683
 11
10.8617372302
 21
3.6604258848
  0
LINE
  5
37A
100
AcDbEntity
  8
0
100
AcDbLine
 62
7
  6
CONTINUOUS
 10
11.5292675193
 20
3.9753230926
 11
11.5113834973
 21
3.967685686
  0
LINE
  5
37B
100
AcDbEntity
  8
0
100
AcDbLine
 62
7
  6
CONTINUOUS
 10
10.8006696213
 20
3.6735279617
 11
10.8187159966
 21
3.6807734129
  0
LINE
  5
37C
100
AcDbEntity
  8
0
100
AcDbLine
 62
7
  6
CONTINUOUS
 10
11.5138972687
 20
3.9287248945
 11
11.4953507664
 21
3.9228772048
  0
LINE
  5
37D
100
AcDbEntity
  8
0
100
AcDbLine
 62
7
  6
CONTINUOUS
 10
10.759226673
 20
3.6997980721
 11
10.7778963285
 21
3.7052397804
  0
LINE
  5
37E
100
AcDbEntity
  8
0
100
AcDbLine
 62
7
  6
CONTINUOUS
 10
7.4940336079
 20
10.0088576276
 11
7.4750032383
 21
10.0048559712
  0
LINE
  5
37F
100
AcDbEntity
  8
0
100
AcDbLine
 62
7
  6
CONTINUOUS
 10
6.6247688417
 20
10.5007632379
 11
6.6440998058
 21
10.5028803228
  0
LINE
  5
380
100
AcDbEntity
  8
0
100
AcDbLine
 62
7
  6
CONTINUOUS
 10
7.3902275131
 20
10.5763674877
 11
7.4096000609
 21
10.5780623661
  0
LINE
  5
381
100
AcDbEntity
  8
0
100
AcDbLine
 62
7
  6
CONTINUOUS
 10
14.6850366156
 20
10.5780623661
 11
14.7044091635
 21
10.5763674877
  0
LINE
  5
382
100
AcDbEntity
  8
0
100
AcDbLine
 62
7
  6
CONTINUOUS
 10
15.4505368708
 20
10.5028803228
 11
15.4698678349
 21
10.5007632379
  0
LINE
  5
383
100
AcDbEntity
  8
0
100
AcDbLine
 62
7
  6
CONTINUOUS
 10
14.6196334383
 20
10.0048559712
 11
14.6006030686
 21
10.0088576276
  0
LINE
  5
384
100
AcDbEntity
  8
0
100
AcDbLine
 62
7
  6
CONTINUOUS
 10
15.3354100035
 20
9.8247980721
 11
15.3167403481
 21
9.8302397804
  0
LINE
  5
385
100
AcDbEntity
  8
0
100
AcDbLine
 62
7
  6
CONTINUOUS
 10
14.5992859102
 20
10.0478772048
 11
14.5807394079
 21
10.0537248945
  0
LINE
  5
386
100
AcDbEntity
  8
0
100
AcDbLine
 62
7
  6
CONTINUOUS
 10
14.7800134133
 20
9.8109088163
 11
14.7778963285
 21
9.8302397804
  0
LINE
  5
387
100
AcDbEntity
  8
0
100
AcDbLine
 62
7
  6
CONTINUOUS
 10
14.7044091635
 20
10.5763674877
 11
14.7027142852
 21
10.5957400356
  0
LINE
  5
388
100
AcDbEntity
  8
0
100
AcDbLine
 62
7
  6
CONTINUOUS
 10
15.3919223914
 20
10.5957400356
 11
15.3902275131
 21
10.5763674877
  0
LINE
  5
389
100
AcDbEntity
  8
0
100
AcDbLine
 62
7
  6
CONTINUOUS
 10
15.3167403481
 20
9.8302397804
 11
15.3146232632
 21
9.8109088163
  0
LINE
  5
38A
100
AcDbEntity
  8
0
100
AcDbLine
 62
7
  6
CONTINUOUS
 10
15.4257728472
 20
10.5602184462
 11
15.4221872884
 21
10.5411053096
  0
LINE
  5
38B
100
AcDbEntity
  8
0
100
AcDbLine
 62
7
  6
CONTINUOUS
 10
6.6006030686
 20
10.4580589983
 11
6.6196334383
 21
10.4620606547
  0
LINE
  5
38C
100
AcDbEntity
  8
0
100
AcDbLine
 62
7
  6
CONTINUOUS
 10
7.354965335
 20
10.608327263
 11
7.3740784716
 21
10.6119128218
  0
LINE
  5
38D
100
AcDbEntity
  8
0
100
AcDbLine
 62
7
  6
CONTINUOUS
 10
14.720558205
 20
10.6119128218
 11
14.7396713416
 21
10.608327263
  0
LINE
  5
38E
100
AcDbEntity
  8
0
100
AcDbLine
 62
7
  6
CONTINUOUS
 10
15.4750032383
 20
10.4620606547
 11
15.4940336079
 21
10.4580589983
  0
LINE
  5
38F
100
AcDbEntity
  8
0
100
AcDbLine
 62
7
  6
CONTINUOUS
 10
14.759226673
 20
10.6421185537
 11
14.7778963285
 21
10.6366768454
  0
LINE
  5
390
100
AcDbEntity
  8
0
100
AcDbLine
 62
7
  6
CONTINUOUS
 10
15.4953507664
 20
10.419039421
 11
15.5138972687
 21
10.4131917313
  0
LINE
  5
391
100
AcDbEntity
  8
0
100
AcDbLine
 62
7
  6
CONTINUOUS
 10
15.2939670552
 20
9.7985279617
 11
15.27592068
 21
9.8057734129
  0
LINE
  5
392
100
AcDbEntity
  8
0
100
AcDbLine
 62
7
  6
CONTINUOUS
 10
14.5832531793
 20
10.092685686
 11
14.5653691572
 21
10.1003230926
  0
LINE
  5
393
100
AcDbEntity
  8
0
100
AcDbLine
 62
7
  6
CONTINUOUS
 10
15.250148745
 20
9.7764464683
 11
15.2328994464
 21
9.7854258848
  0
LINE
  5
394
100
AcDbEntity
  8
0
100
AcDbLine
 62
7
  6
CONTINUOUS
 10
14.5716896495
 20
10.1388498845
 11
14.5546403407
 21
10.1482034556
  0
LINE
  5
395
100
AcDbEntity
  8
0
100
AcDbLine
 62
7
  6
CONTINUOUS
 10
15.204377067
 20
9.7587662488
 11
15.1880909653
 21
9.7693931539
  0
LINE
  5
396
100
AcDbEntity
  8
0
100
AcDbLine
 62
7
  6
CONTINUOUS
 10
14.564706684
 20
10.1859252138
 11
14.5486562826
 21
10.1969048694
  0
LINE
  5
397
100
AcDbEntity
  8
0
100
AcDbLine
 62
7
  6
CONTINUOUS
 10
14.8227176529
 20
9.7867430433
 11
14.8187159966
 21
9.8057734129
  0
LINE
  5
398
100
AcDbEntity
  8
0
100
AcDbLine
 62
7
  6
CONTINUOUS
 10
14.6724493882
 20
10.5411053096
 11
14.6688638294
 21
10.5602184462
  0
LINE
  5
399
100
AcDbEntity
  8
0
100
AcDbLine
 62
7
  6
CONTINUOUS
 10
15.3146232632
 20
10.6560078096
 11
15.3167403481
 21
10.6366768454
  0
LINE
  5
39A
100
AcDbEntity
  8
0
100
AcDbLine
 62
7
  6
CONTINUOUS
 10
15.3902275131
 20
9.8905491381
 11
15.3919223914
 21
9.8711765903
  0
LINE
  5
39B
100
AcDbEntity
  8
0
100
AcDbLine
 62
7
  6
CONTINUOUS
 10
15.3547532103
 20
10.6277726539
 11
15.354965335
 21
10.608327263
  0
LINE
  5
39C
100
AcDbEntity
  8
0
100
AcDbLine
 62
7
  6
CONTINUOUS
 10
15.354965335
 20
9.8585893628
 11
15.3547532103
 21
9.839143972
  0
LINE
  5
39D
100
AcDbEntity
  8
0
100
AcDbLine
 62
7
  6
CONTINUOUS
 10
14.8006696213
 20
10.6683886642
 11
14.8187159966
 21
10.6611432129
  0
LINE
  5
39E
100
AcDbEntity
  8
0
100
AcDbLine
 62
7
  6
CONTINUOUS
 10
15.5113834973
 20
10.3742309399
 11
15.5293502787
 21
10.3665581907
  0
LINE
  5
39F
100
AcDbEntity
  8
0
100
AcDbLine
 62
7
  6
CONTINUOUS
 10
14.8444879316
 20
10.6904701575
 11
14.8617372302
 21
10.6814907411
  0
LINE
  5
3A0
100
AcDbEntity
  8
0
100
AcDbLine
 62
7
  6
CONTINUOUS
 10
15.5229470271
 20
10.3280667414
 11
15.5399963359
 21
10.3187131703
  0
LINE
  5
3A1
100
AcDbEntity
  8
0
100
AcDbLine
 62
7
  6
CONTINUOUS
 10
15.1570928277
 20
9.7456575734
 11
15.1419267668
 21
9.7578296242
  0
LINE
  5
3A2
100
AcDbEntity
  8
0
100
AcDbLine
 62
7
  6
CONTINUOUS
 10
14.5623715326
 20
10.2334583129
 11
14.5474746127
 21
10.2459583129
  0
LINE
  5
3A3
100
AcDbEntity
  8
0
100
AcDbLine
 62
7
  6
CONTINUOUS
 10
15.1087514
 20
9.7372466858
 11
15.0948514374
 21
9.7508466587
  0
LINE
  5
3A4
100
AcDbEntity
  8
0
100
AcDbLine
 62
7
  6
CONTINUOUS
 10
14.564706684
 20
10.280991412
 11
14.5511067111
 21
10.2948913746
  0
LINE
  5
3A5
100
AcDbEntity
  8
0
100
AcDbLine
 62
7
  6
CONTINUOUS
 10
15.0598183383
 20
9.7336145874
 11
15.0473183383
 21
9.7485115073
  0
LINE
  5
3A6
100
AcDbEntity
  8
0
100
AcDbLine
 62
7
  6
CONTINUOUS
 10
14.5716896495
 20
10.3280667414
 11
14.5595175988
 21
10.3432328023
  0
LINE
  5
3A7
100
AcDbEntity
  8
0
100
AcDbLine
 62
7
  6
CONTINUOUS
 10
15.0107648948
 20
9.7347962573
 11
14.9997852392
 21
9.7508466587
  0
LINE
  5
3A8
100
AcDbEntity
  8
0
100
AcDbLine
 62
7
  6
CONTINUOUS
 10
14.5832531793
 20
10.3742309399
 11
14.5726262742
 21
10.3905170417
  0
LINE
  5
3A9
100
AcDbEntity
  8
0
100
AcDbLine
 62
7
  6
CONTINUOUS
 10
14.9620634809
 20
9.7407803154
 11
14.9527099098
 21
9.7578296242
  0
LINE
  5
3AA
100
AcDbEntity
  8
0
100
AcDbLine
 62
7
  6
CONTINUOUS
 10
14.5992859102
 20
10.419039421
 11
14.5903064937
 21
10.4362887196
  0
LINE
  5
3AB
100
AcDbEntity
  8
0
100
AcDbLine
 62
7
  6
CONTINUOUS
 10
14.9141831179
 20
9.7515091319
 11
14.9065457113
 21
9.7693931539
  0
LINE
  5
3AC
100
AcDbEntity
  8
0
100
AcDbLine
 62
7
  6
CONTINUOUS
 10
14.6196334383
 20
10.4620606547
 11
14.6123879871
 21
10.4801070299
  0
LINE
  5
3AD
100
AcDbEntity
  8
0
100
AcDbLine
 62
7
  6
CONTINUOUS
 10
14.8675849199
 20
9.7668793825
 11
14.8617372302
 21
9.7854258848
  0
LINE
  5
3AE
100
AcDbEntity
  8
0
100
AcDbLine
 62
7
  6
CONTINUOUS
 10
14.6440998058
 20
10.5028803228
 11
14.6386580975
 21
10.5215499782
  0
LINE
  5
3AF
100
AcDbEntity
  8
0
100
AcDbLine
 62
7
  6
CONTINUOUS
 10
15.4221872884
 20
9.9258113162
 11
15.4257728472
 21
9.9066981796
  0
LINE
  5
3B0
100
AcDbEntity
  8
0
100
AcDbLine
 62
7
  6
CONTINUOUS
 10
14.8902596095
 20
10.708150377
 11
14.9065457113
 21
10.697523472
  0
LINE
  5
3B1
100
AcDbEntity
  8
0
100
AcDbLine
 62
7
  6
CONTINUOUS
 10
15.5299299925
 20
10.280991412
 11
15.545980394
 21
10.2700117564
  0
LINE
  5
3B2
100
AcDbEntity
  8
0
100
AcDbLine
 62
7
  6
CONTINUOUS
 10
14.9375438489
 20
10.7212590525
 11
14.9527099098
 21
10.7090870017
  0
LINE
  5
3B3
100
AcDbEntity
  8
0
100
AcDbLine
 62
7
  6
CONTINUOUS
 10
15.5322651439
 20
10.2334583129
 11
15.5471620639
 21
10.2209583129
  0
LINE
  5
3B4
100
AcDbEntity
  8
0
100
AcDbLine
 62
7
  6
CONTINUOUS
 10
14.9858852766
 20
10.7296699401
 11
14.9997852392
 21
10.7160699672
  0
LINE
  5
3B5
100
AcDbEntity
  8
0
100
AcDbLine
 62
7
  6
CONTINUOUS
 10
15.5299299925
 20
10.1859252138
 11
15.5435299654
 21
10.1720252513
  0
LINE
  5
3B6
100
AcDbEntity
  8
0
100
AcDbLine
 62
7
  6
CONTINUOUS
 10
15.0348183383
 20
10.7333020385
 11
15.0473183383
 21
10.7184051186
  0
LINE
  5
3B7
100
AcDbEntity
  8
0
100
AcDbLine
 62
7
  6
CONTINUOUS
 10
15.5229470271
 20
10.1388498845
 11
15.5351190778
 21
10.1236838235
  0
LINE
  5
3B8
100
AcDbEntity
  8
0
100
AcDbLine
 62
7
  6
CONTINUOUS
 10
15.0838717818
 20
10.7321203686
 11
15.0948514374
 21
10.7160699672
  0
LINE
  5
3B9
100
AcDbEntity
  8
0
100
AcDbLine
 62
7
  6
CONTINUOUS
 10
15.5113834973
 20
10.092685686
 11
15.5220104024
 21
10.0763995842
  0
LINE
  5
3BA
100
AcDbEntity
  8
0
100
AcDbLine
 62
7
  6
CONTINUOUS
 10
15.1325731957
 20
10.7261363105
 11
15.1419267668
 21
10.7090870017
  0
LINE
  5
3BB
100
AcDbEntity
  8
0
100
AcDbLine
 62
7
  6
CONTINUOUS
 10
15.4953507664
 20
10.0478772048
 11
15.5043301829
 21
10.0306279062
  0
LINE
  5
3BC
100
AcDbEntity
  8
0
100
AcDbLine
 62
7
  6
CONTINUOUS
 10
15.1804535586
 20
10.715407494
 11
15.1880909653
 21
10.697523472
  0
LINE
  5
3BD
100
AcDbEntity
  8
0
100
AcDbLine
 62
7
  6
CONTINUOUS
 10
15.4750032383
 20
10.0048559712
 11
15.4822486895
 21
9.986809596
  0
LINE
  5
3BE
100
AcDbEntity
  8
0
100
AcDbLine
 62
7
  6
CONTINUOUS
 10
15.2270517567
 20
10.7000372434
 11
15.2328994464
 21
10.6814907411
  0
LINE
  5
3BF
100
AcDbEntity
  8
0
100
AcDbLine
 62
7
  6
CONTINUOUS
 10
15.4505368708
 20
9.9640363031
 11
15.4559785791
 21
9.9453666477
  0
LINE
  5
3C0
100
AcDbEntity
  8
0
100
AcDbLine
 62
7
  6
CONTINUOUS
 10
15.2719190236
 20
10.6801735826
 11
15.27592068
 21
10.6611432129
  0
LINE
  5
3C1
100
AcDbEntity
  8
0
100
AcDbLine
 62
9
  6
CONTINUOUS
 10
17.8273183383
 20
10.1084583129
 11
17.8273183383
 21
10.3584583129
  0
LINE
  5
3C2
100
AcDbEntity
  8
0
100
AcDbLine
 62
7
  6
CONTINUOUS
 10
17.8473183383
 20
10.3384583131
 11
17.8473183383
 21
10.1284583129
  0
ARC
  5
3C3
100
AcDbEntity
  8
0
100
AcDbCircle
 62
7
  6
CONTINUOUS
 10
4.2673183383
 20
10.1284583129
 40
0.02
100
AcDbArc
 50
180.0000003521
 51
270.0
  0
ARC
  5
3C4
100
AcDbEntity
  8
0
100
AcDbCircle
 62
7
  6
CONTINUOUS
 10
4.2673183383
 20
10.3384583129
 40
0.02
100
AcDbArc
 50
90.0000003524
 51
180.0
  0
ARC
  5
3C5
100
AcDbEntity
  8
0
100
AcDbCircle
 62
7
  6
CONTINUOUS
 10
7.0473183383
 20
10.2334583129
 40
1.125
100
AcDbArc
 50
186.3859678713
 51
173.6126512944
  0
ARC
  5
3C6
100
AcDbEntity
  8
0
100
AcDbCircle
 62
9
  6
CONTINUOUS
 10
7.0473183383
 20
10.2334583129
 40
1.0971773741
100
AcDbArc
 50
186.5449490483
 51
173.4546230354
  0
ARC
  5
3C7
100
AcDbEntity
  8
0
100
AcDbCircle
 62
9
  6
CONTINUOUS
 10
7.0473183383
 20
10.2334583129
 40
0.6295658437
100
AcDbArc
 50
191.4609018447
 51
168.5390860654
  0
ARC
  5
3C8
100
AcDbEntity
  8
0
100
AcDbCircle
 62
9
  6
CONTINUOUS
 10
7.0473183383
 20
10.2334583129
 40
0.5018840262
100
AcDbArc
 50
194.4711133957
 51
165.5273856423
  0
ARC
  5
3C9
100
AcDbEntity
  8
0
100
AcDbCircle
 62
7
  6
CONTINUOUS
 10
7.0473183383
 20
10.2334583129
 40
0.5
100
AcDbArc
 50
192.6825437376
 51
305.146872722
  0
ARC
  5
3CA
100
AcDbEntity
  8
0
100
AcDbCircle
 62
7
  6
CONTINUOUS
 10
7.0473183383
 20
10.2334583129
 40
0.5
100
AcDbArc
 50
187.0575437376
 51
189.8174562624
  0
ARC
  5
3CB
100
AcDbEntity
  8
0
100
AcDbCircle
 62
7
  6
CONTINUOUS
 10
7.0473183383
 20
10.2334583129
 40
0.5
100
AcDbArc
 50
181.4325437376
 51
184.1924562624
  0
ARC
  5
3CC
100
AcDbEntity
  8
0
100
AcDbCircle
 62
7
  6
CONTINUOUS
 10
7.0473183383
 20
10.2334583129
 40
0.5
100
AcDbArc
 50
175.8075437376
 51
178.5674562624
  0
ARC
  5
3CD
100
AcDbEntity
  8
0
100
AcDbCircle
 62
7
  6
CONTINUOUS
 10
7.0473183383
 20
10.2334583129
 40
0.5
100
AcDbArc
 50
170.1825437376
 51
172.9424562624
  0
ARC
  5
3CE
100
AcDbEntity
  8
0
100
AcDbCircle
 62
7
  6
CONTINUOUS
 10
7.0473183383
 20
10.2334583129
 40
0.5
100
AcDbArc
 50
305.1825437376
 51
167.3174562624
  0
CIRCLE
  5
3CF
100
AcDbEntity
  8
0
100
AcDbCircle
 62
9
  6
CONTINUOUS
 10
7.0473183383
 20
10.2334583129
 40
0.4699999993
  0
ARC
  5
3D0
100
AcDbEntity
  8
0
100
AcDbCircle
 62
7
  6
CONTINUOUS
 10
11.0473183383
 20
4.1084583129
 40
0.5
100
AcDbArc
 50
23.9325437376
 51
26.6924562624
  0
ARC
  5
3D1
100
AcDbEntity
  8
0
100
AcDbCircle
 62
7
  6
CONTINUOUS
 10
11.0473183383
 20
4.1084583129
 40
0.5
100
AcDbArc
 50
12.6825437376
 51
15.4424562624
  0
ARC
  5
3D2
100
AcDbEntity
  8
0
100
AcDbCircle
 62
7
  6
CONTINUOUS
 10
11.0473183383
 20
4.1084583129
 40
0.5
100
AcDbArc
 50
1.4325437376
 51
4.1924562624
  0
ARC
  5
3D3
100
AcDbEntity
  8
0
100
AcDbCircle
 62
7
  6
CONTINUOUS
 10
11.0473183383
 20
4.1084583129
 40
0.5
100
AcDbArc
 50
175.8075437376
 51
178.5674562624
  0
ARC
  5
3D4
100
AcDbEntity
  8
0
100
AcDbCircle
 62
7
  6
CONTINUOUS
 10
11.0473183383
 20
4.1084583129
 40
0.5
100
AcDbArc
 50
170.1825437376
 51
172.9424562624
  0
ARC
  5
3D5
100
AcDbEntity
  8
0
100
AcDbCircle
 62
7
  6
CONTINUOUS
 10
11.0473183383
 20
4.1084583129
 40
0.5
100
AcDbArc
 50
164.5575437376
 51
167.3174562624
  0
ARC
  5
3D6
100
AcDbEntity
  8
0
100
AcDbCircle
 62
7
  6
CONTINUOUS
 10
11.0473183383
 20
4.1084583129
 40
0.5
100
AcDbArc
 50
158.9325437376
 51
161.6924562624
  0
ARC
  5
3D7
100
AcDbEntity
  8
0
100
AcDbCircle
 62
7
  6
CONTINUOUS
 10
11.0473183383
 20
4.1084583129
 40
0.5
100
AcDbArc
 50
153.3075437376
 51
156.0674562624
  0
ARC
  5
3D8
100
AcDbEntity
  8
0
100
AcDbCircle
 62
7
  6
CONTINUOUS
 10
11.0473183383
 20
4.1084583129
 40
0.5
100
AcDbArc
 50
7.0575437376
 51
9.8174562624
  0
ARC
  5
3D9
100
AcDbEntity
  8
0
100
AcDbCircle
 62
7
  6
CONTINUOUS
 10
11.0473183383
 20
4.1084583129
 40
0.5
100
AcDbArc
 50
18.3075437376
 51
21.0674562624
  0
ARC
  5
3DA
100
AcDbEntity
  8
0
100
AcDbCircle
 62
7
  6
CONTINUOUS
 10
11.0473183383
 20
4.1084583129
 40
0.5
100
AcDbArc
 50
355.8075437376
 51
358.5674562624
  0
ARC
  5
3DB
100
AcDbEntity
  8
0
100
AcDbCircle
 62
7
  6
CONTINUOUS
 10
11.0473183383
 20
4.1084583129
 40
0.5
100
AcDbArc
 50
350.1825437376
 51
352.9424562624
  0
ARC
  5
3DC
100
AcDbEntity
  8
0
100
AcDbCircle
 62
7
  6
CONTINUOUS
 10
11.0473183383
 20
4.1084583129
 40
0.5
100
AcDbArc
 50
344.5575437376
 51
347.3174562624
  0
ARC
  5
3DD
100
AcDbEntity
  8
0
100
AcDbCircle
 62
7
  6
CONTINUOUS
 10
11.0473183383
 20
4.1084583129
 40
0.5
100
AcDbArc
 50
338.9325437376
 51
341.6924562624
  0
ARC
  5
3DE
100
AcDbEntity
  8
0
100
AcDbCircle
 62
7
  6
CONTINUOUS
 10
11.0473183383
 20
4.1084583129
 40
0.5
100
AcDbArc
 50
333.3075437376
 51
336.0674562624
  0
ARC
  5
3DF
100
AcDbEntity
  8
0
100
AcDbCircle
 62
7
  6
CONTINUOUS
 10
11.0473183383
 20
4.1084583129
 40
0.5
100
AcDbArc
 50
327.6825437376
 51
330.4424562624
  0
ARC
  5
3E0
100
AcDbEntity
  8
0
100
AcDbCircle
 62
7
  6
CONTINUOUS
 10
11.0473183383
 20
4.1084583129
 40
0.5
100
AcDbArc
 50
322.0575437376
 51
324.8174562624
  0
ARC
  5
3E1
100
AcDbEntity
  8
0
100
AcDbCircle
 62
7
  6
CONTINUOUS
 10
11.0473183383
 20
4.1084583129
 40
0.5
100
AcDbArc
 50
316.4325437376
 51
319.1924562624
  0
ARC
  5
3E2
100
AcDbEntity
  8
0
100
AcDbCircle
 62
7
  6
CONTINUOUS
 10
11.0473183383
 20
4.1084583129
 40
0.5
100
AcDbArc
 50
277.0575437376
 51
279.8174562624
  0
ARC
  5
3E3
100
AcDbEntity
  8
0
100
AcDbCircle
 62
7
  6
CONTINUOUS
 10
11.0473183383
 20
4.1084583129
 40
0.5
100
AcDbArc
 50
232.0575437376
 51
234.8174562624
  0
ARC
  5
3E4
100
AcDbEntity
  8
0
100
AcDbCircle
 62
7
  6
CONTINUOUS
 10
11.0473183383
 20
4.1084583129
 40
0.5
100
AcDbArc
 50
226.4325437376
 51
229.1924562624
  0
ARC
  5
3E5
100
AcDbEntity
  8
0
100
AcDbCircle
 62
7
  6
CONTINUOUS
 10
11.0473183383
 20
4.1084583129
 40
0.5
100
AcDbArc
 50
215.1825437376
 51
217.9424562624
  0
ARC
  5
3E6
100
AcDbEntity
  8
0
100
AcDbCircle
 62
7
  6
CONTINUOUS
 10
11.0473183383
 20
4.1084583129
 40
0.5
100
AcDbArc
 50
209.5575437376
 51
212.3174562624
  0
ARC
  5
3E7
100
AcDbEntity
  8
0
100
AcDbCircle
 62
7
  6
CONTINUOUS
 10
11.0473183383
 20
4.1084583129
 40
0.5
100
AcDbArc
 50
203.9325437376
 51
206.6924562624
  0
ARC
  5
3E8
100
AcDbEntity
  8
0
100
AcDbCircle
 62
7
  6
CONTINUOUS
 10
11.0473183383
 20
4.1084583129
 40
0.5
100
AcDbArc
 50
198.3075437376
 51
201.0674562624
  0
ARC
  5
3E9
100
AcDbEntity
  8
0
100
AcDbCircle
 62
7
  6
CONTINUOUS
 10
11.0473183383
 20
4.1084583129
 40
0.5
100
AcDbArc
 50
192.6825437376
 51
195.4424562624
  0
ARC
  5
3EA
100
AcDbEntity
  8
0
100
AcDbCircle
 62
7
  6
CONTINUOUS
 10
11.0473183383
 20
4.1084583129
 40
0.5
100
AcDbArc
 50
187.0575437376
 51
189.8174562624
  0
ARC
  5
3EB
100
AcDbEntity
  8
0
100
AcDbCircle
 62
7
  6
CONTINUOUS
 10
11.0473183383
 20
4.1084583129
 40
0.5
100
AcDbArc
 50
181.4325437376
 51
184.1924562624
  0
ARC
  5
3EC
100
AcDbEntity
  8
0
100
AcDbCircle
 62
7
  6
CONTINUOUS
 10
11.0473183383
 20
4.1084583129
 40
0.5
100
AcDbArc
 50
310.8075437376
 51
313.5674562624
  0
ARC
  5
3ED
100
AcDbEntity
  8
0
100
AcDbCircle
 62
7
  6
CONTINUOUS
 10
11.0473183383
 20
4.1084583129
 40
0.5
100
AcDbArc
 50
305.1825437376
 51
307.9424562624
  0
ARC
  5
3EE
100
AcDbEntity
  8
0
100
AcDbCircle
 62
7
  6
CONTINUOUS
 10
11.0473183383
 20
4.1084583129
 40
0.5
100
AcDbArc
 50
299.5575437376
 51
302.3174562624
  0
ARC
  5
3EF
100
AcDbEntity
  8
0
100
AcDbCircle
 62
7
  6
CONTINUOUS
 10
11.0473183383
 20
4.1084583129
 40
0.5
100
AcDbArc
 50
293.9325437376
 51
296.6924562624
  0
ARC
  5
3F0
100
AcDbEntity
  8
0
100
AcDbCircle
 62
7
  6
CONTINUOUS
 10
11.0473183383
 20
4.1084583129
 40
0.5
100
AcDbArc
 50
288.3075437376
 51
291.0674562624
  0
ARC
  5
3F1
100
AcDbEntity
  8
0
100
AcDbCircle
 62
7
  6
CONTINUOUS
 10
11.0473183383
 20
4.1084583129
 40
0.5
100
AcDbArc
 50
282.6825437376
 51
285.4424562624
  0
ARC
  5
3F2
100
AcDbEntity
  8
0
100
AcDbCircle
 62
7
  6
CONTINUOUS
 10
11.0473183383
 20
4.1084583129
 40
0.5
100
AcDbArc
 50
271.4325437376
 51
274.1924562624
  0
ARC
  5
3F3
100
AcDbEntity
  8
0
100
AcDbCircle
 62
7
  6
CONTINUOUS
 10
11.0473183383
 20
4.1084583129
 40
0.5
100
AcDbArc
 50
265.8075437376
 51
268.5674562624
  0
ARC
  5
3F4
100
AcDbEntity
  8
0
100
AcDbCircle
 62
7
  6
CONTINUOUS
 10
11.0473183383
 20
4.1084583129
 40
0.5
100
AcDbArc
 50
260.1825437376
 51
262.9424562624
  0
ARC
  5
3F5
100
AcDbEntity
  8
0
100
AcDbCircle
 62
7
  6
CONTINUOUS
 10
11.0473183383
 20
4.1084583129
 40
0.5
100
AcDbArc
 50
220.8075437376
 51
223.5674562624
  0
ARC
  5
3F6
100
AcDbEntity
  8
0
100
AcDbCircle
 62
7
  6
CONTINUOUS
 10
11.0473183383
 20
4.1084583129
 40
0.5
100
AcDbArc
 50
254.5575437376
 51
257.3174562624
  0
ARC
  5
3F7
100
AcDbEntity
  8
0
100
AcDbCircle
 62
7
  6
CONTINUOUS
 10
11.0473183383
 20
4.1084583129
 40
0.5
100
AcDbArc
 50
248.9325437376
 51
251.6924562624
  0
ARC
  5
3F8
100
AcDbEntity
  8
0
100
AcDbCircle
 62
7
  6
CONTINUOUS
 10
11.0473183383
 20
4.1084583129
 40
0.5
100
AcDbArc
 50
243.3075437376
 51
246.0674562624
  0
ARC
  5
3F9
100
AcDbEntity
  8
0
100
AcDbCircle
 62
7
  6
CONTINUOUS
 10
11.0473183383
 20
4.1084583129
 40
0.5
100
AcDbArc
 50
237.6825437376
 51
240.4424562624
  0
ARC
  5
3FA
100
AcDbEntity
  8
0
100
AcDbCircle
 62
9
  6
CONTINUOUS
 10
11.0473183383
 20
4.1084583129
 40
0.47
100
AcDbArc
 50
158.9354238622
 51
21.0645761378
  0
ARC
  5
3FB
100
AcDbEntity
  8
0
100
AcDbCircle
 62
7
  6
CONTINUOUS
 10
11.0473183383
 20
4.1084583129
 40
0.4375
100
AcDbArc
 50
180.0
 51
360.0
  0
ARC
  5
3FC
100
AcDbEntity
  8
0
100
AcDbCircle
 62
7
  6
CONTINUOUS
 10
11.0473183383
 20
10.2334583129
 40
1.125
100
AcDbArc
 50
292.9418053674
 51
247.0588826191
  0
ARC
  5
3FD
100
AcDbEntity
  8
0
100
AcDbCircle
 62
9
  6
CONTINUOUS
 10
11.0473183383
 20
10.2334583129
 40
1.1017685665
100
AcDbArc
 50
293.3980603559
 51
246.6010898129
  0
ARC
  5
3FE
100
AcDbEntity
  8
0
100
AcDbCircle
 62
9
  6
CONTINUOUS
 10
11.0473183383
 20
10.2334583129
 40
0.6295658437
100
AcDbArc
 50
314.0491433359
 51
225.9508672653
  0
ARC
  5
3FF
100
AcDbEntity
  8
0
100
AcDbCircle
 62
7
  6
CONTINUOUS
 10
11.0473183383
 20
10.2334583129
 40
0.52
100
AcDbArc
 50
1.3774350714
 51
4.2475649287
  0
ARC
  5
400
100
AcDbEntity
  8
0
100
AcDbCircle
 62
7
  6
CONTINUOUS
 10
11.0473183383
 20
10.2334583129
 40
0.52
100
AcDbArc
 50
7.0024350713
 51
9.8725649287
  0
ARC
  5
401
100
AcDbEntity
  8
0
100
AcDbCircle
 62
7
  6
CONTINUOUS
 10
11.0473183383
 20
10.2334583129
 40
0.52
100
AcDbArc
 50
12.6274350713
 51
15.4975649287
  0
ARC
  5
402
100
AcDbEntity
  8
0
100
AcDbCircle
 62
7
  6
CONTINUOUS
 10
11.0473183383
 20
10.2334583129
 40
0.52
100
AcDbArc
 50
18.2524350713
 51
21.1225649287
  0
ARC
  5
403
100
AcDbEntity
  8
0
100
AcDbCircle
 62
7
  6
CONTINUOUS
 10
11.0473183383
 20
10.2334583129
 40
0.52
100
AcDbArc
 50
23.8774350713
 51
26.7475649287
  0
ARC
  5
404
100
AcDbEntity
  8
0
100
AcDbCircle
 62
7
  6
CONTINUOUS
 10
11.0473183383
 20
10.2334583129
 40
0.52
100
AcDbArc
 50
29.5024350713
 51
32.3725649287
  0
ARC
  5
405
100
AcDbEntity
  8
0
100
AcDbCircle
 62
7
  6
CONTINUOUS
 10
11.0473183383
 20
10.2334583129
 40
0.52
100
AcDbArc
 50
35.1274350713
 51
37.9975649287
  0
ARC
  5
406
100
AcDbEntity
  8
0
100
AcDbCircle
 62
7
  6
CONTINUOUS
 10
11.0473183383
 20
10.2334583129
 40
0.52
100
AcDbArc
 50
40.7524350713
 51
43.6225649287
  0
ARC
  5
407
100
AcDbEntity
  8
0
100
AcDbCircle
 62
7
  6
CONTINUOUS
 10
11.0473183383
 20
10.2334583129
 40
0.52
100
AcDbArc
 50
46.3774350713
 51
49.2475649287
  0
ARC
  5
408
100
AcDbEntity
  8
0
100
AcDbCircle
 62
7
  6
CONTINUOUS
 10
11.0473183383
 20
10.2334583129
 40
0.52
100
AcDbArc
 50
52.0024350713
 51
54.8725649287
  0
ARC
  5
409
100
AcDbEntity
  8
0
100
AcDbCircle
 62
7
  6
CONTINUOUS
 10
11.0473183383
 20
10.2334583129
 40
0.52
100
AcDbArc
 50
57.6274350713
 51
60.4975649287
  0
ARC
  5
40A
100
AcDbEntity
  8
0
100
AcDbCircle
 62
7
  6
CONTINUOUS
 10
11.0473183383
 20
10.2334583129
 40
0.52
100
AcDbArc
 50
63.2524350713
 51
66.1225649287
  0
ARC
  5
40B
100
AcDbEntity
  8
0
100
AcDbCircle
 62
7
  6
CONTINUOUS
 10
11.0473183383
 20
10.2334583129
 40
0.52
100
AcDbArc
 50
68.8774350713
 51
71.7475649287
  0
ARC
  5
40C
100
AcDbEntity
  8
0
100
AcDbCircle
 62
7
  6
CONTINUOUS
 10
11.0473183383
 20
10.2334583129
 40
0.52
100
AcDbArc
 50
74.5024350713
 51
77.3725649287
  0
ARC
  5
40D
100
AcDbEntity
  8
0
100
AcDbCircle
 62
7
  6
CONTINUOUS
 10
11.0473183383
 20
10.2334583129
 40
0.52
100
AcDbArc
 50
80.1274350713
 51
82.9975649287
  0
ARC
  5
40E
100
AcDbEntity
  8
0
100
AcDbCircle
 62
7
  6
CONTINUOUS
 10
11.0473183383
 20
10.2334583129
 40
0.52
100
AcDbArc
 50
85.7524350713
 51
88.6225649287
  0
ARC
  5
40F
100
AcDbEntity
  8
0
100
AcDbCircle
 62
7
  6
CONTINUOUS
 10
11.0473183383
 20
10.2334583129
 40
0.52
100
AcDbArc
 50
91.3774350713
 51
94.2475649287
  0
ARC
  5
410
100
AcDbEntity
  8
0
100
AcDbCircle
 62
7
  6
CONTINUOUS
 10
11.0473183383
 20
10.2334583129
 40
0.52
100
AcDbArc
 50
97.0024350713
 51
99.8725649287
  0
ARC
  5
411
100
AcDbEntity
  8
0
100
AcDbCircle
 62
7
  6
CONTINUOUS
 10
11.0473183383
 20
10.2334583129
 40
0.52
100
AcDbArc
 50
102.6274350713
 51
105.4975649287
  0
ARC
  5
412
100
AcDbEntity
  8
0
100
AcDbCircle
 62
7
  6
CONTINUOUS
 10
11.0473183383
 20
10.2334583129
 40
0.52
100
AcDbArc
 50
108.2524350713
 51
111.1225649287
  0
ARC
  5
413
100
AcDbEntity
  8
0
100
AcDbCircle
 62
7
  6
CONTINUOUS
 10
11.0473183383
 20
10.2334583129
 40
0.52
100
AcDbArc
 50
113.8774350713
 51
116.7475649287
  0
ARC
  5
414
100
AcDbEntity
  8
0
100
AcDbCircle
 62
7
  6
CONTINUOUS
 10
11.0473183383
 20
10.2334583129
 40
0.52
100
AcDbArc
 50
119.5024350713
 51
122.3725649287
  0
ARC
  5
415
100
AcDbEntity
  8
0
100
AcDbCircle
 62
7
  6
CONTINUOUS
 10
11.0473183383
 20
10.2334583129
 40
0.52
100
AcDbArc
 50
125.1274350713
 51
127.9975649287
  0
ARC
  5
416
100
AcDbEntity
  8
0
100
AcDbCircle
 62
7
  6
CONTINUOUS
 10
11.0473183383
 20
10.2334583129
 40
0.52
100
AcDbArc
 50
130.7524350713
 51
133.6225649287
  0
ARC
  5
417
100
AcDbEntity
  8
0
100
AcDbCircle
 62
7
  6
CONTINUOUS
 10
11.0473183383
 20
10.2334583129
 40
0.52
100
AcDbArc
 50
136.3774350713
 51
139.2475649287
  0
ARC
  5
418
100
AcDbEntity
  8
0
100
AcDbCircle
 62
7
  6
CONTINUOUS
 10
11.0473183383
 20
10.2334583129
 40
0.52
100
AcDbArc
 50
142.0024350713
 51
144.8725649287
  0
ARC
  5
419
100
AcDbEntity
  8
0
100
AcDbCircle
 62
7
  6
CONTINUOUS
 10
11.0473183383
 20
10.2334583129
 40
0.52
100
AcDbArc
 50
147.6274350713
 51
150.4975649287
  0
ARC
  5
41A
100
AcDbEntity
  8
0
100
AcDbCircle
 62
7
  6
CONTINUOUS
 10
11.0473183383
 20
10.2334583129
 40
0.52
100
AcDbArc
 50
153.2524350713
 51
156.1225649287
  0
ARC
  5
41B
100
AcDbEntity
  8
0
100
AcDbCircle
 62
7
  6
CONTINUOUS
 10
11.0473183383
 20
10.2334583129
 40
0.52
100
AcDbArc
 50
158.8774350713
 51
161.7475649287
  0
ARC
  5
41C
100
AcDbEntity
  8
0
100
AcDbCircle
 62
7
  6
CONTINUOUS
 10
11.0473183383
 20
10.2334583129
 40
0.52
100
AcDbArc
 50
164.5024350713
 51
167.3725649287
  0
ARC
  5
41D
100
AcDbEntity
  8
0
100
AcDbCircle
 62
7
  6
CONTINUOUS
 10
11.0473183383
 20
10.2334583129
 40
0.52
100
AcDbArc
 50
170.1274350713
 51
172.9975649287
  0
ARC
  5
41E
100
AcDbEntity
  8
0
100
AcDbCircle
 62
7
  6
CONTINUOUS
 10
11.0473183383
 20
10.2334583129
 40
0.52
100
AcDbArc
 50
175.7524350713
 51
178.6225649287
  0
ARC
  5
41F
100
AcDbEntity
  8
0
100
AcDbCircle
 62
7
  6
CONTINUOUS
 10
11.0473183383
 20
10.2334583129
 40
0.52
100
AcDbArc
 50
355.7524350713
 51
358.6225649285
  0
ARC
  5
420
100
AcDbEntity
  8
0
100
AcDbCircle
 62
7
  6
CONTINUOUS
 10
11.0473183383
 20
10.2334583129
 40
0.52
100
AcDbArc
 50
181.3774350713
 51
184.2475649287
  0
ARC
  5
421
100
AcDbEntity
  8
0
100
AcDbCircle
 62
7
  6
CONTINUOUS
 10
11.0473183383
 20
10.2334583129
 40
0.52
100
AcDbArc
 50
187.0024350713
 51
189.8725649287
  0
ARC
  5
422
100
AcDbEntity
  8
0
100
AcDbCircle
 62
7
  6
CONTINUOUS
 10
11.0473183383
 20
10.2334583129
 40
0.52
100
AcDbArc
 50
192.6274350713
 51
195.4975649287
  0
ARC
  5
423
100
AcDbEntity
  8
0
100
AcDbCircle
 62
7
  6
CONTINUOUS
 10
11.0473183383
 20
10.2334583129
 40
0.52
100
AcDbArc
 50
198.2524350713
 51
201.1225649287
  0
ARC
  5
424
100
AcDbEntity
  8
0
100
AcDbCircle
 62
7
  6
CONTINUOUS
 10
11.0473183383
 20
10.2334583129
 40
0.52
100
AcDbArc
 50
203.8774350713
 51
206.7475649287
  0
ARC
  5
425
100
AcDbEntity
  8
0
100
AcDbCircle
 62
7
  6
CONTINUOUS
 10
11.0473183383
 20
10.2334583129
 40
0.52
100
AcDbArc
 50
209.5024350713
 51
212.3725649287
  0
ARC
  5
426
100
AcDbEntity
  8
0
100
AcDbCircle
 62
7
  6
CONTINUOUS
 10
11.0473183383
 20
10.2334583129
 40
0.52
100
AcDbArc
 50
327.6274350713
 51
330.4975649287
  0
ARC
  5
427
100
AcDbEntity
  8
0
100
AcDbCircle
 62
7
  6
CONTINUOUS
 10
11.0473183383
 20
10.2334583129
 40
0.52
100
AcDbArc
 50
333.2524350713
 51
336.1225649287
  0
ARC
  5
428
100
AcDbEntity
  8
0
100
AcDbCircle
 62
7
  6
CONTINUOUS
 10
11.0473183383
 20
10.2334583129
 40
0.52
100
AcDbArc
 50
338.8774350713
 51
341.7475649287
  0
ARC
  5
429
100
AcDbEntity
  8
0
100
AcDbCircle
 62
7
  6
CONTINUOUS
 10
11.0473183383
 20
10.2334583129
 40
0.52
100
AcDbArc
 50
344.5024350713
 51
347.3725649287
  0
ARC
  5
42A
100
AcDbEntity
  8
0
100
AcDbCircle
 62
7
  6
CONTINUOUS
 10
11.0473183383
 20
10.2334583129
 40
0.52
100
AcDbArc
 50
350.1274350713
 51
352.9975649287
  0
ARC
  5
42B
100
AcDbEntity
  8
0
100
AcDbCircle
 62
9
  6
CONTINUOUS
 10
11.0473183383
 20
10.2334583129
 40
0.49
100
AcDbArc
 50
333.4673224605
 51
206.448642708
  0
ARC
  5
42C
100
AcDbEntity
  8
0
100
AcDbCircle
 62
7
  6
CONTINUOUS
 10
11.0473183383
 20
10.2334583129
 40
0.4405
100
AcDbArc
 50
355.5214681326
 51
184.5010506812
  0
ARC
  5
42D
100
AcDbEntity
  8
0
100
AcDbCircle
 62
7
  6
CONTINUOUS
 10
11.0473183383
 20
10.2334583129
 40
0.4375
100
AcDbArc
 50
0.0
 51
180.0
  0
ARC
  5
42E
100
AcDbEntity
  8
0
100
AcDbCircle
 62
7
  6
CONTINUOUS
 10
17.8273183383
 20
10.1284583129
 40
0.02
100
AcDbArc
 50
270.0000003524
 51
360.0
  0
ARC
  5
42F
100
AcDbEntity
  8
0
100
AcDbCircle
 62
7
  6
CONTINUOUS
 10
15.0473183383
 20
10.2334583129
 40
1.125
100
AcDbArc
 50
6.3859678713
 51
353.6126512944
  0
ARC
  5
430
100
AcDbEntity
  8
0
100
AcDbCircle
 62
9
  6
CONTINUOUS
 10
15.0473183383
 20
10.2334583129
 40
1.0971773741
100
AcDbArc
 50
6.5449490483
 51
353.4546230354
  0
ARC
  5
431
100
AcDbEntity
  8
0
100
AcDbCircle
 62
9
  6
CONTINUOUS
 10
15.0473183383
 20
10.2334583129
 40
0.6295658437
100
AcDbArc
 50
11.4609018447
 51
348.5390860654
  0
ARC
  5
432
100
AcDbEntity
  8
0
100
AcDbCircle
 62
9
  6
CONTINUOUS
 10
15.0473183383
 20
10.2334583129
 40
0.5018840262
100
AcDbArc
 50
14.4711133957
 51
345.5273856423
  0
ARC
  5
433
100
AcDbEntity
  8
0
100
AcDbCircle
 62
7
  6
CONTINUOUS
 10
15.0473183383
 20
10.2334583129
 40
0.5
100
AcDbArc
 50
7.0575437376
 51
9.8174562624
  0
ARC
  5
434
100
AcDbEntity
  8
0
100
AcDbCircle
 62
7
  6
CONTINUOUS
 10
15.0473183383
 20
10.2334583129
 40
0.5
100
AcDbArc
 50
1.4325437376
 51
4.1924562624
  0
ARC
  5
435
100
AcDbEntity
  8
0
100
AcDbCircle
 62
7
  6
CONTINUOUS
 10
15.0473183383
 20
10.2334583129
 40
0.5
100
AcDbArc
 50
355.8075437376
 51
358.5674562624
  0
ARC
  5
436
100
AcDbEntity
  8
0
100
AcDbCircle
 62
7
  6
CONTINUOUS
 10
15.0473183383
 20
10.2334583129
 40
0.5
100
AcDbArc
 50
350.1825437376
 51
352.9424562624
  0
ARC
  5
437
100
AcDbEntity
  8
0
100
AcDbCircle
 62
7
  6
CONTINUOUS
 10
15.0473183383
 20
10.2334583129
 40
0.5
100
AcDbArc
 50
344.5575437376
 51
347.3174562624
  0
ARC
  5
438
100
AcDbEntity
  8
0
100
AcDbCircle
 62
7
  6
CONTINUOUS
 10
15.0473183383
 20
10.2334583129
 40
0.5
100
AcDbArc
 50
305.1825437376
 51
344.5340266803
  0
ARC
  5
439
100
AcDbEntity
  8
0
100
AcDbCircle
 62
7
  6
CONTINUOUS
 10
15.0473183383
 20
10.2334583129
 40
0.5
100
AcDbArc
 50
12.6825437376
 51
305.146872722
  0
CIRCLE
  5
43A
100
AcDbEntity
  8
0
100
AcDbCircle
 62
9
  6
CONTINUOUS
 10
15.0473183383
 20
10.2334583129
 40
0.4699999993
  0
ARC
  5
43B
100
AcDbEntity
  8
0
100
AcDbCircle
 62
7
  6
CONTINUOUS
 10
17.8273183383
 20
10.3384583129
 40
0.02
100
AcDbArc
 50
0.0000003521
 51
90.0
  0
SPLINE
  5
43C
100
AcDbEntity
  8
0
100
AcDbSpline
 62
9
  6
CONTINUOUS
 70
0
 71
3
 72
29
 73
25
 74
0
 42
0.0000001
 43
0.0000001
 44
0.0000000001
 40
0.0
 40
0.0
 40
0.0
 40
0.0
 40
0.0104659553
 40
0.0213896008
 40
0.0331687582
 40
0.0461164154
 40
0.0604636263
 40
0.076367834
 40
0.0939262474
 40
0.1131987898
 40
0.1342200937
 40
0.1570051873
 40
0.1815435546
 40
0.2078099738
 40
0.2653863388
 40
0.3293931367
 40
0.3993382462
 40
0.4746686278
 40
0.5547254253
 40
0.6388018713
 40
0.726167685
 40
0.8160730678
 40
0.9076800834
 40
1.0
 40
1.0
 40
1.0
 40
1.0
 10
10.6098183383
 20
5.9458848945
 30
0.0
 10
10.6098183383
 20
5.9475041629
 30
0.0
 10
10.6101901171
 20
5.9508237685
 30
0.0
 10
10.6118322335
 20
5.9557198095
 30
0.0
 10
10.6145329877
 20
5.9605599532
 30
0.0
 10
10.6182697996
 20
5.9653369411
 30
0.0
 10
10.6230299599
 20
5.9700491566
 30
0.0
 10
10.6288010061
 20
5.9746930155
 30
0.0
 10
10.6355683927
 20
5.9792645313
 30
0.0
 10
10.6433178846
 20
5.9837552528
 30
0.0
 10
10.6520341381
 20
5.988155533
 30
0.0
 10
10.6616992608
 20
5.9924536528
 30
0.0
 10
10.6722899165
 20
5.9966413957
 30
0.0
 10
10.688100339
 20
6.0022372679
 30
0.0
 10
10.7100253258
 20
6.0088100884
 30
0.0
 10
10.7388105314
 20
6.0158856822
 30
0.0
 10
10.7705549614
 20
6.0223088772
 30
0.0
 10
10.8049554529
 20
6.0280065275
 30
0.0
 10
10.8416814946
 20
6.0329294975
 30
0.0
 10
10.880381347
 20
6.0370247976
 30
0.0
 10
10.9206914605
 20
6.0402530449
 30
0.0
 10
10.9622302701
 20
6.0425819623
 30
0.0
 10
11.0045770818
 20
6.0439858417
 30
0.0
 10
11.033034814
 20
6.0443009807
 30
0.0
 10
11.0473183383
 20
6.0443009807
 30
0.0
  0
SPLINE
  5
43D
100
AcDbEntity
  8
0
100
AcDbSpline
 62
9
  6
CONTINUOUS
 70
0
 71
3
 72
29
 73
25
 74
0
 42
0.0000001
 43
0.0000001
 44
0.0000000001
 40
0.0
 40
0.0
 40
0.0
 40
0.0
 40
0.0923199166
 40
0.1839269322
 40
0.273832315
 40
0.3611981287
 40
0.4452745747
 40
0.5253313722
 40
0.6006617538
 40
0.6706068633
 40
0.7346136612
 40
0.7921900262
 40
0.8184564454
 40
0.8429948127
 40
0.8657799063
 40
0.8868012102
 40
0.9060737526
 40
0.923632166
 40
0.9395363737
 40
0.9538835846
 40
0.9668312418
 40
0.9786103992
 40
0.9895340447
 40
1.0
 40
1.0
 40
1.0
 40
1.0
 10
11.0473183383
 20
9.1693009807
 30
0.0
 10
11.033034814
 20
9.1693009807
 30
0.0
 10
11.0045770818
 20
9.1689858417
 30
0.0
 10
10.9622302701
 20
9.1675819623
 30
0.0
 10
10.9206914605
 20
9.1652530449
 30
0.0
 10
10.880381347
 20
9.1620247976
 30
0.0
 10
10.8416814946
 20
9.1579294975
 30
0.0
 10
10.8049554529
 20
9.1530065275
 30
0.0
 10
10.7705549614
 20
9.1473088772
 30
0.0
 10
10.7388105314
 20
9.1408856822
 30
0.0
 10
10.7100253258
 20
9.1338100884
 30
0.0
 10
10.688100339
 20
9.1272372679
 30
0.0
 10
10.6722899165
 20
9.1216413957
 30
0.0
 10
10.6616992608
 20
9.1174536528
 30
0.0
 10
10.6520341381
 20
9.113155533
 30
0.0
 10
10.6433178846
 20
9.1087552528
 30
0.0
 10
10.6355683927
 20
9.1042645313
 30
0.0
 10
10.6288010061
 20
9.0996930155
 30
0.0
 10
10.6230299599
 20
9.0950491566
 30
0.0
 10
10.6182697996
 20
9.0903369411
 30
0.0
 10
10.6145329877
 20
9.0855599532
 30
0.0
 10
10.6118322335
 20
9.0807198095
 30
0.0
 10
10.6101901171
 20
9.0758237685
 30
0.0
 10
10.6098183383
 20
9.0725041629
 30
0.0
 10
10.6098183383
 20
9.0708848945
 30
0.0
  0
SPLINE
  5
43E
100
AcDbEntity
  8
0
100
AcDbSpline
 62
9
  6
CONTINUOUS
 70
0
 71
3
 72
29
 73
25
 74
0
 42
0.0000001
 43
0.0000001
 44
0.0000000001
 40
0.0
 40
0.0
 40
0.0
 40
0.0
 40
0.0104659553
 40
0.0213896008
 40
0.0331687582
 40
0.0461164154
 40
0.0604636263
 40
0.076367834
 40
0.0939262474
 40
0.1131987898
 40
0.1342200937
 40
0.1570051873
 40
0.1815435546
 40
0.2078099738
 40
0.2653863388
 40
0.3293931367
 40
0.3993382462
 40
0.4746686278
 40
0.5547254253
 40
0.6388018713
 40
0.726167685
 40
0.8160730678
 40
0.9076800834
 40
1.0
 40
1.0
 40
1.0
 40
1.0
 10
11.4848183383
 20
9.0708848945
 30
0.0
 10
11.4848183383
 20
9.0725041629
 30
0.0
 10
11.4844465594
 20
9.0758237685
 30
0.0
 10
11.4828044431
 20
9.0807198095
 30
0.0
 10
11.4801036889
 20
9.0855599532
 30
0.0
 10
11.476366877
 20
9.0903369411
 30
0.0
 10
11.4716067167
 20
9.0950491566
 30
0.0
 10
11.4658356704
 20
9.0996930155
 30
0.0
 10
11.4590682839
 20
9.1042645313
 30
0.0
 10
11.451318792
 20
9.1087552528
 30
0.0
 10
11.4426025385
 20
9.113155533
 30
0.0
 10
11.4329374158
 20
9.1174536528
 30
0.0
 10
11.4223467601
 20
9.1216413957
 30
0.0
 10
11.4065363376
 20
9.1272372679
 30
0.0
 10
11.3846113508
 20
9.1338100884
 30
0.0
 10
11.3558261452
 20
9.1408856822
 30
0.0
 10
11.3240817152
 20
9.1473088772
 30
0.0
 10
11.2896812236
 20
9.1530065275
 30
0.0
 10
11.252955182
 20
9.1579294975
 30
0.0
 10
11.2142553296
 20
9.1620247976
 30
0.0
 10
11.173945216
 20
9.1652530449
 30
0.0
 10
11.1324064065
 20
9.1675819623
 30
0.0
 10
11.0900595948
 20
9.1689858417
 30
0.0
 10
11.0616018625
 20
9.1693009807
 30
0.0
 10
11.0473183383
 20
9.1693009807
 30
0.0
  0
SPLINE
  5
43F
100
AcDbEntity
  8
0
100
AcDbSpline
 62
9
  6
CONTINUOUS
 70
0
 71
3
 72
29
 73
25
 74
0
 42
0.0000001
 43
0.0000001
 44
0.0000000001
 40
0.0
 40
0.0
 40
0.0
 40
0.0
 40
0.0923199166
 40
0.1839269322
 40
0.273832315
 40
0.3611981287
 40
0.4452745747
 40
0.5253313722
 40
0.6006617538
 40
0.6706068633
 40
0.7346136612
 40
0.7921900262
 40
0.8184564454
 40
0.8429948127
 40
0.8657799063
 40
0.8868012102
 40
0.9060737526
 40
0.923632166
 40
0.9395363737
 40
0.9538835846
 40
0.9668312418
 40
0.9786103992
 40
0.9895340447
 40
1.0
 40
1.0
 40
1.0
 40
1.0
 10
11.0473183383
 20
6.0443009807
 30
0.0
 10
11.0616018625
 20
6.0443009807
 30
0.0
 10
11.0900595948
 20
6.0439858417
 30
0.0
 10
11.1324064065
 20
6.0425819623
 30
0.0
 10
11.173945216
 20
6.0402530449
 30
0.0
 10
11.2142553296
 20
6.0370247976
 30
0.0
 10
11.252955182
 20
6.0329294975
 30
0.0
 10
11.2896812236
 20
6.0280065275
 30
0.0
 10
11.3240817152
 20
6.0223088772
 30
0.0
 10
11.3558261452
 20
6.0158856822
 30
0.0
 10
11.3846113508
 20
6.0088100884
 30
0.0
 10
11.4065363376
 20
6.0022372679
 30
0.0
 10
11.4223467601
 20
5.9966413957
 30
0.0
 10
11.4329374158
 20
5.9924536528
 30
0.0
 10
11.4426025385
 20
5.988155533
 30
0.0
 10
11.451318792
 20
5.9837552528
 30
0.0
 10
11.4590682839
 20
5.9792645313
 30
0.0
 10
11.4658356704
 20
5.9746930155
 30
0.0
 10
11.4716067167
 20
5.9700491566
 30
0.0
 10
11.476366877
 20
5.9653369411
 30
0.0
 10
11.4801036889
 20
5.9605599532
 30
0.0
 10
11.4828044431
 20
5.9557198095
 30
0.0
 10
11.4844465594
 20
5.9508237685
 30
0.0
 10
11.4848183383
 20
5.9475041629
 30
0.0
 10
11.4848183383
 20
5.9458848945
 30
0.0
  0
ENDSEC
  0
SECTION
  2
OBJECTS
  0
DICTIONARY
  5
C
100
AcDbDictionary
280
0
281
1
  3
ACAD_GROUP
350
D
  3
ACAD_MLINESTYLE
350
17
  3
ACAD_LAYOUT
350
1A
  3
ACAD_PLOTSETTINGS
350
19
  3
ACAD_PLOTSTYLENAME
350
E
  0
DICTIONARY
  5
D
102
{ACAD_REACTORS
330
C
102
}
100
AcDbDictionary
280
0
281
1
  0
ACDBDICTIONARYWDFLT
  5
E
102
{ACAD_REACTORS
330
C
102
}
100
AcDbDictionary
281
1
  3
Normal
350
F
100
AcDbDictionaryWithDefault
340
F
  0
DICTIONARY
  5
17
102
{ACAD_REACTORS
330
C
102
}
100
AcDbDictionary
280
0
281
1
  3
Standard
350
18
  0
DICTIONARY
  5
19
102
{ACAD_REACTORS
330
C
102
}
100
AcDbDictionary
281
1
  0
DICTIONARY
  5
1A
102
{ACAD_REACTORS
330
C
102
}
100
AcDbDictionary
281
1
  3
Model
350
440
  3
Layout1
350
441
  0
ACDBPLACEHOLDER
  5
F
102
{ACAD_REACTORS
330
E
102
}
  0
MLINESTYLE
  5
18
102
{ACAD_REACTORS
330
17
102
}
100
AcDbMlineStyle
  2
STANDARD
 70
0
  3

 62
256
 51
90.0
 52
90.0
 71
2
 49
0.5
 62
256
  6
BYLAYER
 49
-0.5
 62
256
  6
BYLAYER
  0
LAYOUT
  5
440
102
{ACAD_REACTORS
330
1A
102
}
100
AcDbPlotSettings
  1

  2
none_device
  4
ANSI_C_(22.00_x_17.00_Inches)
  6

 40
0.0
 41
0.0
 42
0.0
 43
0.0
 44
558.8
 45
431.8
 46
0.0
 47
0.0
 48
0.0
 49
0.0
140
0.0
141
0.0
142
1.0
143
1.0
 70
1024
 72
0
 73
0
 74
0
  7

 75
0
147
1.0
148
0.0
149
0.0
100
AcDbLayout
  1
Model
 70
0
 71
0
 10
0.0
 20
0.0
 11
22.0
 21
17.0
 12
0.0
 22
0.0
 32
0.0
 14
0.0
 24
0.0
 34
0.0
 15
0.0
 25
0.0
 35
0.0
146
0.0
 13
0.0
 23
0.0
 33
0.0
 16
1.0
 26
0.0
 36
0.0
 17
0.0
 27
1.0
 37
0.0
 76
0
330
202
345
0
346
0
  0
LAYOUT
  5
441
102
{ACAD_REACTORS
330
1A
102
}
100
AcDbPlotSettings
  1

  2
none_device
  4
ANSI_C_(22.00_x_17.00_Inches)
  6

 40
0.0
 41
0.0
 42
0.0
 43
0.0
 44
558.8
 45
431.8
 46
0.0
 47
0.0
 48
0.0
 49
0.0
140
0.0
141
0.0
142
1.0
143
1.0
 70
0
 72
0
 73
0
 74
0
  7

 75
0
147
1.0
148
0.0
149
0.0
100
AcDbLayout
  1
Layout1
 70
0
 71
1
 10
0.0
 20
0.0
 11
22.0
 21
17.0
 12
0.0
 22
0.0
 32
0.0
 14
0.0
 24
0.0
 34
0.0
 15
0.0
 25
0.0
 35
0.0
146
0.0
 13
0.0
 23
0.0
 33
0.0
 16
1.0
 26
0.0
 36
0.0
 17
0.0
 27
1.0
 37
0.0
 76
0
330
203
345
0
346
0
  0
ENDSEC
  0
EOF
