999
DXF file: E:\BT Custom\CADOUTPUT\_RIGHT.dxf
999
Pro/ENGINEER 2018400 by Parametric Technology Corporation
  0
SECTION
  2
HEADER
  9
$ACADVER
  1
AC1018
  9
$DWGCODEPAGE
  3
ANSI_1252
  9
$EXTMAX
 10
22.0
 20
17.0
 30
0.0
  9
$EXTMIN
 10
0.0
 20
0.0
 30
0.0
  9
$LIMMIN
 10
0.0
 20
0.0
  9
$LIMMAX
 10
22.0
 20
17.0
  9
$VIEWCTR
 10
11.0
 20
8.5
  9
$VIEWSIZE
 40
17.0
  9
$CLAYER
  8
0
  9
$LTSCALE
 40
1.21
  9
$CELTYPE
  6
BYLAYER
  9
$DIMSCALE
 40
1.0
  9
$DIMASZ
 40
0.1
  9
$DIMEXO
 40
0.0625
  9
$DIMDLI
 40
0.836
  9
$DIMEXE
 40
0.125
  9
$DIMCEN
 40
0.198
  9
$DIMLFAC
 40
1.0
  9
$DIMBLK
  1
_FILLED
  9
$DIMALT
 70
1
  9
$DIMALTD
 70
2
  9
$DIMALTTD
 70
2
  9
$DIMALTF
 40
25.4
  9
$DIMTXT
 40
0.08
  9
$DIMTOL
 70
1
  9
$DIMLIM
 70
0
  9
$DIMTFAC
 40
1.0
  9
$DIMTP
 40
0.001
  9
$DIMTM
 40
0.001
  9
$DIMGAP
 40
0.09
  9
$DIMDSEP
 70
46
  9
$AUNITS
 70
0
  9
$PDMODE
 70
3
  9
$PDSIZE
 40
0.06
  9
$HANDSEED
  5
542
  9
$TILEMODE
 70
1
  9
$MEASUREMENT
 70
0
  9
$INSUNITS
 70
1
  0
ENDSEC
  0
SECTION
  2
CLASSES
  0
CLASS
  1
ACDBDICTIONARYWDFLT
  2
AcDbDictionaryWithDefault
  3
AutoCAD 2000
 90
0
 91
1
280
0
281
0
  0
CLASS
  1
ACDBPLACEHOLDER
  2
AcDbPlaceHolder
  3
AutoCAD 2000
 90
0
 91
1
280
0
281
0
  0
CLASS
  1
LAYOUT
  2
AcDbLayout
  3
AutoCAD 2000
 90
0
 91
0
280
0
281
0
  0
ENDSEC
  0
SECTION
  2
TABLES
  0
TABLE
  2
VPORT
  5
8
100
AcDbSymbolTable
 70
2
  0
VPORT
  5
1F4
100
AcDbSymbolTableRecord
100
AcDbViewportTableRecord
  2
*ACTIVE
 70
0
 10
0.0
 20
0.0
 11
1.0
 21
1.0
 12
11.0
 22
8.5
 13
0.0
 23
0.0
 14
1.0
 24
1.0
 15
0.0
 25
0.0
 16
0.0
 26
0.0
 36
1.0
 17
0.0
 27
0.0
 37
0.0
 40
17.0
 41
1.2941176471
 42
50.0
 43
0.0
 44
0.0
 50
0.0
 51
0.0
 71
0
 72
100
 73
1
 74
1
 75
0
 76
0
 77
0
 78
0
  0
ENDTAB
  0
TABLE
  2
LTYPE
  5
5
100
AcDbSymbolTable
 70
6
  0
LTYPE
  5
14
100
AcDbSymbolTableRecord
100
AcDbLinetypeTableRecord
  2
BYBLOCK
 70
0
  3

 72
65
 73
0
 40
0.0
  0
LTYPE
  5
15
100
AcDbSymbolTableRecord
100
AcDbLinetypeTableRecord
  2
BYLAYER
 70
0
  3

 72
65
 73
0
 40
0.0
  0
LTYPE
  5
16
100
AcDbSymbolTableRecord
100
AcDbLinetypeTableRecord
  2
CONTINUOUS
 70
64
  3
Solid line
 72
65
 73
0
 40
0.0
  0
LTYPE
  5
1F5
100
AcDbSymbolTableRecord
100
AcDbLinetypeTableRecord
  2
CENTER
 70
64
  3
____ _ ____ _ ____ _ ____ _ ____ _ ____ _ ____
 72
65
 73
4
 40
0.6
 49
0.375
 74
0
 49
-0.075
 74
0
 49
0.075
 74
0
 49
-0.075
 74
0
  0
LTYPE
  5
1F6
100
AcDbSymbolTableRecord
100
AcDbLinetypeTableRecord
  2
HIDDEN
 70
64
  3
- - - - - - - - - - - - - - - - - - - -
 72
65
 73
2
 40
0.2
 49
0.1
 74
0
 49
-0.1
 74
0
  0
LTYPE
  5
1F7
100
AcDbSymbolTableRecord
100
AcDbLinetypeTableRecord
  2
PHANTOM
 70
64
  3
_____ _ _ _____ _ _ _____ _ _ _____
 72
65
 73
6
 40
0.8
 49
0.45
 74
0
 49
-0.05
 74
0
 49
0.1
 74
0
 49
-0.05
 74
0
 49
0.1
 74
0
 49
-0.05
 74
0
  0
LTYPE
  5
1F8
100
AcDbSymbolTableRecord
100
AcDbLinetypeTableRecord
  2
DOT
 70
64
  3
. . . . . . . . . . . . . . . . . . . .
 72
65
 73
2
 40
0.2
 49
0.1
 74
0
 49
-0.1
 74
0
  0
LTYPE
  5
1F9
100
AcDbSymbolTableRecord
100
AcDbLinetypeTableRecord
  2
DASHED
 70
64
  3
- - - - - - - - - - - - - - - - - - - -
 72
65
 73
2
 40
0.2
 49
0.1
 74
0
 49
-0.1
 74
0
  0
ENDTAB
  0
TABLE
  2
LAYER
  5
2
100
AcDbSymbolTable
 70
36
  0
LAYER
  5
10
100
AcDbSymbolTableRecord
100
AcDbLayerTableRecord
  2
0
 70
0
 62
7
  6
CONTINUOUS
370
-3
390
F
  0
LAYER
  5
1FA
100
AcDbSymbolTableRecord
100
AcDbLayerTableRecord
  2
DEFAULT_1
 70
0
 62
7
  6
CENTER
370
-3
390
F
  0
LAYER
  5
1FB
100
AcDbSymbolTableRecord
100
AcDbLayerTableRecord
  2
DEFAULT_2
 70
0
 62
8
  6
HIDDEN
370
-3
390
F
  0
LAYER
  5
1FC
100
AcDbSymbolTableRecord
100
AcDbLayerTableRecord
  2
DEFAULT_3
 70
0
 62
7
  6
PHANTOM
370
-3
390
F
  0
LAYER
  5
1FD
100
AcDbSymbolTableRecord
100
AcDbLayerTableRecord
  2
ALL_FEATURES
 70
0
 62
7
  6
CONTINUOUS
370
-3
390
F
  0
LAYER
  5
1FE
100
AcDbSymbolTableRecord
100
AcDbLayerTableRecord
  2
AXES_FEATURES
 70
0
 62
7
  6
CONTINUOUS
370
-3
390
F
  0
LAYER
  5
1FF
100
AcDbSymbolTableRecord
100
AcDbLayerTableRecord
  2
DIMENSIONS
 70
0
 62
7
  6
CONTINUOUS
370
-3
390
F
  0
ENDTAB
  0
TABLE
  2
STYLE
  5
3
100
AcDbSymbolTable
 70
1
  0
STYLE
  5
11
100
AcDbSymbolTableRecord
100
AcDbTextStyleTableRecord
  2
STANDARD
 70
0
 40
0.0
 41
0.8
 50
0.0
 71
0
 42
0.2
  3
txt
  4

  0
STYLE
  5
200
100
AcDbSymbolTableRecord
100
AcDbTextStyleTableRecord
  2
TEXTSTYLE_1
 70
0
 40
0.0
 41
0.8
 50
0.0
 71
0
 42
0.2
  3
gdt
  4

  0
ENDTAB
  0
TABLE
  2
VIEW
  5
6
100
AcDbSymbolTable
 70
0
  0
ENDTAB
  0
TABLE
  2
UCS
  5
7
100
AcDbSymbolTable
 70
0
  0
ENDTAB
  0
TABLE
  2
APPID
  5
9
100
AcDbSymbolTable
 70
1
  0
APPID
  5
201
100
AcDbSymbolTableRecord
100
AcDbRegAppTableRecord
  2
ACAD
 70
0
  0
ENDTAB
  0
TABLE
  2
BLOCK_RECORD
  5
1
100
AcDbSymbolTable
 70
0
  0
BLOCK_RECORD
  5
202
100
AcDbSymbolTableRecord
100
AcDbBlockTableRecord
  2
*Model_Space
  0
BLOCK_RECORD
  5
203
100
AcDbSymbolTableRecord
100
AcDbBlockTableRecord
  2
*Paper_Space
  0
BLOCK_RECORD
  5
204
100
AcDbSymbolTableRecord
100
AcDbBlockTableRecord
  2
_FILLED
  0
ENDTAB
  0
TABLE
  2
DIMSTYLE
  5
A
100
AcDbSymbolTable
 70
1
100
AcDbDimStyleTable
 71
0
  0
DIMSTYLE
105
205
100
AcDbSymbolTableRecord
100
AcDbDimStyleTableRecord
  2
STANDARD
 70
0
  3

  4

 40
1.0
 41
0.1
 42
0.0625
 43
0.38
 44
0.125
 45
0.0
 46
0.0
 47
0.001
 48
0.001
140
0.08
141
0.09
142
0.0
143
25.4
144
1.0
145
0.0
146
1.0
147
0.09
 71
1.0
 72
0.0
 73
1
 74
1
 75
0
 76
0
 77
0
 78
4
 79
1
170
1
171
2
172
0
173
0
174
0
175
0
176
0
177
0
178
0
270
2
179
3
271
3
272
3
273
2
274
2
275
0
280
0
281
0
282
0
283
1
284
4
285
0
286
0
287
3
288
0
340
11
278
46
341
204
342
204
343
204
344
204
  0
ENDTAB
  0
ENDSEC
  0
SECTION
  2
BLOCKS
  0
BLOCK
  5
20
100
AcDbEntity
  8
0
100
AcDbBlockBegin
  2
*Model_Space
 70
0
 10
0.0
 20
0.0
 30
0.0
  3
*Model_Space
  1

  0
ENDBLK
  5
21
100
AcDbEntity
  8
0
100
AcDbBlockEnd
  0
BLOCK
  5
1C
100
AcDbEntity
  8
0
100
AcDbBlockBegin
  2
*Paper_Space
 70
0
 10
0.0
 20
0.0
 30
0.0
  3
*Paper_Space
  1

  0
ENDBLK
  5
1D
100
AcDbEntity
  8
0
100
AcDbBlockEnd
  0
BLOCK
  5
206
100
AcDbEntity
  8
0
100
AcDbBlockBegin
  2
_FILLED
 70
64
 10
0.0
 20
0.0
  3
_FILLED
  1

  0
SOLID
  5
207
100
AcDbEntity
  8
0
  6
BYBLOCK
 62
0
100
AcDbTrace
 10
0.0
 20
0.0
 11
-1.0
 21
0.2
 12
-1.0
 22
-0.2
 13
-1.0
 23
-0.2
  0
ENDBLK
  5
208
100
AcDbEntity
  8
0
  6
BYBLOCK
 62
0
100
AcDbBlockEnd
  0
ENDSEC
  0
SECTION
  2
ENTITIES
  0
LINE
  5
209
100
AcDbEntity
  8
0
100
AcDbLine
 62
7
  6
CONTINUOUS
 10
6.6475616263
 20
9.968702291
 11
6.6475616263
 21
10.718702291
  0
LINE
  5
20A
100
AcDbEntity
  8
0
100
AcDbLine
 62
7
  6
CONTINUOUS
 10
6.6487432962
 20
10.718702291
 11
6.6487432962
 21
9.968702291
  0
LINE
  5
20B
100
AcDbEntity
  8
0
100
AcDbLine
 62
7
  6
CONTINUOUS
 10
6.6511937248
 20
9.968702291
 11
6.6511937248
 21
10.718702291
  0
LINE
  5
20C
100
AcDbEntity
  8
0
100
AcDbLine
 62
7
  6
CONTINUOUS
 10
6.6547273543
 20
10.718702291
 11
6.6547273543
 21
9.968702291
  0
LINE
  5
20D
100
AcDbEntity
  8
0
100
AcDbLine
 62
7
  6
CONTINUOUS
 10
6.6596046124
 20
9.968702291
 11
6.6596046124
 21
10.718702291
  0
LINE
  5
20E
100
AcDbEntity
  8
0
100
AcDbLine
 62
7
  6
CONTINUOUS
 10
6.6654561709
 20
10.718702291
 11
6.6654561709
 21
9.968702291
  0
LINE
  5
20F
100
AcDbEntity
  8
0
100
AcDbLine
 62
7
  6
CONTINUOUS
 10
6.6727132878
 20
9.968702291
 11
6.6727132878
 21
10.718702291
  0
LINE
  5
210
100
AcDbEntity
  8
0
100
AcDbLine
 62
7
  6
CONTINUOUS
 10
6.6808264215
 20
10.718702291
 11
6.6808264215
 21
9.968702291
  0
LINE
  5
211
100
AcDbEntity
  8
0
100
AcDbLine
 62
7
  6
CONTINUOUS
 10
6.6903935073
 20
9.968702291
 11
6.6903935073
 21
10.718702291
  0
LINE
  5
212
100
AcDbEntity
  8
0
100
AcDbLine
 62
7
  6
CONTINUOUS
 10
6.7006900823
 20
10.718702291
 11
6.7006900823
 21
9.968702291
  0
LINE
  5
213
100
AcDbEntity
  8
0
100
AcDbLine
 62
7
  6
CONTINUOUS
 10
6.7099053519
 20
10.748702291
 11
6.7099053519
 21
11.148702291
  0
LINE
  5
214
100
AcDbEntity
  8
0
100
AcDbLine
 62
7
  6
CONTINUOUS
 10
6.7124750007
 20
9.968702291
 11
6.7124750007
 21
10.718702291
  0
LINE
  5
215
100
AcDbEntity
  8
0
100
AcDbLine
 62
7
  6
CONTINUOUS
 10
6.7248558553
 20
10.718702291
 11
6.7248558553
 21
9.968702291
  0
LINE
  5
216
100
AcDbEntity
  8
0
100
AcDbLine
 62
7
  6
CONTINUOUS
 10
6.7387451111
 20
9.968702291
 11
6.7387451111
 21
10.718702291
  0
LINE
  5
217
100
AcDbEntity
  8
0
100
AcDbLine
 62
7
  6
CONTINUOUS
 10
6.753091011
 20
10.718702291
 11
6.753091011
 21
9.968702291
  0
LINE
  5
218
100
AcDbEntity
  8
0
100
AcDbLine
 62
7
  6
CONTINUOUS
 10
6.7689508431
 20
9.968702291
 11
6.7689508431
 21
10.718702291
  0
LINE
  5
219
100
AcDbEntity
  8
0
100
AcDbLine
 62
7
  6
CONTINUOUS
 10
6.7851236293
 20
10.718702291
 11
6.7851236293
 21
9.968702291
  0
LINE
  5
21A
100
AcDbEntity
  8
0
100
AcDbLine
 62
7
  6
CONTINUOUS
 10
6.8028012988
 20
9.968702291
 11
6.8028012988
 21
10.718702291
  0
LINE
  5
21B
100
AcDbEntity
  8
0
100
AcDbLine
 62
7
  6
CONTINUOUS
 10
6.8206452186
 20
10.718702291
 11
6.8206452186
 21
9.968702291
  0
LINE
  5
21C
100
AcDbEntity
  8
0
100
AcDbLine
 62
7
  6
CONTINUOUS
 10
6.8397583552
 20
10.7447136923
 11
6.8397583552
 21
9.9426908896
  0
LINE
  5
21D
100
AcDbEntity
  8
0
100
AcDbLine
 62
7
  6
CONTINUOUS
 10
6.83997048
 20
9.968702291
 11
6.83997048
 21
10.718702291
  0
LINE
  5
21E
100
AcDbEntity
  8
0
100
AcDbLine
 62
7
  6
CONTINUOUS
 10
6.8593136867
 20
10.718702291
 11
6.8593136867
 21
9.968702291
  0
LINE
  5
21F
100
AcDbEntity
  8
0
100
AcDbLine
 62
7
  6
CONTINUOUS
 10
6.8779833421
 20
10.7447136923
 11
6.8779833421
 21
9.9426908896
  0
LINE
  5
220
100
AcDbEntity
  8
0
100
AcDbLine
 62
7
  6
CONTINUOUS
 10
6.880100427
 20
9.968702291
 11
6.880100427
 21
10.718702291
  0
LINE
  5
221
100
AcDbEntity
  8
0
100
AcDbLine
 62
7
  6
CONTINUOUS
 10
6.900756635
 20
10.718702291
 11
6.900756635
 21
9.968702291
  0
LINE
  5
222
100
AcDbEntity
  8
0
100
AcDbLine
 62
7
  6
CONTINUOUS
 10
6.9188030102
 20
10.7447136923
 11
6.9188030102
 21
9.9426908896
  0
LINE
  5
223
100
AcDbEntity
  8
0
100
AcDbLine
 62
7
  6
CONTINUOUS
 10
6.9228046666
 20
9.968702291
 11
6.9228046666
 21
10.718702291
  0
LINE
  5
224
100
AcDbEntity
  8
0
100
AcDbLine
 62
7
  6
CONTINUOUS
 10
12.1474147
 20
4.938702291
 11
14.3973960038
 21
4.938702291
  0
LINE
  5
225
100
AcDbEntity
  8
0
100
AcDbLine
 62
9
  6
CONTINUOUS
 10
14.3974053519
 20
5.1606501639
 11
12.1474053519
 21
5.1606501639
  0
LINE
  5
226
100
AcDbEntity
  8
0
100
AcDbLine
 62
9
  6
CONTINUOUS
 10
14.3974053519
 20
5.1653038214
 11
14.3967028994
 21
5.1653038214
  0
LINE
  5
227
100
AcDbEntity
  8
0
100
AcDbLine
 62
9
  6
CONTINUOUS
 10
12.1481078045
 20
5.1653038214
 11
12.1474053519
 21
5.1653038214
  0
LINE
  5
228
100
AcDbEntity
  8
0
100
AcDbLine
 62
9
  6
CONTINUOUS
 10
14.3741739184
 20
5.1902411864
 11
14.3710409669
 21
5.1902411864
  0
LINE
  5
229
100
AcDbEntity
  8
0
100
AcDbLine
 62
9
  6
CONTINUOUS
 10
12.1729962142
 20
5.1902411864
 11
12.1706367854
 21
5.1902411864
  0
LINE
  5
22A
100
AcDbEntity
  8
0
100
AcDbLine
 62
9
  6
CONTINUOUS
 10
14.3695827261
 20
5.1905710436
 11
12.1752279778
 21
5.1905710436
  0
LINE
  5
22B
100
AcDbEntity
  8
0
100
AcDbLine
 62
7
  6
CONTINUOUS
 10
6.9445749452
 20
10.718702291
 11
6.9445749452
 21
9.968702291
  0
LINE
  5
22C
100
AcDbEntity
  8
0
100
AcDbLine
 62
7
  6
CONTINUOUS
 10
6.9618242438
 20
10.7447136923
 11
6.9618242438
 21
9.9426908896
  0
LINE
  5
22D
100
AcDbEntity
  8
0
100
AcDbLine
 62
7
  6
CONTINUOUS
 10
6.9676719335
 20
9.968702291
 11
6.9676719335
 21
10.718702291
  0
LINE
  5
22E
100
AcDbEntity
  8
0
100
AcDbLine
 62
7
  6
CONTINUOUS
 10
6.9903466232
 20
10.718702291
 11
6.9903466232
 21
9.968702291
  0
LINE
  5
22F
100
AcDbEntity
  8
0
100
AcDbLine
 62
7
  6
CONTINUOUS
 10
7.006632725
 20
10.7447136923
 11
7.006632725
 21
9.9426908896
  0
LINE
  5
230
100
AcDbEntity
  8
0
100
AcDbLine
 62
7
  6
CONTINUOUS
 10
7.0142701316
 20
9.968702291
 11
7.0142701316
 21
10.718702291
  0
LINE
  5
231
100
AcDbEntity
  8
0
100
AcDbLine
 62
7
  6
CONTINUOUS
 10
7.0376308625
 20
10.718702291
 11
7.0376308625
 21
9.968702291
  0
LINE
  5
232
100
AcDbEntity
  8
0
100
AcDbLine
 62
7
  6
CONTINUOUS
 10
7.0527969234
 20
10.7447136923
 11
7.0527969234
 21
9.9426908896
  0
LINE
  5
233
100
AcDbEntity
  8
0
100
AcDbLine
 62
7
  6
CONTINUOUS
 10
7.0621504945
 20
9.968702291
 11
7.0621504945
 21
10.718702291
  0
LINE
  5
234
100
AcDbEntity
  8
0
100
AcDbLine
 62
7
  6
CONTINUOUS
 10
7.0859722902
 20
10.718702291
 11
7.0859722902
 21
9.968702291
  0
LINE
  5
235
100
AcDbEntity
  8
0
100
AcDbLine
 62
7
  6
CONTINUOUS
 10
7.0998722528
 20
10.7447136923
 11
7.0998722528
 21
9.9426908896
  0
LINE
  5
236
100
AcDbEntity
  8
0
100
AcDbLine
 62
7
  6
CONTINUOUS
 10
7.1108519084
 20
9.968702291
 11
7.1108519084
 21
10.718702291
  0
LINE
  5
237
100
AcDbEntity
  8
0
100
AcDbLine
 62
7
  6
CONTINUOUS
 10
7.1349053519
 20
10.718702291
 11
7.1349053519
 21
9.968702291
  0
LINE
  5
238
100
AcDbEntity
  8
0
100
AcDbLine
 62
7
  6
CONTINUOUS
 10
7.1474053519
 20
10.7447136923
 11
7.1474053959
 21
9.9426908383
  0
LINE
  5
239
100
AcDbEntity
  8
0
100
AcDbLine
 62
7
  6
CONTINUOUS
 10
7.1599053519
 20
9.968702291
 11
7.1599053519
 21
10.718702291
  0
LINE
  5
23A
100
AcDbEntity
  8
0
100
AcDbLine
 62
7
  6
CONTINUOUS
 10
7.1839587954
 20
10.718702291
 11
7.1839587954
 21
9.968702291
  0
LINE
  5
23B
100
AcDbEntity
  8
0
100
AcDbLine
 62
7
  6
CONTINUOUS
 10
7.194938451
 20
10.7447136923
 11
7.194938451
 21
9.9426908896
  0
LINE
  5
23C
100
AcDbEntity
  8
0
100
AcDbLine
 62
7
  6
CONTINUOUS
 10
7.2088384136
 20
9.968702291
 11
7.2088384136
 21
10.718702291
  0
LINE
  5
23D
100
AcDbEntity
  8
0
100
AcDbLine
 62
7
  6
CONTINUOUS
 10
7.2326602093
 20
10.718702291
 11
7.2326602093
 21
9.968702291
  0
LINE
  5
23E
100
AcDbEntity
  8
0
100
AcDbLine
 62
7
  6
CONTINUOUS
 10
7.2420137804
 20
10.7447136923
 11
7.2420137804
 21
9.9426908896
  0
LINE
  5
23F
100
AcDbEntity
  8
0
100
AcDbLine
 62
7
  6
CONTINUOUS
 10
7.2571798413
 20
9.968702291
 11
7.2571798413
 21
10.718702291
  0
LINE
  5
240
100
AcDbEntity
  8
0
100
AcDbLine
 62
7
  6
CONTINUOUS
 10
7.2805405723
 20
10.718702291
 11
7.2805405723
 21
9.968702291
  0
LINE
  5
241
100
AcDbEntity
  8
0
100
AcDbLine
 62
7
  6
CONTINUOUS
 10
7.2881779789
 20
10.7447136923
 11
7.2881779789
 21
9.9426908896
  0
LINE
  5
242
100
AcDbEntity
  8
0
100
AcDbLine
 62
7
  6
CONTINUOUS
 10
7.3044640807
 20
9.968702291
 11
7.3044640807
 21
10.718702291
  0
LINE
  5
243
100
AcDbEntity
  8
0
100
AcDbLine
 62
9
  6
CONTINUOUS
 10
12.6428395082
 20
5.2697030678
 11
13.9019711957
 21
5.2697030678
  0
LINE
  5
244
100
AcDbEntity
  8
0
100
AcDbLine
 62
9
  6
CONTINUOUS
 10
13.7742893781
 20
5.4130925349
 11
12.7705213257
 21
5.4130925349
  0
LINE
  5
245
100
AcDbEntity
  8
0
100
AcDbLine
 62
7
  6
CONTINUOUS
 10
13.744605177
 20
5.438702291
 11
12.8002055269
 21
5.438702291
  0
LINE
  5
246
100
AcDbEntity
  8
0
100
AcDbLine
 62
7
  6
CONTINUOUS
 10
12.8024053519
 20
5.448702291
 11
13.7424044943
 21
5.448702291
  0
LINE
  5
247
100
AcDbEntity
  8
0
100
AcDbLine
 62
9
  6
CONTINUOUS
 10
12.7724053519
 20
5.468702291
 11
12.7742453502
 21
5.468702291
  0
LINE
  5
248
100
AcDbEntity
  8
0
100
AcDbLine
 62
9
  6
CONTINUOUS
 10
13.7705653536
 20
5.468702291
 11
13.7724053519
 21
5.468702291
  0
LINE
  5
249
100
AcDbEntity
  8
0
100
AcDbLine
 62
9
  6
CONTINUOUS
 10
12.7724053519
 20
5.478702291
 11
13.7724053519
 21
5.478702291
  0
LINE
  5
24A
100
AcDbEntity
  8
0
100
AcDbLine
 62
7
  6
CONTINUOUS
 10
7.3271387703
 20
10.718702291
 11
7.3271387703
 21
9.968702291
  0
LINE
  5
24B
100
AcDbEntity
  8
0
100
AcDbLine
 62
7
  6
CONTINUOUS
 10
7.33298646
 20
10.7447136923
 11
7.33298646
 21
9.9426908896
  0
LINE
  5
24C
100
AcDbEntity
  8
0
100
AcDbLine
 62
7
  6
CONTINUOUS
 10
7.3502357586
 20
9.968702291
 11
7.3502357586
 21
10.718702291
  0
LINE
  5
24D
100
AcDbEntity
  8
0
100
AcDbLine
 62
7
  6
CONTINUOUS
 10
7.3720060373
 20
10.718702291
 11
7.3720060373
 21
9.968702291
  0
LINE
  5
24E
100
AcDbEntity
  8
0
100
AcDbLine
 62
7
  6
CONTINUOUS
 10
7.3760076936
 20
10.7447136923
 11
7.3760076936
 21
9.9426908896
  0
LINE
  5
24F
100
AcDbEntity
  8
0
100
AcDbLine
 62
7
  6
CONTINUOUS
 10
7.3940540689
 20
9.968702291
 11
7.3940540689
 21
10.718702291
  0
LINE
  5
250
100
AcDbEntity
  8
0
100
AcDbLine
 62
7
  6
CONTINUOUS
 10
7.4147102769
 20
10.718702291
 11
7.4147102769
 21
9.968702291
  0
LINE
  5
251
100
AcDbEntity
  8
0
100
AcDbLine
 62
7
  6
CONTINUOUS
 10
7.4168273618
 20
10.7447136923
 11
7.4168273618
 21
9.9426908896
  0
LINE
  5
252
100
AcDbEntity
  8
0
100
AcDbLine
 62
7
  6
CONTINUOUS
 10
7.4354970172
 20
9.968702291
 11
7.4354970172
 21
10.718702291
  0
LINE
  5
253
100
AcDbEntity
  8
0
100
AcDbLine
 62
7
  6
CONTINUOUS
 10
7.4548402239
 20
10.718702291
 11
7.4548402239
 21
9.968702291
  0
LINE
  5
254
100
AcDbEntity
  8
0
100
AcDbLine
 62
7
  6
CONTINUOUS
 10
7.4550523486
 20
10.7447136923
 11
7.4550523486
 21
9.9426908896
  0
LINE
  5
255
100
AcDbEntity
  8
0
100
AcDbLine
 62
7
  6
CONTINUOUS
 10
7.4741654852
 20
9.968702291
 11
7.4741654852
 21
10.718702291
  0
LINE
  5
256
100
AcDbEntity
  8
0
100
AcDbLine
 62
7
  6
CONTINUOUS
 10
7.492009405
 20
10.718702291
 11
7.492009405
 21
9.968702291
  0
LINE
  5
257
100
AcDbEntity
  8
0
100
AcDbLine
 62
7
  6
CONTINUOUS
 10
7.5096870746
 20
9.968702291
 11
7.5096870746
 21
10.718702291
  0
LINE
  5
258
100
AcDbEntity
  8
0
100
AcDbLine
 62
7
  6
CONTINUOUS
 10
7.5258598608
 20
10.718702291
 11
7.5258598608
 21
9.968702291
  0
LINE
  5
259
100
AcDbEntity
  8
0
100
AcDbLine
 62
7
  6
CONTINUOUS
 10
7.5417196929
 20
9.968702291
 11
7.5417196929
 21
10.718702291
  0
LINE
  5
25A
100
AcDbEntity
  8
0
100
AcDbLine
 62
7
  6
CONTINUOUS
 10
7.5560655927
 20
10.718702291
 11
7.5560655927
 21
9.968702291
  0
LINE
  5
25B
100
AcDbEntity
  8
0
100
AcDbLine
 62
7
  6
CONTINUOUS
 10
7.5699548486
 20
9.968702291
 11
7.5699548486
 21
10.718702291
  0
LINE
  5
25C
100
AcDbEntity
  8
0
100
AcDbLine
 62
7
  6
CONTINUOUS
 10
7.5823357032
 20
10.718702291
 11
7.5823357032
 21
9.968702291
  0
LINE
  5
25D
100
AcDbEntity
  8
0
100
AcDbLine
 62
7
  6
CONTINUOUS
 10
7.5849053519
 20
10.748702291
 11
7.5849053519
 21
11.148702291
  0
LINE
  5
25E
100
AcDbEntity
  8
0
100
AcDbLine
 62
7
  6
CONTINUOUS
 10
7.5941206216
 20
9.968702291
 11
7.5941206216
 21
10.718702291
  0
LINE
  5
25F
100
AcDbEntity
  8
0
100
AcDbLine
 62
7
  6
CONTINUOUS
 10
7.6044171965
 20
10.718702291
 11
7.6044171965
 21
9.968702291
  0
LINE
  5
260
100
AcDbEntity
  8
0
100
AcDbLine
 62
7
  6
CONTINUOUS
 10
7.6139842823
 20
9.968702291
 11
7.6139842823
 21
10.718702291
  0
LINE
  5
261
100
AcDbEntity
  8
0
100
AcDbLine
 62
7
  6
CONTINUOUS
 10
7.622097416
 20
10.718702291
 11
7.622097416
 21
9.968702291
  0
LINE
  5
262
100
AcDbEntity
  8
0
100
AcDbLine
 62
7
  6
CONTINUOUS
 10
7.629354533
 20
9.968702291
 11
7.629354533
 21
10.718702291
  0
LINE
  5
263
100
AcDbEntity
  8
0
100
AcDbLine
 62
7
  6
CONTINUOUS
 10
7.6352060914
 20
10.718702291
 11
7.6352060914
 21
9.968702291
  0
LINE
  5
264
100
AcDbEntity
  8
0
100
AcDbLine
 62
7
  6
CONTINUOUS
 10
7.6400833495
 20
9.968702291
 11
7.6400833495
 21
10.718702291
  0
LINE
  5
265
100
AcDbEntity
  8
0
100
AcDbLine
 62
7
  6
CONTINUOUS
 10
7.6436169791
 20
10.718702291
 11
7.6436169791
 21
9.968702291
  0
LINE
  5
266
100
AcDbEntity
  8
0
100
AcDbLine
 62
7
  6
CONTINUOUS
 10
7.6460674076
 20
9.968702291
 11
7.6460674076
 21
10.718702291
  0
LINE
  5
267
100
AcDbEntity
  8
0
100
AcDbLine
 62
7
  6
CONTINUOUS
 10
7.6472490775
 20
10.718702291
 11
7.6472490775
 21
9.968702269
  0
LINE
  5
268
100
AcDbEntity
  8
0
100
AcDbLine
 62
9
  6
CONTINUOUS
 10
9.0832480197
 20
13.0365442915
 11
8.8864158472
 21
12.1839704848
  0
LINE
  5
269
100
AcDbEntity
  8
0
100
AcDbLine
 62
9
  6
CONTINUOUS
 10
13.7724053519
 20
7.148702291
 11
12.7724053519
 21
7.148702291
  0
LINE
  5
26A
100
AcDbEntity
  8
0
100
AcDbLine
 62
7
  6
CONTINUOUS
 10
13.7424046096
 20
7.178702291
 11
12.8024060943
 21
7.178702291
  0
LINE
  5
26B
100
AcDbEntity
  8
0
100
AcDbLine
 62
7
  6
CONTINUOUS
 10
12.752555614
 20
7.208702291
 11
12.9520666754
 21
7.208702291
  0
LINE
  5
26C
100
AcDbEntity
  8
0
100
AcDbLine
 62
7
  6
CONTINUOUS
 10
12.9522788001
 20
7.208702291
 11
13.0124053519
 21
7.208702291
  0
LINE
  5
26D
100
AcDbEntity
  8
0
100
AcDbLine
 62
7
  6
CONTINUOUS
 10
13.5324053519
 20
7.208702291
 11
13.5925319038
 21
7.208702291
  0
LINE
  5
26E
100
AcDbEntity
  8
0
100
AcDbLine
 62
7
  6
CONTINUOUS
 10
13.5927440285
 20
7.208702291
 11
13.7922550898
 21
7.208702291
  0
LINE
  5
26F
100
AcDbEntity
  8
0
100
AcDbLine
 62
7
  6
CONTINUOUS
 10
12.8024113814
 20
7.209702291
 11
13.7423993225
 21
7.209702291
  0
LINE
  5
270
100
AcDbEntity
  8
0
100
AcDbLine
 62
9
  6
CONTINUOUS
 10
12.7761937248
 20
7.239702291
 11
12.7797273543
 21
7.239702291
  0
LINE
  5
271
100
AcDbEntity
  8
0
100
AcDbLine
 62
9
  6
CONTINUOUS
 10
12.7725616263
 20
7.239702291
 11
12.7737432962
 21
7.239702291
  0
LINE
  5
272
100
AcDbEntity
  8
0
100
AcDbLine
 62
9
  6
CONTINUOUS
 10
12.7977132878
 20
7.239702291
 11
12.8058264215
 21
7.239702291
  0
LINE
  5
273
100
AcDbEntity
  8
0
100
AcDbLine
 62
9
  6
CONTINUOUS
 10
12.7846046124
 20
7.239702291
 11
12.7904561709
 21
7.239702291
  0
LINE
  5
274
100
AcDbEntity
  8
0
100
AcDbLine
 62
9
  6
CONTINUOUS
 10
12.8153935073
 20
7.239702291
 11
12.8256900823
 21
7.239702291
  0
LINE
  5
275
100
AcDbEntity
  8
0
100
AcDbLine
 62
9
  6
CONTINUOUS
 10
12.8374750007
 20
7.239702291
 11
12.8498558553
 21
7.239702291
  0
LINE
  5
276
100
AcDbEntity
  8
0
100
AcDbLine
 62
9
  6
CONTINUOUS
 10
12.8637451111
 20
7.239702291
 11
12.878091011
 21
7.239702291
  0
LINE
  5
277
100
AcDbEntity
  8
0
100
AcDbLine
 62
9
  6
CONTINUOUS
 10
12.8939508431
 20
7.239702291
 11
12.9101236293
 21
7.239702291
  0
LINE
  5
278
100
AcDbEntity
  8
0
100
AcDbLine
 62
9
  6
CONTINUOUS
 10
12.9278012988
 20
7.239702291
 11
12.9456452186
 21
7.239702291
  0
LINE
  5
279
100
AcDbEntity
  8
0
100
AcDbLine
 62
9
  6
CONTINUOUS
 10
12.96497048
 20
7.239702291
 11
12.9843136867
 21
7.239702291
  0
LINE
  5
27A
100
AcDbEntity
  8
0
100
AcDbLine
 62
9
  6
CONTINUOUS
 10
13.005100427
 20
7.239702291
 11
13.025756635
 21
7.239702291
  0
LINE
  5
27B
100
AcDbEntity
  8
0
100
AcDbLine
 62
9
  6
CONTINUOUS
 10
13.0478046666
 20
7.239702291
 11
13.0695749452
 21
7.239702291
  0
LINE
  5
27C
100
AcDbEntity
  8
0
100
AcDbLine
 62
9
  6
CONTINUOUS
 10
13.0926719335
 20
7.239702291
 11
13.1153466232
 21
7.239702291
  0
LINE
  5
27D
100
AcDbEntity
  8
0
100
AcDbLine
 62
9
  6
CONTINUOUS
 10
13.1392701316
 20
7.239702291
 11
13.1626308625
 21
7.239702291
  0
LINE
  5
27E
100
AcDbEntity
  8
0
100
AcDbLine
 62
9
  6
CONTINUOUS
 10
13.1871504945
 20
7.239702291
 11
13.2109722902
 21
7.239702291
  0
LINE
  5
27F
100
AcDbEntity
  8
0
100
AcDbLine
 62
9
  6
CONTINUOUS
 10
13.2358519084
 20
7.239702291
 11
13.2599053519
 21
7.239702291
  0
LINE
  5
280
100
AcDbEntity
  8
0
100
AcDbLine
 62
9
  6
CONTINUOUS
 10
13.2849053519
 20
7.239702291
 11
13.3089587954
 21
7.239702291
  0
LINE
  5
281
100
AcDbEntity
  8
0
100
AcDbLine
 62
9
  6
CONTINUOUS
 10
13.3338384136
 20
7.239702291
 11
13.3576602093
 21
7.239702291
  0
LINE
  5
282
100
AcDbEntity
  8
0
100
AcDbLine
 62
9
  6
CONTINUOUS
 10
13.3821798413
 20
7.239702291
 11
13.4055405723
 21
7.239702291
  0
LINE
  5
283
100
AcDbEntity
  8
0
100
AcDbLine
 62
9
  6
CONTINUOUS
 10
13.4294640807
 20
7.239702291
 11
13.4521387703
 21
7.239702291
  0
LINE
  5
284
100
AcDbEntity
  8
0
100
AcDbLine
 62
9
  6
CONTINUOUS
 10
13.4752357586
 20
7.239702291
 11
13.4970060373
 21
7.239702291
  0
LINE
  5
285
100
AcDbEntity
  8
0
100
AcDbLine
 62
9
  6
CONTINUOUS
 10
13.5190540689
 20
7.239702291
 11
13.5397102769
 21
7.239702291
  0
LINE
  5
286
100
AcDbEntity
  8
0
100
AcDbLine
 62
9
  6
CONTINUOUS
 10
13.5604970172
 20
7.239702291
 11
13.5798402239
 21
7.239702291
  0
LINE
  5
287
100
AcDbEntity
  8
0
100
AcDbLine
 62
9
  6
CONTINUOUS
 10
13.5991654852
 20
7.239702291
 11
13.617009405
 21
7.239702291
  0
LINE
  5
288
100
AcDbEntity
  8
0
100
AcDbLine
 62
9
  6
CONTINUOUS
 10
13.6346870746
 20
7.239702291
 11
13.6508598608
 21
7.239702291
  0
LINE
  5
289
100
AcDbEntity
  8
0
100
AcDbLine
 62
9
  6
CONTINUOUS
 10
13.6667196929
 20
7.239702291
 11
13.6810655927
 21
7.239702291
  0
LINE
  5
28A
100
AcDbEntity
  8
0
100
AcDbLine
 62
9
  6
CONTINUOUS
 10
13.6949548486
 20
7.239702291
 11
13.7073357032
 21
7.239702291
  0
LINE
  5
28B
100
AcDbEntity
  8
0
100
AcDbLine
 62
9
  6
CONTINUOUS
 10
13.7191206216
 20
7.239702291
 11
13.7294171965
 21
7.239702291
  0
LINE
  5
28C
100
AcDbEntity
  8
0
100
AcDbLine
 62
9
  6
CONTINUOUS
 10
13.7389842823
 20
7.239702291
 11
13.747097416
 21
7.239702291
  0
LINE
  5
28D
100
AcDbEntity
  8
0
100
AcDbLine
 62
9
  6
CONTINUOUS
 10
13.754354533
 20
7.239702291
 11
13.7602060914
 21
7.239702291
  0
LINE
  5
28E
100
AcDbEntity
  8
0
100
AcDbLine
 62
9
  6
CONTINUOUS
 10
13.7650833495
 20
7.239702291
 11
13.7686169791
 21
7.239702291
  0
LINE
  5
28F
100
AcDbEntity
  8
0
100
AcDbLine
 62
9
  6
CONTINUOUS
 10
13.7710674076
 20
7.239702291
 11
13.7722490775
 21
7.239702291
  0
LINE
  5
290
100
AcDbEntity
  8
0
100
AcDbLine
 62
7
  6
CONTINUOUS
 10
13.7722490775
 20
7.426702291
 11
13.7602060914
 21
7.426702291
  0
LINE
  5
291
100
AcDbEntity
  8
0
100
AcDbLine
 62
7
  6
CONTINUOUS
 10
13.3754053519
 20
7.426702291
 11
13.1694053519
 21
7.426702291
  0
LINE
  5
292
100
AcDbEntity
  8
0
100
AcDbLine
 62
7
  6
CONTINUOUS
 10
12.7846046124
 20
7.426702291
 11
12.7725616263
 21
7.426702291
  0
LINE
  5
293
100
AcDbEntity
  8
0
100
AcDbLine
 62
9
  6
CONTINUOUS
 10
13.1694053519
 20
7.427702291
 11
13.3754053519
 21
7.427702291
  0
LINE
  5
294
100
AcDbEntity
  8
0
100
AcDbLine
 62
7
  6
CONTINUOUS
 10
14.7524053519
 20
7.434702291
 11
13.7569774848
 21
7.434702291
  0
LINE
  5
295
100
AcDbEntity
  8
0
100
AcDbLine
 62
7
  6
CONTINUOUS
 10
13.3774053519
 20
7.434702291
 11
13.1674053519
 21
7.434702291
  0
LINE
  5
296
100
AcDbEntity
  8
0
100
AcDbLine
 62
7
  6
CONTINUOUS
 10
12.7878353689
 20
7.434702291
 11
11.7924053519
 21
7.434702291
  0
LINE
  5
297
100
AcDbEntity
  8
0
100
AcDbLine
 62
9
  6
CONTINUOUS
 10
11.7724053519
 20
7.454702291
 11
12.7903517484
 21
7.454702291
  0
LINE
  5
298
100
AcDbEntity
  8
0
100
AcDbLine
 62
9
  6
CONTINUOUS
 10
13.1474053519
 20
7.454702291
 11
13.3974053519
 21
7.454702291
  0
LINE
  5
299
100
AcDbEntity
  8
0
100
AcDbLine
 62
9
  6
CONTINUOUS
 10
13.7544591789
 20
7.454702291
 11
14.7724053519
 21
7.454702291
  0
LINE
  5
29A
100
AcDbEntity
  8
0
100
AcDbLine
 62
9
  6
CONTINUOUS
 10
13.4044053519
 20
7.456702291
 11
13.4054053519
 21
7.456702291
  0
LINE
  5
29B
100
AcDbEntity
  8
0
100
AcDbLine
 62
9
  6
CONTINUOUS
 10
13.1404053519
 20
8.062702291
 11
13.1394053519
 21
8.062702291
  0
LINE
  5
29C
100
AcDbEntity
  8
0
100
AcDbLine
 62
9
  6
CONTINUOUS
 10
14.7724053519
 20
8.064702291
 11
13.7544589554
 21
8.064702291
  0
LINE
  5
29D
100
AcDbEntity
  8
0
100
AcDbLine
 62
9
  6
CONTINUOUS
 10
13.3974053519
 20
8.064702291
 11
13.1474053519
 21
8.064702291
  0
LINE
  5
29E
100
AcDbEntity
  8
0
100
AcDbLine
 62
9
  6
CONTINUOUS
 10
12.7903515249
 20
8.064702291
 11
11.7724053519
 21
8.064702291
  0
LINE
  5
29F
100
AcDbEntity
  8
0
100
AcDbLine
 62
7
  6
CONTINUOUS
 10
11.7924053519
 20
8.084702291
 11
12.787833219
 21
8.084702291
  0
LINE
  5
2A0
100
AcDbEntity
  8
0
100
AcDbLine
 62
7
  6
CONTINUOUS
 10
13.1674053519
 20
8.084702291
 11
13.3774053519
 21
8.084702291
  0
LINE
  5
2A1
100
AcDbEntity
  8
0
100
AcDbLine
 62
7
  6
CONTINUOUS
 10
13.756975335
 20
8.084702291
 11
14.7524053519
 21
8.084702291
  0
LINE
  5
2A2
100
AcDbEntity
  8
0
100
AcDbLine
 62
9
  6
CONTINUOUS
 10
13.3754053519
 20
8.091702291
 11
13.1694053519
 21
8.091702291
  0
LINE
  5
2A3
100
AcDbEntity
  8
0
100
AcDbLine
 62
7
  6
CONTINUOUS
 10
12.7725616263
 20
8.092702291
 11
12.7846046124
 21
8.092702291
  0
LINE
  5
2A4
100
AcDbEntity
  8
0
100
AcDbLine
 62
7
  6
CONTINUOUS
 10
13.1694053519
 20
8.092702291
 11
13.3754053519
 21
8.092702291
  0
LINE
  5
2A5
100
AcDbEntity
  8
0
100
AcDbLine
 62
7
  6
CONTINUOUS
 10
13.7602060914
 20
8.092702291
 11
13.7722490775
 21
8.092702291
  0
LINE
  5
2A6
100
AcDbEntity
  8
0
100
AcDbLine
 62
9
  6
CONTINUOUS
 10
13.7798276939
 20
8.108702291
 11
13.7734990931
 21
8.108702291
  0
LINE
  5
2A7
100
AcDbEntity
  8
0
100
AcDbLine
 62
9
  6
CONTINUOUS
 10
13.788526657
 20
8.108702291
 11
13.7847049519
 21
8.108702291
  0
LINE
  5
2A8
100
AcDbEntity
  8
0
100
AcDbLine
 62
9
  6
CONTINUOUS
 10
13.7922550898
 20
8.108702291
 11
13.7909770855
 21
8.108702291
  0
LINE
  5
2A9
100
AcDbEntity
  8
0
100
AcDbLine
 62
9
  6
CONTINUOUS
 10
12.7713116107
 20
8.108702291
 11
12.76498301
 21
8.108702291
  0
LINE
  5
2AA
100
AcDbEntity
  8
0
100
AcDbLine
 62
9
  6
CONTINUOUS
 10
12.7538336183
 20
8.108702291
 11
12.752555614
 21
8.108702291
  0
LINE
  5
2AB
100
AcDbEntity
  8
0
100
AcDbLine
 62
9
  6
CONTINUOUS
 10
12.7601057519
 20
8.108702291
 11
12.7562840468
 21
8.108702291
  0
LINE
  5
2AC
100
AcDbEntity
  8
0
100
AcDbLine
 62
9
  6
CONTINUOUS
 10
13.7722490775
 20
8.109702291
 11
13.7710674076
 21
8.109702291
  0
LINE
  5
2AD
100
AcDbEntity
  8
0
100
AcDbLine
 62
9
  6
CONTINUOUS
 10
13.7686169791
 20
8.109702291
 11
13.7650833495
 21
8.109702291
  0
LINE
  5
2AE
100
AcDbEntity
  8
0
100
AcDbLine
 62
9
  6
CONTINUOUS
 10
13.7602060914
 20
8.109702291
 11
13.754354533
 21
8.109702291
  0
LINE
  5
2AF
100
AcDbEntity
  8
0
100
AcDbLine
 62
9
  6
CONTINUOUS
 10
13.747097416
 20
8.109702291
 11
13.7389842823
 21
8.109702291
  0
LINE
  5
2B0
100
AcDbEntity
  8
0
100
AcDbLine
 62
9
  6
CONTINUOUS
 10
13.7294171965
 20
8.109702291
 11
13.7191206216
 21
8.109702291
  0
LINE
  5
2B1
100
AcDbEntity
  8
0
100
AcDbLine
 62
9
  6
CONTINUOUS
 10
13.7073357032
 20
8.109702291
 11
13.6949548486
 21
8.109702291
  0
LINE
  5
2B2
100
AcDbEntity
  8
0
100
AcDbLine
 62
9
  6
CONTINUOUS
 10
13.6810655927
 20
8.109702291
 11
13.6667196929
 21
8.109702291
  0
LINE
  5
2B3
100
AcDbEntity
  8
0
100
AcDbLine
 62
9
  6
CONTINUOUS
 10
13.6508598608
 20
8.109702291
 11
13.6346870746
 21
8.109702291
  0
LINE
  5
2B4
100
AcDbEntity
  8
0
100
AcDbLine
 62
9
  6
CONTINUOUS
 10
13.617009405
 20
8.109702291
 11
13.5991654852
 21
8.109702291
  0
LINE
  5
2B5
100
AcDbEntity
  8
0
100
AcDbLine
 62
9
  6
CONTINUOUS
 10
13.5798402239
 20
8.109702291
 11
13.5604970172
 21
8.109702291
  0
LINE
  5
2B6
100
AcDbEntity
  8
0
100
AcDbLine
 62
9
  6
CONTINUOUS
 10
13.5397102769
 20
8.109702291
 11
13.5190540689
 21
8.109702291
  0
LINE
  5
2B7
100
AcDbEntity
  8
0
100
AcDbLine
 62
9
  6
CONTINUOUS
 10
13.4970060373
 20
8.109702291
 11
13.4752357586
 21
8.109702291
  0
LINE
  5
2B8
100
AcDbEntity
  8
0
100
AcDbLine
 62
9
  6
CONTINUOUS
 10
13.4521387703
 20
8.109702291
 11
13.4294640807
 21
8.109702291
  0
LINE
  5
2B9
100
AcDbEntity
  8
0
100
AcDbLine
 62
9
  6
CONTINUOUS
 10
13.4055405723
 20
8.109702291
 11
13.3821798413
 21
8.109702291
  0
LINE
  5
2BA
100
AcDbEntity
  8
0
100
AcDbLine
 62
9
  6
CONTINUOUS
 10
13.3576602093
 20
8.109702291
 11
13.3338384136
 21
8.109702291
  0
LINE
  5
2BB
100
AcDbEntity
  8
0
100
AcDbLine
 62
9
  6
CONTINUOUS
 10
13.3089587954
 20
8.109702291
 11
13.2849053519
 21
8.109702291
  0
LINE
  5
2BC
100
AcDbEntity
  8
0
100
AcDbLine
 62
9
  6
CONTINUOUS
 10
13.2599053519
 20
8.109702291
 11
13.2358519084
 21
8.109702291
  0
LINE
  5
2BD
100
AcDbEntity
  8
0
100
AcDbLine
 62
9
  6
CONTINUOUS
 10
13.2109722902
 20
8.109702291
 11
13.1871504945
 21
8.109702291
  0
LINE
  5
2BE
100
AcDbEntity
  8
0
100
AcDbLine
 62
9
  6
CONTINUOUS
 10
13.1626308625
 20
8.109702291
 11
13.1392701316
 21
8.109702291
  0
LINE
  5
2BF
100
AcDbEntity
  8
0
100
AcDbLine
 62
9
  6
CONTINUOUS
 10
13.1153466232
 20
8.109702291
 11
13.0926719335
 21
8.109702291
  0
LINE
  5
2C0
100
AcDbEntity
  8
0
100
AcDbLine
 62
9
  6
CONTINUOUS
 10
13.0695749452
 20
8.109702291
 11
13.0478046666
 21
8.109702291
  0
LINE
  5
2C1
100
AcDbEntity
  8
0
100
AcDbLine
 62
9
  6
CONTINUOUS
 10
13.025756635
 20
8.109702291
 11
13.005100427
 21
8.109702291
  0
LINE
  5
2C2
100
AcDbEntity
  8
0
100
AcDbLine
 62
9
  6
CONTINUOUS
 10
12.9843136867
 20
8.109702291
 11
12.96497048
 21
8.109702291
  0
LINE
  5
2C3
100
AcDbEntity
  8
0
100
AcDbLine
 62
9
  6
CONTINUOUS
 10
12.9456452186
 20
8.109702291
 11
12.9278012988
 21
8.109702291
  0
LINE
  5
2C4
100
AcDbEntity
  8
0
100
AcDbLine
 62
9
  6
CONTINUOUS
 10
12.9101236293
 20
8.109702291
 11
12.8939508431
 21
8.109702291
  0
LINE
  5
2C5
100
AcDbEntity
  8
0
100
AcDbLine
 62
9
  6
CONTINUOUS
 10
12.878091011
 20
8.109702291
 11
12.8637451111
 21
8.109702291
  0
LINE
  5
2C6
100
AcDbEntity
  8
0
100
AcDbLine
 62
9
  6
CONTINUOUS
 10
12.8498558553
 20
8.109702291
 11
12.8374750007
 21
8.109702291
  0
LINE
  5
2C7
100
AcDbEntity
  8
0
100
AcDbLine
 62
9
  6
CONTINUOUS
 10
12.8256900823
 20
8.109702291
 11
12.8153935073
 21
8.109702291
  0
LINE
  5
2C8
100
AcDbEntity
  8
0
100
AcDbLine
 62
9
  6
CONTINUOUS
 10
12.8058264215
 20
8.109702291
 11
12.7977132878
 21
8.109702291
  0
LINE
  5
2C9
100
AcDbEntity
  8
0
100
AcDbLine
 62
9
  6
CONTINUOUS
 10
12.7904561709
 20
8.109702291
 11
12.7846046124
 21
8.109702291
  0
LINE
  5
2CA
100
AcDbEntity
  8
0
100
AcDbLine
 62
9
  6
CONTINUOUS
 10
12.7737432962
 20
8.109702291
 11
12.7725616263
 21
8.109702291
  0
LINE
  5
2CB
100
AcDbEntity
  8
0
100
AcDbLine
 62
9
  6
CONTINUOUS
 10
12.7797273543
 20
8.109702291
 11
12.7761937248
 21
8.109702291
  0
LINE
  5
2CC
100
AcDbEntity
  8
0
100
AcDbLine
 62
7
  6
CONTINUOUS
 10
13.7623978496
 20
8.138702291
 11
13.7500011066
 21
8.138702291
  0
LINE
  5
2CD
100
AcDbEntity
  8
0
100
AcDbLine
 62
7
  6
CONTINUOUS
 10
12.7948095972
 20
8.138702291
 11
12.7824132475
 21
8.138702291
  0
LINE
  5
2CE
100
AcDbEntity
  8
0
100
AcDbLine
 62
7
  6
CONTINUOUS
 10
13.7423992984
 20
8.139702291
 11
12.8024114054
 21
8.139702291
  0
LINE
  5
2CF
100
AcDbEntity
  8
0
100
AcDbLine
 62
9
  6
CONTINUOUS
 10
12.0114158472
 20
11.4625073876
 11
12.2082480197
 21
12.3150811942
  0
LINE
  5
2D0
100
AcDbEntity
  8
0
100
AcDbLine
 62
7
  6
CONTINUOUS
 10
11.7724053519
 20
7.454702291
 11
11.7724053519
 21
8.064702291
  0
LINE
  5
2D1
100
AcDbEntity
  8
0
100
AcDbLine
 62
9
  6
CONTINUOUS
 10
11.7924053519
 20
8.084702291
 11
11.7924053519
 21
7.434702291
  0
LINE
  5
2D2
100
AcDbEntity
  8
0
100
AcDbLine
 62
7
  6
CONTINUOUS
 10
7.6174053519
 20
9.938702291
 11
6.6774053519
 21
9.938702291
  0
LINE
  5
2D3
100
AcDbEntity
  8
0
100
AcDbLine
 62
9
  6
CONTINUOUS
 10
7.6460674076
 20
9.968702291
 11
7.6472490775
 21
9.968702269
  0
LINE
  5
2D4
100
AcDbEntity
  8
0
100
AcDbLine
 62
9
  6
CONTINUOUS
 10
6.6475616263
 20
9.968702291
 11
6.6487432962
 21
9.968702291
  0
LINE
  5
2D5
100
AcDbEntity
  8
0
100
AcDbLine
 62
9
  6
CONTINUOUS
 10
6.6511937248
 20
9.968702291
 11
6.6547273543
 21
9.968702291
  0
LINE
  5
2D6
100
AcDbEntity
  8
0
100
AcDbLine
 62
9
  6
CONTINUOUS
 10
6.6596046124
 20
9.968702291
 11
6.6654561709
 21
9.968702291
  0
LINE
  5
2D7
100
AcDbEntity
  8
0
100
AcDbLine
 62
9
  6
CONTINUOUS
 10
6.6727132878
 20
9.968702291
 11
6.6808264215
 21
9.968702291
  0
LINE
  5
2D8
100
AcDbEntity
  8
0
100
AcDbLine
 62
9
  6
CONTINUOUS
 10
6.6903935073
 20
9.968702291
 11
6.7006900823
 21
9.968702291
  0
LINE
  5
2D9
100
AcDbEntity
  8
0
100
AcDbLine
 62
9
  6
CONTINUOUS
 10
6.7124750007
 20
9.968702291
 11
6.7248558553
 21
9.968702291
  0
LINE
  5
2DA
100
AcDbEntity
  8
0
100
AcDbLine
 62
9
  6
CONTINUOUS
 10
6.7387451111
 20
9.968702291
 11
6.753091011
 21
9.968702291
  0
LINE
  5
2DB
100
AcDbEntity
  8
0
100
AcDbLine
 62
9
  6
CONTINUOUS
 10
6.7689508431
 20
9.968702291
 11
6.7851236293
 21
9.968702291
  0
LINE
  5
2DC
100
AcDbEntity
  8
0
100
AcDbLine
 62
9
  6
CONTINUOUS
 10
6.8028012988
 20
9.968702291
 11
6.8206452186
 21
9.968702291
  0
LINE
  5
2DD
100
AcDbEntity
  8
0
100
AcDbLine
 62
9
  6
CONTINUOUS
 10
6.83997048
 20
9.968702291
 11
6.8593136867
 21
9.968702291
  0
LINE
  5
2DE
100
AcDbEntity
  8
0
100
AcDbLine
 62
9
  6
CONTINUOUS
 10
6.880100427
 20
9.968702291
 11
6.900756635
 21
9.968702291
  0
LINE
  5
2DF
100
AcDbEntity
  8
0
100
AcDbLine
 62
9
  6
CONTINUOUS
 10
6.9228046666
 20
9.968702291
 11
6.9445749452
 21
9.968702291
  0
LINE
  5
2E0
100
AcDbEntity
  8
0
100
AcDbLine
 62
9
  6
CONTINUOUS
 10
6.9676719335
 20
9.968702291
 11
6.9903466232
 21
9.968702291
  0
LINE
  5
2E1
100
AcDbEntity
  8
0
100
AcDbLine
 62
9
  6
CONTINUOUS
 10
7.0142701316
 20
9.968702291
 11
7.0376308625
 21
9.968702291
  0
LINE
  5
2E2
100
AcDbEntity
  8
0
100
AcDbLine
 62
9
  6
CONTINUOUS
 10
7.0621504945
 20
9.968702291
 11
7.0859722902
 21
9.968702291
  0
LINE
  5
2E3
100
AcDbEntity
  8
0
100
AcDbLine
 62
9
  6
CONTINUOUS
 10
7.1108519084
 20
9.968702291
 11
7.1349053519
 21
9.968702291
  0
LINE
  5
2E4
100
AcDbEntity
  8
0
100
AcDbLine
 62
9
  6
CONTINUOUS
 10
7.1599053519
 20
9.968702291
 11
7.1839587954
 21
9.968702291
  0
LINE
  5
2E5
100
AcDbEntity
  8
0
100
AcDbLine
 62
9
  6
CONTINUOUS
 10
7.2088384136
 20
9.968702291
 11
7.2326602093
 21
9.968702291
  0
LINE
  5
2E6
100
AcDbEntity
  8
0
100
AcDbLine
 62
9
  6
CONTINUOUS
 10
7.2571798413
 20
9.968702291
 11
7.2805405723
 21
9.968702291
  0
LINE
  5
2E7
100
AcDbEntity
  8
0
100
AcDbLine
 62
9
  6
CONTINUOUS
 10
7.3044640807
 20
9.968702291
 11
7.3271387703
 21
9.968702291
  0
LINE
  5
2E8
100
AcDbEntity
  8
0
100
AcDbLine
 62
9
  6
CONTINUOUS
 10
7.3502357586
 20
9.968702291
 11
7.3720060373
 21
9.968702291
  0
LINE
  5
2E9
100
AcDbEntity
  8
0
100
AcDbLine
 62
9
  6
CONTINUOUS
 10
7.3940540689
 20
9.968702291
 11
7.4147102769
 21
9.968702291
  0
LINE
  5
2EA
100
AcDbEntity
  8
0
100
AcDbLine
 62
9
  6
CONTINUOUS
 10
7.4354970172
 20
9.968702291
 11
7.4548402239
 21
9.968702291
  0
LINE
  5
2EB
100
AcDbEntity
  8
0
100
AcDbLine
 62
9
  6
CONTINUOUS
 10
7.4741654852
 20
9.968702291
 11
7.492009405
 21
9.968702291
  0
LINE
  5
2EC
100
AcDbEntity
  8
0
100
AcDbLine
 62
9
  6
CONTINUOUS
 10
7.5096870746
 20
9.968702291
 11
7.5258598608
 21
9.968702291
  0
LINE
  5
2ED
100
AcDbEntity
  8
0
100
AcDbLine
 62
9
  6
CONTINUOUS
 10
7.5417196929
 20
9.968702291
 11
7.5560655927
 21
9.968702291
  0
LINE
  5
2EE
100
AcDbEntity
  8
0
100
AcDbLine
 62
9
  6
CONTINUOUS
 10
7.5699548486
 20
9.968702291
 11
7.5823357032
 21
9.968702291
  0
LINE
  5
2EF
100
AcDbEntity
  8
0
100
AcDbLine
 62
9
  6
CONTINUOUS
 10
7.5941206216
 20
9.968702291
 11
7.6044171965
 21
9.968702291
  0
LINE
  5
2F0
100
AcDbEntity
  8
0
100
AcDbLine
 62
9
  6
CONTINUOUS
 10
7.6139842823
 20
9.968702291
 11
7.622097416
 21
9.968702291
  0
LINE
  5
2F1
100
AcDbEntity
  8
0
100
AcDbLine
 62
9
  6
CONTINUOUS
 10
7.629354533
 20
9.968702291
 11
7.6352060914
 21
9.968702291
  0
LINE
  5
2F2
100
AcDbEntity
  8
0
100
AcDbLine
 62
9
  6
CONTINUOUS
 10
7.6400833495
 20
9.968702291
 11
7.6436169791
 21
9.968702291
  0
LINE
  5
2F3
100
AcDbEntity
  8
0
100
AcDbLine
 62
7
  6
CONTINUOUS
 10
12.1474053519
 20
5.1653038214
 11
12.1474053519
 21
4.938702291
  0
LINE
  5
2F4
100
AcDbEntity
  8
0
100
AcDbLine
 62
9
  6
CONTINUOUS
 10
13.7099053519
 20
10.4272391937
 11
12.8349053519
 21
10.4272391937
  0
LINE
  5
2F5
100
AcDbEntity
  8
0
100
AcDbLine
 62
9
  6
CONTINUOUS
 10
7.6472490775
 20
10.718702291
 11
7.6460674076
 21
10.718702291
  0
LINE
  5
2F6
100
AcDbEntity
  8
0
100
AcDbLine
 62
9
  6
CONTINUOUS
 10
7.6436169791
 20
10.718702291
 11
7.6400833495
 21
10.718702291
  0
LINE
  5
2F7
100
AcDbEntity
  8
0
100
AcDbLine
 62
9
  6
CONTINUOUS
 10
7.6352060914
 20
10.718702291
 11
7.629354533
 21
10.718702291
  0
LINE
  5
2F8
100
AcDbEntity
  8
0
100
AcDbLine
 62
9
  6
CONTINUOUS
 10
7.622097416
 20
10.718702291
 11
7.6139842823
 21
10.718702291
  0
LINE
  5
2F9
100
AcDbEntity
  8
0
100
AcDbLine
 62
9
  6
CONTINUOUS
 10
7.6044171965
 20
10.718702291
 11
7.5941206216
 21
10.718702291
  0
LINE
  5
2FA
100
AcDbEntity
  8
0
100
AcDbLine
 62
9
  6
CONTINUOUS
 10
7.5823357032
 20
10.718702291
 11
7.5699548486
 21
10.718702291
  0
LINE
  5
2FB
100
AcDbEntity
  8
0
100
AcDbLine
 62
9
  6
CONTINUOUS
 10
7.5560655927
 20
10.718702291
 11
7.5417196929
 21
10.718702291
  0
LINE
  5
2FC
100
AcDbEntity
  8
0
100
AcDbLine
 62
9
  6
CONTINUOUS
 10
7.5258598608
 20
10.718702291
 11
7.5096870746
 21
10.718702291
  0
LINE
  5
2FD
100
AcDbEntity
  8
0
100
AcDbLine
 62
9
  6
CONTINUOUS
 10
7.492009405
 20
10.718702291
 11
7.4741654852
 21
10.718702291
  0
LINE
  5
2FE
100
AcDbEntity
  8
0
100
AcDbLine
 62
9
  6
CONTINUOUS
 10
7.4548402239
 20
10.718702291
 11
7.4354970172
 21
10.718702291
  0
LINE
  5
2FF
100
AcDbEntity
  8
0
100
AcDbLine
 62
9
  6
CONTINUOUS
 10
7.4147102769
 20
10.718702291
 11
7.3940540689
 21
10.718702291
  0
LINE
  5
300
100
AcDbEntity
  8
0
100
AcDbLine
 62
9
  6
CONTINUOUS
 10
7.3720060373
 20
10.718702291
 11
7.3502357586
 21
10.718702291
  0
LINE
  5
301
100
AcDbEntity
  8
0
100
AcDbLine
 62
9
  6
CONTINUOUS
 10
7.3271387703
 20
10.718702291
 11
7.3044640807
 21
10.718702291
  0
LINE
  5
302
100
AcDbEntity
  8
0
100
AcDbLine
 62
9
  6
CONTINUOUS
 10
7.2805405723
 20
10.718702291
 11
7.2571798413
 21
10.718702291
  0
LINE
  5
303
100
AcDbEntity
  8
0
100
AcDbLine
 62
9
  6
CONTINUOUS
 10
7.2326602093
 20
10.718702291
 11
7.2088384136
 21
10.718702291
  0
LINE
  5
304
100
AcDbEntity
  8
0
100
AcDbLine
 62
9
  6
CONTINUOUS
 10
7.1839587954
 20
10.718702291
 11
7.1599053519
 21
10.718702291
  0
LINE
  5
305
100
AcDbEntity
  8
0
100
AcDbLine
 62
9
  6
CONTINUOUS
 10
7.1349053519
 20
10.718702291
 11
7.1108519084
 21
10.718702291
  0
LINE
  5
306
100
AcDbEntity
  8
0
100
AcDbLine
 62
9
  6
CONTINUOUS
 10
7.0859722902
 20
10.718702291
 11
7.0621504945
 21
10.718702291
  0
LINE
  5
307
100
AcDbEntity
  8
0
100
AcDbLine
 62
9
  6
CONTINUOUS
 10
7.0376308625
 20
10.718702291
 11
7.0142701316
 21
10.718702291
  0
LINE
  5
308
100
AcDbEntity
  8
0
100
AcDbLine
 62
9
  6
CONTINUOUS
 10
6.9903466232
 20
10.718702291
 11
6.9676719335
 21
10.718702291
  0
LINE
  5
309
100
AcDbEntity
  8
0
100
AcDbLine
 62
9
  6
CONTINUOUS
 10
6.9445749452
 20
10.718702291
 11
6.9228046666
 21
10.718702291
  0
LINE
  5
30A
100
AcDbEntity
  8
0
100
AcDbLine
 62
9
  6
CONTINUOUS
 10
6.900756635
 20
10.718702291
 11
6.880100427
 21
10.718702291
  0
LINE
  5
30B
100
AcDbEntity
  8
0
100
AcDbLine
 62
9
  6
CONTINUOUS
 10
6.8593136867
 20
10.718702291
 11
6.83997048
 21
10.718702291
  0
LINE
  5
30C
100
AcDbEntity
  8
0
100
AcDbLine
 62
9
  6
CONTINUOUS
 10
6.8206452186
 20
10.718702291
 11
6.8028012988
 21
10.718702291
  0
LINE
  5
30D
100
AcDbEntity
  8
0
100
AcDbLine
 62
9
  6
CONTINUOUS
 10
6.7851236293
 20
10.718702291
 11
6.7689508431
 21
10.718702291
  0
LINE
  5
30E
100
AcDbEntity
  8
0
100
AcDbLine
 62
9
  6
CONTINUOUS
 10
6.753091011
 20
10.718702291
 11
6.7387451111
 21
10.718702291
  0
LINE
  5
30F
100
AcDbEntity
  8
0
100
AcDbLine
 62
9
  6
CONTINUOUS
 10
6.7248558553
 20
10.718702291
 11
6.7124750007
 21
10.718702291
  0
LINE
  5
310
100
AcDbEntity
  8
0
100
AcDbLine
 62
9
  6
CONTINUOUS
 10
6.7006900823
 20
10.718702291
 11
6.6903935073
 21
10.718702291
  0
LINE
  5
311
100
AcDbEntity
  8
0
100
AcDbLine
 62
9
  6
CONTINUOUS
 10
6.6808264215
 20
10.718702291
 11
6.6727132878
 21
10.718702291
  0
LINE
  5
312
100
AcDbEntity
  8
0
100
AcDbLine
 62
9
  6
CONTINUOUS
 10
6.6654561709
 20
10.718702291
 11
6.6596046124
 21
10.718702291
  0
LINE
  5
313
100
AcDbEntity
  8
0
100
AcDbLine
 62
9
  6
CONTINUOUS
 10
6.6547273543
 20
10.718702291
 11
6.6511937248
 21
10.718702291
  0
LINE
  5
314
100
AcDbEntity
  8
0
100
AcDbLine
 62
9
  6
CONTINUOUS
 10
6.6487432962
 20
10.718702291
 11
6.6475616263
 21
10.718702291
  0
LINE
  5
315
100
AcDbEntity
  8
0
100
AcDbLine
 62
7
  6
CONTINUOUS
 10
7.6174053519
 20
10.748702291
 11
6.6774053519
 21
10.748702291
  0
LINE
  5
316
100
AcDbEntity
  8
0
100
AcDbLine
 62
7
  6
CONTINUOUS
 10
12.7904561709
 20
7.239702291
 11
12.7903734115
 21
7.456702291
  0
LINE
  5
317
100
AcDbEntity
  8
0
100
AcDbLine
 62
7
  6
CONTINUOUS
 10
12.752555614
 20
7.208702291
 11
12.752555614
 21
7.434702291
  0
LINE
  5
318
100
AcDbEntity
  8
0
100
AcDbLine
 62
7
  6
CONTINUOUS
 10
12.752555614
 20
8.084702291
 11
12.752555614
 21
8.108702291
  0
LINE
  5
319
100
AcDbEntity
  8
0
100
AcDbLine
 62
7
  6
CONTINUOUS
 10
12.7538336184
 20
8.108702291
 11
12.7538336184
 21
8.084702291
  0
LINE
  5
31A
100
AcDbEntity
  8
0
100
AcDbLine
 62
7
  6
CONTINUOUS
 10
12.7538336183
 20
7.434702291
 11
12.7538336183
 21
7.208702291
  0
LINE
  5
31B
100
AcDbEntity
  8
0
100
AcDbLine
 62
7
  6
CONTINUOUS
 10
12.7562840468
 20
7.208702291
 11
12.7562840469
 21
7.434702291
  0
LINE
  5
31C
100
AcDbEntity
  8
0
100
AcDbLine
 62
7
  6
CONTINUOUS
 10
12.7562840469
 20
8.084702291
 11
12.7562840469
 21
8.108702291
  0
LINE
  5
31D
100
AcDbEntity
  8
0
100
AcDbLine
 62
7
  6
CONTINUOUS
 10
12.760105752
 20
8.108702291
 11
12.7601057519
 21
8.084702291
  0
LINE
  5
31E
100
AcDbEntity
  8
0
100
AcDbLine
 62
7
  6
CONTINUOUS
 10
12.7601057519
 20
7.434702291
 11
12.7601057519
 21
7.208702291
  0
LINE
  5
31F
100
AcDbEntity
  8
0
100
AcDbLine
 62
7
  6
CONTINUOUS
 10
12.76498301
 20
7.208702291
 11
12.76498301
 21
7.434702291
  0
LINE
  5
320
100
AcDbEntity
  8
0
100
AcDbLine
 62
7
  6
CONTINUOUS
 10
12.76498301
 20
8.084702291
 11
12.76498301
 21
8.108702291
  0
LINE
  5
321
100
AcDbEntity
  8
0
100
AcDbLine
 62
7
  6
CONTINUOUS
 10
12.7713116107
 20
8.108702291
 11
12.7713116107
 21
8.084702291
  0
LINE
  5
322
100
AcDbEntity
  8
0
100
AcDbLine
 62
7
  6
CONTINUOUS
 10
12.7713116107
 20
7.434702291
 11
12.7713116107
 21
7.208702291
  0
LINE
  5
323
100
AcDbEntity
  8
0
100
AcDbLine
 62
7
  6
CONTINUOUS
 10
12.7724053519
 20
5.468702291
 11
12.7724053519
 21
7.148702291
  0
LINE
  5
324
100
AcDbEntity
  8
0
100
AcDbLine
 62
7
  6
CONTINUOUS
 10
12.7725616263
 20
7.2397022915
 11
12.7725616263
 21
7.426702291
  0
LINE
  5
325
100
AcDbEntity
  8
0
100
AcDbLine
 62
7
  6
CONTINUOUS
 10
12.7725616263
 20
8.092702291
 11
12.7725616263
 21
8.1097023111
  0
LINE
  5
326
100
AcDbEntity
  8
0
100
AcDbLine
 62
7
  6
CONTINUOUS
 10
12.7737432962
 20
8.109702291
 11
12.7737432962
 21
8.092702291
  0
LINE
  5
327
100
AcDbEntity
  8
0
100
AcDbLine
 62
7
  6
CONTINUOUS
 10
12.7737432962
 20
7.426702291
 11
12.7737432962
 21
7.239702291
  0
LINE
  5
328
100
AcDbEntity
  8
0
100
AcDbLine
 62
7
  6
CONTINUOUS
 10
12.7761937248
 20
7.239702291
 11
12.7761937248
 21
7.426702291
  0
LINE
  5
329
100
AcDbEntity
  8
0
100
AcDbLine
 62
7
  6
CONTINUOUS
 10
12.7761937248
 20
8.092702291
 11
12.7761937248
 21
8.109702291
  0
LINE
  5
32A
100
AcDbEntity
  8
0
100
AcDbLine
 62
7
  6
CONTINUOUS
 10
12.7785687277
 20
7.208702291
 11
12.7785687277
 21
7.2216291459
  0
LINE
  5
32B
100
AcDbEntity
  8
0
100
AcDbLine
 62
7
  6
CONTINUOUS
 10
12.7785687277
 20
7.426702291
 11
12.7785687277
 21
7.434702291
  0
LINE
  5
32C
100
AcDbEntity
  8
0
100
AcDbLine
 62
7
  6
CONTINUOUS
 10
12.7785687277
 20
8.084702291
 11
12.7785687277
 21
8.092702291
  0
LINE
  5
32D
100
AcDbEntity
  8
0
100
AcDbLine
 62
7
  6
CONTINUOUS
 10
12.7797273543
 20
8.109702291
 11
12.7797273543
 21
8.092702291
  0
LINE
  5
32E
100
AcDbEntity
  8
0
100
AcDbLine
 62
7
  6
CONTINUOUS
 10
12.7797273543
 20
7.426702291
 11
12.7797273543
 21
7.239702291
  0
LINE
  5
32F
100
AcDbEntity
  8
0
100
AcDbLine
 62
7
  6
CONTINUOUS
 10
12.7846046124
 20
7.239702291
 11
12.7846046124
 21
7.427477194
  0
LINE
  5
330
100
AcDbEntity
  8
0
100
AcDbLine
 62
7
  6
CONTINUOUS
 10
12.7846046124
 20
8.091927388
 11
12.7846046124
 21
8.109702291
  0
LINE
  5
331
100
AcDbEntity
  8
0
100
AcDbLine
 62
7
  6
CONTINUOUS
 10
12.7873432762
 20
8.086167286
 11
12.7873432762
 21
8.084702291
  0
LINE
  5
332
100
AcDbEntity
  8
0
100
AcDbLine
 62
7
  6
CONTINUOUS
 10
12.7873432762
 20
7.434702291
 11
12.7873432762
 21
7.4332372959
  0
LINE
  5
333
100
AcDbEntity
  8
0
100
AcDbLine
 62
7
  6
CONTINUOUS
 10
12.7873432762
 20
7.2136908896
 11
12.7873432762
 21
7.208702291
  0
LINE
  5
334
100
AcDbEntity
  8
0
100
AcDbLine
 62
7
  6
CONTINUOUS
 10
12.7874053519
 20
7.208702291
 11
12.7874053519
 21
7.1743146654
  0
LINE
  5
335
100
AcDbEntity
  8
0
100
AcDbLine
 62
7
  6
CONTINUOUS
 10
12.790404836
 20
8.062702291
 11
12.790404836
 21
7.456702291
  0
LINE
  5
336
100
AcDbEntity
  8
0
100
AcDbLine
 62
7
  6
CONTINUOUS
 10
12.796910362
 20
7.208702291
 11
12.796910362
 21
7.2104257201
  0
LINE
  5
337
100
AcDbEntity
  8
0
100
AcDbLine
 62
7
  6
CONTINUOUS
 10
12.7977132878
 20
7.239702291
 11
12.7977132878
 21
8.109702291
  0
LINE
  5
338
100
AcDbEntity
  8
0
100
AcDbLine
 62
7
  6
CONTINUOUS
 10
12.8058264215
 20
8.109702291
 11
12.8058264215
 21
7.239702291
  0
LINE
  5
339
100
AcDbEntity
  8
0
100
AcDbLine
 62
7
  6
CONTINUOUS
 10
12.8080463546
 20
7.209702291
 11
12.8080463546
 21
7.208702291
  0
LINE
  5
33A
100
AcDbEntity
  8
0
100
AcDbLine
 62
7
  6
CONTINUOUS
 10
12.8153935073
 20
7.239702291
 11
12.8153935073
 21
8.109702291
  0
LINE
  5
33B
100
AcDbEntity
  8
0
100
AcDbLine
 62
7
  6
CONTINUOUS
 10
12.819831273
 20
7.208702291
 11
12.819831273
 21
7.209702291
  0
LINE
  5
33C
100
AcDbEntity
  8
0
100
AcDbLine
 62
7
  6
CONTINUOUS
 10
12.8256900823
 20
8.109702291
 11
12.8256900823
 21
7.239702291
  0
LINE
  5
33D
100
AcDbEntity
  8
0
100
AcDbLine
 62
7
  6
CONTINUOUS
 10
12.833221464
 20
7.209702291
 11
12.833221464
 21
7.208702291
  0
LINE
  5
33E
100
AcDbEntity
  8
0
100
AcDbLine
 62
7
  6
CONTINUOUS
 10
12.8349053519
 20
10.4272391937
 11
12.8349053519
 21
8.138702291
  0
LINE
  5
33F
100
AcDbEntity
  8
0
100
AcDbLine
 62
7
  6
CONTINUOUS
 10
12.8374750007
 20
7.239702291
 11
12.8374750007
 21
8.109702291
  0
LINE
  5
340
100
AcDbEntity
  8
0
100
AcDbLine
 62
7
  6
CONTINUOUS
 10
12.8471107198
 20
7.208702291
 11
12.8471107198
 21
7.209702291
  0
LINE
  5
341
100
AcDbEntity
  8
0
100
AcDbLine
 62
7
  6
CONTINUOUS
 10
12.8474053519
 20
5.438702291
 11
12.8474053519
 21
5.448702291
  0
LINE
  5
342
100
AcDbEntity
  8
0
100
AcDbLine
 62
7
  6
CONTINUOUS
 10
12.8498558553
 20
8.109702291
 11
12.8498558553
 21
7.239702291
  0
LINE
  5
343
100
AcDbEntity
  8
0
100
AcDbLine
 62
7
  6
CONTINUOUS
 10
12.8626261543
 20
7.209702291
 11
12.8626261543
 21
7.208702291
  0
LINE
  5
344
100
AcDbEntity
  8
0
100
AcDbLine
 62
7
  6
CONTINUOUS
 10
12.8637451111
 20
7.239702291
 11
12.8637451111
 21
8.109702291
  0
LINE
  5
345
100
AcDbEntity
  8
0
100
AcDbLine
 62
7
  6
CONTINUOUS
 10
12.878091011
 20
8.109702291
 11
12.878091011
 21
7.239702291
  0
LINE
  5
346
100
AcDbEntity
  8
0
100
AcDbLine
 62
7
  6
CONTINUOUS
 10
12.8784859864
 20
7.208702291
 11
12.8784859864
 21
7.209702291
  0
LINE
  5
347
100
AcDbEntity
  8
0
100
AcDbLine
 62
7
  6
CONTINUOUS
 10
12.8939508431
 20
7.239702291
 11
12.8939508431
 21
8.109702291
  0
LINE
  5
348
100
AcDbEntity
  8
0
100
AcDbLine
 62
7
  6
CONTINUOUS
 10
12.8959772423
 20
7.209702291
 11
12.8959772423
 21
7.208702291
  0
LINE
  5
349
100
AcDbEntity
  8
0
100
AcDbLine
 62
7
  6
CONTINUOUS
 10
12.9101236293
 20
8.109702291
 11
12.9101236293
 21
7.239702291
  0
LINE
  5
34A
100
AcDbEntity
  8
0
100
AcDbLine
 62
7
  6
CONTINUOUS
 10
12.9136549118
 20
7.208702291
 11
12.9136549118
 21
7.209702291
  0
LINE
  5
34B
100
AcDbEntity
  8
0
100
AcDbLine
 62
7
  6
CONTINUOUS
 10
12.9278012988
 20
7.239702291
 11
12.9278012988
 21
8.109702291
  0
LINE
  5
34C
100
AcDbEntity
  8
0
100
AcDbLine
 62
7
  6
CONTINUOUS
 10
12.9329535388
 20
7.209702291
 11
12.9329535388
 21
7.208702291
  0
LINE
  5
34D
100
AcDbEntity
  8
0
100
AcDbLine
 62
7
  6
CONTINUOUS
 10
12.9456452186
 20
8.109702291
 11
12.9456452186
 21
7.239702291
  0
LINE
  5
34E
100
AcDbEntity
  8
0
100
AcDbLine
 62
7
  6
CONTINUOUS
 10
12.9520666754
 20
7.208702291
 11
12.9520666754
 21
7.209702291
  0
LINE
  5
34F
100
AcDbEntity
  8
0
100
AcDbLine
 62
7
  6
CONTINUOUS
 10
12.9522788001
 20
7.208702291
 11
12.9522788001
 21
7.209702291
  0
LINE
  5
350
100
AcDbEntity
  8
0
100
AcDbLine
 62
7
  6
CONTINUOUS
 10
12.9647583552
 20
8.1357136923
 11
12.9647583552
 21
7.2136908896
  0
LINE
  5
351
100
AcDbEntity
  8
0
100
AcDbLine
 62
7
  6
CONTINUOUS
 10
12.96497048
 20
7.239702291
 11
12.96497048
 21
8.109702291
  0
LINE
  5
352
100
AcDbEntity
  8
0
100
AcDbLine
 62
7
  6
CONTINUOUS
 10
12.9731989417
 20
7.209702291
 11
12.9731989417
 21
7.208702291
  0
LINE
  5
353
100
AcDbEntity
  8
0
100
AcDbLine
 62
7
  6
CONTINUOUS
 10
12.9843136867
 20
8.109702291
 11
12.9843136867
 21
7.239702291
  0
LINE
  5
354
100
AcDbEntity
  8
0
100
AcDbLine
 62
7
  6
CONTINUOUS
 10
12.9918685972
 20
7.208702291
 11
12.9918685972
 21
7.209702291
  0
LINE
  5
355
100
AcDbEntity
  8
0
100
AcDbLine
 62
7
  6
CONTINUOUS
 10
12.9939856821
 20
7.208702291
 11
12.9939856821
 21
7.209702291
  0
LINE
  5
356
100
AcDbEntity
  8
0
100
AcDbLine
 62
7
  6
CONTINUOUS
 10
13.0029833421
 20
8.1357136923
 11
13.0029833421
 21
7.2136908896
  0
LINE
  5
357
100
AcDbEntity
  8
0
100
AcDbLine
 62
7
  6
CONTINUOUS
 10
13.005100427
 20
7.239702291
 11
13.005100427
 21
8.109702291
  0
LINE
  5
358
100
AcDbEntity
  8
0
100
AcDbLine
 62
7
  6
CONTINUOUS
 10
13.0124053519
 20
7.209702291
 11
13.0124053519
 21
7.178702291
  0
LINE
  5
359
100
AcDbEntity
  8
0
100
AcDbLine
 62
7
  6
CONTINUOUS
 10
13.025756635
 20
8.109702291
 11
13.025756635
 21
7.239702291
  0
LINE
  5
35A
100
AcDbEntity
  8
0
100
AcDbLine
 62
7
  6
CONTINUOUS
 10
13.0438030102
 20
8.1357136923
 11
13.0438030102
 21
7.2136908896
  0
LINE
  5
35B
100
AcDbEntity
  8
0
100
AcDbLine
 62
7
  6
CONTINUOUS
 10
13.0478046666
 20
7.239702291
 11
13.0478046666
 21
8.109702291
  0
LINE
  5
35C
100
AcDbEntity
  8
0
100
AcDbLine
 62
9
  6
CONTINUOUS
 10
7.5849053519
 20
11.148702291
 11
6.7099053519
 21
11.148702291
  0
LINE
  5
35D
100
AcDbEntity
  8
0
100
AcDbLine
 62
7
  6
CONTINUOUS
 10
13.4055405723
 20
7.239702291
 11
13.4055052297
 21
7.456702291
  0
LINE
  5
35E
100
AcDbEntity
  8
0
100
AcDbLine
 62
7
  6
CONTINUOUS
 10
13.0695749452
 20
8.109702291
 11
13.0695749452
 21
7.239702291
  0
LINE
  5
35F
100
AcDbEntity
  8
0
100
AcDbLine
 62
7
  6
CONTINUOUS
 10
13.0868242438
 20
8.1357136923
 11
13.0868242438
 21
7.2136908896
  0
LINE
  5
360
100
AcDbEntity
  8
0
100
AcDbLine
 62
7
  6
CONTINUOUS
 10
13.0926719335
 20
7.239702291
 11
13.0926719335
 21
8.109702291
  0
LINE
  5
361
100
AcDbEntity
  8
0
100
AcDbLine
 62
7
  6
CONTINUOUS
 10
13.1153466232
 20
8.109702291
 11
13.1153466232
 21
7.239702291
  0
LINE
  5
362
100
AcDbEntity
  8
0
100
AcDbLine
 62
7
  6
CONTINUOUS
 10
13.131632725
 20
8.1357136923
 11
13.131632725
 21
7.2136908896
  0
LINE
  5
363
100
AcDbEntity
  8
0
100
AcDbLine
 62
7
  6
CONTINUOUS
 10
13.1394053519
 20
7.456702291
 11
13.1394053519
 21
8.062702291
  0
LINE
  5
364
100
AcDbEntity
  8
0
100
AcDbLine
 62
9
  6
CONTINUOUS
 10
13.1404053519
 20
8.062702291
 11
13.1404053519
 21
7.456702291
  0
LINE
  5
365
100
AcDbEntity
  8
0
100
AcDbLine
 62
7
  6
CONTINUOUS
 10
13.1474053519
 20
7.454702291
 11
13.1474053519
 21
8.064702291
  0
LINE
  5
366
100
AcDbEntity
  8
0
100
AcDbLine
 62
7
  6
CONTINUOUS
 10
13.1626308625
 20
8.109702291
 11
13.1626308625
 21
8.091927388
  0
LINE
  5
367
100
AcDbEntity
  8
0
100
AcDbLine
 62
7
  6
CONTINUOUS
 10
13.1626308625
 20
7.427477194
 11
13.1626308625
 21
7.239702291
  0
LINE
  5
368
100
AcDbEntity
  8
0
100
AcDbLine
 62
9
  6
CONTINUOUS
 10
13.1674053519
 20
8.084702291
 11
13.1674053519
 21
7.434702291
  0
LINE
  5
369
100
AcDbEntity
  8
0
100
AcDbLine
 62
9
  6
CONTINUOUS
 10
13.1694053519
 20
7.427702291
 11
13.1694053519
 21
7.426702291
  0
LINE
  5
36A
100
AcDbEntity
  8
0
100
AcDbLine
 62
7
  6
CONTINUOUS
 10
13.1777969234
 20
8.1357136923
 11
13.1777969234
 21
8.092702291
  0
LINE
  5
36B
100
AcDbEntity
  8
0
100
AcDbLine
 62
7
  6
CONTINUOUS
 10
13.1777969234
 20
7.426702291
 11
13.1777969234
 21
7.2136908896
  0
LINE
  5
36C
100
AcDbEntity
  8
0
100
AcDbLine
 62
7
  6
CONTINUOUS
 10
13.1871504945
 20
7.239702291
 11
13.1871504945
 21
7.426702291
  0
LINE
  5
36D
100
AcDbEntity
  8
0
100
AcDbLine
 62
7
  6
CONTINUOUS
 10
13.1871504945
 20
8.092702291
 11
13.1871504945
 21
8.109702291
  0
LINE
  5
36E
100
AcDbEntity
  8
0
100
AcDbLine
 62
7
  6
CONTINUOUS
 10
13.2109722902
 20
8.109702291
 11
13.2109722902
 21
8.092702291
  0
LINE
  5
36F
100
AcDbEntity
  8
0
100
AcDbLine
 62
7
  6
CONTINUOUS
 10
13.2109722902
 20
7.426702291
 11
13.2109722902
 21
7.239702291
  0
LINE
  5
370
100
AcDbEntity
  8
0
100
AcDbLine
 62
7
  6
CONTINUOUS
 10
13.2248722528
 20
8.1357136923
 11
13.2248722528
 21
8.092702291
  0
LINE
  5
371
100
AcDbEntity
  8
0
100
AcDbLine
 62
7
  6
CONTINUOUS
 10
13.2248722528
 20
7.426702291
 11
13.2248722528
 21
7.2136908896
  0
LINE
  5
372
100
AcDbEntity
  8
0
100
AcDbLine
 62
7
  6
CONTINUOUS
 10
13.2358519084
 20
7.239702291
 11
13.2358519084
 21
7.426702291
  0
LINE
  5
373
100
AcDbEntity
  8
0
100
AcDbLine
 62
7
  6
CONTINUOUS
 10
13.2358519084
 20
8.092702291
 11
13.2358519084
 21
8.109702291
  0
LINE
  5
374
100
AcDbEntity
  8
0
100
AcDbLine
 62
7
  6
CONTINUOUS
 10
13.2599053519
 20
8.109702291
 11
13.2599053519
 21
8.092702291
  0
LINE
  5
375
100
AcDbEntity
  8
0
100
AcDbLine
 62
7
  6
CONTINUOUS
 10
13.2599053519
 20
7.426702291
 11
13.2599053519
 21
7.239702291
  0
LINE
  5
376
100
AcDbEntity
  8
0
100
AcDbLine
 62
7
  6
CONTINUOUS
 10
13.2724053519
 20
8.1357136923
 11
13.2724053519
 21
8.092702291
  0
LINE
  5
377
100
AcDbEntity
  8
0
100
AcDbLine
 62
7
  6
CONTINUOUS
 10
13.2724053519
 20
7.426702291
 11
13.2724053519
 21
7.2136908896
  0
LINE
  5
378
100
AcDbEntity
  8
0
100
AcDbLine
 62
7
  6
CONTINUOUS
 10
13.2849053519
 20
7.239702291
 11
13.2849053519
 21
7.426702291
  0
LINE
  5
379
100
AcDbEntity
  8
0
100
AcDbLine
 62
7
  6
CONTINUOUS
 10
13.2849053519
 20
8.092702291
 11
13.2849053519
 21
8.109702291
  0
LINE
  5
37A
100
AcDbEntity
  8
0
100
AcDbLine
 62
7
  6
CONTINUOUS
 10
13.3089587954
 20
8.109702291
 11
13.3089587954
 21
8.092702291
  0
LINE
  5
37B
100
AcDbEntity
  8
0
100
AcDbLine
 62
7
  6
CONTINUOUS
 10
13.3089587954
 20
7.426702291
 11
13.3089587954
 21
7.239702291
  0
LINE
  5
37C
100
AcDbEntity
  8
0
100
AcDbLine
 62
7
  6
CONTINUOUS
 10
13.319938451
 20
8.1357136923
 11
13.319938451
 21
8.092702291
  0
LINE
  5
37D
100
AcDbEntity
  8
0
100
AcDbLine
 62
7
  6
CONTINUOUS
 10
13.319938451
 20
7.426702291
 11
13.319938451
 21
7.2136908896
  0
LINE
  5
37E
100
AcDbEntity
  8
0
100
AcDbLine
 62
7
  6
CONTINUOUS
 10
13.3338384136
 20
7.239702291
 11
13.3338384136
 21
7.426702291
  0
LINE
  5
37F
100
AcDbEntity
  8
0
100
AcDbLine
 62
7
  6
CONTINUOUS
 10
13.3338384136
 20
8.092702291
 11
13.3338384136
 21
8.109702291
  0
LINE
  5
380
100
AcDbEntity
  8
0
100
AcDbLine
 62
7
  6
CONTINUOUS
 10
13.3576602093
 20
8.109702291
 11
13.3576602093
 21
8.092702291
  0
LINE
  5
381
100
AcDbEntity
  8
0
100
AcDbLine
 62
7
  6
CONTINUOUS
 10
13.3576602093
 20
7.426702291
 11
13.3576602093
 21
7.239702291
  0
LINE
  5
382
100
AcDbEntity
  8
0
100
AcDbLine
 62
7
  6
CONTINUOUS
 10
13.3670137804
 20
8.1357136923
 11
13.3670137804
 21
8.092702291
  0
LINE
  5
383
100
AcDbEntity
  8
0
100
AcDbLine
 62
7
  6
CONTINUOUS
 10
13.3670137804
 20
7.426702291
 11
13.3670137804
 21
7.2136908896
  0
LINE
  5
384
100
AcDbEntity
  8
0
100
AcDbLine
 62
9
  6
CONTINUOUS
 10
13.3754053519
 20
8.091702291
 11
13.3754053519
 21
8.092702291
  0
LINE
  5
385
100
AcDbEntity
  8
0
100
AcDbLine
 62
9
  6
CONTINUOUS
 10
13.3774053519
 20
7.434702291
 11
13.3774053519
 21
8.084702291
  0
LINE
  5
386
100
AcDbEntity
  8
0
100
AcDbLine
 62
7
  6
CONTINUOUS
 10
13.3821798413
 20
7.239702291
 11
13.3821798413
 21
7.427477194
  0
LINE
  5
387
100
AcDbEntity
  8
0
100
AcDbLine
 62
7
  6
CONTINUOUS
 10
13.3821798413
 20
8.091927388
 11
13.3821798413
 21
8.109702291
  0
LINE
  5
388
100
AcDbEntity
  8
0
100
AcDbLine
 62
7
  6
CONTINUOUS
 10
13.3974053519
 20
8.064702291
 11
13.3974053519
 21
7.454702291
  0
LINE
  5
389
100
AcDbEntity
  8
0
100
AcDbLine
 62
9
  6
CONTINUOUS
 10
13.4044053519
 20
7.456702291
 11
13.4044053519
 21
8.062702291
  0
LINE
  5
38A
100
AcDbEntity
  8
0
100
AcDbLine
 62
7
  6
CONTINUOUS
 10
13.4054053519
 20
8.062702291
 11
13.4054053519
 21
7.456702291
  0
LINE
  5
38B
100
AcDbEntity
  8
0
100
AcDbLine
 62
7
  6
CONTINUOUS
 10
13.4131779789
 20
8.1357136923
 11
13.4131779789
 21
7.2136908896
  0
LINE
  5
38C
100
AcDbEntity
  8
0
100
AcDbLine
 62
7
  6
CONTINUOUS
 10
13.4294640807
 20
7.239702291
 11
13.4294640807
 21
8.109702291
  0
LINE
  5
38D
100
AcDbEntity
  8
0
100
AcDbLine
 62
7
  6
CONTINUOUS
 10
13.1393054741
 20
8.062702291
 11
13.1392701316
 21
7.239702291
  0
LINE
  5
38E
100
AcDbEntity
  8
0
100
AcDbLine
 62
7
  6
CONTINUOUS
 10
8.8864158472
 20
12.1839704848
 11
12.0114158472
 21
11.4625073876
  0
LINE
  5
38F
100
AcDbEntity
  8
0
100
AcDbLine
 62
7
  6
CONTINUOUS
 10
13.4521387703
 20
8.109702291
 11
13.4521387703
 21
7.239702291
  0
LINE
  5
390
100
AcDbEntity
  8
0
100
AcDbLine
 62
7
  6
CONTINUOUS
 10
13.45798646
 20
8.1357136923
 11
13.45798646
 21
7.2136908896
  0
LINE
  5
391
100
AcDbEntity
  8
0
100
AcDbLine
 62
7
  6
CONTINUOUS
 10
13.4752357586
 20
7.239702291
 11
13.4752357586
 21
8.109702291
  0
LINE
  5
392
100
AcDbEntity
  8
0
100
AcDbLine
 62
7
  6
CONTINUOUS
 10
13.4970060373
 20
8.109702291
 11
13.4970060373
 21
7.239702291
  0
LINE
  5
393
100
AcDbEntity
  8
0
100
AcDbLine
 62
7
  6
CONTINUOUS
 10
13.5010076936
 20
8.1357136923
 11
13.5010076936
 21
7.2136908896
  0
LINE
  5
394
100
AcDbEntity
  8
0
100
AcDbLine
 62
7
  6
CONTINUOUS
 10
13.5190540689
 20
7.239702291
 11
13.5190540689
 21
8.109702291
  0
LINE
  5
395
100
AcDbEntity
  8
0
100
AcDbLine
 62
7
  6
CONTINUOUS
 10
13.5324053519
 20
7.209702291
 11
13.5324053519
 21
7.178702291
  0
LINE
  5
396
100
AcDbEntity
  8
0
100
AcDbLine
 62
7
  6
CONTINUOUS
 10
13.5397102769
 20
8.109702291
 11
13.5397102769
 21
7.239702291
  0
LINE
  5
397
100
AcDbEntity
  8
0
100
AcDbLine
 62
7
  6
CONTINUOUS
 10
13.5418273618
 20
8.1357136923
 11
13.5418273618
 21
7.2136908896
  0
LINE
  5
398
100
AcDbEntity
  8
0
100
AcDbLine
 62
7
  6
CONTINUOUS
 10
13.5508250218
 20
7.209702291
 11
13.5508250218
 21
7.208702291
  0
LINE
  5
399
100
AcDbEntity
  8
0
100
AcDbLine
 62
7
  6
CONTINUOUS
 10
13.5529421067
 20
7.208702291
 11
13.5529421067
 21
7.209702291
  0
LINE
  5
39A
100
AcDbEntity
  8
0
100
AcDbLine
 62
7
  6
CONTINUOUS
 10
13.5604970172
 20
7.239702291
 11
13.5604970172
 21
8.109702291
  0
LINE
  5
39B
100
AcDbEntity
  8
0
100
AcDbLine
 62
7
  6
CONTINUOUS
 10
13.5716117621
 20
7.208702291
 11
13.5716117621
 21
7.209702291
  0
LINE
  5
39C
100
AcDbEntity
  8
0
100
AcDbLine
 62
7
  6
CONTINUOUS
 10
13.5798402239
 20
8.109702291
 11
13.5798402239
 21
7.239702291
  0
LINE
  5
39D
100
AcDbEntity
  8
0
100
AcDbLine
 62
7
  6
CONTINUOUS
 10
13.5800523486
 20
8.1357136923
 11
13.5800523486
 21
7.2136908896
  0
LINE
  5
39E
100
AcDbEntity
  8
0
100
AcDbLine
 62
7
  6
CONTINUOUS
 10
13.5925319038
 20
7.209702291
 11
13.5925319038
 21
7.208702291
  0
LINE
  5
39F
100
AcDbEntity
  8
0
100
AcDbLine
 62
7
  6
CONTINUOUS
 10
13.5927440285
 20
7.208702291
 11
13.5927440285
 21
7.209702291
  0
LINE
  5
3A0
100
AcDbEntity
  8
0
100
AcDbLine
 62
7
  6
CONTINUOUS
 10
13.5991654852
 20
7.239702291
 11
13.5991654852
 21
8.109702291
  0
LINE
  5
3A1
100
AcDbEntity
  8
0
100
AcDbLine
 62
7
  6
CONTINUOUS
 10
13.6118571651
 20
7.208702291
 11
13.6118571651
 21
7.209702291
  0
LINE
  5
3A2
100
AcDbEntity
  8
0
100
AcDbLine
 62
7
  6
CONTINUOUS
 10
13.617009405
 20
8.109702291
 11
13.617009405
 21
7.239702291
  0
LINE
  5
3A3
100
AcDbEntity
  8
0
100
AcDbLine
 62
7
  6
CONTINUOUS
 10
13.631155792
 20
7.209702291
 11
13.631155792
 21
7.208702291
  0
LINE
  5
3A4
100
AcDbEntity
  8
0
100
AcDbLine
 62
7
  6
CONTINUOUS
 10
13.6346870746
 20
7.239702291
 11
13.6346870746
 21
8.109702291
  0
LINE
  5
3A5
100
AcDbEntity
  8
0
100
AcDbLine
 62
7
  6
CONTINUOUS
 10
13.6488334616
 20
7.208702291
 11
13.6488334616
 21
7.209702291
  0
LINE
  5
3A6
100
AcDbEntity
  8
0
100
AcDbLine
 62
7
  6
CONTINUOUS
 10
13.6508598608
 20
8.109702291
 11
13.6508598608
 21
7.239702291
  0
LINE
  5
3A7
100
AcDbEntity
  8
0
100
AcDbLine
 62
7
  6
CONTINUOUS
 10
13.6663247174
 20
7.209702291
 11
13.6663247174
 21
7.208702291
  0
LINE
  5
3A8
100
AcDbEntity
  8
0
100
AcDbLine
 62
7
  6
CONTINUOUS
 10
13.6667196929
 20
7.239702291
 11
13.6667196929
 21
8.109702291
  0
LINE
  5
3A9
100
AcDbEntity
  8
0
100
AcDbLine
 62
7
  6
CONTINUOUS
 10
13.6810655927
 20
8.109702291
 11
13.6810655927
 21
7.239702291
  0
LINE
  5
3AA
100
AcDbEntity
  8
0
100
AcDbLine
 62
7
  6
CONTINUOUS
 10
13.6821845496
 20
7.208702291
 11
13.6821845496
 21
7.209702291
  0
LINE
  5
3AB
100
AcDbEntity
  8
0
100
AcDbLine
 62
7
  6
CONTINUOUS
 10
13.6949548486
 20
7.239702291
 11
13.6949548486
 21
8.109702291
  0
LINE
  5
3AC
100
AcDbEntity
  8
0
100
AcDbLine
 62
7
  6
CONTINUOUS
 10
13.6974053519
 20
5.438702291
 11
13.6974053519
 21
5.448702291
  0
LINE
  5
3AD
100
AcDbEntity
  8
0
100
AcDbLine
 62
7
  6
CONTINUOUS
 10
13.697699984
 20
7.209702291
 11
13.697699984
 21
7.208702291
  0
LINE
  5
3AE
100
AcDbEntity
  8
0
100
AcDbLine
 62
7
  6
CONTINUOUS
 10
13.7073357032
 20
8.109702291
 11
13.7073357032
 21
7.239702291
  0
LINE
  5
3AF
100
AcDbEntity
  8
0
100
AcDbLine
 62
7
  6
CONTINUOUS
 10
13.7099053519
 20
10.4272391937
 11
13.7099053519
 21
8.138702291
  0
LINE
  5
3B0
100
AcDbEntity
  8
0
100
AcDbLine
 62
7
  6
CONTINUOUS
 10
13.7115892399
 20
7.208702291
 11
13.7115892399
 21
7.209702291
  0
LINE
  5
3B1
100
AcDbEntity
  8
0
100
AcDbLine
 62
7
  6
CONTINUOUS
 10
13.7191206216
 20
7.239702291
 11
13.7191206216
 21
8.109702291
  0
LINE
  5
3B2
100
AcDbEntity
  8
0
100
AcDbLine
 62
7
  6
CONTINUOUS
 10
13.7249794308
 20
7.209702291
 11
13.7249794308
 21
7.208702291
  0
LINE
  5
3B3
100
AcDbEntity
  8
0
100
AcDbLine
 62
7
  6
CONTINUOUS
 10
13.7294171965
 20
8.109702291
 11
13.7294171965
 21
7.239702291
  0
LINE
  5
3B4
100
AcDbEntity
  8
0
100
AcDbLine
 62
7
  6
CONTINUOUS
 10
13.7367643493
 20
7.208702291
 11
13.7367643493
 21
7.209702291
  0
LINE
  5
3B5
100
AcDbEntity
  8
0
100
AcDbLine
 62
7
  6
CONTINUOUS
 10
13.7389842823
 20
7.239702291
 11
13.7389842823
 21
8.109702291
  0
LINE
  5
3B6
100
AcDbEntity
  8
0
100
AcDbLine
 62
7
  6
CONTINUOUS
 10
13.747097416
 20
8.109702291
 11
13.747097416
 21
7.239702291
  0
LINE
  5
3B7
100
AcDbEntity
  8
0
100
AcDbLine
 62
7
  6
CONTINUOUS
 10
13.7479003418
 20
7.2104257201
 11
13.7479003418
 21
7.208702291
  0
LINE
  5
3B8
100
AcDbEntity
  8
0
100
AcDbLine
 62
7
  6
CONTINUOUS
 10
13.7544372923
 20
8.062702291
 11
13.7544372923
 21
7.456702291
  0
LINE
  5
3B9
100
AcDbEntity
  8
0
100
AcDbLine
 62
7
  6
CONTINUOUS
 10
13.7574053519
 20
7.208702291
 11
13.7574053519
 21
7.1743146654
  0
LINE
  5
3BA
100
AcDbEntity
  8
0
100
AcDbLine
 62
7
  6
CONTINUOUS
 10
13.7574674277
 20
7.208702291
 11
13.7574674277
 21
7.2136908896
  0
LINE
  5
3BB
100
AcDbEntity
  8
0
100
AcDbLine
 62
7
  6
CONTINUOUS
 10
13.7574674277
 20
7.4332363818
 11
13.7574674277
 21
7.434702291
  0
LINE
  5
3BC
100
AcDbEntity
  8
0
100
AcDbLine
 62
7
  6
CONTINUOUS
 10
13.7574674276
 20
8.084702291
 11
13.7574674276
 21
8.086167286
  0
LINE
  5
3BD
100
AcDbEntity
  8
0
100
AcDbLine
 62
7
  6
CONTINUOUS
 10
13.7602060914
 20
8.109702291
 11
13.7602060914
 21
8.091927388
  0
LINE
  5
3BE
100
AcDbEntity
  8
0
100
AcDbLine
 62
7
  6
CONTINUOUS
 10
13.7602060914
 20
7.427477194
 11
13.7602060914
 21
7.239702291
  0
LINE
  5
3BF
100
AcDbEntity
  8
0
100
AcDbLine
 62
7
  6
CONTINUOUS
 10
13.7650833495
 20
7.239702291
 11
13.7650833495
 21
7.426702291
  0
LINE
  5
3C0
100
AcDbEntity
  8
0
100
AcDbLine
 62
7
  6
CONTINUOUS
 10
13.7650833495
 20
8.092702291
 11
13.7650833495
 21
8.109702291
  0
LINE
  5
3C1
100
AcDbEntity
  8
0
100
AcDbLine
 62
7
  6
CONTINUOUS
 10
13.7662419762
 20
8.092702291
 11
13.7662419762
 21
8.084702291
  0
LINE
  5
3C2
100
AcDbEntity
  8
0
100
AcDbLine
 62
7
  6
CONTINUOUS
 10
13.7662419762
 20
7.434702291
 11
13.7662419762
 21
7.426702291
  0
LINE
  5
3C3
100
AcDbEntity
  8
0
100
AcDbLine
 62
7
  6
CONTINUOUS
 10
13.7662419762
 20
7.2216291466
 11
13.7662419762
 21
7.208702291
  0
LINE
  5
3C4
100
AcDbEntity
  8
0
100
AcDbLine
 62
7
  6
CONTINUOUS
 10
13.7686169791
 20
8.109702291
 11
13.7686169791
 21
8.092702291
  0
LINE
  5
3C5
100
AcDbEntity
  8
0
100
AcDbLine
 62
7
  6
CONTINUOUS
 10
13.7686169791
 20
7.426702291
 11
13.7686169791
 21
7.239702291
  0
LINE
  5
3C6
100
AcDbEntity
  8
0
100
AcDbLine
 62
7
  6
CONTINUOUS
 10
13.7710674076
 20
7.239702291
 11
13.7710674076
 21
7.426702291
  0
LINE
  5
3C7
100
AcDbEntity
  8
0
100
AcDbLine
 62
7
  6
CONTINUOUS
 10
13.7710674076
 20
8.092702291
 11
13.7710674076
 21
8.109702291
  0
LINE
  5
3C8
100
AcDbEntity
  8
0
100
AcDbLine
 62
7
  6
CONTINUOUS
 10
13.7722490775
 20
8.109702291
 11
13.7722490775
 21
8.092702291
  0
LINE
  5
3C9
100
AcDbEntity
  8
0
100
AcDbLine
 62
7
  6
CONTINUOUS
 10
13.7722490775
 20
7.426702291
 11
13.7722490775
 21
7.239702291
  0
LINE
  5
3CA
100
AcDbEntity
  8
0
100
AcDbLine
 62
7
  6
CONTINUOUS
 10
13.7724053519
 20
5.468702291
 11
13.7724053519
 21
7.148702291
  0
LINE
  5
3CB
100
AcDbEntity
  8
0
100
AcDbLine
 62
7
  6
CONTINUOUS
 10
13.7734990931
 20
7.208702291
 11
13.7734990931
 21
7.434702291
  0
LINE
  5
3CC
100
AcDbEntity
  8
0
100
AcDbLine
 62
7
  6
CONTINUOUS
 10
13.7734990931
 20
8.084702291
 11
13.7734990931
 21
8.1087022909
  0
LINE
  5
3CD
100
AcDbEntity
  8
0
100
AcDbLine
 62
7
  6
CONTINUOUS
 10
13.7798276938
 20
8.1087022909
 11
13.7798276938
 21
8.084702291
  0
LINE
  5
3CE
100
AcDbEntity
  8
0
100
AcDbLine
 62
7
  6
CONTINUOUS
 10
13.7798276939
 20
7.434702291
 11
13.7798276939
 21
7.208702291
  0
LINE
  5
3CF
100
AcDbEntity
  8
0
100
AcDbLine
 62
7
  6
CONTINUOUS
 10
13.7847049519
 20
7.208702291
 11
13.7847049519
 21
7.434702291
  0
LINE
  5
3D0
100
AcDbEntity
  8
0
100
AcDbLine
 62
7
  6
CONTINUOUS
 10
13.7847049519
 20
8.084702291
 11
13.7847049519
 21
8.1087022909
  0
LINE
  5
3D1
100
AcDbEntity
  8
0
100
AcDbLine
 62
7
  6
CONTINUOUS
 10
13.788526657
 20
8.1087022909
 11
13.788526657
 21
8.084702291
  0
LINE
  5
3D2
100
AcDbEntity
  8
0
100
AcDbLine
 62
7
  6
CONTINUOUS
 10
13.788526657
 20
7.434702291
 11
13.788526657
 21
7.208702291
  0
LINE
  5
3D3
100
AcDbEntity
  8
0
100
AcDbLine
 62
7
  6
CONTINUOUS
 10
13.7909770855
 20
7.208702291
 11
13.7909770855
 21
7.434702291
  0
LINE
  5
3D4
100
AcDbEntity
  8
0
100
AcDbLine
 62
7
  6
CONTINUOUS
 10
13.7909770855
 20
8.084702291
 11
13.7909770855
 21
8.1087022909
  0
LINE
  5
3D5
100
AcDbEntity
  8
0
100
AcDbLine
 62
7
  6
CONTINUOUS
 10
13.7922550898
 20
8.1087022909
 11
13.7922550898
 21
8.084702291
  0
LINE
  5
3D6
100
AcDbEntity
  8
0
100
AcDbLine
 62
7
  6
CONTINUOUS
 10
13.7922550898
 20
7.434702291
 11
13.7922550898
 21
7.208702291
  0
LINE
  5
3D7
100
AcDbEntity
  8
0
100
AcDbLine
 62
7
  6
CONTINUOUS
 10
13.7544372923
 20
7.456702291
 11
13.754354533
 21
7.239702291
  0
LINE
  5
3D8
100
AcDbEntity
  8
0
100
AcDbLine
 62
7
  6
CONTINUOUS
 10
14.3974053519
 20
5.1653038214
 11
14.3974053519
 21
4.938702291
  0
LINE
  5
3D9
100
AcDbEntity
  8
0
100
AcDbLine
 62
7
  6
CONTINUOUS
 10
9.0832480197
 20
13.0365442915
 11
12.2082480197
 21
12.3150811942
  0
LINE
  5
3DA
100
AcDbEntity
  8
0
100
AcDbLine
 62
9
  6
CONTINUOUS
 10
14.7524053519
 20
7.434702291
 11
14.7524053519
 21
8.084702291
  0
LINE
  5
3DB
100
AcDbEntity
  8
0
100
AcDbLine
 62
7
  6
CONTINUOUS
 10
14.7724053519
 20
8.064702291
 11
14.7724053519
 21
7.454702291
  0
ARC
  5
3DC
100
AcDbEntity
  8
0
100
AcDbCircle
 62
7
  6
CONTINUOUS
 10
8.6474053519
 20
11.148702291
 40
1.9375
100
AcDbArc
 50
77.0
 51
180.0
  0
ARC
  5
3DD
100
AcDbEntity
  8
0
100
AcDbCircle
 62
7
  6
CONTINUOUS
 10
8.6474053519
 20
11.148702291
 40
1.0625
100
AcDbArc
 50
77.0
 51
180.0
  0
ARC
  5
3DE
100
AcDbEntity
  8
0
100
AcDbCircle
 62
7
  6
CONTINUOUS
 10
6.6782066754
 20
9.9687042796
 40
0.0306450491
100
AcDbArc
 50
180.0037180904
 51
186.74703736
  0
ARC
  5
3DF
100
AcDbEntity
  8
0
100
AcDbCircle
 62
7
  6
CONTINUOUS
 10
6.6774053519
 20
9.968702291
 40
0.03
100
AcDbArc
 50
240.1172411105
 51
270.0
  0
ARC
  5
3E0
100
AcDbEntity
  8
0
100
AcDbCircle
 62
7
  6
CONTINUOUS
 10
6.6774053519
 20
10.718702291
 40
0.03
100
AcDbArc
 50
90.0
 51
119.8827588896
  0
ARC
  5
3E1
100
AcDbEntity
  8
0
100
AcDbCircle
 62
7
  6
CONTINUOUS
 10
7.6174053519
 20
9.968702291
 40
0.03
100
AcDbArc
 50
270.0
 51
299.8827588895
  0
ARC
  5
3E2
100
AcDbEntity
  8
0
100
AcDbCircle
 62
7
  6
CONTINUOUS
 10
7.6174053519
 20
10.718702291
 40
0.03
100
AcDbArc
 50
60.1172411104
 51
90.0
  0
ARC
  5
3E3
100
AcDbEntity
  8
0
100
AcDbCircle
 62
7
  6
CONTINUOUS
 10
7.6176904599
 20
9.9682103559
 40
0.029431421
100
AcDbArc
 50
299.8786577429
 51
308.5059266443
  0
ARC
  5
3E4
100
AcDbEntity
  8
0
100
AcDbCircle
 62
7
  6
CONTINUOUS
 10
6.6771202436
 20
10.7191942267
 40
0.0294314202
100
AcDbArc
 50
119.8786576313
 51
128.5059127874
  0
ARC
  5
3E5
100
AcDbEntity
  8
0
100
AcDbCircle
 62
7
  6
CONTINUOUS
 10
12.5974053519
 20
5.438702291
 40
0.175
100
AcDbArc
 50
285.0477379831
 51
351.5850319153
  0
ARC
  5
3E6
100
AcDbEntity
  8
0
100
AcDbCircle
 62
7
  6
CONTINUOUS
 10
12.8001983498
 20
5.408702291
 40
0.03
100
AcDbArc
 50
90.0
 51
171.5850319153
  0
ARC
  5
3E7
100
AcDbEntity
  8
0
100
AcDbCircle
 62
7
  6
CONTINUOUS
 10
12.1774053519
 20
5.1606501639
 40
0.03
100
AcDbArc
 50
94.1621379223
 51
180.0
  0
ARC
  5
3E8
100
AcDbEntity
  8
0
100
AcDbCircle
 62
7
  6
CONTINUOUS
 10
12.8024053519
 20
5.478702291
 40
0.03
100
AcDbArc
 50
180.0
 51
270.0
  0
ARC
  5
3E9
100
AcDbEntity
  8
0
100
AcDbCircle
 62
7
  6
CONTINUOUS
 10
12.8024053519
 20
5.468702291
 40
0.03
100
AcDbArc
 50
180.0
 51
270.0
  0
ARC
  5
3EA
100
AcDbEntity
  8
0
100
AcDbCircle
 62
7
  6
CONTINUOUS
 10
12.1724053519
 20
5.1653038214
 40
0.025
100
AcDbArc
 50
94.0566443102
 51
180.0
  0
ARC
  5
3EB
100
AcDbEntity
  8
0
100
AcDbCircle
 62
7
  6
CONTINUOUS
 10
11.7924053519
 20
7.454702291
 40
0.02
100
AcDbArc
 50
180.0
 51
270.0
  0
ARC
  5
3EC
100
AcDbEntity
  8
0
100
AcDbCircle
 62
7
  6
CONTINUOUS
 10
11.993780133
 20
7.683977685
 40
2.5
100
AcDbArc
 50
274.0566443102
 51
285.0477379831
  0
ARC
  5
3ED
100
AcDbEntity
  8
0
100
AcDbCircle
 62
7
  6
CONTINUOUS
 10
11.7924053519
 20
8.064702291
 40
0.02
100
AcDbArc
 50
90.0
 51
180.0
  0
ARC
  5
3EE
100
AcDbEntity
  8
0
100
AcDbCircle
 62
7
  6
CONTINUOUS
 10
12.8032077278
 20
7.2397043477
 40
0.0306461016
100
AcDbArc
 50
180.0038441833
 51
186.7563453439
  0
ARC
  5
3EF
100
AcDbEntity
  8
0
100
AcDbCircle
 62
7
  6
CONTINUOUS
 10
13.1694053519
 20
7.456702291
 40
0.03
100
AcDbArc
 50
180.0
 51
269.9999999956
  0
ARC
  5
3F0
100
AcDbEntity
  8
0
100
AcDbCircle
 62
7
  6
CONTINUOUS
 10
12.8024053519
 20
7.239702291
 40
0.03
100
AcDbArc
 50
240.1172411104
 51
270.0
  0
ARC
  5
3F1
100
AcDbEntity
  8
0
100
AcDbCircle
 62
7
  6
CONTINUOUS
 10
12.8024053519
 20
7.148702291
 40
0.03
100
AcDbArc
 50
90.0
 51
180.0
  0
ARC
  5
3F2
100
AcDbEntity
  8
0
100
AcDbCircle
 62
7
  6
CONTINUOUS
 10
12.8021202679
 20
7.239210392
 40
0.0294314642
100
AcDbArc
 50
231.5018928773
 51
240.1213368462
  0
ARC
  5
3F3
100
AcDbEntity
  8
0
100
AcDbCircle
 62
9
  6
CONTINUOUS
 10
13.1694053519
 20
7.456702291
 40
0.029
100
AcDbArc
 50
180.0
 51
269.9999999966
  0
ARC
  5
3F4
100
AcDbEntity
  8
0
100
AcDbCircle
 62
7
  6
CONTINUOUS
 10
13.1674053519
 20
7.454702291
 40
0.02
100
AcDbArc
 50
180.0
 51
270.0
  0
ARC
  5
3F5
100
AcDbEntity
  8
0
100
AcDbCircle
 62
7
  6
CONTINUOUS
 10
12.8032063859
 20
8.1097003165
 40
0.0306447596
100
AcDbArc
 50
173.2434704767
 51
179.9962706071
  0
ARC
  5
3F6
100
AcDbEntity
  8
0
100
AcDbCircle
 62
7
  6
CONTINUOUS
 10
12.7831859344
 20
8.1086992621
 40
0.0306303205
100
AcDbArc
 50
172.2634987573
 51
179.9943343232
  0
ARC
  5
3F7
100
AcDbEntity
  8
0
100
AcDbCircle
 62
7
  6
CONTINUOUS
 10
12.7829940461
 20
8.1087221967
 40
0.0304370917
100
AcDbArc
 50
164.4075119454
 51
172.2576524944
  0
ARC
  5
3F8
100
AcDbEntity
  8
0
100
AcDbCircle
 62
7
  6
CONTINUOUS
 10
12.7828529291
 20
8.1087610894
 40
0.0302909267
100
AcDbArc
 50
159.5203172506
 51
164.4000358037
  0
ARC
  5
3F9
100
AcDbEntity
  8
0
100
AcDbCircle
 62
7
  6
CONTINUOUS
 10
12.78273939
 20
8.108804076
 40
0.0301695237
100
AcDbArc
 50
156.3103044602
 51
159.5213524221
  0
ARC
  5
3FA
100
AcDbEntity
  8
0
100
AcDbCircle
 62
7
  6
CONTINUOUS
 10
13.1694053519
 20
8.062702291
 40
0.03
100
AcDbArc
 50
90.0
 51
179.9999999956
  0
ARC
  5
3FB
100
AcDbEntity
  8
0
100
AcDbCircle
 62
7
  6
CONTINUOUS
 10
12.8024053519
 20
8.109702291
 40
0.03
100
AcDbArc
 50
90.0
 51
119.8827588895
  0
ARC
  5
3FC
100
AcDbEntity
  8
0
100
AcDbCircle
 62
7
  6
CONTINUOUS
 10
12.7824053519
 20
8.108702291
 40
0.03
100
AcDbArc
 50
90.0
 51
119.8960032872
  0
ARC
  5
3FD
100
AcDbEntity
  8
0
100
AcDbCircle
 62
7
  6
CONTINUOUS
 10
12.7825653777
 20
8.1088785199
 40
0.0299802643
100
AcDbArc
 50
151.402716768
 51
156.306970958
  0
ARC
  5
3FE
100
AcDbEntity
  8
0
100
AcDbCircle
 62
7
  6
CONTINUOUS
 10
12.7824372806
 20
8.1089497297
 40
0.0298337098
100
AcDbArc
 50
147.8785477196
 51
151.4050384131
  0
ARC
  5
3FF
100
AcDbEntity
  8
0
100
AcDbCircle
 62
7
  6
CONTINUOUS
 10
12.7823115263
 20
8.109029114
 40
0.0296849958
100
AcDbArc
 50
142.2978479575
 51
147.8792557327
  0
ARC
  5
400
100
AcDbEntity
  8
0
100
AcDbCircle
 62
7
  6
CONTINUOUS
 10
12.7822287799
 20
8.109093561
 40
0.0295801138
100
AcDbArc
 50
139.0135755401
 51
142.2985964342
  0
ARC
  5
401
100
AcDbEntity
  8
0
100
AcDbCircle
 62
7
  6
CONTINUOUS
 10
12.8021202686
 20
8.1101941889
 40
0.0294314654
100
AcDbArc
 50
119.8786633453
 51
128.49814466
  0
ARC
  5
402
100
AcDbEntity
  8
0
100
AcDbCircle
 62
7
  6
CONTINUOUS
 10
12.782112701
 20
8.1091990705
 40
0.0294231767
100
AcDbArc
 50
119.8915802743
 51
139.0157339206
  0
ARC
  5
403
100
AcDbEntity
  8
0
100
AcDbCircle
 62
9
  6
CONTINUOUS
 10
13.1694053519
 20
8.062702291
 40
0.029
100
AcDbArc
 50
90.0
 51
179.9999999966
  0
ARC
  5
404
100
AcDbEntity
  8
0
100
AcDbCircle
 62
7
  6
CONTINUOUS
 10
12.7969746892
 20
8.108689629
 40
0.0256633554
100
AcDbArc
 50
170.7327835817
 51
177.5203131151
  0
ARC
  5
405
100
AcDbEntity
  8
0
100
AcDbCircle
 62
7
  6
CONTINUOUS
 10
12.7967299969
 20
8.1087013265
 40
0.0254183862
100
AcDbArc
 50
177.5227923035
 51
179.9978260027
  0
ARC
  5
406
100
AcDbEntity
  8
0
100
AcDbCircle
 62
7
  6
CONTINUOUS
 10
13.1674053519
 20
8.064702291
 40
0.02
100
AcDbArc
 50
90.0
 51
180.0
  0
ARC
  5
407
100
AcDbEntity
  8
0
100
AcDbCircle
 62
7
  6
CONTINUOUS
 10
13.9474053519
 20
5.438702291
 40
0.175
100
AcDbArc
 50
188.4149680847
 51
254.9522620169
  0
ARC
  5
408
100
AcDbEntity
  8
0
100
AcDbCircle
 62
7
  6
CONTINUOUS
 10
13.744612354
 20
5.408702291
 40
0.03
100
AcDbArc
 50
8.4149680847
 51
90.0
  0
ARC
  5
409
100
AcDbEntity
  8
0
100
AcDbCircle
 62
7
  6
CONTINUOUS
 10
14.3674053519
 20
5.1606501639
 40
0.03
100
AcDbArc
 50
0.0
 51
85.8378620777
  0
ARC
  5
40A
100
AcDbEntity
  8
0
100
AcDbCircle
 62
7
  6
CONTINUOUS
 10
13.7424053519
 20
5.478702291
 40
0.03
100
AcDbArc
 50
270.0
 51
360.0
  0
ARC
  5
40B
100
AcDbEntity
  8
0
100
AcDbCircle
 62
7
  6
CONTINUOUS
 10
13.7424053519
 20
5.468702291
 40
0.03
100
AcDbArc
 50
270.0
 51
360.0
  0
ARC
  5
40C
100
AcDbEntity
  8
0
100
AcDbCircle
 62
7
  6
CONTINUOUS
 10
14.3724053519
 20
5.1653038214
 40
0.025
100
AcDbArc
 50
0.0
 51
85.9433556898
  0
ARC
  5
40D
100
AcDbEntity
  8
0
100
AcDbCircle
 62
7
  6
CONTINUOUS
 10
13.741604044
 20
7.2397042816
 40
0.0306450335
100
AcDbArc
 50
353.2435554852
 51
359.9962782745
  0
ARC
  5
40E
100
AcDbEntity
  8
0
100
AcDbCircle
 62
7
  6
CONTINUOUS
 10
13.3754053519
 20
7.456702291
 40
0.03
100
AcDbArc
 50
270.0
 51
359.9999999956
  0
ARC
  5
40F
100
AcDbEntity
  8
0
100
AcDbCircle
 62
7
  6
CONTINUOUS
 10
13.7424053519
 20
7.239702291
 40
0.03
100
AcDbArc
 50
270.0
 51
299.8827588896
  0
ARC
  5
410
100
AcDbEntity
  8
0
100
AcDbCircle
 62
7
  6
CONTINUOUS
 10
13.7424053519
 20
7.148702291
 40
0.03
100
AcDbArc
 50
0.0
 51
90.0
  0
ARC
  5
411
100
AcDbEntity
  8
0
100
AcDbCircle
 62
7
  6
CONTINUOUS
 10
13.742690436
 20
7.239210392
 40
0.0294314641
100
AcDbArc
 50
299.8786631504
 51
308.4981100679
  0
ARC
  5
412
100
AcDbEntity
  8
0
100
AcDbCircle
 62
9
  6
CONTINUOUS
 10
13.3754053519
 20
7.456702291
 40
0.029
100
AcDbArc
 50
270.0
 51
359.9999999966
  0
ARC
  5
413
100
AcDbEntity
  8
0
100
AcDbCircle
 62
7
  6
CONTINUOUS
 10
13.3774053519
 20
7.454702291
 40
0.02
100
AcDbArc
 50
270.0
 51
360.0
  0
ARC
  5
414
100
AcDbEntity
  8
0
100
AcDbCircle
 62
7
  6
CONTINUOUS
 10
13.3754053519
 20
8.062702291
 40
0.03
100
AcDbArc
 50
0.0
 51
89.9999999956
  0
ARC
  5
415
100
AcDbEntity
  8
0
100
AcDbCircle
 62
9
  6
CONTINUOUS
 10
13.3754053519
 20
8.062702291
 40
0.029
100
AcDbArc
 50
0.0
 51
89.9999999966
  0
ARC
  5
416
100
AcDbEntity
  8
0
100
AcDbCircle
 62
7
  6
CONTINUOUS
 10
13.3774053519
 20
8.064702291
 40
0.02
100
AcDbArc
 50
0.0
 51
90.0
  0
ARC
  5
417
100
AcDbEntity
  8
0
100
AcDbCircle
 62
7
  6
CONTINUOUS
 10
13.2864192957
 20
8.1152641533
 40
0.0247906084
100
AcDbArc
 50
124.4226020378
 51
131.8936934361
  0
ARC
  5
418
100
AcDbEntity
  8
0
100
AcDbCircle
 62
7
  6
CONTINUOUS
 10
13.7416029963
 20
8.1097002356
 40
0.0306460813
100
AcDbArc
 50
0.0038428393
 51
6.7563762326
  0
ARC
  5
419
100
AcDbEntity
  8
0
100
AcDbCircle
 62
7
  6
CONTINUOUS
 10
13.7616226979
 20
8.1086991222
 40
0.0306323921
100
AcDbArc
 50
0.0059268958
 51
7.7358515926
  0
ARC
  5
41A
100
AcDbEntity
  8
0
100
AcDbCircle
 62
7
  6
CONTINUOUS
 10
13.7617929536
 20
8.1087183933
 40
0.0304610921
100
AcDbArc
 50
7.7430400881
 51
10.4861432766
  0
ARC
  5
41B
100
AcDbEntity
  8
0
100
AcDbCircle
 62
7
  6
CONTINUOUS
 10
13.761835986
 20
8.1087291205
 40
0.0304168261
100
AcDbArc
 50
10.4810268963
 51
15.5962720674
  0
ARC
  5
41C
100
AcDbEntity
  8
0
100
AcDbCircle
 62
7
  6
CONTINUOUS
 10
13.7619525521
 20
8.108759388
 40
0.0302964144
100
AcDbArc
 50
15.6004071133
 51
20.4792494451
  0
ARC
  5
41D
100
AcDbEntity
  8
0
100
AcDbCircle
 62
7
  6
CONTINUOUS
 10
13.7621139992
 20
8.1088213962
 40
0.0301234764
100
AcDbArc
 50
20.4761986585
 51
23.6921482016
  0
ARC
  5
41E
100
AcDbEntity
  8
0
100
AcDbCircle
 62
7
  6
CONTINUOUS
 10
13.7424053519
 20
8.109702291
 40
0.03
100
AcDbArc
 50
60.1172411105
 51
90.0
  0
ARC
  5
41F
100
AcDbEntity
  8
0
100
AcDbCircle
 62
7
  6
CONTINUOUS
 10
13.7624053519
 20
8.108702291
 40
0.03
100
AcDbArc
 50
60.103996708
 51
90.0
  0
ARC
  5
420
100
AcDbEntity
  8
0
100
AcDbCircle
 62
7
  6
CONTINUOUS
 10
13.7622453262
 20
8.1088785199
 40
0.0299802643
100
AcDbArc
 50
23.6930289789
 51
28.597287754
  0
ARC
  5
421
100
AcDbEntity
  8
0
100
AcDbCircle
 62
7
  6
CONTINUOUS
 10
13.7623734233
 20
8.1089497297
 40
0.0298337097
100
AcDbArc
 50
28.594966117
 51
32.1214522452
  0
ARC
  5
422
100
AcDbEntity
  8
0
100
AcDbCircle
 62
7
  6
CONTINUOUS
 10
13.7624991776
 20
8.109029114
 40
0.0296849957
100
AcDbArc
 50
32.1207442272
 51
37.7021544965
  0
ARC
  5
423
100
AcDbEntity
  8
0
100
AcDbCircle
 62
7
  6
CONTINUOUS
 10
13.7625819239
 20
8.109093561
 40
0.0295801138
100
AcDbArc
 50
37.7014060221
 51
40.9864244415
  0
ARC
  5
424
100
AcDbEntity
  8
0
100
AcDbCircle
 62
7
  6
CONTINUOUS
 10
13.7426904352
 20
8.110194189
 40
0.0294314654
100
AcDbArc
 50
51.5018524643
 51
60.1213366577
  0
ARC
  5
425
100
AcDbEntity
  8
0
100
AcDbCircle
 62
7
  6
CONTINUOUS
 10
13.7626980029
 20
8.1091990705
 40
0.0294231766
100
AcDbArc
 50
40.9842660683
 51
60.1084197185
  0
ARC
  5
426
100
AcDbEntity
  8
0
100
AcDbCircle
 62
7
  6
CONTINUOUS
 10
13.747835985
 20
8.1086896259
 40
0.0256633852
100
AcDbArc
 50
2.4796666949
 51
9.2681405103
  0
ARC
  5
427
100
AcDbEntity
  8
0
100
AcDbCircle
 62
7
  6
CONTINUOUS
 10
13.7480807316
 20
8.1087013264
 40
0.0254183616
100
AcDbArc
 50
0.0021741785
 51
2.4771856496
  0
ARC
  5
428
100
AcDbEntity
  8
0
100
AcDbCircle
 62
7
  6
CONTINUOUS
 10
14.7524053519
 20
7.454702291
 40
0.02
100
AcDbArc
 50
270.0
 51
360.0
  0
ARC
  5
429
100
AcDbEntity
  8
0
100
AcDbCircle
 62
7
  6
CONTINUOUS
 10
14.5510305708
 20
7.683977685
 40
2.5
100
AcDbArc
 50
254.9522620169
 51
265.9433556898
  0
ARC
  5
42A
100
AcDbEntity
  8
0
100
AcDbCircle
 62
7
  6
CONTINUOUS
 10
14.7524053519
 20
8.064702291
 40
0.02
100
AcDbArc
 50
0.0
 51
90.0
  0
ARC
  5
42B
100
AcDbEntity
  8
0
100
AcDbCircle
 62
7
  6
CONTINUOUS
 10
11.7724053519
 20
10.4272391937
 40
1.9375
100
AcDbArc
 50
0.0
 51
77.0
  0
ARC
  5
42C
100
AcDbEntity
  8
0
100
AcDbCircle
 62
7
  6
CONTINUOUS
 10
11.7724053519
 20
10.4272391937
 40
1.0625
100
AcDbArc
 50
0.0
 51
77.0
  0
SPLINE
  5
42D
100
AcDbEntity
  8
0
100
AcDbSpline
 62
7
  6
CONTINUOUS
 70
0
 71
3
 72
15
 73
11
 74
0
 42
0.0000001
 43
0.0000001
 44
0.0000000001
 40
0.0
 40
0.0
 40
0.0
 40
0.0
 40
0.1399653735
 40
0.2776414511
 40
0.4112278105
 40
0.5396048981
 40
0.6623715715
 40
0.7796606654
 40
0.8919828204
 40
1.0
 40
1.0
 40
1.0
 40
1.0
 10
7.6436169791
 20
10.718702291
 30
0.0
 10
7.6436169791
 20
10.7201300106
 30
0.0
 10
7.6434358921
 20
10.7229654823
 30
0.0
 10
7.6426359328
 20
10.7270942823
 30
0.0
 10
7.641355839
 20
10.730976337
 30
0.0
 10
7.6396608843
 20
10.7345274985
 30
0.0
 10
7.637622463
 20
10.737696675
 30
0.0
 10
7.6353082708
 20
10.740459494
 30
0.0
 10
7.6327785794
 20
10.7428090296
 30
0.0
 10
7.6309494987
 20
10.7441267595
 30
0.0
 10
7.6300170062
 20
10.7447136923
 30
0.0
  0
SPLINE
  5
42E
100
AcDbEntity
  8
0
100
AcDbSpline
 62
7
  6
CONTINUOUS
 70
0
 71
3
 72
15
 73
11
 74
0
 42
0.0000001
 43
0.0000001
 44
0.0000000001
 40
0.0
 40
0.0
 40
0.0
 40
0.0
 40
0.1399654286
 40
0.2776415456
 40
0.411227904
 40
0.5396049628
 40
0.6623716126
 40
0.7796606758
 40
0.8919828315
 40
1.0
 40
1.0
 40
1.0
 40
1.0
 10
7.6436169791
 20
9.968702291
 30
0.0
 10
7.6436169791
 20
9.9672745708
 30
0.0
 10
7.643435892
 20
9.9644390981
 30
0.0
 10
7.6426359322
 20
9.9603102973
 30
0.0
 10
7.6413558382
 20
9.9564282426
 30
0.0
 10
7.6396608832
 20
9.9528770818
 30
0.0
 10
7.6376224624
 20
9.9497079059
 30
0.0
 10
7.6353082703
 20
9.9469450877
 30
0.0
 10
7.6327785793
 20
9.9445955522
 30
0.0
 10
7.6309494986
 20
9.9432778224
 30
0.0
 10
7.6300170062
 20
9.9426908896
 30
0.0
  0
SPLINE
  5
42F
100
AcDbEntity
  8
0
100
AcDbSpline
 62
7
  6
CONTINUOUS
 70
0
 71
3
 72
15
 73
11
 74
0
 42
0.0000001
 43
0.0000001
 44
0.0000000001
 40
0.0
 40
0.0
 40
0.0
 40
0.0
 40
0.1341549435
 40
0.2670378022
 40
0.3975740857
 40
0.525012488
 40
0.6489540877
 40
0.7693140031
 40
0.8862287675
 40
1.0
 40
1.0
 40
1.0
 40
1.0
 10
7.6472490775
 20
9.968702269
 30
0.0
 10
7.6472490766
 20
9.9674970039
 30
0.0
 10
7.647107134
 20
9.965095475
 30
0.0
 10
7.646477385
 20
9.9615716251
 30
0.0
 10
7.6454590302
 20
9.9582026617
 30
0.0
 10
7.6440925358
 20
9.9550472095
 30
0.0
 10
7.642424514
 20
9.9521457748
 30
0.0
 10
7.6405020756
 20
9.9495231247
 30
0.0
 10
7.6383698103
 20
9.9471915046
 30
0.0
 10
7.6368141868
 20
9.9458153722
 30
0.0
 10
7.6360143327
 20
9.9451789811
 30
0.0
  0
SPLINE
  5
430
100
AcDbEntity
  8
0
100
AcDbSpline
 62
7
  6
CONTINUOUS
 70
0
 71
3
 72
14
 73
10
 74
0
 42
0.0000001
 43
0.0000001
 44
0.0000000001
 40
0.0
 40
0.0
 40
0.0
 40
0.0
 40
0.3223106382
 40
0.471168639
 40
0.6072126921
 40
0.7286108143
 40
0.8345470473
 40
0.9249157681
 40
1.0
 40
1.0
 40
1.0
 40
1.0
 10
7.492009405
 20
9.968702291
 30
0.0
 10
7.492009405
 20
9.9658985154
 30
0.0
 10
7.491946973
 20
9.9617993312
 30
0.0
 10
7.4917321422
 20
9.9565213727
 30
0.0
 10
7.4915242284
 20
9.9529928638
 30
0.0
 10
7.4912743404
 20
9.9498414956
 30
0.0
 10
7.4909910078
 20
9.9470920318
 30
0.0
 10
7.4906817869
 20
9.9447512296
 30
0.0
 10
7.4904413867
 20
9.9433316081
 30
0.0
 10
7.4903145267
 20
9.9426908896
 30
0.0
  0
SPLINE
  5
431
100
AcDbEntity
  8
0
100
AcDbSpline
 62
7
  6
CONTINUOUS
 70
0
 71
3
 72
15
 73
11
 74
0
 42
0.0000001
 43
0.0000001
 44
0.0000000001
 40
0.0
 40
0.0
 40
0.0
 40
0.0
 40
0.1619933742
 40
0.3189190903
 40
0.4665566092
 40
0.601914967
 40
0.7232944046
 40
0.8300048056
 40
0.9220830425
 40
1.0
 40
1.0
 40
1.0
 40
1.0
 10
7.5258598608
 20
9.968702291
 30
0.0
 10
7.5258598608
 20
9.9672772881
 30
0.0
 10
7.5258129558
 20
9.9644716224
 30
0.0
 10
7.5256051906
 20
9.9603719575
 30
0.0
 10
7.5252726622
 20
9.9565155502
 30
0.0
 10
7.5248323246
 20
9.9529847937
 30
0.0
 10
7.5243028075
 20
9.9498307456
 30
0.0
 10
7.5237019535
 20
9.9470777603
 30
0.0
 10
7.5230455144
 20
9.9447323854
 30
0.0
 10
7.5225391059
 20
9.943323081
 30
0.0
 10
7.522274302
 20
9.9426908896
 30
0.0
  0
SPLINE
  5
432
100
AcDbEntity
  8
0
100
AcDbSpline
 62
7
  6
CONTINUOUS
 70
0
 71
3
 72
15
 73
11
 74
0
 42
0.0000001
 43
0.0000001
 44
0.0000000001
 40
0.0
 40
0.0
 40
0.0
 40
0.0
 40
0.1591641223
 40
0.3135828121
 40
0.4593253194
 40
0.5936442603
 40
0.7150419567
 40
0.823008758
 40
0.917766797
 40
1.0
 40
1.0
 40
1.0
 40
1.0
 10
7.5560655927
 20
9.968702291
 30
0.0
 10
7.5560655927
 20
9.9672770234
 30
0.0
 10
7.5559942831
 20
9.9644684331
 30
0.0
 10
7.555678476
 20
9.960365657
 30
0.0
 10
7.5551729496
 20
9.9565059966
 30
0.0
 10
7.5545033274
 20
9.952971798
 30
0.0
 10
7.5536977111
 20
9.9498139276
 30
0.0
 10
7.5527827418
 20
9.9470564569
 30
0.0
 10
7.5517819518
 20
9.9447059101
 30
0.0
 10
7.5510189332
 20
9.943312326
 30
0.0
 10
7.5506238844
 20
9.9426908896
 30
0.0
  0
SPLINE
  5
433
100
AcDbEntity
  8
0
100
AcDbSpline
 62
7
  6
CONTINUOUS
 70
0
 71
3
 72
15
 73
11
 74
0
 42
0.0000001
 43
0.0000001
 44
0.0000000001
 40
0.0
 40
0.0
 40
0.0
 40
0.0
 40
0.1556265364
 40
0.306924386
 40
0.4503345457
 40
0.5834151444
 40
0.7049094235
 40
0.8145025516
 40
0.912586879
 40
1.0
 40
1.0
 40
1.0
 40
1.0
 10
7.5823357032
 20
9.968702291
 30
0.0
 10
7.5823357032
 20
9.9672766618
 30
0.0
 10
7.5822405326
 20
9.9644640852
 30
0.0
 10
7.5818191714
 20
9.960357159
 30
0.0
 10
7.5811445832
 20
9.9564933488
 30
0.0
 10
7.5802507899
 20
9.9529550852
 30
0.0
 10
7.5791750414
 20
9.9497931719
 30
0.0
 10
7.5779525087
 20
9.9470317181
 30
0.0
 10
7.5766143104
 20
9.9446775717
 30
0.0
 10
7.575607587
 20
9.9433020956
 30
0.0
 10
7.5750902519
 20
9.9426908896
 30
0.0
  0
SPLINE
  5
434
100
AcDbEntity
  8
0
100
AcDbSpline
 62
7
  6
CONTINUOUS
 70
0
 71
3
 72
14
 73
10
 74
0
 42
0.0000001
 43
0.0000001
 44
0.0000000001
 40
0.0
 40
0.0
 40
0.0
 40
0.0
 40
0.1517560333
 40
0.2996629153
 40
0.4405848001
 40
0.572417481
 40
0.6941532828
 40
0.8056527419
 40
1.0
 40
1.0
 40
1.0
 40
1.0
 10
7.6044171965
 20
9.968702291
 30
0.0
 10
7.6044171965
 20
9.9672762175
 30
0.0
 10
7.6042989035
 20
9.9644587463
 30
0.0
 10
7.60377541
 20
9.9603468987
 30
0.0
 10
7.6029371561
 20
9.9564783343
 30
0.0
 10
7.6018266611
 20
9.9529362658
 30
0.0
 10
7.6004889045
 20
9.9497698656
 30
0.0
 10
7.5985519991
 20
9.9462463326
 30
0.0
 10
7.5967596682
 20
9.9439510555
 30
0.0
 10
7.59543778
 20
9.9426908896
 30
0.0
  0
SPLINE
  5
435
100
AcDbEntity
  8
0
100
AcDbSpline
 62
7
  6
CONTINUOUS
 70
0
 71
3
 72
14
 73
10
 74
0
 42
0.0000001
 43
0.0000001
 44
0.0000000001
 40
0.0
 40
0.0
 40
0.0
 40
0.0
 40
0.2917135868
 40
0.4300698055
 40
0.5606486998
 40
0.6826769895
 40
0.7961511139
 40
0.9016347001
 40
1.0
 40
1.0
 40
1.0
 40
1.0
 10
7.622097416
 20
9.968702291
 30
0.0
 10
7.622097416
 20
9.9658848751
 30
0.0
 10
7.6216897669
 20
9.961713594
 30
0.0
 10
7.6203409941
 20
9.9564624468
 30
0.0
 10
7.6190228243
 20
9.9529158559
 30
0.0
 10
7.6174363048
 20
9.9497481912
 30
0.0
 10
7.6156332367
 20
9.9469832496
 30
0.0
 10
7.6136600012
 20
9.9446287442
 30
0.0
 10
7.6122103629
 20
9.9432868524
 30
0.0
 10
7.611470511
 20
9.9426908896
 30
0.0
  0
SPLINE
  5
436
100
AcDbEntity
  8
0
100
AcDbSpline
 62
7
  6
CONTINUOUS
 70
0
 71
3
 72
14
 73
10
 74
0
 42
0.0000001
 43
0.0000001
 44
0.0000000001
 40
0.0
 40
0.0
 40
0.0
 40
0.0
 40
0.2842457044
 40
0.4201584258
 40
0.549603766
 40
0.6720127431
 40
0.7874715276
 40
0.8965390273
 40
1.0
 40
1.0
 40
1.0
 40
1.0
 10
7.6352060914
 20
9.968702291
 30
0.0
 10
7.6352060914
 20
9.9658805231
 30
0.0
 10
7.6347334008
 20
9.9616871917
 30
0.0
 10
7.6331883271
 20
9.9564456282
 30
0.0
 10
7.6316746809
 20
9.952895873
 30
0.0
 10
7.6298534689
 20
9.9497270329
 30
0.0
 10
7.6277846287
 20
9.9469626225
 30
0.0
 10
7.6255218005
 20
9.9446102956
 30
0.0
 10
7.6238741672
 20
9.9432817189
 30
0.0
 10
7.6230340407
 20
9.9426908896
 30
0.0
  0
SPLINE
  5
437
100
AcDbEntity
  8
0
100
AcDbSpline
 62
7
  6
CONTINUOUS
 70
0
 71
3
 72
15
 73
11
 74
0
 42
0.0000001
 43
0.0000001
 44
0.0000000001
 40
0.0
 40
0.0
 40
0.0
 40
0.0
 40
0.1365683816
 40
0.2713347688
 40
0.4029014332
 40
0.5304192801
 40
0.6536176756
 40
0.7726415976
 40
0.8879270148
 40
1.0
 40
1.0
 40
1.0
 40
1.0
 10
7.6472490775
 20
10.718702291
 30
0.0
 10
7.6472490775
 20
10.7201305936
 30
0.0
 10
7.647049969
 20
10.7229723988
 30
0.0
 10
7.6461711034
 20
10.7271066797
 30
0.0
 10
7.6447653998
 20
10.7309923331
 30
0.0
 10
7.6429052228
 20
10.7345448059
 30
0.0
 10
7.6406694978
 20
10.7377133264
 30
0.0
 10
7.638132852
 20
10.7404740383
 30
0.0
 10
7.6353614594
 20
10.7428206413
 30
0.0
 10
7.6333684378
 20
10.7441297121
 30
0.0
 10
7.6323521576
 20
10.7447136923
 30
0.0
  0
SPLINE
  5
438
100
AcDbEntity
  8
0
100
AcDbSpline
 62
7
  6
CONTINUOUS
 70
0
 71
3
 72
14
 73
10
 74
0
 42
0.0000001
 43
0.0000001
 44
0.0000000001
 40
0.0
 40
0.0
 40
0.0
 40
0.0
 40
0.2842456083
 40
0.4201583312
 40
0.5496037015
 40
0.6720127024
 40
0.7874715178
 40
0.8965390166
 40
1.0
 40
1.0
 40
1.0
 40
1.0
 10
7.6352060914
 20
10.718702291
 30
0.0
 10
7.6352060914
 20
10.721524058
 30
0.0
 10
7.6347334012
 20
10.7257173884
 30
0.0
 10
7.6331883278
 20
10.7309589513
 30
0.0
 10
7.6316746819
 20
10.7345087072
 30
0.0
 10
7.6298534695
 20
10.7376775481
 30
0.0
 10
7.6277846292
 20
10.7404419591
 30
0.0
 10
7.6255218006
 20
10.7427942862
 30
0.0
 10
7.6238741672
 20
10.744122863
 30
0.0
 10
7.6230340407
 20
10.7447136923
 30
0.0
  0
SPLINE
  5
439
100
AcDbEntity
  8
0
100
AcDbSpline
 62
7
  6
CONTINUOUS
 70
0
 71
3
 72
14
 73
10
 74
0
 42
0.0000001
 43
0.0000001
 44
0.0000000001
 40
0.0
 40
0.0
 40
0.0
 40
0.0
 40
0.2917134885
 40
0.4300697093
 40
0.5606486351
 40
0.6826769489
 40
0.7961511045
 40
0.9016346897
 40
1.0
 40
1.0
 40
1.0
 40
1.0
 10
7.622097416
 20
10.718702291
 30
0.0
 10
7.622097416
 20
10.7215197059
 30
0.0
 10
7.6216897672
 20
10.7256909861
 30
0.0
 10
7.6203409947
 20
10.7309421328
 30
0.0
 10
7.6190228252
 20
10.7344887243
 30
0.0
 10
7.6174363053
 20
10.7376563898
 30
0.0
 10
7.6156332372
 20
10.7404213319
 30
0.0
 10
7.6136600013
 20
10.7427758376
 30
0.0
 10
7.6122103629
 20
10.7441177295
 30
0.0
 10
7.611470511
 20
10.7447136923
 30
0.0
  0
SPLINE
  5
43A
100
AcDbEntity
  8
0
100
AcDbSpline
 62
7
  6
CONTINUOUS
 70
0
 71
3
 72
14
 73
10
 74
0
 42
0.0000001
 43
0.0000001
 44
0.0000000001
 40
0.0
 40
0.0
 40
0.0
 40
0.0
 40
0.1517559736
 40
0.2996628144
 40
0.440584702
 40
0.5724174159
 40
0.6941532422
 40
0.8056527328
 40
1.0
 40
1.0
 40
1.0
 40
1.0
 10
7.6044171965
 20
10.718702291
 30
0.0
 10
7.6044171965
 20
10.720128364
 30
0.0
 10
7.6042989036
 20
10.7229458342
 30
0.0
 10
7.6037754104
 20
10.7270576809
 30
0.0
 10
7.6029371567
 20
10.7309262452
 30
0.0
 10
7.6018266618
 20
10.7344683145
 30
0.0
 10
7.6004889049
 20
10.7376347154
 30
0.0
 10
7.5985519995
 20
10.7411582491
 30
0.0
 10
7.5967596683
 20
10.7434535264
 30
0.0
 10
7.59543778
 20
10.7447136923
 30
0.0
  0
SPLINE
  5
43B
100
AcDbEntity
  8
0
100
AcDbSpline
 62
7
  6
CONTINUOUS
 70
0
 71
3
 72
15
 73
11
 74
0
 42
0.0000001
 43
0.0000001
 44
0.0000000001
 40
0.0
 40
0.0
 40
0.0
 40
0.0
 40
0.1556264753
 40
0.306924283
 40
0.4503344461
 40
0.5834150792
 40
0.7049093831
 40
0.8145025431
 40
0.9125868693
 40
1.0
 40
1.0
 40
1.0
 40
1.0
 10
7.5823357032
 20
10.718702291
 30
0.0
 10
7.5823357032
 20
10.7201279196
 30
0.0
 10
7.5822405326
 20
10.7229404953
 30
0.0
 10
7.5818191717
 20
10.7270474206
 30
0.0
 10
7.5811445836
 20
10.7309112308
 30
0.0
 10
7.5802507905
 20
10.734449495
 30
0.0
 10
7.5791750417
 20
10.7376114091
 30
0.0
 10
7.577952509
 20
10.7403728635
 30
0.0
 10
7.5766143105
 20
10.7427270102
 30
0.0
 10
7.575607587
 20
10.7441024863
 30
0.0
 10
7.5750902519
 20
10.7447136923
 30
0.0
  0
SPLINE
  5
43C
100
AcDbEntity
  8
0
100
AcDbSpline
 62
7
  6
CONTINUOUS
 70
0
 71
3
 72
15
 73
11
 74
0
 42
0.0000001
 43
0.0000001
 44
0.0000000001
 40
0.0
 40
0.0
 40
0.0
 40
0.0
 40
0.1591640597
 40
0.3135827071
 40
0.4593252182
 40
0.5936441948
 40
0.7150419164
 40
0.8230087499
 40
0.9177667877
 40
1.0
 40
1.0
 40
1.0
 40
1.0
 10
7.5560655927
 20
10.718702291
 30
0.0
 10
7.5560655927
 20
10.7201275581
 30
0.0
 10
7.5559942832
 20
10.7229361473
 30
0.0
 10
7.5556784763
 20
10.7270389226
 30
0.0
 10
7.55517295
 20
10.730898583
 30
0.0
 10
7.5545033279
 20
10.7344327822
 30
0.0
 10
7.5536977114
 20
10.7375906534
 30
0.0
 10
7.5527827421
 20
10.7403481246
 30
0.0
 10
7.5517819518
 20
10.7426986717
 30
0.0
 10
7.5510189333
 20
10.7440922559
 30
0.0
 10
7.5506238844
 20
10.7447136923
 30
0.0
  0
SPLINE
  5
43D
100
AcDbEntity
  8
0
100
AcDbSpline
 62
7
  6
CONTINUOUS
 70
0
 71
3
 72
15
 73
11
 74
0
 42
0.0000001
 43
0.0000001
 44
0.0000000001
 40
0.0
 40
0.0
 40
0.0
 40
0.0
 40
0.1619933105
 40
0.3189189837
 40
0.4665565068
 40
0.6019149013
 40
0.7232943643
 40
0.8300047978
 40
0.9220830334
 40
1.0
 40
1.0
 40
1.0
 40
1.0
 10
7.5258598608
 20
10.718702291
 30
0.0
 10
7.5258598608
 20
10.7201272933
 30
0.0
 10
7.5258129558
 20
10.722932958
 30
0.0
 10
7.5256051907
 20
10.7270326221
 30
0.0
 10
7.5252726624
 20
10.7308890294
 30
0.0
 10
7.524832325
 20
10.7344197865
 30
0.0
 10
7.5243028076
 20
10.7375738354
 30
0.0
 10
7.5237019537
 20
10.7403268212
 30
0.0
 10
7.5230455144
 20
10.7426721965
 30
0.0
 10
7.5225391059
 20
10.7440815009
 30
0.0
 10
7.522274302
 20
10.7447136923
 30
0.0
  0
SPLINE
  5
43E
100
AcDbEntity
  8
0
100
AcDbSpline
 62
7
  6
CONTINUOUS
 70
0
 71
3
 72
14
 73
10
 74
0
 42
0.0000001
 43
0.0000001
 44
0.0000000001
 40
0.0
 40
0.0
 40
0.0
 40
0.0
 40
0.3223105306
 40
0.4711685359
 40
0.6072126262
 40
0.7286107741
 40
0.8345470397
 40
0.9249157592
 40
1.0
 40
1.0
 40
1.0
 40
1.0
 10
7.492009405
 20
10.718702291
 30
0.0
 10
7.492009405
 20
10.7215060657
 30
0.0
 10
7.4919469731
 20
10.725605249
 30
0.0
 10
7.4917321423
 20
10.7308832068
 30
0.0
 10
7.4915242285
 20
10.7344117164
 30
0.0
 10
7.4912743405
 20
10.7375630854
 30
0.0
 10
7.4909910078
 20
10.7403125497
 30
0.0
 10
7.4906817869
 20
10.7426533522
 30
0.0
 10
7.4904413867
 20
10.7440729738
 30
0.0
 10
7.4903145267
 20
10.7447136923
 30
0.0
  0
SPLINE
  5
43F
100
AcDbEntity
  8
0
100
AcDbSpline
 62
7
  6
CONTINUOUS
 70
0
 71
3
 72
14
 73
10
 74
0
 42
0.0000001
 43
0.0000001
 44
0.0000000001
 40
0.0
 40
0.0
 40
0.0
 40
0.0
 40
0.3223106258
 40
0.4711686401
 40
0.6072126942
 40
0.7286108162
 40
0.834547046
 40
0.9249157687
 40
1.0
 40
1.0
 40
1.0
 40
1.0
 10
6.8028012988
 20
10.718702291
 30
0.0
 10
6.8028012988
 20
10.7215060665
 30
0.0
 10
6.8028637308
 20
10.7256052507
 30
0.0
 10
6.8030785616
 20
10.7308832092
 30
0.0
 10
6.8032864755
 20
10.7344117183
 30
0.0
 10
6.8035363634
 20
10.7375630864
 30
0.0
 10
6.8038196961
 20
10.7403125502
 30
0.0
 10
6.8041289169
 20
10.7426533524
 30
0.0
 10
6.8043693171
 20
10.7440729739
 30
0.0
 10
6.8044961771
 20
10.7447136923
 30
0.0
  0
SPLINE
  5
440
100
AcDbEntity
  8
0
100
AcDbSpline
 62
7
  6
CONTINUOUS
 70
0
 71
3
 72
15
 73
11
 74
0
 42
0.0000001
 43
0.0000001
 44
0.0000000001
 40
0.0
 40
0.0
 40
0.0
 40
0.0
 40
0.1619933576
 40
0.318919078
 40
0.4665566103
 40
0.6019149692
 40
0.7232944064
 40
0.8300048044
 40
0.922083043
 40
1.0
 40
1.0
 40
1.0
 40
1.0
 10
6.7689508431
 20
10.718702291
 30
0.0
 10
6.7689508431
 20
10.7201272937
 30
0.0
 10
6.7689977481
 20
10.7229329593
 30
0.0
 10
6.7692055133
 20
10.7270326243
 30
0.0
 10
6.7695380416
 20
10.7308890317
 30
0.0
 10
6.7699783792
 20
10.7344197884
 30
0.0
 10
6.7705078963
 20
10.7375738364
 30
0.0
 10
6.7711087503
 20
10.7403268217
 30
0.0
 10
6.7717651894
 20
10.7426721966
 30
0.0
 10
6.772271598
 20
10.744081501
 30
0.0
 10
6.7725364018
 20
10.7447136923
 30
0.0
  0
SPLINE
  5
441
100
AcDbEntity
  8
0
100
AcDbSpline
 62
7
  6
CONTINUOUS
 70
0
 71
3
 72
15
 73
11
 74
0
 42
0.0000001
 43
0.0000001
 44
0.0000000001
 40
0.0
 40
0.0
 40
0.0
 40
0.0
 40
0.159164106
 40
0.3135828
 40
0.4593253205
 40
0.5936442624
 40
0.7150419586
 40
0.8230087568
 40
0.9177667976
 40
1.0
 40
1.0
 40
1.0
 40
1.0
 10
6.7387451111
 20
10.718702291
 30
0.0
 10
6.7387451111
 20
10.7201275585
 30
0.0
 10
6.7388164207
 20
10.7229361486
 30
0.0
 10
6.7391322278
 20
10.7270389248
 30
0.0
 10
6.7396377542
 20
10.7308985853
 30
0.0
 10
6.7403073764
 20
10.734432784
 30
0.0
 10
6.7411129927
 20
10.7375906544
 30
0.0
 10
6.742027962
 20
10.7403481251
 30
0.0
 10
6.7430287521
 20
10.7426986719
 30
0.0
 10
6.7437917706
 20
10.744092256
 30
0.0
 10
6.7441868194
 20
10.7447136923
 30
0.0
  0
SPLINE
  5
442
100
AcDbEntity
  8
0
100
AcDbSpline
 62
7
  6
CONTINUOUS
 70
0
 71
3
 72
15
 73
11
 74
0
 42
0.0000001
 43
0.0000001
 44
0.0000000001
 40
0.0
 40
0.0
 40
0.0
 40
0.0
 40
0.1556265205
 40
0.3069243741
 40
0.4503345468
 40
0.5834151466
 40
0.7049094254
 40
0.8145025504
 40
0.9125868796
 40
1.0
 40
1.0
 40
1.0
 40
1.0
 10
6.7124750007
 20
10.718702291
 30
0.0
 10
6.7124750007
 20
10.72012792
 30
0.0
 10
6.7125701712
 20
10.7229404965
 30
0.0
 10
6.7129915324
 20
10.7270474227
 30
0.0
 10
6.7136661206
 20
10.7309112332
 30
0.0
 10
6.714559914
 20
10.7344494968
 30
0.0
 10
6.7156356624
 20
10.7376114101
 30
0.0
 10
6.7168581952
 20
10.7403728639
 30
0.0
 10
6.7181963934
 20
10.7427270103
 30
0.0
 10
6.7192031169
 20
10.7441024864
 30
0.0
 10
6.7197204519
 20
10.7447136923
 30
0.0
  0
SPLINE
  5
443
100
AcDbEntity
  8
0
100
AcDbSpline
 62
7
  6
CONTINUOUS
 70
0
 71
3
 72
14
 73
10
 74
0
 42
0.0000001
 43
0.0000001
 44
0.0000000001
 40
0.0
 40
0.0
 40
0.0
 40
0.0
 40
0.1517560177
 40
0.2996629037
 40
0.4405848011
 40
0.5724174832
 40
0.6941532846
 40
0.8056527407
 40
1.0
 40
1.0
 40
1.0
 40
1.0
 10
6.6903935073
 20
10.718702291
 30
0.0
 10
6.6903935073
 20
10.7201283644
 30
0.0
 10
6.6905118003
 20
10.7229458355
 30
0.0
 10
6.6910352939
 20
10.727057683
 30
0.0
 10
6.6918735477
 20
10.7309262476
 30
0.0
 10
6.6929840428
 20
10.7344683163
 30
0.0
 10
6.6943217994
 20
10.7376347164
 30
0.0
 10
6.6962587048
 20
10.7411582494
 30
0.0
 10
6.6980510356
 20
10.7434535265
 30
0.0
 10
6.6993729238
 20
10.7447136923
 30
0.0
  0
SPLINE
  5
444
100
AcDbEntity
  8
0
100
AcDbSpline
 62
7
  6
CONTINUOUS
 70
0
 71
3
 72
14
 73
10
 74
0
 42
0.0000001
 43
0.0000001
 44
0.0000000001
 40
0.0
 40
0.0
 40
0.0
 40
0.0
 40
0.2917135755
 40
0.4300698065
 40
0.560648702
 40
0.6826769913
 40
0.7961511126
 40
0.9016347007
 40
1.0
 40
1.0
 40
1.0
 40
1.0
 10
6.6727132878
 20
10.718702291
 30
0.0
 10
6.6727132878
 20
10.7215197068
 30
0.0
 10
6.6731209369
 20
10.7256909879
 30
0.0
 10
6.6744697097
 20
10.7309421351
 30
0.0
 10
6.6757878796
 20
10.7344887261
 30
0.0
 10
6.677374399
 20
10.7376563909
 30
0.0
 10
6.6791774671
 20
10.7404213323
 30
0.0
 10
6.6811507026
 20
10.7427758378
 30
0.0
 10
6.682600341
 20
10.7441177296
 30
0.0
 10
6.6833401929
 20
10.7447136923
 30
0.0
  0
SPLINE
  5
445
100
AcDbEntity
  8
0
100
AcDbSpline
 62
7
  6
CONTINUOUS
 70
0
 71
3
 72
14
 73
10
 74
0
 42
0.0000001
 43
0.0000001
 44
0.0000000001
 40
0.0
 40
0.0
 40
0.0
 40
0.0
 40
0.2842456934
 40
0.4201584268
 40
0.5496037682
 40
0.6720127449
 40
0.7874715263
 40
0.8965390279
 40
1.0
 40
1.0
 40
1.0
 40
1.0
 10
6.6596046124
 20
10.718702291
 30
0.0
 10
6.6596046124
 20
10.7215240588
 30
0.0
 10
6.660077303
 20
10.7257173902
 30
0.0
 10
6.6616223767
 20
10.7309589537
 30
0.0
 10
6.663136023
 20
10.734508709
 30
0.0
 10
6.6649572349
 20
10.7376775491
 30
0.0
 10
6.6670260752
 20
10.7404419595
 30
0.0
 10
6.6692889034
 20
10.7427942864
 30
0.0
 10
6.6709365367
 20
10.744122863
 30
0.0
 10
6.6717766631
 20
10.7447136923
 30
0.0
  0
SPLINE
  5
446
100
AcDbEntity
  8
0
100
AcDbSpline
 62
7
  6
CONTINUOUS
 70
0
 71
3
 72
15
 73
11
 74
0
 42
0.0000001
 43
0.0000001
 44
0.0000000001
 40
0.0
 40
0.0
 40
0.0
 40
0.0
 40
0.1399654142
 40
0.2776415348
 40
0.4112279049
 40
0.539604965
 40
0.6623716143
 40
0.7796606744
 40
0.8919828321
 40
1.0
 40
1.0
 40
1.0
 40
1.0
 10
6.6511937248
 20
10.718702291
 30
0.0
 10
6.6511937248
 20
10.720130011
 30
0.0
 10
6.6513748118
 20
10.7229654836
 30
0.0
 10
6.6521747717
 20
10.7270942845
 30
0.0
 10
6.6534548656
 20
10.7309763394
 30
0.0
 10
6.6551498207
 20
10.7345275002
 30
0.0
 10
6.6571882414
 20
10.7376966761
 30
0.0
 10
6.6595024336
 20
10.7404594943
 30
0.0
 10
6.6620321245
 20
10.7428090298
 30
0.0
 10
6.6638612053
 20
10.7441267596
 30
0.0
 10
6.6647936977
 20
10.7447136923
 30
0.0
  0
SPLINE
  5
447
100
AcDbEntity
  8
0
100
AcDbSpline
 62
7
  6
CONTINUOUS
 70
0
 71
3
 72
15
 73
11
 74
0
 42
0.0000001
 43
0.0000001
 44
0.0000000001
 40
0.0
 40
0.0
 40
0.0
 40
0.0
 40
0.1341549341
 40
0.2670377946
 40
0.397574095
 40
0.5250125044
 40
0.6489541062
 40
0.7693140181
 40
0.8862287745
 40
1.0
 40
1.0
 40
1.0
 40
1.0
 10
6.6475616263
 20
10.718702291
 30
0.0
 10
6.6475616263
 20
10.7199075572
 30
0.0
 10
6.6477035675
 20
10.7223090888
 30
0.0
 10
6.6483333154
 20
10.7258329429
 30
0.0
 10
6.6493516699
 20
10.7292019107
 30
0.0
 10
6.6507181651
 20
10.7323573669
 30
0.0
 10
6.6523861883
 20
10.735258805
 30
0.0
 10
6.6543086286
 20
10.737881458
 30
0.0
 10
6.6564408964
 20
10.7402130803
 30
0.0
 10
6.6579965217
 20
10.7415892138
 30
0.0
 10
6.6587963768
 20
10.7422256053
 30
0.0
  0
SPLINE
  5
448
100
AcDbEntity
  8
0
100
AcDbSpline
 62
7
  6
CONTINUOUS
 70
0
 71
3
 72
14
 73
10
 74
0
 42
0.0000001
 43
0.0000001
 44
0.0000000001
 40
0.0
 40
0.0
 40
0.0
 40
0.0
 40
0.3223105111
 40
0.4711685325
 40
0.6072126246
 40
0.728610773
 40
0.8345470386
 40
0.9249157592
 40
1.0
 40
1.0
 40
1.0
 40
1.0
 10
6.8028012988
 20
9.968702291
 30
0.0
 10
6.8028012988
 20
9.9658985165
 30
0.0
 10
6.8028637308
 20
9.9617993332
 30
0.0
 10
6.8030785615
 20
9.9565213754
 30
0.0
 10
6.8032864753
 20
9.9529928656
 30
0.0
 10
6.8035363634
 20
9.9498414966
 30
0.0
 10
6.803819696
 20
9.9470920323
 30
0.0
 10
6.8041289169
 20
9.9447512298
 30
0.0
 10
6.8043693171
 20
9.9433316082
 30
0.0
 10
6.8044961771
 20
9.9426908896
 30
0.0
  0
SPLINE
  5
449
100
AcDbEntity
  8
0
100
AcDbSpline
 62
7
  6
CONTINUOUS
 70
0
 71
3
 72
15
 73
11
 74
0
 42
0.0000001
 43
0.0000001
 44
0.0000000001
 40
0.0
 40
0.0
 40
0.0
 40
0.0
 40
0.1619932867
 40
0.3189189644
 40
0.4665565034
 40
0.6019148997
 40
0.7232943632
 40
0.8300047967
 40
0.9220830333
 40
1.0
 40
1.0
 40
1.0
 40
1.0
 10
6.7689508431
 20
9.968702291
 30
0.0
 10
6.7689508431
 20
9.9672772889
 30
0.0
 10
6.768997748
 20
9.9644716243
 30
0.0
 10
6.7692055131
 20
9.9603719603
 30
0.0
 10
6.7695380414
 20
9.9565155528
 30
0.0
 10
6.7699783789
 20
9.9529847955
 30
0.0
 10
6.7705078962
 20
9.9498307467
 30
0.0
 10
6.7711087501
 20
9.9470777608
 30
0.0
 10
6.7717651894
 20
9.9447323855
 30
0.0
 10
6.772271598
 20
9.943323081
 30
0.0
 10
6.7725364018
 20
9.9426908896
 30
0.0
  0
SPLINE
  5
44A
100
AcDbEntity
  8
0
100
AcDbSpline
 62
7
  6
CONTINUOUS
 70
0
 71
3
 72
15
 73
11
 74
0
 42
0.0000001
 43
0.0000001
 44
0.0000000001
 40
0.0
 40
0.0
 40
0.0
 40
0.0
 40
0.1591640364
 40
0.3135826881
 40
0.4593252149
 40
0.5936441932
 40
0.7150419154
 40
0.8230087488
 40
0.9177667876
 40
1.0
 40
1.0
 40
1.0
 40
1.0
 10
6.7387451111
 20
9.968702291
 30
0.0
 10
6.7387451111
 20
9.9672770241
 30
0.0
 10
6.7388164207
 20
9.964468435
 30
0.0
 10
6.7391322275
 20
9.9603656598
 30
0.0
 10
6.7396377538
 20
9.9565059992
 30
0.0
 10
6.7403073759
 20
9.9529717999
 30
0.0
 10
6.7411129925
 20
9.9498139286
 30
0.0
 10
6.7420279618
 20
9.9470564574
 30
0.0
 10
6.743028752
 20
9.9447059103
 30
0.0
 10
6.7437917706
 20
9.943312326
 30
0.0
 10
6.7441868194
 20
9.9426908896
 30
0.0
  0
SPLINE
  5
44B
100
AcDbEntity
  8
0
100
AcDbSpline
 62
7
  6
CONTINUOUS
 70
0
 71
3
 72
15
 73
11
 74
0
 42
0.0000001
 43
0.0000001
 44
0.0000000001
 40
0.0
 40
0.0
 40
0.0
 40
0.0
 40
0.1556264524
 40
0.3069242643
 40
0.4503344427
 40
0.5834150776
 40
0.704909382
 40
0.8145025419
 40
0.9125868693
 40
1.0
 40
1.0
 40
1.0
 40
1.0
 10
6.7124750007
 20
9.968702291
 30
0.0
 10
6.7124750007
 20
9.9672766626
 30
0.0
 10
6.7125701712
 20
9.9644640871
 30
0.0
 10
6.7129915321
 20
9.9603571618
 30
0.0
 10
6.7136661201
 20
9.9564933514
 30
0.0
 10
6.7145599133
 20
9.952955087
 30
0.0
 10
6.7156356621
 20
9.9497931729
 30
0.0
 10
6.7168581949
 20
9.9470317185
 30
0.0
 10
6.7181963934
 20
9.9446775718
 30
0.0
 10
6.7192031168
 20
9.9433020957
 30
0.0
 10
6.7197204519
 20
9.9426908896
 30
0.0
  0
SPLINE
  5
44C
100
AcDbEntity
  8
0
100
AcDbSpline
 62
7
  6
CONTINUOUS
 70
0
 71
3
 72
14
 73
10
 74
0
 42
0.0000001
 43
0.0000001
 44
0.0000000001
 40
0.0
 40
0.0
 40
0.0
 40
0.0
 40
0.1517559513
 40
0.2996627961
 40
0.4405846987
 40
0.5724174144
 40
0.694153241
 40
0.8056527316
 40
1.0
 40
1.0
 40
1.0
 40
1.0
 10
6.6903935073
 20
9.968702291
 30
0.0
 10
6.6903935073
 20
9.9672762182
 30
0.0
 10
6.6905118002
 20
9.9644587482
 30
0.0
 10
6.6910352934
 20
9.9603469015
 30
0.0
 10
6.6918735471
 20
9.956478337
 30
0.0
 10
6.692984042
 20
9.9529362676
 30
0.0
 10
6.694321799
 20
9.9497698666
 30
0.0
 10
6.6962587044
 20
9.9462463329
 30
0.0
 10
6.6980510356
 20
9.9439510556
 30
0.0
 10
6.6993729238
 20
9.9426908896
 30
0.0
  0
SPLINE
  5
44D
100
AcDbEntity
  8
0
100
AcDbSpline
 62
7
  6
CONTINUOUS
 70
0
 71
3
 72
14
 73
10
 74
0
 42
0.0000001
 43
0.0000001
 44
0.0000000001
 40
0.0
 40
0.0
 40
0.0
 40
0.0
 40
0.2917134707
 40
0.4300697061
 40
0.5606486336
 40
0.6826769478
 40
0.7961511033
 40
0.9016346897
 40
1.0
 40
1.0
 40
1.0
 40
1.0
 10
6.6727132878
 20
9.968702291
 30
0.0
 10
6.6727132878
 20
9.9658848762
 30
0.0
 10
6.6731209366
 20
9.9617135961
 30
0.0
 10
6.674469709
 20
9.9564624494
 30
0.0
 10
6.6757878787
 20
9.9529158577
 30
0.0
 10
6.6773743985
 20
9.9497481922
 30
0.0
 10
6.6791774667
 20
9.9469832501
 30
0.0
 10
6.6811507025
 20
9.9446287444
 30
0.0
 10
6.6826003409
 20
9.9432868525
 30
0.0
 10
6.6833401929
 20
9.9426908896
 30
0.0
  0
SPLINE
  5
44E
100
AcDbEntity
  8
0
100
AcDbSpline
 62
7
  6
CONTINUOUS
 70
0
 71
3
 72
14
 73
10
 74
0
 42
0.0000001
 43
0.0000001
 44
0.0000000001
 40
0.0
 40
0.0
 40
0.0
 40
0.0
 40
0.284245591
 40
0.420158328
 40
0.5496037
 40
0.6720127012
 40
0.7874715166
 40
0.8965390165
 40
1.0
 40
1.0
 40
1.0
 40
1.0
 10
6.6596046124
 20
9.968702291
 30
0.0
 10
6.6596046124
 20
9.9658805242
 30
0.0
 10
6.6600773027
 20
9.9616871938
 30
0.0
 10
6.661622376
 20
9.9564456309
 30
0.0
 10
6.6631360219
 20
9.9528958748
 30
0.0
 10
6.6649572343
 20
9.9497270339
 30
0.0
 10
6.6670260746
 20
9.9469626229
 30
0.0
 10
6.6692889033
 20
9.9446102958
 30
0.0
 10
6.6709365366
 20
9.943281719
 30
0.0
 10
6.6717766631
 20
9.9426908896
 30
0.0
  0
SPLINE
  5
44F
100
AcDbEntity
  8
0
100
AcDbSpline
 62
7
  6
CONTINUOUS
 70
0
 71
3
 72
15
 73
11
 74
0
 42
0.0000001
 43
0.0000001
 44
0.0000000001
 40
0.0
 40
0.0
 40
0.0
 40
0.0
 40
0.1399653529
 40
0.2776414341
 40
0.4112278072
 40
0.5396048966
 40
0.6623715703
 40
0.7796606641
 40
0.8919828203
 40
1.0
 40
1.0
 40
1.0
 40
1.0
 10
6.6511937248
 20
9.968702291
 30
0.0
 10
6.6511937248
 20
9.9672745716
 30
0.0
 10
6.6513748118
 20
9.9644391001
 30
0.0
 10
6.652174771
 20
9.9603103001
 30
0.0
 10
6.6534548647
 20
9.9564282452
 30
0.0
 10
6.6551498195
 20
9.9528770836
 30
0.0
 10
6.6571882408
 20
9.949707907
 30
0.0
 10
6.659502433
 20
9.946945088
 30
0.0
 10
6.6620321244
 20
9.9445955524
 30
0.0
 10
6.6638612052
 20
9.9432778225
 30
0.0
 10
6.6647936977
 20
9.9426908896
 30
0.0
  0
SPLINE
  5
450
100
AcDbEntity
  8
0
100
AcDbSpline
 62
7
  6
CONTINUOUS
 70
0
 71
3
 72
15
 73
11
 74
0
 42
0.0000001
 43
0.0000001
 44
0.0000000001
 40
0.0
 40
0.0
 40
0.0
 40
0.0
 40
0.1368005486
 40
0.2709828926
 40
0.4017101986
 40
0.5285793684
 40
0.6515514846
 40
0.7708394495
 40
0.8868509669
 40
1.0
 40
1.0
 40
1.0
 40
1.0
 10
6.6477738575
 20
9.9651039139
 30
0.0
 10
6.6479227413
 20
9.9638461164
 30
0.0
 10
6.6483733644
 20
9.9613701611
 30
0.0
 10
6.6494887893
 20
9.9578127372
 30
0.0
 10
6.6509906429
 20
9.9545010985
 30
0.0
 10
6.6528227242
 20
9.9514817229
 30
0.0
 10
6.6549291252
 20
9.9487807783
 30
0.0
 10
6.6572584988
 20
9.9464092355
 30
0.0
 10
6.6597655333
 20
9.9443689603
 30
0.0
 10
6.6615502289
 20
9.9432128316
 30
0.0
 10
6.6624585463
 20
9.9426908896
 30
0.0
  0
SPLINE
  5
451
100
AcDbEntity
  8
0
100
AcDbSpline
 62
7
  6
CONTINUOUS
 70
0
 71
3
 72
15
 73
11
 74
0
 42
0.0000001
 43
0.0000001
 44
0.0000000001
 40
0.0
 40
0.0
 40
0.0
 40
0.0
 40
0.1335638007
 40
0.2657711748
 40
0.3955857929
 40
0.5223898637
 40
0.6460097201
 40
0.7665781496
 40
0.8844442938
 40
1.0
 40
1.0
 40
1.0
 40
1.0
 10
7.6460674076
 20
10.718702291
 30
0.0
 10
7.6460674076
 20
10.7201311566
 30
0.0
 10
7.6458520974
 20
10.7229790567
 30
0.0
 10
7.644902518
 20
10.7271183878
 30
0.0
 10
7.643384563
 20
10.7310070016
 30
0.0
 10
7.6413771749
 20
10.7345600976
 30
0.0
 10
7.6389660761
 20
10.7377274411
 30
0.0
 10
7.6362319822
 20
10.7404858514
 30
0.0
 10
7.6332461499
 20
10.7428296937
 30
0.0
 10
7.6311077861
 20
10.7441319478
 30
0.0
 10
7.6300170062
 20
10.7447136923
 30
0.0
  0
SPLINE
  5
452
100
AcDbEntity
  8
0
100
AcDbSpline
 62
7
  6
CONTINUOUS
 70
0
 71
3
 72
15
 73
11
 74
0
 42
0.0000001
 43
0.0000001
 44
0.0000000001
 40
0.0
 40
0.0
 40
0.0
 40
0.0
 40
0.1304763644
 40
0.2600689484
 40
0.3881174343
 40
0.5142326804
 40
0.6383218871
 40
0.7604841866
 40
0.8809621788
 40
1.0
 40
1.0
 40
1.0
 40
1.0
 10
7.3502357586
 20
10.718702291
 30
0.0
 10
7.3502357586
 20
10.7201317857
 30
0.0
 10
7.3500034206
 20
10.7229864742
 30
0.0
 10
7.3489797908
 20
10.7271311757
 30
0.0
 10
7.3473446728
 20
10.7310225552
 30
0.0
 10
7.3451841164
 20
10.7345757384
 30
0.0
 10
7.3425909423
 20
10.7377413325
 30
0.0
 10
7.3396520573
 20
10.7404970445
 30
0.0
 10
7.3364438178
 20
10.7428379764
 30
0.0
 10
7.3341546913
 20
10.7441339454
 30
0.0
 10
7.33298646
 20
10.7447136923
 30
0.0
  0
SPLINE
  5
453
100
AcDbEntity
  8
0
100
AcDbSpline
 62
7
  6
CONTINUOUS
 70
0
 71
3
 72
15
 73
11
 74
0
 42
0.0000001
 43
0.0000001
 44
0.0000000001
 40
0.0
 40
0.0
 40
0.0
 40
0.0
 40
0.1329534601
 40
0.2646427187
 40
0.3941054256
 40
0.5207697591
 40
0.6444795603
 40
0.7653626224
 40
0.8837483239
 40
1.0
 40
1.0
 40
1.0
 40
1.0
 10
7.3044640807
 20
10.718702291
 30
0.0
 10
7.3044640807
 20
10.7201312767
 30
0.0
 10
7.3042454385
 20
10.722980475
 30
0.0
 10
7.3032813459
 20
10.7271208537
 30
0.0
 10
7.3017403952
 20
10.7310100382
 30
0.0
 10
7.2997029044
 20
10.7345631968
 30
0.0
 10
7.297255991
 20
10.7377302365
 30
0.0
 10
7.2944816004
 20
10.7404881376
 30
0.0
 10
7.2914520067
 20
10.7428314082
 30
0.0
 10
7.2892839832
 20
10.744132365
 30
0.0
 10
7.2881779789
 20
10.7447136923
 30
0.0
  0
SPLINE
  5
454
100
AcDbEntity
  8
0
100
AcDbSpline
 62
7
  6
CONTINUOUS
 70
0
 71
3
 72
15
 73
11
 74
0
 42
0.0000001
 43
0.0000001
 44
0.0000000001
 40
0.0
 40
0.0
 40
0.0
 40
0.0
 40
0.135865191
 40
0.2700314393
 40
0.4011851457
 40
0.52853205
 40
0.6518258299
 40
0.7712104831
 40
0.8871033281
 40
1.0
 40
1.0
 40
1.0
 40
1.0
 10
7.2571798413
 20
10.718702291
 30
0.0
 10
7.2571798413
 20
10.7201307214
 30
0.0
 10
7.2569769676
 20
10.7229739107
 30
0.0
 10
7.2560816478
 20
10.7271093578
 30
0.0
 10
7.2546497963
 20
10.7309957252
 30
0.0
 10
7.2527552888
 20
10.7345483897
 30
0.0
 10
7.2504786316
 20
10.7377166829
 30
0.0
 10
7.2478958801
 20
10.7404768887
 30
0.0
 10
7.2450744101
 20
10.7428228557
 30
0.0
 10
7.2430474435
 20
10.7441302643
 30
0.0
 10
7.2420137804
 20
10.7447136923
 30
0.0
  0
SPLINE
  5
455
100
AcDbEntity
  8
0
100
AcDbSpline
 62
7
  6
CONTINUOUS
 70
0
 71
3
 72
15
 73
11
 74
0
 42
0.0000001
 43
0.0000001
 44
0.0000000001
 40
0.0
 40
0.0
 40
0.0
 40
0.0
 40
0.1391793004
 40
0.2761805648
 40
0.4092959297
 40
0.5374691771
 40
0.660331337
 40
0.7780205638
 40
0.8910327034
 40
1.0
 40
1.0
 40
1.0
 40
1.0
 10
7.2088384136
 20
10.718702291
 30
0.0
 10
7.2088384136
 20
10.7201301411
 30
0.0
 10
7.2086531755
 20
10.7229670295
 30
0.0
 10
7.2078350196
 20
10.7270970765
 30
0.0
 10
7.2065259304
 20
10.7309799845
 30
0.0
 10
7.2047927932
 20
10.7345315038
 30
0.0
 10
7.2027087315
 20
10.737700594
 30
0.0
 10
7.2003430464
 20
10.7404629779
 30
0.0
 10
7.1977573913
 20
10.7428118595
 30
0.0
 10
7.1958903292
 20
10.7441274882
 30
0.0
 10
7.194938451
 20
10.7447136923
 30
0.0
  0
SPLINE
  5
456
100
AcDbEntity
  8
0
100
AcDbSpline
 62
7
  6
CONTINUOUS
 70
0
 71
3
 72
15
 73
11
 74
0
 42
0.0000001
 43
0.0000001
 44
0.0000000001
 40
0.0
 40
0.0
 40
0.0
 40
0.0
 40
0.1428403861
 40
0.2829921566
 40
0.4183194412
 40
0.5474676249
 40
0.6699085123
 40
0.7857420812
 40
0.8955194677
 40
1.0
 40
1.0
 40
1.0
 40
1.0
 10
7.1599053519
 20
10.718702291
 30
0.0
 10
7.1599053519
 20
10.7201295581
 30
0.0
 10
7.1597394006
 20
10.7229600943
 30
0.0
 10
7.1590058856
 20
10.7270844552
 30
0.0
 10
7.1578317957
 20
10.7309633053
 30
0.0
 10
7.1562766293
 20
10.7345128867
 30
0.0
 10
7.154405531
 20
10.7376820244
 30
0.0
 10
7.1522803134
 20
10.7404461173
 30
0.0
 10
7.1499561252
 20
10.7427978657
 30
0.0
 10
7.1482667097
 20
10.7441238245
 30
0.0
 10
7.1474053519
 20
10.7447136923
 30
0.0
  0
SPLINE
  5
457
100
AcDbEntity
  8
0
100
AcDbSpline
 62
7
  6
CONTINUOUS
 70
0
 71
3
 72
15
 73
11
 74
0
 42
0.0000001
 43
0.0000001
 44
0.0000000001
 40
0.0
 40
0.0
 40
0.0
 40
0.0
 40
0.1309881559
 40
0.2610131285
 40
0.3893519846
 40
0.5155783516
 40
0.6395873304
 40
0.7614850714
 40
0.8815328847
 40
1.0
 40
1.0
 40
1.0
 40
1.0
 10
7.6400833495
 20
9.968702291
 30
0.0
 10
7.6400833495
 20
9.967272905
 30
0.0
 10
7.639853866
 20
9.9644193819
 30
0.0
 10
7.6388426292
 20
9.9602755835
 30
0.0
 10
7.6372270884
 20
9.9563846408
 30
0.0
 10
7.6350920898
 20
9.9528314313
 30
0.0
 10
7.6325292694
 20
9.9496655105
 30
0.0
 10
7.6296245148
 20
9.9469093305
 30
0.0
 10
7.6264533435
 20
9.9445679137
 30
0.0
 10
7.6241893499
 20
9.9432709492
 30
0.0
 10
7.6230340407
 20
9.9426908896
 30
0.0
  0
SPLINE
  5
458
100
AcDbEntity
  8
0
100
AcDbSpline
 62
7
  6
CONTINUOUS
 70
0
 71
3
 72
15
 73
11
 74
0
 42
0.0000001
 43
0.0000001
 44
0.0000000001
 40
0.0
 40
0.0
 40
0.0
 40
0.0
 40
0.1288614822
 40
0.2570926069
 40
0.3842314049
 40
0.5100042101
 40
0.6343527692
 40
0.757350531
 40
0.8791782818
 40
1.0
 40
1.0
 40
1.0
 40
1.0
 10
7.629354533
 20
9.968702291
 30
0.0
 10
7.629354533
 20
9.9672724457
 30
0.0
 10
7.6291130974
 20
9.964413979
 30
0.0
 10
7.6280500314
 20
9.9602664023
 30
0.0
 10
7.6263526989
 20
9.9563737081
 30
0.0
 10
7.6241110189
 20
9.9528207099
 30
0.0
 10
7.6214215596
 20
9.949656233
 30
0.0
 10
7.6183744339
 20
9.9469020391
 30
0.0
 10
7.6150486235
 20
9.9445626373
 30
0.0
 10
7.6126797627
 20
9.9432696951
 30
0.0
 10
7.611470511
 20
9.9426908896
 30
0.0
  0
SPLINE
  5
459
100
AcDbEntity
  8
0
100
AcDbSpline
 62
7
  6
CONTINUOUS
 70
0
 71
3
 72
15
 73
11
 74
0
 42
0.0000001
 43
0.0000001
 44
0.0000000001
 40
0.0
 40
0.0
 40
0.0
 40
0.0
 40
0.1309882134
 40
0.2610132242
 40
0.389352079
 40
0.51557842
 40
0.6395873751
 40
0.7614850827
 40
0.8815328974
 40
1.0
 40
1.0
 40
1.0
 40
1.0
 10
7.6400833495
 20
10.718702291
 30
0.0
 10
7.6400833495
 20
10.7201316776
 30
0.0
 10
7.6398538659
 20
10.7229852018
 30
0.0
 10
7.6388426284
 20
10.727129001
 30
0.0
 10
7.6372270873
 20
10.7310199438
 30
0.0
 10
7.6350920883
 20
10.7345731524
 30
0.0
 10
7.6325292686
 20
10.7377390726
 30
0.0
 10
7.6296245141
 20
10.7404952518
 30
0.0
 10
7.6264533433
 20
10.7428366684
 30
0.0
 10
7.6241893498
 20
10.7441336329
 30
0.0
 10
7.6230340407
 20
10.7447136923
 30
0.0
  0
SPLINE
  5
45A
100
AcDbEntity
  8
0
100
AcDbSpline
 62
7
  6
CONTINUOUS
 70
0
 71
3
 72
15
 73
11
 74
0
 42
0.0000001
 43
0.0000001
 44
0.0000000001
 40
0.0
 40
0.0
 40
0.0
 40
0.0
 40
0.127193171
 40
0.2540223883
 40
0.3802316495
 40
0.5056633755
 40
0.630289383
 40
0.7541510118
 40
0.8773613836
 40
1.0
 40
1.0
 40
1.0
 40
1.0
 10
7.6139842823
 20
9.968702291
 30
0.0
 10
7.6139842823
 20
9.9672720656
 30
0.0
 10
7.6137332871
 20
9.9644095189
 30
0.0
 10
7.6126288851
 20
9.9602589275
 30
0.0
 10
7.6108664916
 20
9.9563649825
 30
0.0
 10
7.6085401352
 20
9.952812347
 30
0.0
 10
7.6057502746
 20
9.9496491619
 30
0.0
 10
7.6025903063
 20
9.9468966002
 30
0.0
 10
7.5991419019
 20
9.9445587747
 30
0.0
 10
7.5966898609
 20
9.943268788
 30
0.0
 10
7.59543778
 20
9.9426908896
 30
0.0
  0
SPLINE
  5
45B
100
AcDbEntity
  8
0
100
AcDbSpline
 62
7
  6
CONTINUOUS
 70
0
 71
3
 72
15
 73
11
 74
0
 42
0.0000001
 43
0.0000001
 44
0.0000000001
 40
0.0
 40
0.0
 40
0.0
 40
0.0
 40
0.1288615387
 40
0.2570927014
 40
0.3842314985
 40
0.5100042785
 40
0.634352814
 40
0.7573505425
 40
0.8791782947
 40
1.0
 40
1.0
 40
1.0
 40
1.0
 10
7.629354533
 20
10.718702291
 30
0.0
 10
7.629354533
 20
10.720132137
 30
0.0
 10
7.6291130973
 20
10.7229906047
 30
0.0
 10
7.6280500305
 20
10.7271381822
 30
0.0
 10
7.6263526977
 20
10.7310308765
 30
0.0
 10
7.6241110174
 20
10.7345838739
 30
0.0
 10
7.6214215587
 20
10.7377483501
 30
0.0
 10
7.6183744332
 20
10.7405025432
 30
0.0
 10
7.6150486233
 20
10.7428419449
 30
0.0
 10
7.6126797625
 20
10.7441348869
 30
0.0
 10
7.611470511
 20
10.7447136923
 30
0.0
  0
SPLINE
  5
45C
100
AcDbEntity
  8
0
100
AcDbSpline
 62
7
  6
CONTINUOUS
 70
0
 71
3
 72
15
 73
11
 74
0
 42
0.0000001
 43
0.0000001
 44
0.0000000001
 40
0.0
 40
0.0
 40
0.0
 40
0.0
 40
0.1259867009
 40
0.2518050849
 40
0.3773487134
 40
0.5025417907
 40
0.6273742763
 40
0.7518608929
 40
0.8760636041
 40
1.0
 40
1.0
 40
1.0
 40
1.0
 10
7.5941206216
 20
9.968702291
 30
0.0
 10
7.5941206216
 20
9.9672717793
 30
0.0
 10
7.5938626011
 20
9.964406166
 30
0.0
 10
7.5927278948
 20
9.9602533692
 30
0.0
 10
7.5909179062
 20
9.9563585939
 30
0.0
 10
7.5885297085
 20
9.95280633
 30
0.0
 10
7.5856665809
 20
9.9496441613
 30
0.0
 10
7.5824242767
 20
9.9468928139
 30
0.0
 10
7.5788864014
 20
9.9445561218
 30
0.0
 10
7.5763736255
 20
9.9432681703
 30
0.0
 10
7.5750902519
 20
9.9426908896
 30
0.0
  0
SPLINE
  5
45D
100
AcDbEntity
  8
0
100
AcDbSpline
 62
7
  6
CONTINUOUS
 70
0
 71
3
 72
14
 73
10
 74
0
 42
0.0000001
 43
0.0000001
 44
0.0000000001
 40
0.0
 40
0.0
 40
0.0
 40
0.0
 40
0.1252894417
 40
0.2505324773
 40
0.37571514
 40
0.5008111156
 40
0.6258200378
 40
0.7507388337
 40
1.0
 40
1.0
 40
1.0
 40
1.0
 10
7.5699548486
 20
9.968702291
 30
0.0
 10
7.5699548486
 20
9.9672715978
 30
0.0
 10
7.5696924425
 20
9.9644040413
 30
0.0
 10
7.5685388733
 20
9.9602498812
 30
0.0
 10
7.5666992449
 20
9.9563546036
 30
0.0
 10
7.5642727917
 20
9.9528027012
 30
0.0
 10
7.5613635902
 20
9.949640871
 30
0.0
 10
7.5569798981
 20
9.9459788762
 30
0.0
 10
7.5532264684
 20
9.9438433669
 30
0.0
 10
7.5506238844
 20
9.9426908896
 30
0.0
  0
SPLINE
  5
45E
100
AcDbEntity
  8
0
100
AcDbSpline
 62
7
  6
CONTINUOUS
 70
0
 71
3
 72
14
 73
10
 74
0
 42
0.0000001
 43
0.0000001
 44
0.0000000001
 40
0.0
 40
0.0
 40
0.0
 40
0.0
 40
0.1250070364
 40
0.2500141701
 40
0.3750425548
 40
0.5000844541
 40
0.6251428678
 40
0.7502077038
 40
1.0
 40
1.0
 40
1.0
 40
1.0
 10
7.5417196929
 20
9.968702291
 30
0.0
 10
7.5417196929
 20
9.967271528
 30
0.0
 10
7.5414556145
 20
9.964403225
 30
0.0
 10
7.5402948506
 20
9.9602485438
 30
0.0
 10
7.5384439501
 20
9.9563530914
 30
0.0
 10
7.5360028741
 20
9.9528013023
 30
0.0
 10
7.5330763684
 20
9.9496397297
 30
0.0
 10
7.5286653358
 20
9.9459769484
 30
0.0
 10
7.5248909694
 20
9.9438427848
 30
0.0
 10
7.522274302
 20
9.9426908896
 30
0.0
  0
SPLINE
  5
45F
100
AcDbEntity
  8
0
100
AcDbSpline
 62
7
  6
CONTINUOUS
 70
0
 71
3
 72
14
 73
10
 74
0
 42
0.0000001
 43
0.0000001
 44
0.0000000001
 40
0.0
 40
0.0
 40
0.0
 40
0.0
 40
0.1251867405
 40
0.2503439702
 40
0.3754704918
 40
0.5005467596
 40
0.6255736509
 40
0.750545557
 40
1.0
 40
1.0
 40
1.0
 40
1.0
 10
7.5096870746
 20
9.968702291
 30
0.0
 10
7.5096870746
 20
9.9672715725
 30
0.0
 10
7.509424061
 20
9.9644037452
 30
0.0
 10
7.5082678778
 20
9.9602493957
 30
0.0
 10
7.5064241534
 20
9.9563540541
 30
0.0
 10
7.5039923861
 20
9.9528021923
 30
0.0
 10
7.5010768957
 20
9.9496404554
 30
0.0
 10
7.4966832677
 20
9.9459781734
 30
0.0
 10
7.4929222285
 20
9.9438431545
 30
0.0
 10
7.4903145267
 20
9.9426908896
 30
0.0
  0
SPLINE
  5
460
100
AcDbEntity
  8
0
100
AcDbSpline
 62
7
  6
CONTINUOUS
 70
0
 71
3
 72
14
 73
10
 74
0
 42
0.0000001
 43
0.0000001
 44
0.0000000001
 40
0.0
 40
0.0
 40
0.0
 40
0.0
 40
0.1258287601
 40
0.2515226965
 40
0.3770008384
 40
0.5022010955
 40
0.6271162095
 40
0.7517561007
 40
1.0
 40
1.0
 40
1.0
 40
1.0
 10
7.4741654852
 20
9.968702291
 30
0.0
 10
7.4741654852
 20
9.9672717296
 30
0.0
 10
7.4739062567
 20
9.964405583
 30
0.0
 10
7.4727663689
 20
9.9602524155
 30
0.0
 10
7.4709481899
 20
9.9563574819
 30
0.0
 10
7.4685495755
 20
9.9528053775
 30
0.0
 10
7.4656733238
 20
9.9496430647
 30
0.0
 10
7.46134168
 20
9.9459825995
 30
0.0
 10
7.4576281283
 20
9.9438444966
 30
0.0
 10
7.4550523486
 20
9.9426908896
 30
0.0
  0
LINE
  5
461
100
AcDbEntity
  8
0
100
AcDbLine
 62
7
  6
CONTINUOUS
 10
7.4548402239
 20
10.718702291
 11
7.4550523486
 21
10.7447136923
  0
SPLINE
  5
462
100
AcDbEntity
  8
0
100
AcDbSpline
 62
7
  6
CONTINUOUS
 70
0
 71
3
 72
15
 73
11
 74
0
 42
0.0000001
 43
0.0000001
 44
0.0000000001
 40
0.0
 40
0.0
 40
0.0
 40
0.0
 40
0.1268851058
 40
0.2534559724
 40
0.3794947407
 40
0.5048648919
 40
0.6295431636
 40
0.7535643657
 40
0.8770287272
 40
1.0
 40
1.0
 40
1.0
 40
1.0
 10
7.4354970172
 20
9.968702291
 30
0.0
 10
7.4354970172
 20
9.9672719934
 30
0.0
 10
7.4352442374
 20
9.9644086732
 30
0.0
 10
7.4341321315
 20
9.9602575205
 30
0.0
 10
7.43235763
 20
9.9563633574
 30
0.0
 10
7.4300155331
 20
9.952810808
 30
0.0
 10
7.4272070194
 20
9.949647876
 30
0.0
 10
7.4240260885
 20
9.9468956219
 30
0.0
 10
7.4205549067
 20
9.9445580864
 30
0.0
 10
7.4180874063
 20
9.9432686274
 30
0.0
 10
7.4168273618
 20
9.9426908896
 30
0.0
  0
SPLINE
  5
463
100
AcDbEntity
  8
0
100
AcDbSpline
 62
7
  6
CONTINUOUS
 70
0
 71
3
 72
14
 73
10
 74
0
 42
0.0000001
 43
0.0000001
 44
0.0000000001
 40
0.0
 40
0.0
 40
0.0
 40
0.0
 40
0.2900271917
 40
0.4278274378
 40
0.558143666
 40
0.680250949
 40
0.7941696636
 40
0.9004669673
 40
1.0
 40
1.0
 40
1.0
 40
1.0
 10
7.1108519084
 20
10.718702291
 30
0.0
 10
7.1108519084
 20
10.7215206489
 30
0.0
 10
7.1104295955
 20
10.7256967421
 30
0.0
 10
7.1090359986
 20
10.7309458515
 30
0.0
 10
7.1076732823
 20
10.7344932125
 30
0.0
 10
7.106033231
 20
10.7376612407
 30
0.0
 10
7.1041694812
 20
10.7404261745
 30
0.0
 10
7.102130067
 20
10.7427802832
 30
0.0
 10
7.1006350412
 20
10.7441189943
 30
0.0
 10
7.0998722528
 20
10.7447136923
 30
0.0
  0
SPLINE
  5
464
100
AcDbEntity
  8
0
100
AcDbSpline
 62
7
  6
CONTINUOUS
 70
0
 71
3
 72
14
 73
10
 74
0
 42
0.0000001
 43
0.0000001
 44
0.0000000001
 40
0.0
 40
0.0
 40
0.0
 40
0.0
 40
0.1508600169
 40
0.2979835524
 40
0.4383333524
 40
0.5698821866
 40
0.691676442
 40
0.8036106994
 40
1.0
 40
1.0
 40
1.0
 40
1.0
 10
7.0621504945
 20
10.718702291
 30
0.0
 10
7.0621504945
 20
10.7201284727
 30
0.0
 10
7.0620271855
 20
10.7229471332
 30
0.0
 10
7.0614815499
 20
10.7270601633
 30
0.0
 10
7.0606078369
 20
10.7309297904
 30
0.0
 10
7.0594503677
 20
10.7344727435
 30
0.0
 10
7.0580559941
 20
10.7376397368
 30
0.0
 10
7.0560332668
 20
10.7411708294
 30
0.0
 10
7.0541665423
 20
10.7434602528
 30
0.0
 10
7.0527969234
 20
10.7447136923
 30
0.0
  0
SPLINE
  5
465
100
AcDbEntity
  8
0
100
AcDbSpline
 62
7
  6
CONTINUOUS
 70
0
 71
3
 72
15
 73
11
 74
0
 42
0.0000001
 43
0.0000001
 44
0.0000000001
 40
0.0
 40
0.0
 40
0.0
 40
0.0
 40
0.1547770688
 40
0.3053278588
 40
0.4481841253
 40
0.5809773227
 40
0.702506364
 40
0.8124980167
 40
0.9113761307
 40
1.0
 40
1.0
 40
1.0
 40
1.0
 10
7.0142701316
 20
10.718702291
 30
0.0
 10
7.0142701316
 20
10.7201280122
 30
0.0
 10
7.0141697523
 20
10.7229416034
 30
0.0
 10
7.0137253639
 20
10.7270495694
 30
0.0
 10
7.0130138924
 20
10.7309143855
 30
0.0
 10
7.0120711902
 20
10.7344535779
 30
0.0
 10
7.0109365039
 20
10.7376163336
 30
0.0
 10
7.009646884
 20
10.7403784982
 30
0.0
 10
7.0082351386
 20
10.7427331224
 30
0.0
 10
7.0071762088
 20
10.7441045457
 30
0.0
 10
7.006632725
 20
10.7447136923
 30
0.0
  0
SPLINE
  5
466
100
AcDbEntity
  8
0
100
AcDbSpline
 62
7
  6
CONTINUOUS
 70
0
 71
3
 72
15
 73
11
 74
0
 42
0.0000001
 43
0.0000001
 44
0.0000000001
 40
0.0
 40
0.0
 40
0.0
 40
0.0
 40
0.1584274671
 40
0.3121950268
 40
0.45744848
 40
0.5915039992
 40
0.7129152292
 40
0.8212159369
 40
0.9166691204
 40
1.0
 40
1.0
 40
1.0
 40
1.0
 10
6.9676719335
 20
10.718702291
 30
0.0
 10
6.9676719335
 20
10.7201276309
 30
0.0
 10
6.9675952676
 20
10.7229370201
 30
0.0
 10
6.9672557574
 20
10.7270406366
 30
0.0
 10
6.9667122694
 20
10.7309011549
 30
0.0
 10
6.9659923168
 20
10.7344362241
 30
0.0
 10
6.9651260603
 20
10.7375950059
 30
0.0
 10
6.9641420513
 20
10.7403534483
 30
0.0
 10
6.963065513
 20
10.7427049826
 30
0.0
 10
6.9622471378
 20
10.7440946387
 30
0.0
 10
6.9618242438
 20
10.7447136923
 30
0.0
  0
SPLINE
  5
467
100
AcDbEntity
  8
0
100
AcDbSpline
 62
7
  6
CONTINUOUS
 70
0
 71
3
 72
15
 73
11
 74
0
 42
0.0000001
 43
0.0000001
 44
0.0000000001
 40
0.0
 40
0.0
 40
0.0
 40
0.0
 40
0.1614429001
 40
0.3178800897
 40
0.4651468606
 40
0.6002995191
 40
0.721678219
 40
0.8286296391
 40
0.9212303362
 40
1.0
 40
1.0
 40
1.0
 40
1.0
 10
6.9228046666
 20
10.718702291
 30
0.0
 10
6.9228046666
 20
10.7201273436
 30
0.0
 10
6.9227523013
 20
10.7229335606
 30
0.0
 10
6.9225203575
 20
10.7270338165
 30
0.0
 10
6.9221491195
 20
10.7308908511
 30
0.0
 10
6.9216574907
 20
10.7344222887
 30
0.0
 10
6.9210662354
 20
10.7375771189
 30
0.0
 10
6.9203951865
 20
10.7403310743
 30
0.0
 10
6.9196618585
 20
10.7426776397
 30
0.0
 10
6.9190974598
 20
10.7440838204
 30
0.0
 10
6.9188030102
 20
10.7447136923
 30
0.0
  0
SPLINE
  5
468
100
AcDbEntity
  8
0
100
AcDbSpline
 62
7
  6
CONTINUOUS
 70
0
 71
3
 72
14
 73
10
 74
0
 42
0.0000001
 43
0.0000001
 44
0.0000000001
 40
0.0
 40
0.0
 40
0.0
 40
0.0
 40
0.321746581
 40
0.4704039777
 40
0.6063348748
 40
0.7277292417
 40
0.8337924173
 40
0.9244436292
 40
1.0
 40
1.0
 40
1.0
 40
1.0
 10
6.880100427
 20
10.718702291
 30
0.0
 10
6.880100427
 20
10.7215062664
 30
0.0
 10
6.8800223944
 20
10.7256065411
 30
0.0
 10
6.8797540397
 20
10.7308841473
 30
0.0
 10
6.8794942788
 20
10.7344130381
 30
0.0
 10
6.879182058
 20
10.7375648578
 30
0.0
 10
6.8788279971
 20
10.7403149404
 30
0.0
 10
6.878441514
 20
10.7426565697
 30
0.0
 10
6.8781414293
 20
10.7440744882
 30
0.0
 10
6.8779833421
 20
10.7447136923
 30
0.0
  0
LINE
  5
469
100
AcDbEntity
  8
0
100
AcDbLine
 62
7
  6
CONTINUOUS
 10
6.83997048
 20
10.718702291
 11
6.8397583552
 21
10.7447136923
  0
SPLINE
  5
46A
100
AcDbEntity
  8
0
100
AcDbSpline
 62
7
  6
CONTINUOUS
 70
0
 71
3
 72
15
 73
11
 74
0
 42
0.0000001
 43
0.0000001
 44
0.0000000001
 40
0.0
 40
0.0
 40
0.0
 40
0.0
 40
0.1271932268
 40
0.2540224819
 40
0.3802317426
 40
0.505663444
 40
0.630289428
 40
0.7541510235
 40
0.8773613966
 40
1.0
 40
1.0
 40
1.0
 40
1.0
 10
7.6139842823
 20
10.718702291
 30
0.0
 10
7.6139842823
 20
10.720132517
 30
0.0
 10
7.613733287
 20
10.7229950648
 30
0.0
 10
7.6126288842
 20
10.7271456571
 30
0.0
 10
7.6108664904
 20
10.7310396021
 30
0.0
 10
7.6085401337
 20
10.7345922367
 30
0.0
 10
7.6057502737
 20
10.7377554212
 30
0.0
 10
7.6025903056
 20
10.7405079821
 30
0.0
 10
7.5991419017
 20
10.7428458075
 30
0.0
 10
7.5966898608
 20
10.744135794
 30
0.0
 10
7.59543778
 20
10.7447136923
 30
0.0
  0
SPLINE
  5
46B
100
AcDbEntity
  8
0
100
AcDbSpline
 62
7
  6
CONTINUOUS
 70
0
 71
3
 72
14
 73
10
 74
0
 42
0.0000001
 43
0.0000001
 44
0.0000000001
 40
0.0
 40
0.0
 40
0.0
 40
0.0
 40
0.2900272029
 40
0.4278274369
 40
0.5581436638
 40
0.6802509472
 40
0.7941696649
 40
0.9004669667
 40
1.0
 40
1.0
 40
1.0
 40
1.0
 10
7.1839587954
 20
9.968702291
 30
0.0
 10
7.1839587954
 20
9.965883933
 30
0.0
 10
7.1843811083
 20
9.9617078398
 30
0.0
 10
7.1857747053
 20
9.9564587305
 30
0.0
 10
7.1871374215
 20
9.9529113696
 30
0.0
 10
7.1887774728
 20
9.9497433413
 30
0.0
 10
7.1906412226
 20
9.9469784075
 30
0.0
 10
7.1926806368
 20
9.9446242987
 30
0.0
 10
7.1941756626
 20
9.9432855877
 30
0.0
 10
7.194938451
 20
9.9426908896
 30
0.0
  0
SPLINE
  5
46C
100
AcDbEntity
  8
0
100
AcDbSpline
 62
7
  6
CONTINUOUS
 70
0
 71
3
 72
14
 73
10
 74
0
 42
0.0000001
 43
0.0000001
 44
0.0000000001
 40
0.0
 40
0.0
 40
0.0
 40
0.0
 40
0.1508600323
 40
0.2979835639
 40
0.4383333514
 40
0.5698821844
 40
0.6916764402
 40
0.8036107007
 40
1.0
 40
1.0
 40
1.0
 40
1.0
 10
7.2326602093
 20
9.968702291
 30
0.0
 10
7.2326602093
 20
9.9672761091
 30
0.0
 10
7.2327835184
 20
9.9644574485
 30
0.0
 10
7.233329154
 20
9.9603444184
 30
0.0
 10
7.234202867
 20
9.9564747916
 30
0.0
 10
7.2353603361
 20
9.9529318386
 30
0.0
 10
7.2367547098
 20
9.9497648452
 30
0.0
 10
7.238777437
 20
9.9462337526
 30
0.0
 10
7.2406441616
 20
9.9439443292
 30
0.0
 10
7.2420137804
 20
9.9426908896
 30
0.0
  0
SPLINE
  5
46D
100
AcDbEntity
  8
0
100
AcDbSpline
 62
7
  6
CONTINUOUS
 70
0
 71
3
 72
15
 73
11
 74
0
 42
0.0000001
 43
0.0000001
 44
0.0000000001
 40
0.0
 40
0.0
 40
0.0
 40
0.0
 40
0.1547770846
 40
0.3053278706
 40
0.4481841242
 40
0.5809773205
 40
0.7025063622
 40
0.812498018
 40
0.9113761302
 40
1.0
 40
1.0
 40
1.0
 40
1.0
 10
7.2805405723
 20
9.968702291
 30
0.0
 10
7.2805405723
 20
9.9672765697
 30
0.0
 10
7.2806409516
 20
9.9644629783
 30
0.0
 10
7.2810853399
 20
9.9603550123
 30
0.0
 10
7.2817968115
 20
9.9564901964
 30
0.0
 10
7.2827395136
 20
9.9529510041
 30
0.0
 10
7.2838741999
 20
9.9497882484
 30
0.0
 10
7.2851638199
 20
9.9470260838
 30
0.0
 10
7.2865755652
 20
9.9446714596
 30
0.0
 10
7.287634495
 20
9.9433000363
 30
0.0
 10
7.2881779789
 20
9.9426908896
 30
0.0
  0
SPLINE
  5
46E
100
AcDbEntity
  8
0
100
AcDbSpline
 62
7
  6
CONTINUOUS
 70
0
 71
3
 72
14
 73
10
 74
0
 42
0.0000001
 43
0.0000001
 44
0.0000000001
 40
0.0
 40
0.0
 40
0.0
 40
0.0
 40
0.321746486
 40
0.4704038736
 40
0.6063348068
 40
0.7277291995
 40
0.8337924109
 40
0.9244436197
 40
1.0
 40
1.0
 40
1.0
 40
1.0
 10
7.4147102769
 20
10.718702291
 30
0.0
 10
7.4147102769
 20
10.7215062656
 30
0.0
 10
7.4147883094
 20
10.7256065393
 30
0.0
 10
7.4150566641
 20
10.730884145
 30
0.0
 10
7.4153164248
 20
10.7344130362
 30
0.0
 10
7.4156286458
 20
10.7375648568
 30
0.0
 10
7.4159827067
 20
10.7403149399
 30
0.0
 10
7.4163691898
 20
10.7426565696
 30
0.0
 10
7.4166692745
 20
10.7440744881
 30
0.0
 10
7.4168273618
 20
10.7447136923
 30
0.0
  0
SPLINE
  5
46F
100
AcDbEntity
  8
0
100
AcDbSpline
 62
7
  6
CONTINUOUS
 70
0
 71
3
 72
15
 73
11
 74
0
 42
0.0000001
 43
0.0000001
 44
0.0000000001
 40
0.0
 40
0.0
 40
0.0
 40
0.0
 40
0.1284509441
 40
0.2563366487
 40
0.3832457323
 40
0.5089334081
 40
0.6333493567
 40
0.7565596416
 40
0.8787287466
 40
1.0
 40
1.0
 40
1.0
 40
1.0
 10
7.3940540689
 20
9.968702291
 30
0.0
 10
7.3940540689
 20
9.9672723538
 30
0.0
 10
7.3938102967
 20
9.9644129
 30
0.0
 10
7.392737117
 20
9.9602645854
 30
0.0
 10
7.3910238516
 20
9.9563715728
 30
0.0
 10
7.38876142
 20
9.9528186477
 30
0.0
 10
7.3860473463
 20
9.9496544761
 30
0.0
 10
7.3829725541
 20
9.9469006783
 30
0.0
 10
7.3796166889
 20
9.9445616651
 30
0.0
 10
7.37722744
 20
9.943269466
 30
0.0
 10
7.3760076936
 20
9.9426908896
 30
0.0
  0
SPLINE
  5
470
100
AcDbEntity
  8
0
100
AcDbSpline
 62
7
  6
CONTINUOUS
 70
0
 71
3
 72
15
 73
11
 74
0
 42
0.0000001
 43
0.0000001
 44
0.0000000001
 40
0.0
 40
0.0
 40
0.0
 40
0.0
 40
0.1614428532
 40
0.3178799957
 40
0.4651467574
 40
0.6002994512
 40
0.7216781769
 40
0.8286296324
 40
0.9212303265
 40
1.0
 40
1.0
 40
1.0
 40
1.0
 10
7.3720060373
 20
10.718702291
 30
0.0
 10
7.3720060373
 20
10.7201273432
 30
0.0
 10
7.3720584025
 20
10.7229335593
 30
0.0
 10
7.3722903462
 20
10.7270338143
 30
0.0
 10
7.3726615842
 20
10.7308908487
 30
0.0
 10
7.3731532127
 20
10.7344222868
 30
0.0
 10
7.3737444683
 20
10.7375771179
 30
0.0
 10
7.3744155171
 20
10.7403310739
 30
0.0
 10
7.3751488453
 20
10.7426776395
 30
0.0
 10
7.375713244
 20
10.7440838203
 30
0.0
 10
7.3760076936
 20
10.7447136923
 30
0.0
  0
SPLINE
  5
471
100
AcDbEntity
  8
0
100
AcDbSpline
 62
7
  6
CONTINUOUS
 70
0
 71
3
 72
15
 73
11
 74
0
 42
0.0000001
 43
0.0000001
 44
0.0000000001
 40
0.0
 40
0.0
 40
0.0
 40
0.0
 40
0.1304763071
 40
0.260068853
 40
0.3881173401
 40
0.514232612
 40
0.6383218424
 40
0.7604841753
 40
0.8809621661
 40
1.0
 40
1.0
 40
1.0
 40
1.0
 10
7.3502357586
 20
9.968702291
 30
0.0
 10
7.3502357586
 20
9.9672727969
 30
0.0
 10
7.3500034208
 20
9.9644181095
 30
0.0
 10
7.3489797917
 20
9.9602734088
 30
0.0
 10
7.347344674
 20
9.9563820294
 30
0.0
 10
7.3451841179
 20
9.9528288454
 30
0.0
 10
7.3425909431
 20
9.9496632506
 30
0.0
 10
7.339652058
 20
9.9469075378
 30
0.0
 10
7.336443818
 20
9.9445666058
 30
0.0
 10
7.3341546914
 20
9.9432706367
 30
0.0
 10
7.33298646
 20
9.9426908896
 30
0.0
  0
SPLINE
  5
472
100
AcDbEntity
  8
0
100
AcDbSpline
 62
7
  6
CONTINUOUS
 70
0
 71
3
 72
15
 73
11
 74
0
 42
0.0000001
 43
0.0000001
 44
0.0000000001
 40
0.0
 40
0.0
 40
0.0
 40
0.0
 40
0.1584274211
 40
0.3121949343
 40
0.4574483782
 40
0.5915039315
 40
0.712915187
 40
0.82121593
 40
0.9166691104
 40
1.0
 40
1.0
 40
1.0
 40
1.0
 10
7.3271387703
 20
10.718702291
 30
0.0
 10
7.3271387703
 20
10.7201276305
 30
0.0
 10
7.3272154362
 20
10.7229370189
 30
0.0
 10
7.3275549462
 20
10.7270406344
 30
0.0
 10
7.3280984341
 20
10.7309011525
 30
0.0
 10
7.3288183865
 20
10.7344362222
 30
0.0
 10
7.3296846433
 20
10.7375950049
 30
0.0
 10
7.3306686522
 20
10.7403534478
 30
0.0
 10
7.3317451909
 20
10.7427049824
 30
0.0
 10
7.332563566
 20
10.7440946386
 30
0.0
 10
7.33298646
 20
10.7447136923
 30
0.0
  0
SPLINE
  5
473
100
AcDbEntity
  8
0
100
AcDbSpline
 62
7
  6
CONTINUOUS
 70
0
 71
3
 72
15
 73
11
 74
0
 42
0.0000001
 43
0.0000001
 44
0.0000000001
 40
0.0
 40
0.0
 40
0.0
 40
0.0
 40
0.1329534019
 40
0.264642622
 40
0.3941053306
 40
0.5207696907
 40
0.6444795158
 40
0.7653626114
 40
0.8837483114
 40
1.0
 40
1.0
 40
1.0
 40
1.0
 10
7.3044640807
 20
9.968702291
 30
0.0
 10
7.3044640807
 20
9.9672733059
 30
0.0
 10
7.3042454386
 20
9.9644241087
 30
0.0
 10
7.3032813468
 20
9.9602837309
 30
0.0
 10
7.3017403962
 20
9.9563945464
 30
0.0
 10
7.2997029058
 20
9.952841387
 30
0.0
 10
7.2972559918
 20
9.9496743466
 30
0.0
 10
7.2944816011
 20
9.9469164448
 30
0.0
 10
7.2914520069
 20
9.944573174
 30
0.0
 10
7.2892839833
 20
9.9432722171
 30
0.0
 10
7.2881779789
 20
9.9426908896
 30
0.0
  0
SPLINE
  5
474
100
AcDbEntity
  8
0
100
AcDbSpline
 62
7
  6
CONTINUOUS
 70
0
 71
3
 72
15
 73
11
 74
0
 42
0.0000001
 43
0.0000001
 44
0.0000000001
 40
0.0
 40
0.0
 40
0.0
 40
0.0
 40
0.1547770238
 40
0.3053277681
 40
0.4481840249
 40
0.5809772553
 40
0.7025063218
 40
0.8124980093
 40
0.9113761204
 40
1.0
 40
1.0
 40
1.0
 40
1.0
 10
7.2805405723
 20
10.718702291
 30
0.0
 10
7.2805405723
 20
10.7201280118
 30
0.0
 10
7.2806409515
 20
10.7229416022
 30
0.0
 10
7.2810853396
 20
10.7270495673
 30
0.0
 10
7.2817968111
 20
10.7309143831
 30
0.0
 10
7.282739513
 20
10.7344535761
 30
0.0
 10
7.2838741996
 20
10.7376163326
 30
0.0
 10
7.2851638195
 20
10.7403784977
 30
0.0
 10
7.2865755652
 20
10.7427331222
 30
0.0
 10
7.287634495
 20
10.7441045456
 30
0.0
 10
7.2881779789
 20
10.7447136923
 30
0.0
  0
SPLINE
  5
475
100
AcDbEntity
  8
0
100
AcDbSpline
 62
7
  6
CONTINUOUS
 70
0
 71
3
 72
15
 73
11
 74
0
 42
0.0000001
 43
0.0000001
 44
0.0000000001
 40
0.0
 40
0.0
 40
0.0
 40
0.0
 40
0.1358651314
 40
0.270031341
 40
0.4011850496
 40
0.5285319817
 40
0.6518257856
 40
0.7712104724
 40
0.8871033159
 40
1.0
 40
1.0
 40
1.0
 40
1.0
 10
7.2571798413
 20
9.968702291
 30
0.0
 10
7.2571798413
 20
9.9672738612
 30
0.0
 10
7.2569769677
 20
9.964430673
 30
0.0
 10
7.2560816486
 20
9.9602952267
 30
0.0
 10
7.2546497973
 20
9.9564088594
 30
0.0
 10
7.2527552901
 20
9.9528561941
 30
0.0
 10
7.2504786323
 20
9.9496879001
 30
0.0
 10
7.2478958808
 20
9.9469276936
 30
0.0
 10
7.2450744103
 20
9.9445817265
 30
0.0
 10
7.2430474436
 20
9.9432743178
 30
0.0
 10
7.2420137804
 20
9.9426908896
 30
0.0
  0
SPLINE
  5
476
100
AcDbEntity
  8
0
100
AcDbSpline
 62
7
  6
CONTINUOUS
 70
0
 71
3
 72
14
 73
10
 74
0
 42
0.0000001
 43
0.0000001
 44
0.0000000001
 40
0.0
 40
0.0
 40
0.0
 40
0.0
 40
0.150859973
 40
0.2979834635
 40
0.4383332537
 40
0.5698821193
 40
0.6916763996
 40
0.8036106915
 40
1.0
 40
1.0
 40
1.0
 40
1.0
 10
7.2326602093
 20
10.718702291
 30
0.0
 10
7.2326602093
 20
10.7201284723
 30
0.0
 10
7.2327835184
 20
10.722947132
 30
0.0
 10
7.2333291536
 20
10.7270601611
 30
0.0
 10
7.2342028664
 20
10.730929788
 30
0.0
 10
7.2353603354
 20
10.7344727417
 30
0.0
 10
7.2367547094
 20
10.7376397358
 30
0.0
 10
7.2387774366
 20
10.7411708291
 30
0.0
 10
7.2406441615
 20
10.7434602527
 30
0.0
 10
7.2420137804
 20
10.7447136923
 30
0.0
  0
SPLINE
  5
477
100
AcDbEntity
  8
0
100
AcDbSpline
 62
7
  6
CONTINUOUS
 70
0
 71
3
 72
15
 73
11
 74
0
 42
0.0000001
 43
0.0000001
 44
0.0000000001
 40
0.0
 40
0.0
 40
0.0
 40
0.0
 40
0.1391792394
 40
0.2761804646
 40
0.4092958323
 40
0.5374691087
 40
0.6603312929
 40
0.7780205534
 40
0.8910326915
 40
1.0
 40
1.0
 40
1.0
 40
1.0
 10
7.2088384136
 20
9.968702291
 30
0.0
 10
7.2088384136
 20
9.9672744415
 30
0.0
 10
7.2086531756
 20
9.9644375541
 30
0.0
 10
7.2078350203
 20
9.9603075081
 30
0.0
 10
7.2065259313
 20
9.9564246001
 30
0.0
 10
7.2047927944
 20
9.95287308
 30
0.0
 10
7.2027087322
 20
9.9497039891
 30
0.0
 10
7.200343047
 20
9.9469416045
 30
0.0
 10
7.1977573915
 20
9.9445927226
 30
0.0
 10
7.1958903293
 20
9.9432770938
 30
0.0
 10
7.194938451
 20
9.9426908896
 30
0.0
  0
SPLINE
  5
478
100
AcDbEntity
  8
0
100
AcDbSpline
 62
7
  6
CONTINUOUS
 70
0
 71
3
 72
14
 73
10
 74
0
 42
0.0000001
 43
0.0000001
 44
0.0000000001
 40
0.0
 40
0.0
 40
0.0
 40
0.0
 40
0.2900271051
 40
0.427827341
 40
0.5581435992
 40
0.6802509066
 40
0.7941696554
 40
0.9004669563
 40
1.0
 40
1.0
 40
1.0
 40
1.0
 10
7.1839587954
 20
10.718702291
 30
0.0
 10
7.1839587954
 20
10.7215206481
 30
0.0
 10
7.184381108
 20
10.7256967403
 30
0.0
 10
7.1857747046
 20
10.7309458491
 30
0.0
 10
7.1871374206
 20
10.7344932107
 30
0.0
 10
7.1887774723
 20
10.7376612396
 30
0.0
 10
7.1906412222
 20
10.7404261741
 30
0.0
 10
7.1926806367
 20
10.7427802831
 30
0.0
 10
7.1941756625
 20
10.7441189942
 30
0.0
 10
7.194938451
 20
10.7447136923
 30
0.0
  0
SPLINE
  5
479
100
AcDbEntity
  8
0
100
AcDbSpline
 62
7
  6
CONTINUOUS
 70
0
 71
3
 72
15
 73
11
 74
0
 42
0.0000001
 43
0.0000001
 44
0.0000000001
 40
0.0
 40
0.0
 40
0.0
 40
0.0
 40
0.1428403545
 40
0.2829921028
 40
0.4183193884
 40
0.547467572
 40
0.6699084516
 40
0.7857419538
 40
0.8955193619
 40
1.0
 40
1.0
 40
1.0
 40
1.0
 10
7.1599053519
 20
9.968702291
 30
0.0
 10
7.1599053519
 20
9.9672750211
 30
0.0
 10
7.1597393999
 20
9.964444479
 30
0.0
 10
7.1590058819
 20
9.9603201098
 30
0.0
 10
7.157831787
 20
9.9564412519
 30
0.0
 10
7.1562766134
 20
9.9528916643
 30
0.0
 10
7.1544055086
 20
9.9497225218
 30
0.0
 10
7.1522802794
 20
9.9469584282
 30
0.0
 10
7.1499560823
 20
9.9446066793
 30
0.0
 10
7.1482666708
 20
9.9432807049
 30
0.0
 10
7.147405308
 20
9.9426908383
 30
0.0
  0
SPLINE
  5
47A
100
AcDbEntity
  8
0
100
AcDbSpline
 62
7
  6
CONTINUOUS
 70
0
 71
3
 72
14
 73
10
 74
0
 42
0.0000001
 43
0.0000001
 44
0.0000000001
 40
0.0
 40
0.0
 40
0.0
 40
0.0
 40
0.2900270874
 40
0.4278273378
 40
0.5581435977
 40
0.6802509055
 40
0.7941696541
 40
0.9004669562
 40
1.0
 40
1.0
 40
1.0
 40
1.0
 10
7.1108519084
 20
9.968702291
 30
0.0
 10
7.1108519084
 20
9.9658839341
 30
0.0
 10
7.1104295959
 20
9.9617078419
 30
0.0
 10
7.1090359993
 20
9.9564587331
 30
0.0
 10
7.1076732833
 20
9.9529113713
 30
0.0
 10
7.1060332315
 20
9.9497433424
 30
0.0
 10
7.1041694817
 20
9.9469784079
 30
0.0
 10
7.1021300671
 20
9.9446242989
 30
0.0
 10
7.1006350413
 20
9.9432855877
 30
0.0
 10
7.0998722528
 20
9.9426908896
 30
0.0
  0
SPLINE
  5
47B
100
AcDbEntity
  8
0
100
AcDbSpline
 62
7
  6
CONTINUOUS
 70
0
 71
3
 72
15
 73
11
 74
0
 42
0.0000001
 43
0.0000001
 44
0.0000000001
 40
0.0
 40
0.0
 40
0.0
 40
0.0
 40
0.1391792599
 40
0.2761804816
 40
0.4092958356
 40
0.5374691102
 40
0.6603312941
 40
0.7780205547
 40
0.8910326916
 40
1.0
 40
1.0
 40
1.0
 40
1.0
 10
7.0859722902
 20
10.718702291
 30
0.0
 10
7.0859722902
 20
10.7201301407
 30
0.0
 10
7.0861575283
 20
10.7229670282
 30
0.0
 10
7.0869756837
 20
10.7270970743
 30
0.0
 10
7.0882847726
 20
10.7309799821
 30
0.0
 10
7.0900179095
 20
10.7345315021
 30
0.0
 10
7.0921019717
 20
10.737700593
 30
0.0
 10
7.0944676569
 20
10.7404629775
 30
0.0
 10
7.0970533124
 20
10.7428118594
 30
0.0
 10
7.0989203746
 20
10.7441274882
 30
0.0
 10
7.0998722528
 20
10.7447136923
 30
0.0
  0
SPLINE
  5
47C
100
AcDbEntity
  8
0
100
AcDbSpline
 62
7
  6
CONTINUOUS
 70
0
 71
3
 72
14
 73
10
 74
0
 42
0.0000001
 43
0.0000001
 44
0.0000000001
 40
0.0
 40
0.0
 40
0.0
 40
0.0
 40
0.1044590979
 40
0.214290296
 40
0.3301655114
 40
0.4526388525
 40
0.5818416491
 40
0.7172449141
 40
1.0
 40
1.0
 40
1.0
 40
1.0
 10
7.1474053519
 20
10.7447136923
 30
0.0
 10
7.1465445945
 20
10.7441242357
 30
0.0
 10
7.14485575
 20
10.7427987404
 30
0.0
 10
7.1425320037
 20
10.7404478457
 30
0.0
 10
7.140406446
 20
10.7376844772
 30
0.0
 10
7.1385359969
 20
10.7345157718
 30
0.0
 10
7.13697994
 20
10.7309661047
 30
0.0
 10
7.1353926292
 20
10.7257257431
 30
0.0
 10
7.1349053519
 20
10.7215262015
 30
0.0
 10
7.1349053519
 20
10.718702291
 30
0.0
  0
SPLINE
  5
47D
100
AcDbEntity
  8
0
100
AcDbSpline
 62
7
  6
CONTINUOUS
 70
0
 71
3
 72
14
 73
10
 74
0
 42
0.0000001
 43
0.0000001
 44
0.0000000001
 40
0.0
 40
0.0
 40
0.0
 40
0.0
 40
0.2827434924
 40
0.4181504493
 40
0.5473548593
 40
0.6698281441
 40
0.7857067899
 40
0.8955401596
 40
1.0
 40
1.0
 40
1.0
 40
1.0
 10
7.1349053519
 20
9.968702291
 30
0.0
 10
7.1349053519
 20
9.9658784901
 30
0.0
 10
7.1353926566
 20
9.9616790308
 30
0.0
 10
7.1369798521
 20
9.9564386895
 30
0.0
 10
7.1385359036
 20
9.9528889502
 30
0.0
 10
7.1404063937
 20
9.9497202022
 30
0.0
 10
7.1425319734
 20
9.9469567721
 30
0.0
 10
7.1448557566
 20
9.9446058139
 30
0.0
 10
7.1465446283
 20
9.9432802973
 30
0.0
 10
7.1474053959
 20
9.9426908383
 30
0.0
  0
SPLINE
  5
47E
100
AcDbEntity
  8
0
100
AcDbSpline
 62
7
  6
CONTINUOUS
 70
0
 71
3
 72
14
 73
10
 74
0
 42
0.0000001
 43
0.0000001
 44
0.0000000001
 40
0.0
 40
0.0
 40
0.0
 40
0.0
 40
0.1508599508
 40
0.2979834454
 40
0.4383332504
 40
0.5698821178
 40
0.6916763985
 40
0.8036106903
 40
1.0
 40
1.0
 40
1.0
 40
1.0
 10
7.0621504945
 20
9.968702291
 30
0.0
 10
7.0621504945
 20
9.9672761099
 30
0.0
 10
7.0620271855
 20
9.9644574504
 30
0.0
 10
7.0614815503
 20
9.9603444213
 30
0.0
 10
7.0606078375
 20
9.9564747942
 30
0.0
 10
7.0594503685
 20
9.9529318404
 30
0.0
 10
7.0580559945
 20
9.9497648463
 30
0.0
 10
7.0560332672
 20
9.9462337529
 30
0.0
 10
7.0541665424
 20
9.9439443293
 30
0.0
 10
7.0527969234
 20
9.9426908896
 30
0.0
  0
SPLINE
  5
47F
100
AcDbEntity
  8
0
100
AcDbSpline
 62
7
  6
CONTINUOUS
 70
0
 71
3
 72
15
 73
11
 74
0
 42
0.0000001
 43
0.0000001
 44
0.0000000001
 40
0.0
 40
0.0
 40
0.0
 40
0.0
 40
0.1358651514
 40
0.2700313576
 40
0.4011850528
 40
0.5285319832
 40
0.6518257868
 40
0.7712104737
 40
0.887103316
 40
1.0
 40
1.0
 40
1.0
 40
1.0
 10
7.0376308625
 20
10.718702291
 30
0.0
 10
7.0376308625
 20
10.720130721
 30
0.0
 10
7.0378337361
 20
10.7229739094
 30
0.0
 10
7.0387290554
 20
10.7271093557
 30
0.0
 10
7.0401609067
 20
10.7309957228
 30
0.0
 10
7.0420554137
 20
10.734548388
 30
0.0
 10
7.0443320715
 20
10.7377166819
 30
0.0
 10
7.0469148231
 20
10.7404768884
 30
0.0
 10
7.0497362936
 20
10.7428228555
 30
0.0
 10
7.0517632602
 20
10.7441302642
 30
0.0
 10
7.0527969234
 20
10.7447136923
 30
0.0
  0
SPLINE
  5
480
100
AcDbEntity
  8
0
100
AcDbSpline
 62
7
  6
CONTINUOUS
 70
0
 71
3
 72
15
 73
11
 74
0
 42
0.0000001
 43
0.0000001
 44
0.0000000001
 40
0.0
 40
0.0
 40
0.0
 40
0.0
 40
0.1547770011
 40
0.3053277495
 40
0.4481840216
 40
0.5809772538
 40
0.7025063207
 40
0.8124980082
 40
0.9113761203
 40
1.0
 40
1.0
 40
1.0
 40
1.0
 10
7.0142701316
 20
9.968702291
 30
0.0
 10
7.0142701316
 20
9.9672765704
 30
0.0
 10
7.0141697523
 20
9.9644629802
 30
0.0
 10
7.0137253643
 20
9.9603550151
 30
0.0
 10
7.0130138928
 20
9.956490199
 30
0.0
 10
7.0120711909
 20
9.952951006
 30
0.0
 10
7.0109365043
 20
9.9497882494
 30
0.0
 10
7.0096468843
 20
9.9470260843
 30
0.0
 10
7.0082351387
 20
9.9446714598
 30
0.0
 10
7.0071762089
 20
9.9433000364
 30
0.0
 10
7.006632725
 20
9.9426908896
 30
0.0
  0
SPLINE
  5
481
100
AcDbEntity
  8
0
100
AcDbSpline
 62
7
  6
CONTINUOUS
 70
0
 71
3
 72
15
 73
11
 74
0
 42
0.0000001
 43
0.0000001
 44
0.0000000001
 40
0.0
 40
0.0
 40
0.0
 40
0.0
 40
0.1329534214
 40
0.2646426383
 40
0.3941053338
 40
0.5207696923
 40
0.644479517
 40
0.7653626127
 40
0.8837483115
 40
1.0
 40
1.0
 40
1.0
 40
1.0
 10
6.9903466232
 20
10.718702291
 30
0.0
 10
6.9903466232
 20
10.7201312763
 30
0.0
 10
6.9905652653
 20
10.7229804737
 30
0.0
 10
6.9915293572
 20
10.7271208515
 30
0.0
 10
6.9930703078
 20
10.7310100358
 30
0.0
 10
6.9951077981
 20
10.7345631951
 30
0.0
 10
6.9975547121
 20
10.7377302354
 30
0.0
 10
7.0003291028
 20
10.7404881372
 30
0.0
 10
7.003358697
 20
10.742831408
 30
0.0
 10
7.0055267205
 20
10.7441323649
 30
0.0
 10
7.006632725
 20
10.7447136923
 30
0.0
  0
SPLINE
  5
482
100
AcDbEntity
  8
0
100
AcDbSpline
 62
7
  6
CONTINUOUS
 70
0
 71
3
 72
15
 73
11
 74
0
 42
0.0000001
 43
0.0000001
 44
0.0000000001
 40
0.0
 40
0.0
 40
0.0
 40
0.0
 40
0.1584273978
 40
0.3121949154
 40
0.4574483748
 40
0.59150393
 40
0.7129151859
 40
0.8212159288
 40
0.9166691104
 40
1.0
 40
1.0
 40
1.0
 40
1.0
 10
6.9676719335
 20
9.968702291
 30
0.0
 10
6.9676719335
 20
9.9672769517
 30
0.0
 10
6.9675952677
 20
9.9644675635
 30
0.0
 10
6.9672557576
 20
9.960363948
 30
0.0
 10
6.9667122698
 20
9.9565034296
 30
0.0
 10
6.9659923173
 20
9.9529683598
 30
0.0
 10
6.9651260605
 20
9.9498095772
 30
0.0
 10
6.9641420516
 20
9.9470511342
 30
0.0
 10
6.963065513
 20
9.9446995996
 30
0.0
 10
6.9622471378
 20
9.9433099434
 30
0.0
 10
6.9618242438
 20
9.9426908896
 30
0.0
  0
SPLINE
  5
483
100
AcDbEntity
  8
0
100
AcDbSpline
 62
7
  6
CONTINUOUS
 70
0
 71
3
 72
15
 73
11
 74
0
 42
0.0000001
 43
0.0000001
 44
0.0000000001
 40
0.0
 40
0.0
 40
0.0
 40
0.0
 40
0.1304763264
 40
0.2600688691
 40
0.3881173433
 40
0.5142326135
 40
0.6383218436
 40
0.7604841767
 40
0.8809621662
 40
1.0
 40
1.0
 40
1.0
 40
1.0
 10
6.9445749452
 20
10.718702291
 30
0.0
 10
6.9445749452
 20
10.7201317853
 30
0.0
 10
6.9448072831
 20
10.7229864729
 30
0.0
 10
6.9458309123
 20
10.7271311736
 30
0.0
 10
6.94746603
 20
10.7310225528
 30
0.0
 10
6.949626586
 20
10.7345757367
 30
0.0
 10
6.9522197608
 20
10.7377413314
 30
0.0
 10
6.9551586459
 20
10.7404970442
 30
0.0
 10
6.9583668859
 20
10.7428379762
 30
0.0
 10
6.9606560124
 20
10.7441339453
 30
0.0
 10
6.9618242438
 20
10.7447136923
 30
0.0
  0
SPLINE
  5
484
100
AcDbEntity
  8
0
100
AcDbSpline
 62
7
  6
CONTINUOUS
 70
0
 71
3
 72
15
 73
11
 74
0
 42
0.0000001
 43
0.0000001
 44
0.0000000001
 40
0.0
 40
0.0
 40
0.0
 40
0.0
 40
0.1584274833
 40
0.3121950389
 40
0.457448479
 40
0.591503997
 40
0.7129152273
 40
0.8212159382
 40
0.9166691198
 40
1.0
 40
1.0
 40
1.0
 40
1.0
 10
7.3271387703
 20
9.968702291
 30
0.0
 10
7.3271387703
 20
9.9672769509
 30
0.0
 10
7.3272154362
 20
9.9644675616
 30
0.0
 10
7.3275549465
 20
9.9603639452
 30
0.0
 10
7.3280984345
 20
9.956503427
 30
0.0
 10
7.328818387
 20
9.952968358
 30
0.0
 10
7.3296846436
 20
9.9498095761
 30
0.0
 10
7.3306686525
 20
9.9470511337
 30
0.0
 10
7.3317451909
 20
9.9446995994
 30
0.0
 10
7.3325635661
 20
9.9433099433
 30
0.0
 10
7.33298646
 20
9.9426908896
 30
0.0
  0
SPLINE
  5
485
100
AcDbEntity
  8
0
100
AcDbSpline
 62
7
  6
CONTINUOUS
 70
0
 71
3
 72
15
 73
11
 74
0
 42
0.0000001
 43
0.0000001
 44
0.0000000001
 40
0.0
 40
0.0
 40
0.0
 40
0.0
 40
0.1614428295
 40
0.3178799764
 40
0.465146754
 40
0.6002994497
 40
0.7216781758
 40
0.8286296313
 40
0.9212303265
 40
1.0
 40
1.0
 40
1.0
 40
1.0
 10
6.9228046666
 20
9.968702291
 30
0.0
 10
6.9228046666
 20
9.967277239
 30
0.0
 10
6.9227523013
 20
9.9644710231
 30
0.0
 10
6.9225203576
 20
9.960370768
 30
0.0
 10
6.9221491197
 20
9.9565137334
 30
0.0
 10
6.9216574911
 20
9.9529822952
 30
0.0
 10
6.9210662355
 20
9.9498274641
 30
0.0
 10
6.9203951867
 20
9.9470735081
 30
0.0
 10
6.9196618585
 20
9.9447269424
 30
0.0
 10
6.9190974598
 20
9.9433207617
 30
0.0
 10
6.9188030102
 20
9.9426908896
 30
0.0
  0
SPLINE
  5
486
100
AcDbEntity
  8
0
100
AcDbSpline
 62
7
  6
CONTINUOUS
 70
0
 71
3
 72
15
 73
11
 74
0
 42
0.0000001
 43
0.0000001
 44
0.0000000001
 40
0.0
 40
0.0
 40
0.0
 40
0.0
 40
0.1614429167
 40
0.317880102
 40
0.4651468595
 40
0.6002995169
 40
0.7216782172
 40
0.8286296403
 40
0.9212303357
 40
1.0
 40
1.0
 40
1.0
 40
1.0
 10
7.3720060373
 20
9.968702291
 30
0.0
 10
7.3720060373
 20
9.9672772382
 30
0.0
 10
7.3720584026
 20
9.9644710212
 30
0.0
 10
7.3722903464
 20
9.9603707652
 30
0.0
 10
7.3726615844
 20
9.9565137308
 30
0.0
 10
7.3731532131
 20
9.9529822934
 30
0.0
 10
7.3737444685
 20
9.9498274631
 30
0.0
 10
7.3744155173
 20
9.9470735076
 30
0.0
 10
7.3751488454
 20
9.9447269423
 30
0.0
 10
7.3757132441
 20
9.9433207616
 30
0.0
 10
7.3760076936
 20
9.9426908896
 30
0.0
  0
SPLINE
  5
487
100
AcDbEntity
  8
0
100
AcDbSpline
 62
7
  6
CONTINUOUS
 70
0
 71
3
 72
15
 73
11
 74
0
 42
0.0000001
 43
0.0000001
 44
0.0000000001
 40
0.0
 40
0.0
 40
0.0
 40
0.0
 40
0.128450963
 40
0.2563366646
 40
0.3832457355
 40
0.5089334096
 40
0.633349358
 40
0.756559643
 40
0.8787287467
 40
1.0
 40
1.0
 40
1.0
 40
1.0
 10
6.900756635
 20
10.718702291
 30
0.0
 10
6.900756635
 20
10.7201322284
 30
0.0
 10
6.9010004071
 20
10.7229916824
 30
0.0
 10
6.9020735869
 20
10.727139997
 30
0.0
 10
6.9037868524
 20
10.7310330093
 30
0.0
 10
6.9060492839
 20
10.7345859344
 30
0.0
 10
6.9087633576
 20
10.7377501059
 30
0.0
 10
6.9118381497
 20
10.7405039037
 30
0.0
 10
6.9151940149
 20
10.7428429169
 30
0.0
 10
6.9175832639
 20
10.744135116
 30
0.0
 10
6.9188030102
 20
10.7447136923
 30
0.0
  0
SPLINE
  5
488
100
AcDbEntity
  8
0
100
AcDbSpline
 62
7
  6
CONTINUOUS
 70
0
 71
3
 72
14
 73
10
 74
0
 42
0.0000001
 43
0.0000001
 44
0.0000000001
 40
0.0
 40
0.0
 40
0.0
 40
0.0
 40
0.3217465934
 40
0.4704039766
 40
0.6063348727
 40
0.7277292398
 40
0.8337924185
 40
0.9244436287
 40
1.0
 40
1.0
 40
1.0
 40
1.0
 10
7.4147102769
 20
9.968702291
 30
0.0
 10
7.4147102769
 20
9.9658983154
 30
0.0
 10
7.4147883094
 20
9.9617980408
 30
0.0
 10
7.4150566642
 20
9.9565204346
 30
0.0
 10
7.415316425
 20
9.9529915439
 30
0.0
 10
7.4156286459
 20
9.9498397242
 30
0.0
 10
7.4159827068
 20
9.9470896416
 30
0.0
 10
7.4163691899
 20
9.9447480122
 30
0.0
 10
7.4166692745
 20
9.9433300938
 30
0.0
 10
7.4168273618
 20
9.9426908896
 30
0.0
  0
LINE
  5
489
100
AcDbEntity
  8
0
100
AcDbLine
 62
7
  6
CONTINUOUS
 10
7.4548402239
 20
9.968702291
 11
7.4550523486
 21
9.9426908896
  0
SPLINE
  5
48A
100
AcDbEntity
  8
0
100
AcDbSpline
 62
7
  6
CONTINUOUS
 70
0
 71
3
 72
14
 73
10
 74
0
 42
0.0000001
 43
0.0000001
 44
0.0000000001
 40
0.0
 40
0.0
 40
0.0
 40
0.0
 40
0.3217464665
 40
0.4704038702
 40
0.6063348053
 40
0.7277291985
 40
0.8337924098
 40
0.9244436197
 40
1.0
 40
1.0
 40
1.0
 40
1.0
 10
6.880100427
 20
9.968702291
 30
0.0
 10
6.880100427
 20
9.9658983166
 30
0.0
 10
6.8800223945
 20
9.9617980429
 30
0.0
 10
6.8797540398
 20
9.9565204372
 30
0.0
 10
6.879494279
 20
9.9529915458
 30
0.0
 10
6.8791820581
 20
9.9498397252
 30
0.0
 10
6.8788279972
 20
9.9470896421
 30
0.0
 10
6.878441514
 20
9.9447480124
 30
0.0
 10
6.8781414293
 20
9.9433300938
 30
0.0
 10
6.8779833421
 20
9.9426908896
 30
0.0
  0
SPLINE
  5
48B
100
AcDbEntity
  8
0
100
AcDbSpline
 62
7
  6
CONTINUOUS
 70
0
 71
3
 72
15
 73
11
 74
0
 42
0.0000001
 43
0.0000001
 44
0.0000000001
 40
0.0
 40
0.0
 40
0.0
 40
0.0
 40
0.1335638144
 40
0.2657711852
 40
0.3955857921
 40
0.5223898615
 40
0.6460097184
 40
0.7665781509
 40
0.8844442932
 40
1.0
 40
1.0
 40
1.0
 40
1.0
 10
6.6487432962
 20
9.968702291
 30
0.0
 10
6.6487432962
 20
9.9672734252
 30
0.0
 10
6.6489586065
 20
9.9644255251
 30
0.0
 10
6.6499081859
 20
9.960286194
 30
0.0
 10
6.6514261409
 20
9.9563975804
 30
0.0
 10
6.6534335289
 20
9.9528444845
 30
0.0
 10
6.6558446277
 20
9.949677141
 30
0.0
 10
6.6585787216
 20
9.9469187306
 30
0.0
 10
6.661564554
 20
9.9445748883
 30
0.0
 10
6.6637029178
 20
9.9432726342
 30
0.0
 10
6.6647936977
 20
9.9426908896
 30
0.0
  0
SPLINE
  5
48C
100
AcDbEntity
  8
0
100
AcDbSpline
 62
7
  6
CONTINUOUS
 70
0
 71
3
 72
15
 73
11
 74
0
 42
0.0000001
 43
0.0000001
 44
0.0000000001
 40
0.0
 40
0.0
 40
0.0
 40
0.0
 40
0.1309882268
 40
0.2610132344
 40
0.3893520782
 40
0.5155784179
 40
0.6395873734
 40
0.7614850841
 40
0.8815328967
 40
1.0
 40
1.0
 40
1.0
 40
1.0
 10
6.6547273543
 20
9.968702291
 30
0.0
 10
6.6547273543
 20
9.9672729042
 30
0.0
 10
6.654956838
 20
9.9644193799
 30
0.0
 10
6.6559680755
 20
9.9602755807
 30
0.0
 10
6.6575836166
 20
9.9563846381
 30
0.0
 10
6.6597186155
 20
9.9528314296
 30
0.0
 10
6.6622814352
 20
9.9496655095
 30
0.0
 10
6.6651861897
 20
9.9469093302
 30
0.0
 10
6.6683573605
 20
9.9445679135
 30
0.0
 10
6.6706213541
 20
9.9432709491
 30
0.0
 10
6.6717766631
 20
9.9426908896
 30
0.0
  0
SPLINE
  5
48D
100
AcDbEntity
  8
0
100
AcDbSpline
 62
7
  6
CONTINUOUS
 70
0
 71
3
 72
15
 73
11
 74
0
 42
0.0000001
 43
0.0000001
 44
0.0000000001
 40
0.0
 40
0.0
 40
0.0
 40
0.0
 40
0.128861552
 40
0.2570927115
 40
0.3842314977
 40
0.5100042763
 40
0.6343528123
 40
0.7573505439
 40
0.879178294
 40
1.0
 40
1.0
 40
1.0
 40
1.0
 10
6.6654561709
 20
9.968702291
 30
0.0
 10
6.6654561709
 20
9.9672724449
 30
0.0
 10
6.6656976066
 20
9.964413977
 30
0.0
 10
6.6667606734
 20
9.9602663995
 30
0.0
 10
6.6684580062
 20
9.9563737054
 30
0.0
 10
6.6706996864
 20
9.9528207082
 30
0.0
 10
6.6733891451
 20
9.949656232
 30
0.0
 10
6.6764362706
 20
9.9469020388
 30
0.0
 10
6.6797620806
 20
9.9445626371
 30
0.0
 10
6.6821309413
 20
9.9432696951
 30
0.0
 10
6.6833401929
 20
9.9426908896
 30
0.0
  0
SPLINE
  5
48E
100
AcDbEntity
  8
0
100
AcDbSpline
 62
7
  6
CONTINUOUS
 70
0
 71
3
 72
15
 73
11
 74
0
 42
0.0000001
 43
0.0000001
 44
0.0000000001
 40
0.0
 40
0.0
 40
0.0
 40
0.0
 40
0.1271932399
 40
0.2540224919
 40
0.3802317418
 40
0.5056634418
 40
0.6302894263
 40
0.7541510249
 40
0.8773613959
 40
1.0
 40
1.0
 40
1.0
 40
1.0
 10
6.6808264215
 20
9.968702291
 30
0.0
 10
6.6808264215
 20
9.9672720648
 30
0.0
 10
6.6810774169
 20
9.964409517
 30
0.0
 10
6.6821818197
 20
9.9602589246
 30
0.0
 10
6.6839442135
 20
9.9563649799
 30
0.0
 10
6.6862705701
 20
9.9528123453
 30
0.0
 10
6.6890604301
 20
9.9496491608
 30
0.0
 10
6.6922203982
 20
9.9468965999
 30
0.0
 10
6.6956688022
 20
9.9445587745
 30
0.0
 10
6.698120843
 20
9.943268788
 30
0.0
 10
6.6993729238
 20
9.9426908896
 30
0.0
  0
SPLINE
  5
48F
100
AcDbEntity
  8
0
100
AcDbSpline
 62
7
  6
CONTINUOUS
 70
0
 71
3
 72
15
 73
11
 74
0
 42
0.0000001
 43
0.0000001
 44
0.0000000001
 40
0.0
 40
0.0
 40
0.0
 40
0.0
 40
0.1259867691
 40
0.2518051878
 40
0.3773488053
 40
0.502541857
 40
0.6273743197
 40
0.7518609061
 40
0.8760636166
 40
1.0
 40
1.0
 40
1.0
 40
1.0
 10
6.7006900823
 20
9.968702291
 30
0.0
 10
6.7006900823
 20
9.9672717785
 30
0.0
 10
6.7009481029
 20
9.964406164
 30
0.0
 10
6.7020828101
 20
9.9602533664
 30
0.0
 10
6.703892799
 20
9.9563585912
 30
0.0
 10
6.7062809969
 20
9.9528063283
 30
0.0
 10
6.7091441238
 20
9.9496441602
 30
0.0
 10
6.7123864279
 20
9.9468928136
 30
0.0
 10
6.7159243027
 20
9.9445561216
 30
0.0
 10
6.7184370785
 20
9.9432681702
 30
0.0
 10
6.7197204519
 20
9.9426908896
 30
0.0
  0
SPLINE
  5
490
100
AcDbEntity
  8
0
100
AcDbSpline
 62
7
  6
CONTINUOUS
 70
0
 71
3
 72
14
 73
10
 74
0
 42
0.0000001
 43
0.0000001
 44
0.0000000001
 40
0.0
 40
0.0
 40
0.0
 40
0.0
 40
0.1252895096
 40
0.2505325797
 40
0.3757152317
 40
0.500811182
 40
0.6258200813
 40
0.750738847
 40
1.0
 40
1.0
 40
1.0
 40
1.0
 10
6.7248558553
 20
9.968702291
 30
0.0
 10
6.7248558553
 20
9.967271597
 30
0.0
 10
6.7251182615
 20
9.9644040394
 30
0.0
 10
6.7262718316
 20
9.9602498784
 30
0.0
 10
6.7281114603
 20
9.9563546009
 30
0.0
 10
6.7305379137
 20
9.9528026995
 30
0.0
 10
6.7334471145
 20
9.94964087
 30
0.0
 10
6.7378308065
 20
9.945978876
 30
0.0
 10
6.7415842356
 20
9.9438433668
 30
0.0
 10
6.7441868194
 20
9.9426908896
 30
0.0
  0
SPLINE
  5
491
100
AcDbEntity
  8
0
100
AcDbSpline
 62
7
  6
CONTINUOUS
 70
0
 71
3
 72
14
 73
10
 74
0
 42
0.0000001
 43
0.0000001
 44
0.0000000001
 40
0.0
 40
0.0
 40
0.0
 40
0.0
 40
0.1250071042
 40
0.2500142724
 40
0.3750426465
 40
0.5000845205
 40
0.6251429113
 40
0.7502077172
 40
1.0
 40
1.0
 40
1.0
 40
1.0
 10
6.753091011
 20
9.968702291
 30
0.0
 10
6.753091011
 20
9.9672715272
 30
0.0
 10
6.7533550895
 20
9.964403223
 30
0.0
 10
6.7545158543
 20
9.9602485409
 30
0.0
 10
6.7563667551
 20
9.9563530888
 30
0.0
 10
6.7588078314
 20
9.9528013006
 30
0.0
 10
6.7617343364
 20
9.9496397287
 30
0.0
 10
6.7661453687
 20
9.9459769482
 30
0.0
 10
6.7699197345
 20
9.9438427848
 30
0.0
 10
6.7725364018
 20
9.9426908896
 30
0.0
  0
SPLINE
  5
492
100
AcDbEntity
  8
0
100
AcDbSpline
 62
7
  6
CONTINUOUS
 70
0
 71
3
 72
14
 73
10
 74
0
 42
0.0000001
 43
0.0000001
 44
0.0000000001
 40
0.0
 40
0.0
 40
0.0
 40
0.0
 40
0.1251868083
 40
0.2503440726
 40
0.3754705835
 40
0.500546826
 40
0.6255736944
 40
0.7505455704
 40
1.0
 40
1.0
 40
1.0
 40
1.0
 10
6.7851236293
 20
9.968702291
 30
0.0
 10
6.7851236293
 20
9.9672715717
 30
0.0
 10
6.785386643
 20
9.9644037432
 30
0.0
 10
6.786542827
 20
9.9602493929
 30
0.0
 10
6.7883865518
 20
9.9563540514
 30
0.0
 10
6.7908183194
 20
9.9528021906
 30
0.0
 10
6.7937338091
 20
9.9496404543
 30
0.0
 10
6.7981274369
 20
9.9459781732
 30
0.0
 10
6.8018884755
 20
9.9438431544
 30
0.0
 10
6.8044961771
 20
9.9426908896
 30
0.0
  0
SPLINE
  5
493
100
AcDbEntity
  8
0
100
AcDbSpline
 62
7
  6
CONTINUOUS
 70
0
 71
3
 72
14
 73
10
 74
0
 42
0.0000001
 43
0.0000001
 44
0.0000000001
 40
0.0
 40
0.0
 40
0.0
 40
0.0
 40
0.1258288283
 40
0.2515227993
 40
0.3770009303
 40
0.5022011619
 40
0.6271162529
 40
0.751756114
 40
1.0
 40
1.0
 40
1.0
 40
1.0
 10
6.8206452186
 20
9.968702291
 30
0.0
 10
6.8206452186
 20
9.9672717288
 30
0.0
 10
6.8209044473
 20
9.964405581
 30
0.0
 10
6.8220443359
 20
9.9602524126
 30
0.0
 10
6.8238625153
 20
9.9563574792
 30
0.0
 10
6.8262611299
 20
9.9528053758
 30
0.0
 10
6.8291373809
 20
9.9496430637
 30
0.0
 10
6.8334690245
 20
9.9459825994
 30
0.0
 10
6.8371825757
 20
9.9438444966
 30
0.0
 10
6.8397583552
 20
9.9426908896
 30
0.0
  0
SPLINE
  5
494
100
AcDbEntity
  8
0
100
AcDbSpline
 62
7
  6
CONTINUOUS
 70
0
 71
3
 72
15
 73
11
 74
0
 42
0.0000001
 43
0.0000001
 44
0.0000000001
 40
0.0
 40
0.0
 40
0.0
 40
0.0
 40
0.1268851746
 40
0.2534560758
 40
0.379494833
 40
0.5048649582
 40
0.6295432069
 40
0.7535643787
 40
0.8770287396
 40
1.0
 40
1.0
 40
1.0
 40
1.0
 10
6.8593136867
 20
9.968702291
 30
0.0
 10
6.8593136867
 20
9.9672719926
 30
0.0
 10
6.8595664666
 20
9.9644086712
 30
0.0
 10
6.8606785734
 20
9.9602575177
 30
0.0
 10
6.8624530752
 20
9.9563633547
 30
0.0
 10
6.8647951723
 20
9.9528108063
 30
0.0
 10
6.8676036854
 20
9.949647875
 30
0.0
 10
6.870784616
 20
9.9468956216
 30
0.0
 10
6.8742557974
 20
9.9445580862
 30
0.0
 10
6.8767232977
 20
9.9432686273
 30
0.0
 10
6.8779833421
 20
9.9426908896
 30
0.0
  0
SPLINE
  5
495
100
AcDbEntity
  8
0
100
AcDbSpline
 62
7
  6
CONTINUOUS
 70
0
 71
3
 72
15
 73
11
 74
0
 42
0.0000001
 43
0.0000001
 44
0.0000000001
 40
0.0
 40
0.0
 40
0.0
 40
0.0
 40
0.1284510104
 40
0.256336751
 40
0.3832458258
 40
0.5089334752
 40
0.6333494005
 40
0.7565596544
 40
0.8787287592
 40
1.0
 40
1.0
 40
1.0
 40
1.0
 10
6.900756635
 20
9.968702291
 30
0.0
 10
6.900756635
 20
9.967272353
 30
0.0
 10
6.9010004072
 20
9.9644128981
 30
0.0
 10
6.9020735877
 20
9.9602645826
 30
0.0
 10
6.9037868535
 20
9.9563715702
 30
0.0
 10
6.9060492853
 20
9.952818646
 30
0.0
 10
6.9087633584
 20
9.949654475
 30
0.0
 10
6.9118381504
 20
9.946900678
 30
0.0
 10
6.9151940151
 20
9.9445616649
 30
0.0
 10
6.917583264
 20
9.9432694659
 30
0.0
 10
6.9188030102
 20
9.9426908896
 30
0.0
  0
SPLINE
  5
496
100
AcDbEntity
  8
0
100
AcDbSpline
 62
7
  6
CONTINUOUS
 70
0
 71
3
 72
15
 73
11
 74
0
 42
0.0000001
 43
0.0000001
 44
0.0000000001
 40
0.0
 40
0.0
 40
0.0
 40
0.0
 40
0.1304763778
 40
0.2600689586
 40
0.3881174335
 40
0.5142326783
 40
0.6383218854
 40
0.760484188
 40
0.8809621781
 40
1.0
 40
1.0
 40
1.0
 40
1.0
 10
6.9445749452
 20
9.968702291
 30
0.0
 10
6.9445749452
 20
9.9672727962
 30
0.0
 10
6.9448072832
 20
9.9644181076
 30
0.0
 10
6.9458309131
 20
9.960273406
 30
0.0
 10
6.9474660311
 20
9.9563820268
 30
0.0
 10
6.9496265874
 20
9.9528288436
 30
0.0
 10
6.9522197616
 20
9.9496632495
 30
0.0
 10
6.9551586465
 20
9.9469075375
 30
0.0
 10
6.9583668861
 20
9.9445666056
 30
0.0
 10
6.9606560126
 20
9.9432706366
 30
0.0
 10
6.9618242438
 20
9.9426908896
 30
0.0
  0
SPLINE
  5
497
100
AcDbEntity
  8
0
100
AcDbSpline
 62
7
  6
CONTINUOUS
 70
0
 71
3
 72
15
 73
11
 74
0
 42
0.0000001
 43
0.0000001
 44
0.0000000001
 40
0.0
 40
0.0
 40
0.0
 40
0.0
 40
0.1329534738
 40
0.2646427291
 40
0.3941054248
 40
0.5207697569
 40
0.6444795586
 40
0.7653626238
 40
0.8837483232
 40
1.0
 40
1.0
 40
1.0
 40
1.0
 10
6.9903466232
 20
9.968702291
 30
0.0
 10
6.9903466232
 20
9.9672733051
 30
0.0
 10
6.9905652654
 20
9.9644241067
 30
0.0
 10
6.9915293579
 20
9.9602837281
 30
0.0
 10
6.9930703088
 20
9.9563945437
 30
0.0
 10
6.9951077994
 20
9.9528413852
 30
0.0
 10
6.9975547128
 20
9.9496743455
 30
0.0
 10
7.0003291034
 20
9.9469164444
 30
0.0
 10
7.0033586971
 20
9.9445731738
 30
0.0
 10
7.0055267207
 20
9.943272217
 30
0.0
 10
7.006632725
 20
9.9426908896
 30
0.0
  0
SPLINE
  5
498
100
AcDbEntity
  8
0
100
AcDbSpline
 62
7
  6
CONTINUOUS
 70
0
 71
3
 72
15
 73
11
 74
0
 42
0.0000001
 43
0.0000001
 44
0.0000000001
 40
0.0
 40
0.0
 40
0.0
 40
0.0
 40
0.1358652049
 40
0.2700314499
 40
0.4011851449
 40
0.5285320479
 40
0.6518258282
 40
0.7712104845
 40
0.8871033274
 40
1.0
 40
1.0
 40
1.0
 40
1.0
 10
7.0376308625
 20
9.968702291
 30
0.0
 10
7.0376308625
 20
9.9672738604
 30
0.0
 10
7.0378337362
 20
9.964430671
 30
0.0
 10
7.0387290561
 20
9.9602952239
 30
0.0
 10
7.0401609076
 20
9.9564088567
 30
0.0
 10
7.042055415
 20
9.9528561923
 30
0.0
 10
7.0443320722
 20
9.9496878991
 30
0.0
 10
7.0469148237
 20
9.9469276932
 30
0.0
 10
7.0497362937
 20
9.9445817263
 30
0.0
 10
7.0517632603
 20
9.9432743177
 30
0.0
 10
7.0527969234
 20
9.9426908896
 30
0.0
  0
SPLINE
  5
499
100
AcDbEntity
  8
0
100
AcDbSpline
 62
7
  6
CONTINUOUS
 70
0
 71
3
 72
15
 73
11
 74
0
 42
0.0000001
 43
0.0000001
 44
0.0000000001
 40
0.0
 40
0.0
 40
0.0
 40
0.0
 40
0.1391793147
 40
0.2761805756
 40
0.4092959288
 40
0.5374691749
 40
0.6603313353
 40
0.7780205651
 40
0.8910327027
 40
1.0
 40
1.0
 40
1.0
 40
1.0
 10
7.0859722902
 20
9.968702291
 30
0.0
 10
7.0859722902
 20
9.9672744407
 30
0.0
 10
7.0861575283
 20
9.9644375522
 30
0.0
 10
7.0869756843
 20
9.9603075052
 30
0.0
 10
7.0882847735
 20
9.9564245975
 30
0.0
 10
7.0900179106
 20
9.9528730782
 30
0.0
 10
7.0921019723
 20
9.949703988
 30
0.0
 10
7.0944676574
 20
9.9469416041
 30
0.0
 10
7.0970533125
 20
9.9445927224
 30
0.0
 10
7.0989203747
 20
9.9432770937
 30
0.0
 10
7.0998722528
 20
9.9426908896
 30
0.0
  0
SPLINE
  5
49A
100
AcDbEntity
  8
0
100
AcDbSpline
 62
7
  6
CONTINUOUS
 70
0
 71
3
 72
15
 73
11
 74
0
 42
0.0000001
 43
0.0000001
 44
0.0000000001
 40
0.0
 40
0.0
 40
0.0
 40
0.0
 40
0.1268851245
 40
0.2534559881
 40
0.3794947439
 40
0.5048648934
 40
0.6295431649
 40
0.7535643671
 40
0.8770287273
 40
1.0
 40
1.0
 40
1.0
 40
1.0
 10
6.8593136867
 20
10.718702291
 30
0.0
 10
6.8593136867
 20
10.7201325888
 30
0.0
 10
6.8595664665
 20
10.7229959092
 30
0.0
 10
6.8606785725
 20
10.7271470619
 30
0.0
 10
6.862453074
 20
10.7310412248
 30
0.0
 10
6.8647951708
 20
10.7345937741
 30
0.0
 10
6.8676036845
 20
10.737756706
 30
0.0
 10
6.8707846154
 20
10.7405089601
 30
0.0
 10
6.8742557972
 20
10.7428464956
 30
0.0
 10
6.8767232975
 20
10.7441359546
 30
0.0
 10
6.8779833421
 20
10.7447136923
 30
0.0
  0
LINE
  5
49B
100
AcDbEntity
  8
0
100
AcDbLine
 62
7
  6
CONTINUOUS
 10
6.83997048
 20
9.968702291
 11
6.8397583552
 21
9.9426908896
  0
SPLINE
  5
49C
100
AcDbEntity
  8
0
100
AcDbSpline
 62
7
  6
CONTINUOUS
 70
0
 71
3
 72
14
 73
10
 74
0
 42
0.0000001
 43
0.0000001
 44
0.0000000001
 40
0.0
 40
0.0
 40
0.0
 40
0.0
 40
0.1258287786
 40
0.2515227121
 40
0.3770008416
 40
0.502201097
 40
0.6271162107
 40
0.7517561022
 40
1.0
 40
1.0
 40
1.0
 40
1.0
 10
6.8206452186
 20
10.718702291
 30
0.0
 10
6.8206452186
 20
10.7201328526
 30
0.0
 10
6.8209044471
 20
10.7229989994
 30
0.0
 10
6.822044335
 20
10.7271521669
 30
0.0
 10
6.8238625141
 20
10.7310471003
 30
0.0
 10
6.8262611283
 20
10.7345992046
 30
0.0
 10
6.82913738
 20
10.7377615173
 30
0.0
 10
6.8334690239
 20
10.7414219825
 30
0.0
 10
6.8371825755
 20
10.7435600854
 30
0.0
 10
6.8397583552
 20
10.7447136923
 30
0.0
  0
SPLINE
  5
49D
100
AcDbEntity
  8
0
100
AcDbSpline
 62
7
  6
CONTINUOUS
 70
0
 71
3
 72
14
 73
10
 74
0
 42
0.0000001
 43
0.0000001
 44
0.0000000001
 40
0.0
 40
0.0
 40
0.0
 40
0.0
 40
0.125186759
 40
0.2503439857
 40
0.375470495
 40
0.5005467611
 40
0.6255736522
 40
0.7505455585
 40
1.0
 40
1.0
 40
1.0
 40
1.0
 10
6.7851236293
 20
10.718702291
 30
0.0
 10
6.7851236293
 20
10.7201330097
 30
0.0
 10
6.7853866429
 20
10.7230008372
 30
0.0
 10
6.7865428261
 20
10.7271551867
 30
0.0
 10
6.7883865506
 20
10.7310505281
 30
0.0
 10
6.7908183178
 20
10.7346023898
 30
0.0
 10
6.7937338082
 20
10.7377641266
 30
0.0
 10
6.7981274362
 20
10.7414264086
 30
0.0
 10
6.8018884753
 20
10.7435614275
 30
0.0
 10
6.8044961771
 20
10.7447136923
 30
0.0
  0
SPLINE
  5
49E
100
AcDbEntity
  8
0
100
AcDbSpline
 62
7
  6
CONTINUOUS
 70
0
 71
3
 72
14
 73
10
 74
0
 42
0.0000001
 43
0.0000001
 44
0.0000000001
 40
0.0
 40
0.0
 40
0.0
 40
0.0
 40
0.1250070548
 40
0.2500141856
 40
0.375042558
 40
0.5000844556
 40
0.6251428691
 40
0.7502077053
 40
1.0
 40
1.0
 40
1.0
 40
1.0
 10
6.753091011
 20
10.718702291
 30
0.0
 10
6.753091011
 20
10.7201330542
 30
0.0
 10
6.7533550893
 20
10.7230013574
 30
0.0
 10
6.7545158534
 20
10.7271560386
 30
0.0
 10
6.7563667539
 20
10.7310514907
 30
0.0
 10
6.7588078298
 20
10.7346032798
 30
0.0
 10
6.7617343355
 20
10.7377648523
 30
0.0
 10
6.7661453681
 20
10.7414276336
 30
0.0
 10
6.7699197344
 20
10.7435617971
 30
0.0
 10
6.7725364018
 20
10.7447136923
 30
0.0
  0
SPLINE
  5
49F
100
AcDbEntity
  8
0
100
AcDbSpline
 62
7
  6
CONTINUOUS
 70
0
 71
3
 72
14
 73
10
 74
0
 42
0.0000001
 43
0.0000001
 44
0.0000000001
 40
0.0
 40
0.0
 40
0.0
 40
0.0
 40
0.1252894602
 40
0.2505324928
 40
0.3757151432
 40
0.5008111171
 40
0.6258200391
 40
0.7507388351
 40
1.0
 40
1.0
 40
1.0
 40
1.0
 10
6.7248558553
 20
10.718702291
 30
0.0
 10
6.7248558553
 20
10.7201329844
 30
0.0
 10
6.7251182614
 20
10.723000541
 30
0.0
 10
6.7262718307
 20
10.7271547012
 30
0.0
 10
6.7281114591
 20
10.7310499786
 30
0.0
 10
6.7305379121
 20
10.7346018808
 30
0.0
 10
6.7334471137
 20
10.737763711
 30
0.0
 10
6.7378308058
 20
10.7414257058
 30
0.0
 10
6.7415842355
 20
10.7435612151
 30
0.0
 10
6.7441868194
 20
10.7447136923
 30
0.0
  0
SPLINE
  5
4A0
100
AcDbEntity
  8
0
100
AcDbSpline
 62
7
  6
CONTINUOUS
 70
0
 71
3
 72
15
 73
11
 74
0
 42
0.0000001
 43
0.0000001
 44
0.0000000001
 40
0.0
 40
0.0
 40
0.0
 40
0.0
 40
0.1259867195
 40
0.2518051006
 40
0.3773487166
 40
0.5025417923
 40
0.6273742776
 40
0.7518608943
 40
0.8760636043
 40
1.0
 40
1.0
 40
1.0
 40
1.0
 10
6.7006900823
 20
10.718702291
 30
0.0
 10
6.7006900823
 20
10.7201328029
 30
0.0
 10
6.7009481028
 20
10.7229984164
 30
0.0
 10
6.7020828092
 20
10.7271512132
 30
0.0
 10
6.7038927978
 20
10.7310459883
 30
0.0
 10
6.7062809954
 20
10.7345982521
 30
0.0
 10
6.709144123
 20
10.7377604207
 30
0.0
 10
6.7123864272
 20
10.7405117681
 30
0.0
 10
6.7159243025
 20
10.7428484602
 30
0.0
 10
6.7184370784
 20
10.7441364117
 30
0.0
 10
6.7197204519
 20
10.7447136923
 30
0.0
  0
SPLINE
  5
4A1
100
AcDbEntity
  8
0
100
AcDbSpline
 62
7
  6
CONTINUOUS
 70
0
 71
3
 72
15
 73
11
 74
0
 42
0.0000001
 43
0.0000001
 44
0.0000000001
 40
0.0
 40
0.0
 40
0.0
 40
0.0
 40
0.1271931897
 40
0.2540224041
 40
0.3802316527
 40
0.505663377
 40
0.6302893843
 40
0.7541510133
 40
0.8773613837
 40
1.0
 40
1.0
 40
1.0
 40
1.0
 10
6.6808264215
 20
10.718702291
 30
0.0
 10
6.6808264215
 20
10.7201325166
 30
0.0
 10
6.6810774168
 20
10.7229950634
 30
0.0
 10
6.6821818188
 20
10.7271456549
 30
0.0
 10
6.6839442124
 20
10.7310395996
 30
0.0
 10
6.6862705686
 20
10.7345922351
 30
0.0
 10
6.6890604293
 20
10.7377554201
 30
0.0
 10
6.6922203975
 20
10.7405079818
 30
0.0
 10
6.695668802
 20
10.7428458073
 30
0.0
 10
6.6981208429
 20
10.7441357939
 30
0.0
 10
6.6993729238
 20
10.7447136923
 30
0.0
  0
SPLINE
  5
4A2
100
AcDbEntity
  8
0
100
AcDbSpline
 62
7
  6
CONTINUOUS
 70
0
 71
3
 72
15
 73
11
 74
0
 42
0.0000001
 43
0.0000001
 44
0.0000000001
 40
0.0
 40
0.0
 40
0.0
 40
0.0
 40
0.1288615012
 40
0.2570926228
 40
0.3842314081
 40
0.5100042116
 40
0.6343527705
 40
0.7573505324
 40
0.8791782819
 40
1.0
 40
1.0
 40
1.0
 40
1.0
 10
6.6654561709
 20
10.718702291
 30
0.0
 10
6.6654561709
 20
10.7201321365
 30
0.0
 10
6.6656976064
 20
10.7229906034
 30
0.0
 10
6.6667606726
 20
10.7271381801
 30
0.0
 10
6.6684580051
 20
10.7310308741
 30
0.0
 10
6.670699685
 20
10.7345838722
 30
0.0
 10
6.6733891443
 20
10.737748349
 30
0.0
 10
6.6764362699
 20
10.7405025429
 30
0.0
 10
6.6797620804
 20
10.7428419447
 30
0.0
 10
6.6821309412
 20
10.7441348869
 30
0.0
 10
6.6833401929
 20
10.7447136923
 30
0.0
  0
SPLINE
  5
4A3
100
AcDbEntity
  8
0
100
AcDbSpline
 62
7
  6
CONTINUOUS
 70
0
 71
3
 72
15
 73
11
 74
0
 42
0.0000001
 43
0.0000001
 44
0.0000000001
 40
0.0
 40
0.0
 40
0.0
 40
0.0
 40
0.1335637421
 40
0.2657710777
 40
0.3955856976
 40
0.5223897953
 40
0.6460096756
 40
0.7665781386
 40
0.8844442814
 40
1.0
 40
1.0
 40
1.0
 40
1.0
 10
7.6460674076
 20
9.968702291
 30
0.0
 10
7.6460674076
 20
9.967273426
 30
0.0
 10
7.6458520975
 20
9.964425527
 30
0.0
 10
7.6449025188
 20
9.9602861968
 30
0.0
 10
7.6433845641
 20
9.956397583
 30
0.0
 10
7.6413771762
 20
9.9528444862
 30
0.0
 10
7.6389660769
 20
9.949677142
 30
0.0
 10
7.6362319828
 20
9.946918731
 30
0.0
 10
7.63324615
 20
9.9445748885
 30
0.0
 10
7.6311077862
 20
9.9432726343
 30
0.0
 10
7.6300170062
 20
9.9426908896
 30
0.0
  0
SPLINE
  5
4A4
100
AcDbEntity
  8
0
100
AcDbSpline
 62
7
  6
CONTINUOUS
 70
0
 71
3
 72
15
 73
11
 74
0
 42
0.0000001
 43
0.0000001
 44
0.0000000001
 40
0.0
 40
0.0
 40
0.0
 40
0.0
 40
0.1259867562
 40
0.2518051779
 40
0.377348806
 40
0.5025418592
 40
0.6273743214
 40
0.7518609047
 40
0.8760636173
 40
1.0
 40
1.0
 40
1.0
 40
1.0
 10
7.5941206216
 20
10.718702291
 30
0.0
 10
7.5941206216
 20
10.7201328033
 30
0.0
 10
7.593862601
 20
10.7229984177
 30
0.0
 10
7.5927278938
 20
10.7271512153
 30
0.0
 10
7.5909179049
 20
10.7310459907
 30
0.0
 10
7.5885297069
 20
10.7345982537
 30
0.0
 10
7.58566658
 20
10.7377604218
 30
0.0
 10
7.5824242759
 20
10.7405117684
 30
0.0
 10
7.5788864012
 20
10.7428484604
 30
0.0
 10
7.5763736254
 20
10.7441364118
 30
0.0
 10
7.5750902519
 20
10.7447136923
 30
0.0
  0
SPLINE
  5
4A5
100
AcDbEntity
  8
0
100
AcDbSpline
 62
7
  6
CONTINUOUS
 70
0
 71
3
 72
15
 73
11
 74
0
 42
0.0000001
 43
0.0000001
 44
0.0000000001
 40
0.0
 40
0.0
 40
0.0
 40
0.0
 40
0.1309881752
 40
0.2610131446
 40
0.3893519878
 40
0.5155783532
 40
0.6395873317
 40
0.7614850728
 40
0.8815328848
 40
1.0
 40
1.0
 40
1.0
 40
1.0
 10
6.6547273543
 20
10.718702291
 30
0.0
 10
6.6547273543
 20
10.7201316772
 30
0.0
 10
6.6549568379
 20
10.7229852005
 30
0.0
 10
6.6559680747
 20
10.7271289989
 30
0.0
 10
6.6575836156
 20
10.7310199414
 30
0.0
 10
6.6597186141
 20
10.7345731507
 30
0.0
 10
6.6622814345
 20
10.7377390715
 30
0.0
 10
6.6651861891
 20
10.7404952515
 30
0.0
 10
6.6683573604
 20
10.7428366683
 30
0.0
 10
6.6706213539
 20
10.7441336328
 30
0.0
 10
6.6717766631
 20
10.7447136923
 30
0.0
  0
SPLINE
  5
4A6
100
AcDbEntity
  8
0
100
AcDbSpline
 62
7
  6
CONTINUOUS
 70
0
 71
3
 72
15
 73
11
 74
0
 42
0.0000001
 43
0.0000001
 44
0.0000000001
 40
0.0
 40
0.0
 40
0.0
 40
0.0
 40
0.1335637618
 40
0.2657710941
 40
0.3955857008
 40
0.5223897968
 40
0.6460096769
 40
0.7665781399
 40
0.8844442815
 40
1.0
 40
1.0
 40
1.0
 40
1.0
 10
6.6487432962
 20
10.718702291
 30
0.0
 10
6.6487432962
 20
10.7201311562
 30
0.0
 10
6.6489586064
 20
10.7229790554
 30
0.0
 10
6.6499081851
 20
10.7271183856
 30
0.0
 10
6.6514261399
 20
10.7310069992
 30
0.0
 10
6.6534335276
 20
10.7345600959
 30
0.0
 10
6.655844627
 20
10.73772744
 30
0.0
 10
6.658578721
 20
10.740485851
 30
0.0
 10
6.6615645538
 20
10.7428296935
 30
0.0
 10
6.6637029177
 20
10.7441319477
 30
0.0
 10
6.6647936977
 20
10.7447136923
 30
0.0
  0
SPLINE
  5
4A7
100
AcDbEntity
  8
0
100
AcDbSpline
 62
7
  6
CONTINUOUS
 70
0
 71
3
 72
14
 73
10
 74
0
 42
0.0000001
 43
0.0000001
 44
0.0000000001
 40
0.0
 40
0.0
 40
0.0
 40
0.0
 40
0.1252894968
 40
0.2505325699
 40
0.3757152324
 40
0.5008111842
 40
0.625820083
 40
0.7507388456
 40
1.0
 40
1.0
 40
1.0
 40
1.0
 10
7.5699548486
 20
10.718702291
 30
0.0
 10
7.5699548486
 20
10.7201329848
 30
0.0
 10
7.5696924424
 20
10.7230005424
 30
0.0
 10
7.5685388723
 20
10.7271547033
 30
0.0
 10
7.5666992436
 20
10.731049981
 30
0.0
 10
7.5642727901
 20
10.7346018825
 30
0.0
 10
7.5613635893
 20
10.7377637121
 30
0.0
 10
7.5569798974
 20
10.7414257059
 30
0.0
 10
7.5532264683
 20
10.7435612152
 30
0.0
 10
7.5506238844
 20
10.7447136923
 30
0.0
  0
SPLINE
  5
4A8
100
AcDbEntity
  8
0
100
AcDbSpline
 62
7
  6
CONTINUOUS
 70
0
 71
3
 72
14
 73
10
 74
0
 42
0.0000001
 43
0.0000001
 44
0.0000000001
 40
0.0
 40
0.0
 40
0.0
 40
0.0
 40
0.1250070913
 40
0.2500142626
 40
0.3750426472
 40
0.5000845227
 40
0.625142913
 40
0.7502077158
 40
1.0
 40
1.0
 40
1.0
 40
1.0
 10
7.5417196929
 20
10.718702291
 30
0.0
 10
7.5417196929
 20
10.7201330547
 30
0.0
 10
7.5414556144
 20
10.7230013587
 30
0.0
 10
7.5402948496
 20
10.7271560408
 30
0.0
 10
7.5384439488
 20
10.7310514932
 30
0.0
 10
7.5360028724
 20
10.7346032814
 30
0.0
 10
7.5330763675
 20
10.7377648534
 30
0.0
 10
7.5286653351
 20
10.7414276338
 30
0.0
 10
7.5248909693
 20
10.7435617972
 30
0.0
 10
7.522274302
 20
10.7447136923
 30
0.0
  0
SPLINE
  5
4A9
100
AcDbEntity
  8
0
100
AcDbSpline
 62
7
  6
CONTINUOUS
 70
0
 71
3
 72
14
 73
10
 74
0
 42
0.0000001
 43
0.0000001
 44
0.0000000001
 40
0.0
 40
0.0
 40
0.0
 40
0.0
 40
0.1251867955
 40
0.2503440627
 40
0.3754705842
 40
0.5005468282
 40
0.6255736961
 40
0.750545569
 40
1.0
 40
1.0
 40
1.0
 40
1.0
 10
7.5096870746
 20
10.718702291
 30
0.0
 10
7.5096870746
 20
10.7201330102
 30
0.0
 10
7.5094240609
 20
10.7230008385
 30
0.0
 10
7.5082678769
 20
10.7271551889
 30
0.0
 10
7.5064241521
 20
10.7310505306
 30
0.0
 10
7.5039923844
 20
10.7346023914
 30
0.0
 10
7.5010768947
 20
10.7377641277
 30
0.0
 10
7.496683267
 20
10.7414264087
 30
0.0
 10
7.4929222284
 20
10.7435614276
 30
0.0
 10
7.4903145267
 20
10.7447136923
 30
0.0
  0
SPLINE
  5
4AA
100
AcDbEntity
  8
0
100
AcDbSpline
 62
7
  6
CONTINUOUS
 70
0
 71
3
 72
14
 73
10
 74
0
 42
0.0000001
 43
0.0000001
 44
0.0000000001
 40
0.0
 40
0.0
 40
0.0
 40
0.0
 40
0.1258288154
 40
0.2515227894
 40
0.377000931
 40
0.5022011641
 40
0.6271162546
 40
0.7517561126
 40
1.0
 40
1.0
 40
1.0
 40
1.0
 10
7.4741654852
 20
10.718702291
 30
0.0
 10
7.4741654852
 20
10.720132853
 30
0.0
 10
7.4739062566
 20
10.7229990007
 30
0.0
 10
7.472766368
 20
10.7271521691
 30
0.0
 10
7.4709481886
 20
10.7310471027
 30
0.0
 10
7.4685495739
 20
10.7345992062
 30
0.0
 10
7.4656733229
 20
10.7377615183
 30
0.0
 10
7.4613416793
 20
10.7414219826
 30
0.0
 10
7.4576281282
 20
10.7435600854
 30
0.0
 10
7.4550523486
 20
10.7447136923
 30
0.0
  0
SPLINE
  5
4AB
100
AcDbEntity
  8
0
100
AcDbSpline
 62
7
  6
CONTINUOUS
 70
0
 71
3
 72
15
 73
11
 74
0
 42
0.0000001
 43
0.0000001
 44
0.0000000001
 40
0.0
 40
0.0
 40
0.0
 40
0.0
 40
0.1268851615
 40
0.2534560658
 40
0.3794948337
 40
0.5048649604
 40
0.6295432086
 40
0.7535643774
 40
0.8770287402
 40
1.0
 40
1.0
 40
1.0
 40
1.0
 10
7.4354970172
 20
10.718702291
 30
0.0
 10
7.4354970172
 20
10.7201325892
 30
0.0
 10
7.4352442372
 20
10.7229959105
 30
0.0
 10
7.4341321305
 20
10.7271470641
 30
0.0
 10
7.4323576287
 20
10.7310412272
 30
0.0
 10
7.4300155315
 20
10.7345937757
 30
0.0
 10
7.4272070185
 20
10.7377567071
 30
0.0
 10
7.4240260878
 20
10.7405089604
 30
0.0
 10
7.4205549065
 20
10.7428464958
 30
0.0
 10
7.4180874062
 20
10.7441359547
 30
0.0
 10
7.4168273618
 20
10.7447136923
 30
0.0
  0
SPLINE
  5
4AC
100
AcDbEntity
  8
0
100
AcDbSpline
 62
7
  6
CONTINUOUS
 70
0
 71
3
 72
15
 73
11
 74
0
 42
0.0000001
 43
0.0000001
 44
0.0000000001
 40
0.0
 40
0.0
 40
0.0
 40
0.0
 40
0.1284510004
 40
0.256336743
 40
0.3832458258
 40
0.5089334765
 40
0.6333494016
 40
0.7565596532
 40
0.8787287595
 40
1.0
 40
1.0
 40
1.0
 40
1.0
 10
7.3940540689
 20
10.718702291
 30
0.0
 10
7.3940540689
 20
10.7201322288
 30
0.0
 10
7.3938102966
 20
10.7229916837
 30
0.0
 10
7.3927371162
 20
10.7271399992
 30
0.0
 10
7.3910238504
 20
10.7310330118
 30
0.0
 10
7.3887614185
 20
10.734585936
 30
0.0
 10
7.3860473454
 20
10.737750107
 30
0.0
 10
7.3829725534
 20
10.740503904
 30
0.0
 10
7.3796166887
 20
10.7428429171
 30
0.0
 10
7.3772274398
 20
10.7441351161
 30
0.0
 10
7.3760076936
 20
10.7447136923
 30
0.0
  0
SPLINE
  5
4AD
100
AcDbEntity
  8
0
100
AcDbSpline
 62
7
  6
CONTINUOUS
 70
0
 71
3
 72
15
 73
11
 74
0
 42
0.0000001
 43
0.0000001
 44
0.0000000001
 40
0.0
 40
0.0
 40
0.0
 40
0.0
 40
0.1080169702
 40
0.2203386067
 40
0.3376272609
 40
0.4603935753
 40
0.5887709214
 40
0.7223571421
 40
0.8600338106
 40
1.0
 40
1.0
 40
1.0
 40
1.0
 10
12.7897936977
 20
7.2136908896
 30
0.0
 10
12.788861207
 20
7.2142778214
 30
0.0
 10
12.7870321319
 20
7.2155955464
 30
0.0
 10
12.7845024487
 20
7.2179450733
 30
0.0
 10
12.7821882616
 20
7.2207078787
 30
0.0
 10
12.7801498381
 20
7.2238770475
 30
0.0
 10
12.7784548824
 20
7.2274282057
 30
0.0
 10
12.7771747768
 20
7.2313102642
 30
0.0
 10
12.7763748146
 20
7.2354390771
 30
0.0
 10
12.7761937248
 20
7.2382745631
 30
0.0
 10
12.7761937248
 20
7.239702291
 30
0.0
  0
SPLINE
  5
4AE
100
AcDbEntity
  8
0
100
AcDbSpline
 62
7
  6
CONTINUOUS
 70
0
 71
3
 72
14
 73
10
 74
0
 42
0.0000001
 43
0.0000001
 44
0.0000000001
 40
0.0
 40
0.0
 40
0.0
 40
0.0
 40
0.1034607817
 40
0.2125277728
 40
0.3279861411
 40
0.4503947675
 40
0.579840388
 40
0.7157529559
 40
1.0
 40
1.0
 40
1.0
 40
1.0
 10
12.7967766631
 20
7.2136908896
 30
0.0
 10
12.7959365382
 20
7.2142817179
 30
0.0
 10
12.79428891
 20
7.2156102897
 30
0.0
 10
12.7920260889
 20
7.217962608
 30
0.0
 10
12.7899572529
 20
7.2207270055
 30
0.0
 10
12.7881360385
 20
7.2238958388
 30
0.0
 10
12.7866223917
 20
7.2274455913
 30
0.0
 10
12.7850773031
 20
7.2326871655
 30
0.0
 10
12.7846046124
 20
7.2368805097
 30
0.0
 10
12.7846046124
 20
7.239702291
 30
0.0
  0
SPLINE
  5
4AF
100
AcDbEntity
  8
0
100
AcDbSpline
 62
7
  6
CONTINUOUS
 70
0
 71
3
 72
14
 73
10
 74
0
 42
0.0000001
 43
0.0000001
 44
0.0000000001
 40
0.0
 40
0.0
 40
0.0
 40
0.0
 40
0.0983651152
 40
0.2038482003
 40
0.3173219032
 40
0.4393498119
 40
0.5699289802
 40
0.7082850564
 40
1.0
 40
1.0
 40
1.0
 40
1.0
 10
12.8083401929
 20
7.2136908896
 30
0.0
 10
12.8076003424
 20
7.2142868513
 30
0.0
 10
12.8061507086
 20
7.2156287382
 30
0.0
 10
12.8041774793
 20
7.2179832348
 30
0.0
 10
12.8023744149
 20
7.2207481636
 30
0.0
 10
12.8007878932
 20
7.2239158216
 30
0.0
 10
12.7994697228
 20
7.2274624096
 30
0.0
 10
12.7981209368
 20
7.2327135683
 30
0.0
 10
12.7977132878
 20
7.236884862
 30
0.0
 10
12.7977132878
 20
7.239702291
 30
0.0
  0
SPLINE
  5
4B0
100
AcDbEntity
  8
0
100
AcDbSpline
 62
7
  6
CONTINUOUS
 70
0
 71
3
 72
14
 73
10
 74
0
 42
0.0000001
 43
0.0000001
 44
0.0000000001
 40
0.0
 40
0.0
 40
0.0
 40
0.0
 40
0.1943465975
 40
0.3058456213
 40
0.4275810372
 40
0.5594139818
 40
0.7003356787
 40
0.8482431437
 40
1.0
 40
1.0
 40
1.0
 40
1.0
 10
12.8243729238
 20
7.2136908896
 30
0.0
 10
12.8230510401
 20
7.2149510512
 30
0.0
 10
12.8212587151
 20
7.2172463194
 30
0.0
 10
12.8193218127
 20
7.2207698381
 30
0.0
 10
12.8179840541
 20
7.2239362318
 30
0.0
 10
12.8168735588
 20
7.2274782972
 30
0.0
 10
12.8160352971
 20
7.2313468663
 30
0.0
 10
12.8155118021
 20
7.2354587254
 30
0.0
 10
12.8153935073
 20
7.2382762097
 30
0.0
 10
12.8153935073
 20
7.239702291
 30
0.0
  0
SPLINE
  5
4B1
100
AcDbEntity
  8
0
100
AcDbSpline
 62
7
  6
CONTINUOUS
 70
0
 71
3
 72
15
 73
11
 74
0
 42
0.0000001
 43
0.0000001
 44
0.0000000001
 40
0.0
 40
0.0
 40
0.0
 40
0.0
 40
0.0874129531
 40
0.1854968044
 40
0.2950894874
 40
0.4165833637
 40
0.5496642192
 40
0.6930741756
 40
0.8443726194
 40
1.0
 40
1.0
 40
1.0
 40
1.0
 10
12.8447204519
 20
7.2136908896
 30
0.0
 10
12.8442031179
 20
7.2143020944
 30
0.0
 10
12.8431963976
 20
7.2156775655
 30
0.0
 10
12.8418582037
 20
7.2180317028
 30
0.0
 10
12.8406356732
 20
7.2207931443
 30
0.0
 10
12.8395599231
 20
7.2239550514
 30
0.0
 10
12.8386661296
 20
7.2274933116
 30
0.0
 10
12.837991535
 20
7.2313571267
 30
0.0
 10
12.8375701727
 20
7.2354640643
 30
0.0
 10
12.8374750007
 20
7.2382766541
 30
0.0
 10
12.8374750007
 20
7.239702291
 30
0.0
  0
SPLINE
  5
4B2
100
AcDbEntity
  8
0
100
AcDbSpline
 62
7
  6
CONTINUOUS
 70
0
 71
3
 72
15
 73
11
 74
0
 42
0.0000001
 43
0.0000001
 44
0.0000000001
 40
0.0
 40
0.0
 40
0.0
 40
0.0
 40
0.0822330422
 40
0.1769906144
 40
0.2849569609
 40
0.4063542386
 40
0.5406734303
 40
0.6864157204
 40
0.8408350147
 40
1.0
 40
1.0
 40
1.0
 40
1.0
 10
12.8691868194
 20
7.2136908896
 30
0.0
 10
12.8687917714
 20
7.2143123248
 30
0.0
 10
12.8680287553
 20
7.2157059038
 30
0.0
 10
12.8670279685
 20
7.2180564414
 30
0.0
 10
12.8661130008
 20
7.2208138999
 30
0.0
 10
12.8653073832
 20
7.2239717643
 30
0.0
 10
12.8646377609
 20
7.2275059594
 30
0.0
 10
12.8641322297
 20
7.2313656249
 30
0.0
 10
12.8638164218
 20
7.2354684123
 30
0.0
 10
12.8637451111
 20
7.2382770156
 30
0.0
 10
12.8637451111
 20
7.239702291
 30
0.0
  0
SPLINE
  5
4B3
100
AcDbEntity
  8
0
100
AcDbSpline
 62
7
  6
CONTINUOUS
 70
0
 71
3
 72
15
 73
11
 74
0
 42
0.0000001
 43
0.0000001
 44
0.0000000001
 40
0.0
 40
0.0
 40
0.0
 40
0.0
 40
0.0779168026
 40
0.1699945799
 40
0.2767045178
 40
0.3980835238
 40
0.5334421279
 40
0.6810794187
 40
0.8380057476
 40
1.0
 40
1.0
 40
1.0
 40
1.0
 10
12.8975364018
 20
7.2136908896
 30
0.0
 10
12.8972715985
 20
7.2143230797
 30
0.0
 10
12.8967651916
 20
7.2157323789
 30
0.0
 10
12.8961087546
 20
7.2180777446
 30
0.0
 10
12.8955079016
 20
7.220830718
 30
0.0
 10
12.8949783837
 20
7.2239847601
 30
0.0
 10
12.8945380461
 20
7.2275155129
 30
0.0
 10
12.8942055145
 20
7.2313719255
 30
0.0
 10
12.8939977488
 20
7.2354716016
 30
0.0
 10
12.8939508431
 20
7.2382772804
 30
0.0
 10
12.8939508431
 20
7.239702291
 30
0.0
  0
SPLINE
  5
4B4
100
AcDbEntity
  8
0
100
AcDbSpline
 62
7
  6
CONTINUOUS
 70
0
 71
3
 72
14
 73
10
 74
0
 42
0.0000001
 43
0.0000001
 44
0.0000000001
 40
0.0
 40
0.0
 40
0.0
 40
0.0
 40
0.0750840807
 40
0.1654523464
 40
0.2713881107
 40
0.3927857932
 40
0.5288300898
 40
0.6776878559
 40
1.0
 40
1.0
 40
1.0
 40
1.0
 10
12.9294961771
 20
7.2136908896
 30
0.0
 10
12.9293693174
 20
7.2143316068
 30
0.0
 10
12.9291289179
 20
7.2157512231
 30
0.0
 10
12.9288196981
 20
7.218092016
 30
0.0
 10
12.9285363659
 20
7.2208414679
 30
0.0
 10
12.9282864776
 20
7.2239928302
 30
0.0
 10
12.9280785637
 20
7.2275213355
 30
0.0
 10
12.9278637307
 20
7.232799307
 30
0.0
 10
12.9278012988
 20
7.2368985023
 30
0.0
 10
12.9278012988
 20
7.239702291
 30
0.0
  0
SPLINE
  5
4B5
100
AcDbEntity
  8
0
100
AcDbSpline
 62
7
  6
CONTINUOUS
 70
0
 71
3
 72
14
 73
10
 74
0
 42
0.0000001
 43
0.0000001
 44
0.0000000001
 40
0.0
 40
0.0
 40
0.0
 40
0.0
 40
0.3223106079
 40
0.4711686308
 40
0.6072126895
 40
0.7286108139
 40
0.8345470428
 40
0.9249157678
 40
1.0
 40
1.0
 40
1.0
 40
1.0
 10
13.617009405
 20
7.239702291
 30
0.0
 10
13.617009405
 20
7.2368985157
 30
0.0
 10
13.616946973
 20
7.2327993315
 30
0.0
 10
13.6167321423
 20
7.2275213731
 30
0.0
 10
13.6165242284
 20
7.2239928639
 30
0.0
 10
13.6162743404
 20
7.2208414957
 30
0.0
 10
13.6159910078
 20
7.2180920318
 30
0.0
 10
13.6156817869
 20
7.2157512296
 30
0.0
 10
13.6154413867
 20
7.2143316081
 30
0.0
 10
13.6153145267
 20
7.2136908896
 30
0.0
  0
SPLINE
  5
4B6
100
AcDbEntity
  8
0
100
AcDbSpline
 62
7
  6
CONTINUOUS
 70
0
 71
3
 72
15
 73
11
 74
0
 42
0.0000001
 43
0.0000001
 44
0.0000000001
 40
0.0
 40
0.0
 40
0.0
 40
0.0
 40
0.1619933421
 40
0.3189190603
 40
0.466556601
 40
0.6019149645
 40
0.7232944041
 40
0.8300048011
 40
0.9220830421
 40
1.0
 40
1.0
 40
1.0
 40
1.0
 10
13.6508598608
 20
7.239702291
 30
0.0
 10
13.6508598608
 20
7.2382772884
 30
0.0
 10
13.6508129558
 20
7.235471623
 30
0.0
 10
13.6506051906
 20
7.2313719581
 30
0.0
 10
13.6502726622
 20
7.2275155505
 30
0.0
 10
13.6498323246
 20
7.2239847938
 30
0.0
 10
13.6493028075
 20
7.2208307457
 30
0.0
 10
13.6487019535
 20
7.2180777603
 30
0.0
 10
13.6480455144
 20
7.2157323854
 30
0.0
 10
13.6475391059
 20
7.214323081
 30
0.0
 10
13.647274302
 20
7.2136908896
 30
0.0
  0
SPLINE
  5
4B7
100
AcDbEntity
  8
0
100
AcDbSpline
 62
7
  6
CONTINUOUS
 70
0
 71
3
 72
15
 73
11
 74
0
 42
0.0000001
 43
0.0000001
 44
0.0000000001
 40
0.0
 40
0.0
 40
0.0
 40
0.0
 40
0.1591640908
 40
0.3135827826
 40
0.4593253113
 40
0.5936442578
 40
0.7150419562
 40
0.8230087535
 40
0.9177667967
 40
1.0
 40
1.0
 40
1.0
 40
1.0
 10
13.6810655927
 20
7.239702291
 30
0.0
 10
13.6810655927
 20
7.2382770236
 30
0.0
 10
13.6809942832
 20
7.2354684337
 30
0.0
 10
13.6806784761
 20
7.2313656576
 30
0.0
 10
13.6801729497
 20
7.227505997
 30
0.0
 10
13.6795033274
 20
7.2239717981
 30
0.0
 10
13.6786977112
 20
7.2208139277
 30
0.0
 10
13.6777827418
 20
7.218056457
 30
0.0
 10
13.6767819518
 20
7.2157059101
 30
0.0
 10
13.6760189332
 20
7.214312326
 30
0.0
 10
13.6756238844
 20
7.2136908896
 30
0.0
  0
SPLINE
  5
4B8
100
AcDbEntity
  8
0
100
AcDbSpline
 62
7
  6
CONTINUOUS
 70
0
 71
3
 72
15
 73
11
 74
0
 42
0.0000001
 43
0.0000001
 44
0.0000000001
 40
0.0
 40
0.0
 40
0.0
 40
0.0
 40
0.1556265057
 40
0.3069243571
 40
0.4503345377
 40
0.583415142
 40
0.7049094229
 40
0.8145025469
 40
0.9125868786
 40
1.0
 40
1.0
 40
1.0
 40
1.0
 10
13.7073357032
 20
7.239702291
 30
0.0
 10
13.7073357032
 20
7.2382766621
 30
0.0
 10
13.7072405326
 20
7.2354640857
 30
0.0
 10
13.7068191714
 20
7.2313571596
 30
0.0
 10
13.7061445833
 20
7.2274933491
 30
0.0
 10
13.7052507899
 20
7.2239550853
 30
0.0
 10
13.7041750414
 20
7.2207931719
 30
0.0
 10
13.7029525087
 20
7.2180317181
 30
0.0
 10
13.7016143104
 20
7.2156775717
 30
0.0
 10
13.700607587
 20
7.2143020956
 30
0.0
 10
13.7000902519
 20
7.2136908896
 30
0.0
  0
SPLINE
  5
4B9
100
AcDbEntity
  8
0
100
AcDbSpline
 62
7
  6
CONTINUOUS
 70
0
 71
3
 72
14
 73
10
 74
0
 42
0.0000001
 43
0.0000001
 44
0.0000000001
 40
0.0
 40
0.0
 40
0.0
 40
0.0
 40
0.1517560033
 40
0.299662887
 40
0.4405847922
 40
0.5724174786
 40
0.6941532821
 40
0.8056527372
 40
1.0
 40
1.0
 40
1.0
 40
1.0
 10
13.7294171965
 20
7.239702291
 30
0.0
 10
13.7294171965
 20
7.2382762177
 30
0.0
 10
13.7292989036
 20
7.2354587468
 30
0.0
 10
13.72877541
 20
7.2313468993
 30
0.0
 10
13.7279371563
 20
7.2274783347
 30
0.0
 10
13.7268266611
 20
7.2239362659
 30
0.0
 10
13.7254889045
 20
7.2207698656
 30
0.0
 10
13.7235519991
 20
7.2172463326
 30
0.0
 10
13.7217596682
 20
7.2149510555
 30
0.0
 10
13.72043778
 20
7.2136908896
 30
0.0
  0
SPLINE
  5
4BA
100
AcDbEntity
  8
0
100
AcDbSpline
 62
7
  6
CONTINUOUS
 70
0
 71
3
 72
14
 73
10
 74
0
 42
0.0000001
 43
0.0000001
 44
0.0000000001
 40
0.0
 40
0.0
 40
0.0
 40
0.0
 40
0.2917135705
 40
0.4300697913
 40
0.5606486925
 40
0.6826769864
 40
0.7961511096
 40
0.9016346986
 40
1.0
 40
1.0
 40
1.0
 40
1.0
 10
13.747097416
 20
7.239702291
 30
0.0
 10
13.747097416
 20
7.2368848753
 30
0.0
 10
13.746689767
 20
7.2327135943
 30
0.0
 10
13.7453409942
 20
7.2274624471
 30
0.0
 10
13.7440228244
 20
7.2239158561
 30
0.0
 10
13.7424363049
 20
7.2207481913
 30
0.0
 10
13.7406332368
 20
7.2179832497
 30
0.0
 10
13.7386600012
 20
7.2156287442
 30
0.0
 10
13.7372103629
 20
7.2142868524
 30
0.0
 10
13.736470511
 20
7.2136908896
 30
0.0
  0
SPLINE
  5
4BB
100
AcDbEntity
  8
0
100
AcDbSpline
 62
7
  6
CONTINUOUS
 70
0
 71
3
 72
14
 73
10
 74
0
 42
0.0000001
 43
0.0000001
 44
0.0000000001
 40
0.0
 40
0.0
 40
0.0
 40
0.0
 40
0.2842456775
 40
0.4201584181
 40
0.5496037637
 40
0.6720127424
 40
0.7874715227
 40
0.8965390268
 40
1.0
 40
1.0
 40
1.0
 40
1.0
 10
13.7602060914
 20
7.239702291
 30
0.0
 10
13.7602060914
 20
7.2368805233
 30
0.0
 10
13.7597334008
 20
7.232687192
 30
0.0
 10
13.7581883272
 20
7.2274456286
 30
0.0
 10
13.7566746809
 20
7.2238958732
 30
0.0
 10
13.754853469
 20
7.2207270329
 30
0.0
 10
13.7527846287
 20
7.2179626226
 30
0.0
 10
13.7505218005
 20
7.2156102956
 30
0.0
 10
13.7488741672
 20
7.2142817189
 30
0.0
 10
13.7480340407
 20
7.2136908896
 30
0.0
  0
SPLINE
  5
4BC
100
AcDbEntity
  8
0
100
AcDbSpline
 62
7
  6
CONTINUOUS
 70
0
 71
3
 72
15
 73
11
 74
0
 42
0.0000001
 43
0.0000001
 44
0.0000000001
 40
0.0
 40
0.0
 40
0.0
 40
0.0
 40
0.1399654008
 40
0.2776415192
 40
0.4112278963
 40
0.5396049605
 40
0.6623716118
 40
0.7796606707
 40
0.891982831
 40
1.0
 40
1.0
 40
1.0
 40
1.0
 10
13.7686169791
 20
7.239702291
 30
0.0
 10
13.7686169791
 20
7.2382745711
 30
0.0
 10
13.768435892
 20
7.2354390987
 30
0.0
 10
13.7676359323
 20
7.2313102979
 30
0.0
 10
13.7663558384
 20
7.2274282429
 30
0.0
 10
13.7646608832
 20
7.2238770819
 30
0.0
 10
13.7626224625
 20
7.220707906
 30
0.0
 10
13.7603082703
 20
7.2179450877
 30
0.0
 10
13.7577785793
 20
7.2155955522
 30
0.0
 10
13.7559494986
 20
7.2142778224
 30
0.0
 10
13.7550170062
 20
7.2136908896
 30
0.0
  0
SPLINE
  5
4BD
100
AcDbEntity
  8
0
100
AcDbSpline
 62
7
  6
CONTINUOUS
 70
0
 71
3
 72
11
 73
7
 74
0
 42
0.0000001
 43
0.0000001
 44
0.0000000001
 40
0.0
 40
0.0
 40
0.0
 40
0.0
 40
0.2668273435
 40
0.5234783468
 40
0.7676703928
 40
1.0
 40
1.0
 40
1.0
 40
1.0
 10
13.7720362549
 20
7.2360989211
 30
0.0
 10
13.7717920868
 20
7.2340390574
 30
0.0
 10
13.7708973788
 20
7.2300345595
 30
0.0
 10
13.7684376856
 20
7.2245554271
 30
0.0
 10
13.7651167533
 20
7.219881172
 30
0.0
 10
13.7624246815
 20
7.217300788
 30
0.0
 10
13.7610111934
 20
7.2161764838
 30
0.0
  0
SPLINE
  5
4BE
100
AcDbEntity
  8
0
100
AcDbSpline
 62
7
  6
CONTINUOUS
 70
0
 71
3
 72
18
 73
14
 74
0
 42
0.0000001
 43
0.0000001
 44
0.0000000001
 40
0.0
 40
0.0
 40
0.0
 40
0.0
 40
0.1679056404
 40
0.3312297837
 40
0.4851565203
 40
0.6257631271
 40
0.7496930328
 40
0.8045323052
 40
0.8542963556
 40
0.8987939045
 40
0.9379001694
 40
0.9715974308
 40
1.0
 40
1.0
 40
1.0
 40
1.0
 10
12.7904245891
 20
8.062702291
 30
0.0
 10
12.7904245891
 20
8.0643924616
 30
0.0
 10
12.790343175
 20
8.0677271999
 30
0.0
 10
12.7899964065
 20
8.0726002255
 30
0.0
 10
12.7894469434
 20
8.0771783553
 30
0.0
 10
12.7887184163
 20
8.0813293368
 30
0.0
 10
12.7879675748
 20
8.0844584464
 30
0.0
 10
12.7872945828
 20
8.0866589491
 30
0.0
 10
12.7867894584
 20
8.0880729608
 30
0.0
 10
12.7862681674
 20
8.0893109972
 30
0.0
 10
12.7857353582
 20
8.09036617
 30
0.0
 10
12.7851967097
 20
8.0912325197
 30
0.0
 10
12.7848037631
 20
8.0917222512
 30
0.0
 10
12.7846046124
 20
8.091927388
 30
0.0
  0
SPLINE
  5
4BF
100
AcDbEntity
  8
0
100
AcDbSpline
 62
7
  6
CONTINUOUS
 70
0
 71
3
 72
15
 73
11
 74
0
 42
0.0000001
 43
0.0000001
 44
0.0000000001
 40
0.0
 40
0.0
 40
0.0
 40
0.0
 40
0.1399654178
 40
0.2776415314
 40
0.4112278942
 40
0.5396049573
 40
0.6623716094
 40
0.779660672
 40
0.8919828301
 40
1.0
 40
1.0
 40
1.0
 40
1.0
 10
12.7761937248
 20
8.109702291
 30
0.0
 10
12.7761937248
 20
8.111130011
 30
0.0
 10
12.7763748119
 20
8.1139654836
 30
0.0
 10
12.7771747716
 20
8.1180942844
 30
0.0
 10
12.7784548655
 20
8.1219763391
 30
0.0
 10
12.7801498206
 20
8.1255275
 30
0.0
 10
12.7821882413
 20
8.1286966759
 30
0.0
 10
12.7845024335
 20
8.1314594943
 30
0.0
 10
12.7870321245
 20
8.1338090297
 30
0.0
 10
12.7888612053
 20
8.1351267595
 30
0.0
 10
12.7897936977
 20
8.1357136923
 30
0.0
  0
SPLINE
  5
4C0
100
AcDbEntity
  8
0
100
AcDbSpline
 62
7
  6
CONTINUOUS
 70
0
 71
3
 72
11
 73
7
 74
0
 42
0.0000001
 43
0.0000001
 44
0.0000000001
 40
0.0
 40
0.0
 40
0.0
 40
0.0
 40
0.2668273148
 40
0.523478298
 40
0.7676703598
 40
1.0
 40
1.0
 40
1.0
 40
1.0
 10
12.7727744524
 20
8.1133056899
 30
0.0
 10
12.7730186222
 20
8.1153655489
 30
0.0
 10
12.7739133308
 20
8.1193700377
 30
0.0
 10
12.7763730208
 20
8.1248491579
 30
0.0
 10
12.7796939462
 20
8.1295234039
 30
0.0
 10
12.7823860117
 20
8.1321037841
 30
0.0
 10
12.7837994965
 20
8.1332280871
 30
0.0
  0
SPLINE
  5
4C1
100
AcDbEntity
  8
0
100
AcDbSpline
 62
7
  6
CONTINUOUS
 70
0
 71
3
 72
14
 73
10
 74
0
 42
0.0000001
 43
0.0000001
 44
0.0000000001
 40
0.0
 40
0.0
 40
0.0
 40
0.0
 40
0.3223106219
 40
0.4711686283
 40
0.6072126863
 40
0.7286108114
 40
0.834547044
 40
0.9249157671
 40
1.0
 40
1.0
 40
1.0
 40
1.0
 10
12.9278012988
 20
8.109702291
 30
0.0
 10
12.9278012988
 20
8.1125060665
 30
0.0
 10
12.9278637308
 20
8.1166052506
 30
0.0
 10
12.9280785616
 20
8.121883209
 30
0.0
 10
12.9282864755
 20
8.125411718
 30
0.0
 10
12.9285363634
 20
8.1285630863
 30
0.0
 10
12.9288196961
 20
8.1313125502
 30
0.0
 10
12.9291289169
 20
8.1336533523
 30
0.0
 10
12.9293693171
 20
8.1350729739
 30
0.0
 10
12.9294961771
 20
8.1357136923
 30
0.0
  0
SPLINE
  5
4C2
100
AcDbEntity
  8
0
100
AcDbSpline
 62
7
  6
CONTINUOUS
 70
0
 71
3
 72
15
 73
11
 74
0
 42
0.0000001
 43
0.0000001
 44
0.0000000001
 40
0.0
 40
0.0
 40
0.0
 40
0.0
 40
0.1619933617
 40
0.3189190742
 40
0.4665565986
 40
0.6019149613
 40
0.7232944016
 40
0.8300048023
 40
0.9220830414
 40
1.0
 40
1.0
 40
1.0
 40
1.0
 10
12.8939508431
 20
8.109702291
 30
0.0
 10
12.8939508431
 20
8.1111272937
 30
0.0
 10
12.8939977481
 20
8.1139329593
 30
0.0
 10
12.8942055133
 20
8.1180326242
 30
0.0
 10
12.8945380416
 20
8.1218890315
 30
0.0
 10
12.8949783792
 20
8.1254197882
 30
0.0
 10
12.8955078963
 20
8.1285738362
 30
0.0
 10
12.8961087503
 20
8.1313268217
 30
0.0
 10
12.8967651894
 20
8.1336721966
 30
0.0
 10
12.897271598
 20
8.135081501
 30
0.0
 10
12.8975364018
 20
8.1357136923
 30
0.0
  0
SPLINE
  5
4C3
100
AcDbEntity
  8
0
100
AcDbSpline
 62
7
  6
CONTINUOUS
 70
0
 71
3
 72
15
 73
11
 74
0
 42
0.0000001
 43
0.0000001
 44
0.0000000001
 40
0.0
 40
0.0
 40
0.0
 40
0.0
 40
0.15916411
 40
0.3135827962
 40
0.4593253089
 40
0.5936442546
 40
0.7150419538
 40
0.8230087547
 40
0.9177667959
 40
1.0
 40
1.0
 40
1.0
 40
1.0
 10
12.8637451111
 20
8.109702291
 30
0.0
 10
12.8637451111
 20
8.1111275585
 30
0.0
 10
12.8638164207
 20
8.1139361486
 30
0.0
 10
12.8641322278
 20
8.1180389247
 30
0.0
 10
12.8646377542
 20
8.1218985851
 30
0.0
 10
12.8653073764
 20
8.1254327838
 30
0.0
 10
12.8661129927
 20
8.1285906543
 30
0.0
 10
12.867027962
 20
8.131348125
 30
0.0
 10
12.8680287521
 20
8.1336986718
 30
0.0
 10
12.8687917706
 20
8.135092256
 30
0.0
 10
12.8691868194
 20
8.1357136923
 30
0.0
  0
SPLINE
  5
4C4
100
AcDbEntity
  8
0
100
AcDbSpline
 62
7
  6
CONTINUOUS
 70
0
 71
3
 72
15
 73
11
 74
0
 42
0.0000001
 43
0.0000001
 44
0.0000000001
 40
0.0
 40
0.0
 40
0.0
 40
0.0
 40
0.1556265244
 40
0.3069243704
 40
0.4503345354
 40
0.5834151388
 40
0.7049094205
 40
0.8145025482
 40
0.9125868778
 40
1.0
 40
1.0
 40
1.0
 40
1.0
 10
12.8374750007
 20
8.109702291
 30
0.0
 10
12.8374750007
 20
8.1111279201
 30
0.0
 10
12.8375701712
 20
8.1139404965
 30
0.0
 10
12.8379915324
 20
8.1180474226
 30
0.0
 10
12.8386661206
 20
8.1219112329
 30
0.0
 10
12.8395599139
 20
8.1254494966
 30
0.0
 10
12.8406356624
 20
8.12861141
 30
0.0
 10
12.8418581951
 20
8.1313728639
 30
0.0
 10
12.8431963934
 20
8.1337270103
 30
0.0
 10
12.8442031169
 20
8.1351024864
 30
0.0
 10
12.8447204519
 20
8.1357136923
 30
0.0
  0
SPLINE
  5
4C5
100
AcDbEntity
  8
0
100
AcDbSpline
 62
7
  6
CONTINUOUS
 70
0
 71
3
 72
14
 73
10
 74
0
 42
0.0000001
 43
0.0000001
 44
0.0000000001
 40
0.0
 40
0.0
 40
0.0
 40
0.0
 40
0.1517560216
 40
0.2996629001
 40
0.4405847899
 40
0.5724174754
 40
0.6941532798
 40
0.8056527385
 40
1.0
 40
1.0
 40
1.0
 40
1.0
 10
12.8153935073
 20
8.109702291
 30
0.0
 10
12.8153935073
 20
8.1111283644
 30
0.0
 10
12.8155118003
 20
8.1139458355
 30
0.0
 10
12.8160352938
 20
8.1180576829
 30
0.0
 10
12.8168735476
 20
8.1219262474
 30
0.0
 10
12.8179840427
 20
8.1254683161
 30
0.0
 10
12.8193217993
 20
8.1286347163
 30
0.0
 10
12.8212587047
 20
8.1321582494
 30
0.0
 10
12.8230510356
 20
8.1344535264
 30
0.0
 10
12.8243729238
 20
8.1357136923
 30
0.0
  0
SPLINE
  5
4C6
100
AcDbEntity
  8
0
100
AcDbSpline
 62
7
  6
CONTINUOUS
 70
0
 71
3
 72
14
 73
10
 74
0
 42
0.0000001
 43
0.0000001
 44
0.0000000001
 40
0.0
 40
0.0
 40
0.0
 40
0.0
 40
0.2917135719
 40
0.4300697956
 40
0.5606486943
 40
0.6826769865
 40
0.7961511103
 40
0.9016346988
 40
1.0
 40
1.0
 40
1.0
 40
1.0
 10
12.7977132878
 20
8.109702291
 30
0.0
 10
12.7977132878
 20
8.1125197067
 30
0.0
 10
12.7981209369
 20
8.1166909877
 30
0.0
 10
12.7994697097
 20
8.1219421349
 30
0.0
 10
12.8007878795
 20
8.1254887259
 30
0.0
 10
12.802374399
 20
8.1286563907
 30
0.0
 10
12.8041774671
 20
8.1314213323
 30
0.0
 10
12.8061507026
 20
8.1337758378
 30
0.0
 10
12.807600341
 20
8.1351177296
 30
0.0
 10
12.8083401929
 20
8.1357136923
 30
0.0
  0
SPLINE
  5
4C7
100
AcDbEntity
  8
0
100
AcDbSpline
 62
7
  6
CONTINUOUS
 70
0
 71
3
 72
14
 73
10
 74
0
 42
0.0000001
 43
0.0000001
 44
0.0000000001
 40
0.0
 40
0.0
 40
0.0
 40
0.0
 40
0.2842456899
 40
0.420158416
 40
0.5496037605
 40
0.67201274
 40
0.7874715239
 40
0.8965390259
 40
1.0
 40
1.0
 40
1.0
 40
1.0
 10
12.7846046124
 20
8.109702291
 30
0.0
 10
12.7846046124
 20
8.1125240588
 30
0.0
 10
12.785077303
 20
8.1167173901
 30
0.0
 10
12.7866223767
 20
8.1219589535
 30
0.0
 10
12.7881360229
 20
8.1255087088
 30
0.0
 10
12.7899572348
 20
8.128677549
 30
0.0
 10
12.7920260751
 20
8.1314419594
 30
0.0
 10
12.7942889033
 20
8.1337942864
 30
0.0
 10
12.7959365367
 20
8.135122863
 30
0.0
 10
12.7967766631
 20
8.1357136923
 30
0.0
  0
SPLINE
  5
4C8
100
AcDbEntity
  8
0
100
AcDbSpline
 62
7
  6
CONTINUOUS
 70
0
 71
3
 72
18
 73
14
 74
0
 42
0.0000001
 43
0.0000001
 44
0.0000000001
 40
0.0
 40
0.0
 40
0.0
 40
0.0
 40
0.1679056404
 40
0.3312297837
 40
0.4851565203
 40
0.6257631271
 40
0.7496930328
 40
0.8045323052
 40
0.8542963556
 40
0.8987939045
 40
0.9379001694
 40
0.9715974308
 40
1.0
 40
1.0
 40
1.0
 40
1.0
 10
13.7543861148
 20
7.456702291
 30
0.0
 10
13.7543861148
 20
7.4550121204
 30
0.0
 10
13.7544675289
 20
7.4516773821
 30
0.0
 10
13.7548142974
 20
7.4468043565
 30
0.0
 10
13.7553637605
 20
7.4422262267
 30
0.0
 10
13.7560922875
 20
7.4380752452
 30
0.0
 10
13.7568431291
 20
7.4349461356
 30
0.0
 10
13.757516121
 20
7.4327456329
 30
0.0
 10
13.7580212455
 20
7.4313316212
 30
0.0
 10
13.7585425364
 20
7.4300935847
 30
0.0
 10
13.7590753456
 20
7.429038412
 30
0.0
 10
13.7596139942
 20
7.4281720623
 30
0.0
 10
13.7600069407
 20
7.4276823308
 30
0.0
 10
13.7602060914
 20
7.427477194
 30
0.0
  0
SPLINE
  5
4C9
100
AcDbEntity
  8
0
100
AcDbSpline
 62
7
  6
CONTINUOUS
 70
0
 71
3
 72
11
 73
7
 74
0
 42
0.0000001
 43
0.0000001
 44
0.0000000001
 40
0.0
 40
0.0
 40
0.0
 40
0.0
 40
0.2323288052
 40
0.4765202231
 40
0.7331718426
 40
1.0
 40
1.0
 40
1.0
 40
1.0
 10
13.7610112086
 20
8.1332280863
 30
0.0
 10
13.7624246886
 20
8.1321037871
 30
0.0
 10
13.7651167464
 20
8.1295234147
 30
0.0
 10
13.7684376744
 20
8.1248491769
 30
0.0
 10
13.7708973689
 20
8.1193700501
 30
0.0
 10
13.7717920848
 20
8.1153655495
 30
0.0
 10
13.7720362519
 20
8.113305683
 30
0.0
  0
SPLINE
  5
4CA
100
AcDbEntity
  8
0
100
AcDbSpline
 62
7
  6
CONTINUOUS
 70
0
 71
3
 72
11
 73
7
 74
0
 42
0.0000001
 43
0.0000001
 44
0.0000000001
 40
0.0
 40
0.0
 40
0.0
 40
0.0
 40
0.232328788
 40
0.4765202053
 40
0.7331718175
 40
1.0
 40
1.0
 40
1.0
 40
1.0
 10
12.7837995116
 20
7.2161764827
 30
0.0
 10
12.7823860287
 20
7.2173007826
 30
0.0
 10
12.7796939653
 20
7.2198811573
 30
0.0
 10
12.7763730309
 20
7.2245554014
 30
0.0
 10
12.7739133327
 20
7.2300345369
 30
0.0
 10
12.7730186166
 20
7.2340390443
 30
0.0
 10
12.7727744502
 20
7.2360989142
 30
0.0
  0
SPLINE
  5
4CB
100
AcDbEntity
  8
0
100
AcDbSpline
 62
7
  6
CONTINUOUS
 70
0
 71
3
 72
15
 73
11
 74
0
 42
0.0000001
 43
0.0000001
 44
0.0000000001
 40
0.0
 40
0.0
 40
0.0
 40
0.0
 40
0.1080169716
 40
0.2203386034
 40
0.3376272603
 40
0.4603935706
 40
0.5887709212
 40
0.7223571568
 40
0.8600338246
 40
1.0
 40
1.0
 40
1.0
 40
1.0
 10
13.7550170062
 20
8.1357136923
 30
0.0
 10
13.7559494969
 20
8.1351267606
 30
0.0
 10
13.7577785719
 20
8.1338090356
 30
0.0
 10
13.7603082551
 20
8.1314595087
 30
0.0
 10
13.7626224422
 20
8.1286967033
 30
0.0
 10
13.7646608658
 20
8.1255275346
 30
0.0
 10
13.7663558215
 20
8.1219763761
 30
0.0
 10
13.7676359271
 20
8.1180943175
 30
0.0
 10
13.7684358892
 20
8.1139655046
 30
0.0
 10
13.7686169791
 20
8.1111300188
 30
0.0
 10
13.7686169791
 20
8.109702291
 30
0.0
  0
SPLINE
  5
4CC
100
AcDbEntity
  8
0
100
AcDbSpline
 62
7
  6
CONTINUOUS
 70
0
 71
3
 72
14
 73
10
 74
0
 42
0.0000001
 43
0.0000001
 44
0.0000000001
 40
0.0
 40
0.0
 40
0.0
 40
0.0
 40
0.1034607831
 40
0.2125277695
 40
0.3279861405
 40
0.4503947628
 40
0.5798403877
 40
0.7157529709
 40
1.0
 40
1.0
 40
1.0
 40
1.0
 10
13.7480340407
 20
8.1357136923
 30
0.0
 10
13.7488741656
 20
8.1351228641
 30
0.0
 10
13.7505217938
 20
8.1337942923
 30
0.0
 10
13.752784615
 20
8.1314419741
 30
0.0
 10
13.7548534508
 20
8.1286775765
 30
0.0
 10
13.7566746654
 20
8.1255087432
 30
0.0
 10
13.7581883122
 20
8.1219589906
 30
0.0
 10
13.7597334008
 20
8.1167174164
 30
0.0
 10
13.7602060914
 20
8.1125240721
 30
0.0
 10
13.7602060914
 20
8.109702291
 30
0.0
  0
SPLINE
  5
4CD
100
AcDbEntity
  8
0
100
AcDbSpline
 62
7
  6
CONTINUOUS
 70
0
 71
3
 72
14
 73
10
 74
0
 42
0.0000001
 43
0.0000001
 44
0.0000000001
 40
0.0
 40
0.0
 40
0.0
 40
0.0
 40
0.0983651167
 40
0.2038482009
 40
0.3173219039
 40
0.4393498164
 40
0.569928987
 40
0.7082850615
 40
1.0
 40
1.0
 40
1.0
 40
1.0
 10
13.736470511
 20
8.1357136923
 30
0.0
 10
13.7372103615
 20
8.1351177307
 30
0.0
 10
13.7386599953
 20
8.1337758438
 30
0.0
 10
13.7406332246
 20
8.1314213472
 30
0.0
 10
13.7424362889
 20
8.1286564184
 30
0.0
 10
13.7440228107
 20
8.1254887603
 30
0.0
 10
13.7453409811
 20
8.1219421722
 30
0.0
 10
13.746689767
 20
8.1166910136
 30
0.0
 10
13.747097416
 20
8.1125197199
 30
0.0
 10
13.747097416
 20
8.109702291
 30
0.0
  0
SPLINE
  5
4CE
100
AcDbEntity
  8
0
100
AcDbSpline
 62
7
  6
CONTINUOUS
 70
0
 71
3
 72
14
 73
10
 74
0
 42
0.0000001
 43
0.0000001
 44
0.0000000001
 40
0.0
 40
0.0
 40
0.0
 40
0.0
 40
0.1943465944
 40
0.305845621
 40
0.4275810323
 40
0.5594139816
 40
0.7003356944
 40
0.8482431589
 40
1.0
 40
1.0
 40
1.0
 40
1.0
 10
13.72043778
 20
8.1357136923
 30
0.0
 10
13.7217596637
 20
8.1344535308
 30
0.0
 10
13.7235519888
 20
8.1321582627
 30
0.0
 10
13.7254888911
 20
8.128634744
 30
0.0
 10
13.7268266497
 20
8.1254683502
 30
0.0
 10
13.7279371451
 20
8.1219262846
 30
0.0
 10
13.7287754068
 20
8.1180577154
 30
0.0
 10
13.7292989017
 20
8.1139458563
 30
0.0
 10
13.7294171965
 20
8.1111283721
 30
0.0
 10
13.7294171965
 20
8.109702291
 30
0.0
  0
SPLINE
  5
4CF
100
AcDbEntity
  8
0
100
AcDbSpline
 62
7
  6
CONTINUOUS
 70
0
 71
3
 72
15
 73
11
 74
0
 42
0.0000001
 43
0.0000001
 44
0.0000000001
 40
0.0
 40
0.0
 40
0.0
 40
0.0
 40
0.0874129543
 40
0.1854968013
 40
0.2950894871
 40
0.4165833587
 40
0.549664219
 40
0.6930741917
 40
0.844372635
 40
1.0
 40
1.0
 40
1.0
 40
1.0
 10
13.7000902519
 20
8.1357136923
 30
0.0
 10
13.700607586
 20
8.1351024876
 30
0.0
 10
13.7016143062
 20
8.1337270165
 30
0.0
 10
13.7029525002
 20
8.1313728792
 30
0.0
 10
13.7041750306
 20
8.1286114378
 30
0.0
 10
13.7052507808
 20
8.1254495307
 30
0.0
 10
13.7061445743
 20
8.1219112703
 30
0.0
 10
13.7068191689
 20
8.118047455
 30
0.0
 10
13.7072405311
 20
8.1139405174
 30
0.0
 10
13.7073357032
 20
8.1111279278
 30
0.0
 10
13.7073357032
 20
8.109702291
 30
0.0
  0
SPLINE
  5
4D0
100
AcDbEntity
  8
0
100
AcDbSpline
 62
7
  6
CONTINUOUS
 70
0
 71
3
 72
15
 73
11
 74
0
 42
0.0000001
 43
0.0000001
 44
0.0000000001
 40
0.0
 40
0.0
 40
0.0
 40
0.0
 40
0.0822330434
 40
0.1769906113
 40
0.2849569606
 40
0.4063542335
 40
0.5406734301
 40
0.6864157368
 40
0.8408350306
 40
1.0
 40
1.0
 40
1.0
 40
1.0
 10
13.6756238844
 20
8.1357136923
 30
0.0
 10
13.6760189325
 20
8.1350922572
 30
0.0
 10
13.6767819486
 20
8.1336986782
 30
0.0
 10
13.6777827354
 20
8.1313481406
 30
0.0
 10
13.678697703
 20
8.1285906821
 30
0.0
 10
13.6795033206
 20
8.1254328177
 30
0.0
 10
13.6801729429
 20
8.1218986225
 30
0.0
 10
13.6806784741
 20
8.1180389568
 30
0.0
 10
13.680994282
 20
8.1139361694
 30
0.0
 10
13.6810655927
 20
8.1111275662
 30
0.0
 10
13.6810655927
 20
8.109702291
 30
0.0
  0
SPLINE
  5
4D1
100
AcDbEntity
  8
0
100
AcDbSpline
 62
7
  6
CONTINUOUS
 70
0
 71
3
 72
15
 73
11
 74
0
 42
0.0000001
 43
0.0000001
 44
0.0000000001
 40
0.0
 40
0.0
 40
0.0
 40
0.0
 40
0.0779168038
 40
0.1699945768
 40
0.2767045175
 40
0.3980835186
 40
0.5334421277
 40
0.6810794354
 40
0.8380057638
 40
1.0
 40
1.0
 40
1.0
 40
1.0
 10
13.647274302
 20
8.1357136923
 30
0.0
 10
13.6475391053
 20
8.1350815023
 30
0.0
 10
13.6480455123
 20
8.1336722031
 30
0.0
 10
13.6487019493
 20
8.1313268374
 30
0.0
 10
13.6493028022
 20
8.1285738641
 30
0.0
 10
13.6498323202
 20
8.125419822
 30
0.0
 10
13.6502726578
 20
8.121889069
 30
0.0
 10
13.6506051893
 20
8.1180326562
 30
0.0
 10
13.6508129551
 20
8.1139329801
 30
0.0
 10
13.6508598608
 20
8.1111273014
 30
0.0
 10
13.6508598608
 20
8.109702291
 30
0.0
  0
SPLINE
  5
4D2
100
AcDbEntity
  8
0
100
AcDbSpline
 62
7
  6
CONTINUOUS
 70
0
 71
3
 72
14
 73
10
 74
0
 42
0.0000001
 43
0.0000001
 44
0.0000000001
 40
0.0
 40
0.0
 40
0.0
 40
0.0
 40
0.0750840818
 40
0.1654523433
 40
0.2713881105
 40
0.392785788
 40
0.5288300896
 40
0.6776878727
 40
1.0
 40
1.0
 40
1.0
 40
1.0
 10
13.6153145267
 20
8.1357136923
 30
0.0
 10
13.6154413865
 20
8.1350729752
 30
0.0
 10
13.6156817859
 20
8.1336533589
 30
0.0
 10
13.6159910057
 20
8.1313125661
 30
0.0
 10
13.6162743379
 20
8.1285631142
 30
0.0
 10
13.6165242262
 20
8.1254117518
 30
0.0
 10
13.6167321402
 20
8.1218832464
 30
0.0
 10
13.6169469731
 20
8.1166052749
 30
0.0
 10
13.617009405
 20
8.1125060795
 30
0.0
 10
13.617009405
 20
8.109702291
 30
0.0
  0
SPLINE
  5
4D3
100
AcDbEntity
  8
0
100
AcDbSpline
 62
7
  6
CONTINUOUS
 70
0
 71
3
 72
18
 73
14
 74
0
 42
0.0000001
 43
0.0000001
 44
0.0000000001
 40
0.0
 40
0.0
 40
0.0
 40
0.0
 40
0.0284014844
 40
0.0620962494
 40
0.1011999424
 40
0.1456958372
 40
0.1954588609
 40
0.2502982799
 40
0.3742313713
 40
0.5148417761
 40
0.6687735647
 40
0.83209663
 40
1.0
 40
1.0
 40
1.0
 40
1.0
 10
12.7846046124
 20
7.427477194
 30
0.0
 10
12.7848037555
 20
7.427682323
 30
0.0
 10
12.785196691
 20
7.4281720161
 30
0.0
 10
12.7857353243
 20
7.4290383032
 30
0.0
 10
12.7862681086
 20
7.4300934131
 30
0.0
 10
12.786789374
 20
7.431331403
 30
0.0
 10
12.7872945003
 20
7.4327453869
 30
0.0
 10
12.787967508
 20
7.4349459095
 30
0.0
 10
12.7887183711
 20
7.4380750883
 30
0.0
 10
12.7894469248
 20
7.4422261886
 30
0.0
 10
12.7899964062
 20
7.4468043952
 30
0.0
 10
12.7903431938
 20
7.4516774377
 30
0.0
 10
12.7904245891
 20
7.4550121431
 30
0.0
 10
12.7904245891
 20
7.456702291
 30
0.0
  0
SPLINE
  5
4D4
100
AcDbEntity
  8
0
100
AcDbSpline
 62
7
  6
CONTINUOUS
 70
0
 71
3
 72
18
 73
14
 74
0
 42
0.0000001
 43
0.0000001
 44
0.0000000001
 40
0.0
 40
0.0
 40
0.0
 40
0.0
 40
0.0284014844
 40
0.0620962494
 40
0.1011999424
 40
0.1456958372
 40
0.1954588609
 40
0.2502982799
 40
0.3742313713
 40
0.5148417761
 40
0.6687735647
 40
0.83209663
 40
1.0
 40
1.0
 40
1.0
 40
1.0
 10
13.7602060914
 20
8.091927388
 30
0.0
 10
13.7600069483
 20
8.091722259
 30
0.0
 10
13.7596140128
 20
8.0912325659
 30
0.0
 10
13.7590753795
 20
8.0903662788
 30
0.0
 10
13.7585425953
 20
8.0893111689
 30
0.0
 10
13.7580213298
 20
8.088073179
 30
0.0
 10
13.7575162035
 20
8.0866591951
 30
0.0
 10
13.7568431959
 20
8.0844586724
 30
0.0
 10
13.7560923328
 20
8.0813294937
 30
0.0
 10
13.755363779
 20
8.0771783934
 30
0.0
 10
13.7548142977
 20
8.0726001867
 30
0.0
 10
13.75446751
 20
8.0677271443
 30
0.0
 10
13.7543861148
 20
8.0643924389
 30
0.0
 10
13.7543861148
 20
8.062702291
 30
0.0
  0
SPLINE
  5
4D5
100
AcDbEntity
  8
0
100
AcDbSpline
 62
7
  6
CONTINUOUS
 70
0
 71
3
 72
14
 73
10
 74
0
 42
0.0000001
 43
0.0000001
 44
0.0000000001
 40
0.0
 40
0.0
 40
0.0
 40
0.0
 40
0.2492603699
 40
0.3741787503
 40
0.4991873711
 40
0.6242836412
 40
0.7494662223
 40
0.8747098071
 40
1.0
 40
1.0
 40
1.0
 40
1.0
 10
13.6756238844
 20
7.2136908896
 30
0.0
 10
13.6782264601
 20
7.2148433632
 30
0.0
 10
13.6819798776
 20
7.2169788651
 30
0.0
 10
13.6863635608
 20
7.2206408432
 30
0.0
 10
13.689272765
 20
7.2238026648
 30
0.0
 10
13.6916992198
 20
7.2273545646
 30
0.0
 10
13.6935388644
 20
7.2312498443
 30
0.0
 10
13.6946924384
 20
7.2354040181
 30
0.0
 10
13.6949548486
 20
7.2382715892
 30
0.0
 10
13.6949548486
 20
7.239702291
 30
0.0
  0
SPLINE
  5
4D6
100
AcDbEntity
  8
0
100
AcDbSpline
 62
7
  6
CONTINUOUS
 70
0
 71
3
 72
15
 73
11
 74
0
 42
0.0000001
 43
0.0000001
 44
0.0000000001
 40
0.0
 40
0.0
 40
0.0
 40
0.0
 40
0.1335637879
 40
0.2657711598
 40
0.3955857844
 40
0.5223898592
 40
0.6460097174
 40
0.7665781457
 40
0.8844442926
 40
1.0
 40
1.0
 40
1.0
 40
1.0
 10
12.7737432962
 20
7.239702291
 30
0.0
 10
12.7737432962
 20
7.2382734255
 30
0.0
 10
12.7739586064
 20
7.2354255256
 30
0.0
 10
12.7749081858
 20
7.2312861946
 30
0.0
 10
12.7764261407
 20
7.2273975807
 30
0.0
 10
12.7784335289
 20
7.2238444846
 30
0.0
 10
12.7808446276
 20
7.220677141
 30
0.0
 10
12.7835787216
 20
7.2179187307
 30
0.0
 10
12.7865645539
 20
7.2155748883
 30
0.0
 10
12.7887029178
 20
7.2142726342
 30
0.0
 10
12.7897936977
 20
7.2136908896
 30
0.0
  0
SPLINE
  5
4D7
100
AcDbEntity
  8
0
100
AcDbSpline
 62
7
  6
CONTINUOUS
 70
0
 71
3
 72
14
 73
10
 74
0
 42
0.0000001
 43
0.0000001
 44
0.0000000001
 40
0.0
 40
0.0
 40
0.0
 40
0.0
 40
0.2478544572
 40
0.3723876559
 40
0.4972669664
 40
0.6225076015
 40
0.7480985423
 40
0.8739649787
 40
1.0
 40
1.0
 40
1.0
 40
1.0
 10
13.7000902519
 20
7.2136908896
 30
0.0
 10
13.7026558406
 20
7.2148449298
 30
0.0
 10
13.7063542202
 20
7.2169840216
 30
0.0
 10
13.7106660782
 20
7.2206438777
 30
0.0
 10
13.7135298097
 20
7.2238063624
 30
0.0
 10
13.7159178472
 20
7.2273585363
 30
0.0
 10
13.7177278953
 20
7.2312533374
 30
0.0
 10
13.7188625945
 20
7.2354061413
 30
0.0
 10
13.7191206216
 20
7.2382717707
 30
0.0
 10
13.7191206216
 20
7.239702291
 30
0.0
  0
SPLINE
  5
4D8
100
AcDbEntity
  8
0
100
AcDbSpline
 62
7
  6
CONTINUOUS
 70
0
 71
3
 72
15
 73
11
 74
0
 42
0.0000001
 43
0.0000001
 44
0.0000000001
 40
0.0
 40
0.0
 40
0.0
 40
0.0
 40
0.1226383831
 40
0.2458481989
 40
0.36970941
 40
0.4943351092
 40
0.6197671248
 40
0.745976295
 40
0.8728060665
 40
1.0
 40
1.0
 40
1.0
 40
1.0
 10
13.72043778
 20
7.2136908896
 30
0.0
 10
13.7216898586
 20
7.2142687869
 30
0.0
 10
13.724141892
 20
7.2155587689
 30
0.0
 10
13.7275902856
 20
7.2178965861
 30
0.0
 10
13.7307502464
 20
7.220649134
 30
0.0
 10
13.7335401096
 20
7.2238123106
 30
0.0
 10
13.7358664675
 20
7.2273649435
 30
0.0
 10
13.7376288767
 20
7.2312588907
 30
0.0
 10
13.7387332832
 20
7.2354094957
 30
0.0
 10
13.7389842823
 20
7.238272057
 30
0.0
 10
13.7389842823
 20
7.239702291
 30
0.0
  0
SPLINE
  5
4D9
100
AcDbEntity
  8
0
100
AcDbSpline
 62
7
  6
CONTINUOUS
 70
0
 71
3
 72
15
 73
11
 74
0
 42
0.0000001
 43
0.0000001
 44
0.0000000001
 40
0.0
 40
0.0
 40
0.0
 40
0.0
 40
0.1208214879
 40
0.2426486874
 40
0.3656460291
 40
0.4899942736
 40
0.6157673639
 40
0.7429060626
 40
0.8711377456
 40
1.0
 40
1.0
 40
1.0
 40
1.0
 10
13.736470511
 20
7.2136908896
 30
0.0
 10
13.7376797604
 20
7.214269694
 30
0.0
 10
13.7400486139
 20
7.2155626315
 30
0.0
 10
13.7433744138
 20
7.2179020249
 30
0.0
 10
13.7464215324
 20
7.2206562051
 30
0.0
 10
13.7491109942
 20
7.2238206735
 30
0.0
 10
13.7513526756
 20
7.2273736689
 30
0.0
 10
13.7530500233
 20
7.2312663656
 30
0.0
 10
13.7541130937
 20
7.2354139558
 30
0.0
 10
13.754354533
 20
7.2382724371
 30
0.0
 10
13.754354533
 20
7.239702291
 30
0.0
  0
SPLINE
  5
4DA
100
AcDbEntity
  8
0
100
AcDbSpline
 62
7
  6
CONTINUOUS
 70
0
 71
3
 72
14
 73
10
 74
0
 42
0.0000001
 43
0.0000001
 44
0.0000000001
 40
0.0
 40
0.0
 40
0.0
 40
0.0
 40
0.1258288033
 40
0.2515227751
 40
0.3770009228
 40
0.5022011596
 40
0.6271162519
 40
0.7517561086
 40
1.0
 40
1.0
 40
1.0
 40
1.0
 10
12.9456452186
 20
7.239702291
 30
0.0
 10
12.9456452186
 20
7.2382717291
 30
0.0
 10
12.9459044472
 20
7.2354055816
 30
0.0
 10
12.9470443357
 20
7.2312524133
 30
0.0
 10
12.9488625151
 20
7.2273574795
 30
0.0
 10
12.9512611298
 20
7.2238053759
 30
0.0
 10
12.9541373808
 20
7.2206430637
 30
0.0
 10
12.9584690245
 20
7.2169825994
 30
0.0
 10
12.9621825756
 20
7.2148444966
 30
0.0
 10
12.9647583552
 20
7.2136908896
 30
0.0
  0
SPLINE
  5
4DB
100
AcDbEntity
  8
0
100
AcDbSpline
 62
7
  6
CONTINUOUS
 70
0
 71
3
 72
15
 73
11
 74
0
 42
0.0000001
 43
0.0000001
 44
0.0000000001
 40
0.0
 40
0.0
 40
0.0
 40
0.0
 40
0.1184668888
 40
0.2385141569
 40
0.3604114744
 40
0.4844201303
 40
0.6106467769
 40
0.7389855234
 40
0.8690110596
 40
1.0
 40
1.0
 40
1.0
 40
1.0
 10
13.7480340407
 20
7.2136908896
 30
0.0
 10
13.7491893477
 20
7.2142709481
 30
0.0
 10
13.7514533343
 20
7.2155679079
 30
0.0
 10
13.7546244955
 20
7.2179093162
 30
0.0
 10
13.7575292435
 20
7.2206654825
 30
0.0
 10
13.7600920663
 20
7.223831395
 30
0.0
 10
13.7622270663
 20
7.2273846015
 30
0.0
 10
13.7638426216
 20
7.231275547
 30
0.0
 10
13.7648538624
 20
7.2354193588
 30
0.0
 10
13.7650833495
 20
7.2382728964
 30
0.0
 10
13.7650833495
 20
7.239702291
 30
0.0
  0
SPLINE
  5
4DC
100
AcDbEntity
  8
0
100
AcDbSpline
 62
7
  6
CONTINUOUS
 70
0
 71
3
 72
15
 73
11
 74
0
 42
0.0000001
 43
0.0000001
 44
0.0000000001
 40
0.0
 40
0.0
 40
0.0
 40
0.0
 40
0.1155554969
 40
0.2334211019
 40
0.353989137
 40
0.4776086843
 40
0.6044130549
 40
0.7342275526
 40
0.8664354585
 40
1.0
 40
1.0
 40
1.0
 40
1.0
 10
13.7550170062
 20
7.2136908896
 30
0.0
 10
13.7561077841
 20
7.2142726332
 30
0.0
 10
13.7582461413
 20
7.2155748826
 30
0.0
 10
13.7612319646
 20
7.2179187166
 30
0.0
 10
13.7639660524
 20
7.2206771139
 30
0.0
 10
13.7663771542
 20
7.2238444499
 30
0.0
 10
13.7683845432
 20
7.2273975437
 30
0.0
 10
13.7699025117
 20
7.2312861605
 30
0.0
 10
13.7708520942
 20
7.2354255039
 30
0.0
 10
13.7710674076
 20
7.2382734175
 30
0.0
 10
13.7710674076
 20
7.239702291
 30
0.0
  0
LINE
  5
4DD
100
AcDbEntity
  8
0
100
AcDbLine
 62
7
  6
CONTINUOUS
 10
12.9647583552
 20
7.2136908896
 11
12.96497048
 21
7.239702291
  0
SPLINE
  5
4DE
100
AcDbEntity
  8
0
100
AcDbSpline
 62
7
  6
CONTINUOUS
 70
0
 71
3
 72
14
 73
10
 74
0
 42
0.0000001
 43
0.0000001
 44
0.0000000001
 40
0.0
 40
0.0
 40
0.0
 40
0.0
 40
0.1269336072
 40
0.2535528471
 40
0.3796397556
 40
0.5050577653
 40
0.6297836302
 40
0.7538521617
 40
1.0
 40
1.0
 40
1.0
 40
1.0
 10
12.9843136867
 20
7.239702291
 30
0.0
 10
12.9843136867
 20
7.2382719929
 30
0.0
 10
12.9845664693
 20
7.2354086703
 30
0.0
 10
12.9856785636
 20
7.2312575234
 30
0.0
 10
12.9874531105
 20
7.2273633361
 30
0.0
 10
12.9897950406
 20
7.2238108765
 30
0.0
 10
12.9926041725
 20
7.2206476157
 30
0.0
 10
12.9968298445
 20
7.2169904006
 30
0.0
 10
13.0004621123
 20
7.2148468881
 30
0.0
 10
13.0029833421
 20
7.2136908896
 30
0.0
  0
SPLINE
  5
4DF
100
AcDbEntity
  8
0
100
AcDbSpline
 62
7
  6
CONTINUOUS
 70
0
 71
3
 72
14
 73
10
 74
0
 42
0.0000001
 43
0.0000001
 44
0.0000000001
 40
0.0
 40
0.0
 40
0.0
 40
0.0
 40
0.0755562195
 40
0.1662069738
 40
0.2722696849
 40
0.3936636136
 40
0.5295947536
 40
0.6782519031
 40
1.0
 40
1.0
 40
1.0
 40
1.0
 10
13.0029833421
 20
7.2136908896
 30
0.0
 10
13.003141429
 20
7.2143300925
 30
0.0
 10
13.0034415127
 20
7.2157480057
 30
0.0
 10
13.0038279945
 20
7.2180896258
 30
0.0
 10
13.0041820549
 20
7.2208396965
 30
0.0
 10
13.0044942762
 20
7.2239915104
 30
0.0
 10
13.004754037
 20
7.2275203973
 30
0.0
 10
13.0050223945
 20
7.2327980166
 30
0.0
 10
13.005100427
 20
7.2368983023
 30
0.0
 10
13.005100427
 20
7.239702291
 30
0.0
  0
SPLINE
  5
4E0
100
AcDbEntity
  8
0
100
AcDbSpline
 62
7
  6
CONTINUOUS
 70
0
 71
3
 72
15
 73
11
 74
0
 42
0.0000001
 43
0.0000001
 44
0.0000000001
 40
0.0
 40
0.0
 40
0.0
 40
0.0
 40
0.1284509882
 40
0.2563367285
 40
0.3832458175
 40
0.508933472
 40
0.6333493989
 40
0.7565596492
 40
0.8787287582
 40
1.0
 40
1.0
 40
1.0
 40
1.0
 10
13.025756635
 20
7.239702291
 30
0.0
 10
13.025756635
 20
7.2382723533
 30
0.0
 10
13.0260004072
 20
7.2354128986
 30
0.0
 10
13.0270735876
 20
7.2312645832
 30
0.0
 10
13.0287868532
 20
7.2273715705
 30
0.0
 10
13.0310492853
 20
7.2238186461
 30
0.0
 10
13.0337633583
 20
7.2206544751
 30
0.0
 10
13.0368381504
 20
7.2179006781
 30
0.0
 10
13.040194015
 20
7.2155616649
 30
0.0
 10
13.042583264
 20
7.2142694659
 30
0.0
 10
13.0438030102
 20
7.2136908896
 30
0.0
  0
SPLINE
  5
4E1
100
AcDbEntity
  8
0
100
AcDbSpline
 62
7
  6
CONTINUOUS
 70
0
 71
3
 72
15
 73
11
 74
0
 42
0.0000001
 43
0.0000001
 44
0.0000000001
 40
0.0
 40
0.0
 40
0.0
 40
0.0
 40
0.0787695083
 40
0.1713697427
 40
0.2783207043
 40
0.3996989755
 40
0.5348518801
 40
0.6821184116
 40
0.8385562081
 40
1.0
 40
1.0
 40
1.0
 40
1.0
 10
13.0438030102
 20
7.2136908896
 30
0.0
 10
13.0440974592
 20
7.2143207603
 30
0.0
 10
13.0446618561
 20
7.2157269359
 30
0.0
 10
13.0453951818
 20
7.218073492
 30
0.0
 10
13.0460662295
 20
7.2208274354
 30
0.0
 10
13.0466574858
 20
7.2239822598
 30
0.0
 10
13.0471491145
 20
7.2275136936
 30
0.0
 10
13.0475203561
 20
7.2313707333
 30
0.0
 10
13.0477523005
 20
7.2354710003
 30
0.0
 10
13.0478046666
 20
7.2382772305
 30
0.0
 10
13.0478046666
 20
7.239702291
 30
0.0
  0
SPLINE
  5
4E2
100
AcDbEntity
  8
0
100
AcDbSpline
 62
7
  6
CONTINUOUS
 70
0
 71
3
 72
15
 73
11
 74
0
 42
0.0000001
 43
0.0000001
 44
0.0000000001
 40
0.0
 40
0.0
 40
0.0
 40
0.0
 40
0.1304763519
 40
0.2600689337
 40
0.3881174259
 40
0.5142326759
 40
0.6383218844
 40
0.7604841826
 40
0.8809621775
 40
1.0
 40
1.0
 40
1.0
 40
1.0
 10
13.0695749452
 20
7.239702291
 30
0.0
 10
13.0695749452
 20
7.2382727964
 30
0.0
 10
13.0698072832
 20
7.2354181081
 30
0.0
 10
13.0708309129
 20
7.2312734066
 30
0.0
 10
13.0724660309
 20
7.2273820271
 30
0.0
 10
13.0746265874
 20
7.2238288438
 30
0.0
 10
13.0772197615
 20
7.2206632496
 30
0.0
 10
13.0801586465
 20
7.2179075375
 30
0.0
 10
13.083366886
 20
7.2155666057
 30
0.0
 10
13.0856560125
 20
7.2142706366
 30
0.0
 10
13.0868242438
 20
7.2136908896
 30
0.0
  0
LINE
  5
4E3
100
AcDbEntity
  8
0
100
AcDbLine
 62
7
  6
CONTINUOUS
 10
13.754354533
 20
8.109702291
 11
13.7544372923
 21
8.062702291
  0
SPLINE
  5
4E4
100
AcDbEntity
  8
0
100
AcDbSpline
 62
7
  6
CONTINUOUS
 70
0
 71
3
 72
15
 73
11
 74
0
 42
0.0000001
 43
0.0000001
 44
0.0000000001
 40
0.0
 40
0.0
 40
0.0
 40
0.0
 40
0.0833307179
 40
0.1787834309
 40
0.287083689
 40
0.4084945039
 40
0.5425502739
 40
0.6878034997
 40
0.8415716576
 40
1.0
 40
1.0
 40
1.0
 40
1.0
 10
13.0868242438
 20
7.2136908896
 30
0.0
 10
13.087247137
 20
7.2143099421
 30
0.0
 10
13.0880655096
 20
7.2156995931
 30
0.0
 10
13.0891420444
 20
7.2180511183
 30
0.0
 10
13.0901260516
 20
7.2208095485
 30
0.0
 10
13.0909923095
 20
7.2239683242
 30
0.0
 10
13.0917122622
 20
7.2275033898
 30
0.0
 10
13.0922557553
 20
7.231363913
 30
0.0
 10
13.0925952664
 20
7.2354675408
 30
0.0
 10
13.0926719335
 20
7.2382769432
 30
0.0
 10
13.0926719335
 20
7.239702291
 30
0.0
  0
SPLINE
  5
4E5
100
AcDbEntity
  8
0
100
AcDbSpline
 62
7
  6
CONTINUOUS
 70
0
 71
3
 72
15
 73
11
 74
0
 42
0.0000001
 43
0.0000001
 44
0.0000000001
 40
0.0
 40
0.0
 40
0.0
 40
0.0
 40
0.1329534474
 40
0.2646427038
 40
0.3941054172
 40
0.5207697546
 40
0.6444795577
 40
0.7653626185
 40
0.8837483226
 40
1.0
 40
1.0
 40
1.0
 40
1.0
 10
13.1153466232
 20
7.239702291
 30
0.0
 10
13.1153466232
 20
7.2382733054
 30
0.0
 10
13.1155652653
 20
7.2354241073
 30
0.0
 10
13.1165293578
 20
7.2312837287
 30
0.0
 10
13.1180703085
 20
7.227394544
 30
0.0
 10
13.1201077994
 20
7.2238413854
 30
0.0
 10
13.1225547128
 20
7.2206743456
 30
0.0
 10
13.1253291034
 20
7.2179164445
 30
0.0
 10
13.1283586971
 20
7.2155731738
 30
0.0
 10
13.1305267207
 20
7.214272217
 30
0.0
 10
13.131632725
 20
7.2136908896
 30
0.0
  0
SPLINE
  5
4E6
100
AcDbEntity
  8
0
100
AcDbSpline
 62
7
  6
CONTINUOUS
 70
0
 71
3
 72
15
 73
11
 74
0
 42
0.0000001
 43
0.0000001
 44
0.0000000001
 40
0.0
 40
0.0
 40
0.0
 40
0.0
 40
0.0886237002
 40
0.1875013341
 40
0.2974925471
 40
0.4190211897
 40
0.5518146443
 40
0.6946706979
 40
0.8452220758
 40
1.0
 40
1.0
 40
1.0
 40
1.0
 10
13.131632725
 20
7.2136908896
 30
0.0
 10
13.1321762078
 20
7.2143000351
 30
0.0
 10
13.1332351343
 20
7.2156714534
 30
0.0
 10
13.1346468751
 20
7.2180260686
 30
0.0
 10
13.1359364926
 20
7.2207882208
 30
0.0
 10
13.1370711806
 20
7.2239509703
 30
0.0
 10
13.1380138829
 20
7.2274901593
 30
0.0
 10
13.1387253612
 20
7.23135498
 30
0.0
 10
13.1391697507
 20
7.2354629574
 30
0.0
 10
13.1392701316
 20
7.2382765619
 30
0.0
 10
13.1392701316
 20
7.239702291
 30
0.0
  0
SPLINE
  5
4E7
100
AcDbEntity
  8
0
100
AcDbSpline
 62
7
  6
CONTINUOUS
 70
0
 71
3
 72
15
 73
11
 74
0
 42
0.0000001
 43
0.0000001
 44
0.0000000001
 40
0.0
 40
0.0
 40
0.0
 40
0.0
 40
0.135865178
 40
0.2700314242
 40
0.4011851372
 40
0.5285320455
 40
0.6518258273
 40
0.7712104793
 40
0.8871033269
 40
1.0
 40
1.0
 40
1.0
 40
1.0
 10
13.1626308625
 20
7.239702291
 30
0.0
 10
13.1626308625
 20
7.2382738607
 30
0.0
 10
13.1628337362
 20
7.2354306716
 30
0.0
 10
13.1637290559
 20
7.2312952245
 30
0.0
 10
13.1651609074
 20
7.227408857
 30
0.0
 10
13.1670554149
 20
7.2238561924
 30
0.0
 10
13.1693320721
 20
7.2206878991
 30
0.0
 10
13.1719148236
 20
7.2179276933
 30
0.0
 10
13.1747362937
 20
7.2155817263
 30
0.0
 10
13.1767632603
 20
7.2142743177
 30
0.0
 10
13.1777969234
 20
7.2136908896
 30
0.0
  0
LINE
  5
4E8
100
AcDbEntity
  8
0
100
AcDbLine
 62
7
  6
CONTINUOUS
 10
13.4055052297
 20
8.062702291
 11
13.4055405723
 21
8.109702291
  0
SPLINE
  5
4E9
100
AcDbEntity
  8
0
100
AcDbSpline
 62
7
  6
CONTINUOUS
 70
0
 71
3
 72
13
 73
9
 74
0
 42
0.0000001
 43
0.0000001
 44
0.0000000001
 40
0.0
 40
0.0
 40
0.0
 40
0.0
 40
0.1964462259
 40
0.3084128781
 40
0.4302424682
 40
0.5618301436
 40
0.7022209046
 40
1.0
 40
1.0
 40
1.0
 40
1.0
 10
13.1777969234
 20
7.2136908896
 30
0.0
 10
13.1791665377
 20
7.214944325
 30
0.0
 10
13.1810332536
 20
7.2172337306
 30
0.0
 10
13.1830559852
 20
7.2207648354
 30
0.0
 10
13.1844503341
 20
7.2239317286
 30
0.0
 10
13.1856079162
 20
7.2274750716
 30
0.0
 10
13.1867949643
 20
7.2327329889
 30
0.0
 10
13.1871504945
 20
7.2368880092
 30
0.0
 10
13.1871504945
 20
7.239702291
 30
0.0
  0
SPLINE
  5
4EA
100
AcDbEntity
  8
0
100
AcDbSpline
 62
7
  6
CONTINUOUS
 70
0
 71
3
 72
15
 73
11
 74
0
 42
0.0000001
 43
0.0000001
 44
0.0000000001
 40
0.0
 40
0.0
 40
0.0
 40
0.0
 40
0.1391792871
 40
0.2761805494
 40
0.4092959211
 40
0.5374691726
 40
0.6603313344
 40
0.77802056
 40
0.8910327022
 40
1.0
 40
1.0
 40
1.0
 40
1.0
 10
13.2109722902
 20
7.239702291
 30
0.0
 10
13.2109722902
 20
7.238274441
 30
0.0
 10
13.2111575283
 20
7.2354375528
 30
0.0
 10
13.2119756842
 20
7.2313075059
 30
0.0
 10
13.2132847733
 20
7.2274245978
 30
0.0
 10
13.2150179106
 20
7.2238730783
 30
0.0
 10
13.2171019723
 20
7.2207039881
 30
0.0
 10
13.2194676574
 20
7.2179416041
 30
0.0
 10
13.2220533125
 20
7.2155927225
 30
0.0
 10
13.2239203746
 20
7.2142770938
 30
0.0
 10
13.2248722528
 20
7.2136908896
 30
0.0
  0
SPLINE
  5
4EB
100
AcDbEntity
  8
0
100
AcDbSpline
 62
7
  6
CONTINUOUS
 70
0
 71
3
 72
13
 73
9
 74
0
 42
0.0000001
 43
0.0000001
 44
0.0000000001
 40
0.0
 40
0.0
 40
0.0
 40
0.0
 40
0.0995715431
 40
0.2059096696
 40
0.3198722518
 40
0.4420266426
 40
0.7098586791
 40
1.0
 40
1.0
 40
1.0
 40
1.0
 10
13.2248722528
 20
7.2136908896
 30
0.0
 10
13.2256350398
 20
7.2142855866
 30
0.0
 10
13.2271300664
 20
7.2156242971
 30
0.0
 10
13.2291694477
 20
7.2179783761
 30
0.0
 10
13.2310333016
 20
7.2207433826
 30
0.0
 10
13.233287911
 20
7.225099215
 30
0.0
 10
13.2353030401
 20
7.2314477246
 30
0.0
 10
13.2358519084
 20
7.2368839197
 30
0.0
 10
13.2358519084
 20
7.239702291
 30
0.0
  0
SPLINE
  5
4EC
100
AcDbEntity
  8
0
100
AcDbSpline
 62
7
  6
CONTINUOUS
 70
0
 71
3
 72
14
 73
10
 74
0
 42
0.0000001
 43
0.0000001
 44
0.0000000001
 40
0.0
 40
0.0
 40
0.0
 40
0.0
 40
0.2826401447
 40
0.4180338718
 40
0.5472454615
 40
0.6697464601
 40
0.7856368932
 40
0.8954681746
 40
1.0
 40
1.0
 40
1.0
 40
1.0
 10
13.2599053519
 20
7.239702291
 30
0.0
 10
13.2599053519
 20
7.2368795247
 30
0.0
 10
13.2603921273
 20
7.2326811972
 30
0.0
 10
13.2619788454
 20
7.2274418918
 30
0.0
 10
13.26353409
 20
7.2238915429
 30
0.0
 10
13.265405169
 20
7.2207225953
 30
0.0
 10
13.2675303914
 20
7.2179584554
 30
0.0
 10
13.2698545783
 20
7.2156067188
 30
0.0
 10
13.2715439941
 20
7.2142807575
 30
0.0
 10
13.2724053519
 20
7.2136908896
 30
0.0
  0
SPLINE
  5
4ED
100
AcDbEntity
  8
0
100
AcDbSpline
 62
7
  6
CONTINUOUS
 70
0
 71
3
 72
14
 73
10
 74
0
 42
0.0000001
 43
0.0000001
 44
0.0000000001
 40
0.0
 40
0.0
 40
0.0
 40
0.0
 40
0.2826401571
 40
0.4180338697
 40
0.5472454583
 40
0.6697464577
 40
0.7856368945
 40
0.8954681737
 40
1.0
 40
1.0
 40
1.0
 40
1.0
 10
13.2849053519
 20
8.109702291
 30
0.0
 10
13.2849053519
 20
8.1125250574
 30
0.0
 10
13.2844185766
 20
8.1167233849
 30
0.0
 10
13.2828318584
 20
8.1219626902
 30
0.0
 10
13.2812766139
 20
8.125513039
 30
0.0
 10
13.2794055349
 20
8.1286819867
 30
0.0
 10
13.2772803125
 20
8.1314461266
 30
0.0
 10
13.2749561255
 20
8.1337978632
 30
0.0
 10
13.2732667098
 20
8.1351238245
 30
0.0
 10
13.2724053519
 20
8.1357136923
 30
0.0
  0
SPLINE
  5
4EE
100
AcDbEntity
  8
0
100
AcDbSpline
 62
7
  6
CONTINUOUS
 70
0
 71
3
 72
15
 73
11
 74
0
 42
0.0000001
 43
0.0000001
 44
0.0000000001
 40
0.0
 40
0.0
 40
0.0
 40
0.0
 40
0.1271932147
 40
0.2540224675
 40
0.3802317343
 40
0.5056634395
 40
0.6302894253
 40
0.7541510195
 40
0.8773613953
 40
1.0
 40
1.0
 40
1.0
 40
1.0
 10
12.8058264215
 20
7.239702291
 30
0.0
 10
12.8058264215
 20
7.2382720651
 30
0.0
 10
12.8060774168
 20
7.2354095175
 30
0.0
 10
12.8071818195
 20
7.2312589253
 30
0.0
 10
12.8089442133
 20
7.2273649802
 30
0.0
 10
12.8112705701
 20
7.2238123454
 30
0.0
 10
12.81406043
 20
7.2206491609
 30
0.0
 10
12.8172203982
 20
7.2178965999
 30
0.0
 10
12.8206688021
 20
7.2155587745
 30
0.0
 10
12.823120843
 20
7.214268788
 30
0.0
 10
12.8243729238
 20
7.2136908896
 30
0.0
  0
SPLINE
  5
4EF
100
AcDbEntity
  8
0
100
AcDbSpline
 62
7
  6
CONTINUOUS
 70
0
 71
3
 72
15
 73
11
 74
0
 42
0.0000001
 43
0.0000001
 44
0.0000000001
 40
0.0
 40
0.0
 40
0.0
 40
0.0
 40
0.1309882009
 40
0.2610132094
 40
0.3893520706
 40
0.5155784155
 40
0.6395873724
 40
0.7614850787
 40
0.8815328961
 40
1.0
 40
1.0
 40
1.0
 40
1.0
 10
12.7797273543
 20
7.239702291
 30
0.0
 10
12.7797273543
 20
7.2382729045
 30
0.0
 10
12.7799568379
 20
7.2354193805
 30
0.0
 10
12.7809680754
 20
7.2312755813
 30
0.0
 10
12.7825836164
 20
7.2273846384
 30
0.0
 10
12.7847186154
 20
7.2238314297
 30
0.0
 10
12.7872814351
 20
7.2206655095
 30
0.0
 10
12.7901861897
 20
7.2179093302
 30
0.0
 10
12.7933573605
 20
7.2155679136
 30
0.0
 10
12.7956213541
 20
7.2142709491
 30
0.0
 10
12.7967766631
 20
7.2136908896
 30
0.0
  0
LINE
  5
4F0
100
AcDbEntity
  8
0
100
AcDbLine
 62
7
  6
CONTINUOUS
 10
13.1392701316
 20
8.109702291
 11
13.1393054741
 21
8.062702291
  0
SPLINE
  5
4F1
100
AcDbEntity
  8
0
100
AcDbSpline
 62
7
  6
CONTINUOUS
 70
0
 71
3
 72
15
 73
11
 74
0
 42
0.0000001
 43
0.0000001
 44
0.0000000001
 40
0.0
 40
0.0
 40
0.0
 40
0.0
 40
0.1335638041
 40
0.2657711715
 40
0.3955857825
 40
0.522389856
 40
0.6460097151
 40
0.766578147
 40
0.8844442917
 40
1.0
 40
1.0
 40
1.0
 40
1.0
 10
13.7710674076
 20
8.109702291
 30
0.0
 10
13.7710674076
 20
8.1111311566
 30
0.0
 10
13.7708520974
 20
8.1139790567
 30
0.0
 10
13.769902518
 20
8.1181183877
 30
0.0
 10
13.7683845631
 20
8.1220070014
 30
0.0
 10
13.766377175
 20
8.1255600974
 30
0.0
 10
13.7639660762
 20
8.1287274409
 30
0.0
 10
13.7612319823
 20
8.1314858513
 30
0.0
 10
13.7582461499
 20
8.1338296937
 30
0.0
 10
13.7561077861
 20
8.1351319478
 30
0.0
 10
13.7550170062
 20
8.1357136923
 30
0.0
  0
SPLINE
  5
4F2
100
AcDbEntity
  8
0
100
AcDbSpline
 62
7
  6
CONTINUOUS
 70
0
 71
3
 72
15
 73
11
 74
0
 42
0.0000001
 43
0.0000001
 44
0.0000000001
 40
0.0
 40
0.0
 40
0.0
 40
0.0
 40
0.1309882167
 40
0.2610132209
 40
0.3893520687
 40
0.5155784123
 40
0.6395873701
 40
0.7614850801
 40
0.8815328952
 40
1.0
 40
1.0
 40
1.0
 40
1.0
 10
13.7650833495
 20
8.109702291
 30
0.0
 10
13.7650833495
 20
8.1111316776
 30
0.0
 10
13.7648538659
 20
8.1139852018
 30
0.0
 10
13.7638426284
 20
8.1181290009
 30
0.0
 10
13.7622270874
 20
8.1220199436
 30
0.0
 10
13.7600920885
 20
8.1255731522
 30
0.0
 10
13.7575292687
 20
8.1287390724
 30
0.0
 10
13.7546245142
 20
8.1314952518
 30
0.0
 10
13.7514533433
 20
8.1338366684
 30
0.0
 10
13.7491893498
 20
8.1351336329
 30
0.0
 10
13.7480340407
 20
8.1357136923
 30
0.0
  0
SPLINE
  5
4F3
100
AcDbEntity
  8
0
100
AcDbSpline
 62
7
  6
CONTINUOUS
 70
0
 71
3
 72
15
 73
11
 74
0
 42
0.0000001
 43
0.0000001
 44
0.0000000001
 40
0.0
 40
0.0
 40
0.0
 40
0.0
 40
0.128861542
 40
0.2570926982
 40
0.3842314883
 40
0.5100042708
 40
0.634352809
 40
0.7573505398
 40
0.8791782925
 40
1.0
 40
1.0
 40
1.0
 40
1.0
 10
13.754354533
 20
8.109702291
 30
0.0
 10
13.754354533
 20
8.111132137
 30
0.0
 10
13.7541130973
 20
8.1139906047
 30
0.0
 10
13.7530500305
 20
8.1181381821
 30
0.0
 10
13.7513526978
 20
8.1220308763
 30
0.0
 10
13.7491110176
 20
8.1255838737
 30
0.0
 10
13.7464215588
 20
8.1287483499
 30
0.0
 10
13.7433744333
 20
8.1315025431
 30
0.0
 10
13.7400486233
 20
8.1338419449
 30
0.0
 10
13.7376797625
 20
8.1351348869
 30
0.0
 10
13.736470511
 20
8.1357136923
 30
0.0
  0
SPLINE
  5
4F4
100
AcDbEntity
  8
0
100
AcDbSpline
 62
7
  6
CONTINUOUS
 70
0
 71
3
 72
15
 73
11
 74
0
 42
0.0000001
 43
0.0000001
 44
0.0000000001
 40
0.0
 40
0.0
 40
0.0
 40
0.0
 40
0.12719323
 40
0.2540224787
 40
0.3802317325
 40
0.5056634363
 40
0.630289423
 40
0.7541510208
 40
0.8773613943
 40
1.0
 40
1.0
 40
1.0
 40
1.0
 10
13.7389842823
 20
8.109702291
 30
0.0
 10
13.7389842823
 20
8.1111325171
 30
0.0
 10
13.738733287
 20
8.1139950648
 30
0.0
 10
13.7376288843
 20
8.118145657
 30
0.0
 10
13.7358664905
 20
8.1220396018
 30
0.0
 10
13.7335401338
 20
8.1255922365
 30
0.0
 10
13.7307502738
 20
8.128755421
 30
0.0
 10
13.7275903057
 20
8.131507982
 30
0.0
 10
13.7241419017
 20
8.1338458075
 30
0.0
 10
13.7216898608
 20
8.135135794
 30
0.0
 10
13.72043778
 20
8.1357136923
 30
0.0
  0
SPLINE
  5
4F5
100
AcDbEntity
  8
0
100
AcDbSpline
 62
7
  6
CONTINUOUS
 70
0
 71
3
 72
14
 73
10
 74
0
 42
0.0000001
 43
0.0000001
 44
0.0000000001
 40
0.0
 40
0.0
 40
0.0
 40
0.0
 40
0.1260343243
 40
0.251900241
 40
0.3774912599
 40
0.5027315808
 40
0.6276111748
 40
0.7521447589
 40
1.0
 40
1.0
 40
1.0
 40
1.0
 10
13.7191206216
 20
8.109702291
 30
0.0
 10
13.7191206216
 20
8.1111328033
 30
0.0
 10
13.7188625983
 20
8.1139984191
 30
0.0
 10
13.7177279031
 20
8.1181512102
 30
0.0
 10
13.7159178707
 20
8.122046009
 30
0.0
 10
13.7135298346
 20
8.1255981847
 30
0.0
 10
13.7106661063
 20
8.1287606774
 30
0.0
 10
13.7063542398
 20
8.1324205493
 30
0.0
 10
13.7026558487
 20
8.1345596485
 30
0.0
 10
13.7000902519
 20
8.1357136923
 30
0.0
  0
SPLINE
  5
4F6
100
AcDbEntity
  8
0
100
AcDbSpline
 62
7
  6
CONTINUOUS
 70
0
 71
3
 72
14
 73
10
 74
0
 42
0.0000001
 43
0.0000001
 44
0.0000000001
 40
0.0
 40
0.0
 40
0.0
 40
0.0
 40
0.1252894999
 40
0.2505325667
 40
0.3757152224
 40
0.5008111765
 40
0.625820078
 40
0.7507388429
 40
1.0
 40
1.0
 40
1.0
 40
1.0
 10
13.6949548486
 20
8.109702291
 30
0.0
 10
13.6949548486
 20
8.1111329849
 30
0.0
 10
13.6946924423
 20
8.1140005424
 30
0.0
 10
13.6935388724
 20
8.1181547032
 30
0.0
 10
13.6916992437
 20
8.1220499808
 30
0.0
 10
13.6892727903
 20
8.1256018823
 30
0.0
 10
13.6863635894
 20
8.1287637119
 30
0.0
 10
13.6819798974
 20
8.1324257059
 30
0.0
 10
13.6782264683
 20
8.1345612151
 30
0.0
 10
13.6756238844
 20
8.1357136923
 30
0.0
  0
SPLINE
  5
4F7
100
AcDbEntity
  8
0
100
AcDbSpline
 62
7
  6
CONTINUOUS
 70
0
 71
3
 72
14
 73
10
 74
0
 42
0.0000001
 43
0.0000001
 44
0.0000000001
 40
0.0
 40
0.0
 40
0.0
 40
0.0
 40
0.1250070945
 40
0.2500142594
 40
0.3750426372
 40
0.500084515
 40
0.625142908
 40
0.7502077131
 40
1.0
 40
1.0
 40
1.0
 40
1.0
 10
13.6667196929
 20
8.109702291
 30
0.0
 10
13.6667196929
 20
8.1111330547
 30
0.0
 10
13.6664556144
 20
8.1140013587
 30
0.0
 10
13.6652948497
 20
8.1181560407
 30
0.0
 10
13.6634439489
 20
8.122051493
 30
0.0
 10
13.6610028726
 20
8.1256032813
 30
0.0
 10
13.6580763676
 20
8.1287648532
 30
0.0
 10
13.6536653352
 20
8.1324276337
 30
0.0
 10
13.6498909693
 20
8.1345617972
 30
0.0
 10
13.647274302
 20
8.1357136923
 30
0.0
  0
SPLINE
  5
4F8
100
AcDbEntity
  8
0
100
AcDbSpline
 62
7
  6
CONTINUOUS
 70
0
 71
3
 72
14
 73
10
 74
0
 42
0.0000001
 43
0.0000001
 44
0.0000000001
 40
0.0
 40
0.0
 40
0.0
 40
0.0
 40
0.1251867987
 40
0.2503440596
 40
0.3754705742
 40
0.5005468205
 40
0.6255736911
 40
0.7505455663
 40
1.0
 40
1.0
 40
1.0
 40
1.0
 10
13.6346870746
 20
8.109702291
 30
0.0
 10
13.6346870746
 20
8.1111330102
 30
0.0
 10
13.6344240609
 20
8.1140008385
 30
0.0
 10
13.6332678769
 20
8.1181551888
 30
0.0
 10
13.6314241522
 20
8.1220505303
 30
0.0
 10
13.6289923846
 20
8.1256023913
 30
0.0
 10
13.6260768949
 20
8.1287641276
 30
0.0
 10
13.6216832671
 20
8.1324264087
 30
0.0
 10
13.6179222284
 20
8.1345614276
 30
0.0
 10
13.6153145267
 20
8.1357136923
 30
0.0
  0
SPLINE
  5
4F9
100
AcDbEntity
  8
0
100
AcDbSpline
 62
7
  6
CONTINUOUS
 70
0
 71
3
 72
14
 73
10
 74
0
 42
0.0000001
 43
0.0000001
 44
0.0000000001
 40
0.0
 40
0.0
 40
0.0
 40
0.0
 40
0.1258288185
 40
0.2515227862
 40
0.377000921
 40
0.5022011564
 40
0.6271162496
 40
0.7517561099
 40
1.0
 40
1.0
 40
1.0
 40
1.0
 10
13.5991654852
 20
8.109702291
 30
0.0
 10
13.5991654852
 20
8.111132853
 30
0.0
 10
13.5989062566
 20
8.1139990007
 30
0.0
 10
13.597766368
 20
8.118152169
 30
0.0
 10
13.5959481887
 20
8.1220471025
 30
0.0
 10
13.5935495741
 20
8.1255992061
 30
0.0
 10
13.590673323
 20
8.1287615182
 30
0.0
 10
13.5863416794
 20
8.1324219826
 30
0.0
 10
13.5826281282
 20
8.1345600854
 30
0.0
 10
13.5800523486
 20
8.1357136923
 30
0.0
  0
LINE
  5
4FA
100
AcDbEntity
  8
0
100
AcDbLine
 62
7
  6
CONTINUOUS
 10
13.5800523486
 20
8.1357136923
 11
13.5798402239
 21
8.109702291
  0
SPLINE
  5
4FB
100
AcDbEntity
  8
0
100
AcDbSpline
 62
7
  6
CONTINUOUS
 70
0
 71
3
 72
14
 73
10
 74
0
 42
0.0000001
 43
0.0000001
 44
0.0000000001
 40
0.0
 40
0.0
 40
0.0
 40
0.0
 40
0.1269336225
 40
0.2535528582
 40
0.3796397537
 40
0.5050577621
 40
0.6297836279
 40
0.7538521631
 40
1.0
 40
1.0
 40
1.0
 40
1.0
 10
13.5604970172
 20
8.109702291
 30
0.0
 10
13.5604970172
 20
8.1111325892
 30
0.0
 10
13.5602442345
 20
8.113995912
 30
0.0
 10
13.5591321402
 20
8.1181470588
 30
0.0
 10
13.5573575932
 20
8.1220412459
 30
0.0
 10
13.5550156633
 20
8.1255937055
 30
0.0
 10
13.5522065314
 20
8.1287569662
 30
0.0
 10
13.5479808594
 20
8.1324141814
 30
0.0
 10
13.5443485916
 20
8.1345576939
 30
0.0
 10
13.5418273618
 20
8.1357136923
 30
0.0
  0
SPLINE
  5
4FC
100
AcDbEntity
  8
0
100
AcDbSpline
 62
7
  6
CONTINUOUS
 70
0
 71
3
 72
14
 73
10
 74
0
 42
0.0000001
 43
0.0000001
 44
0.0000000001
 40
0.0
 40
0.0
 40
0.0
 40
0.0
 40
0.0755562207
 40
0.1662069707
 40
0.2722696846
 40
0.3936636084
 40
0.5295947534
 40
0.6782519199
 40
1.0
 40
1.0
 40
1.0
 40
1.0
 10
13.5418273618
 20
8.1357136923
 30
0.0
 10
13.5416692749
 20
8.1350744895
 30
0.0
 10
13.5413691911
 20
8.1336565763
 30
0.0
 10
13.5409827093
 20
8.1313149562
 30
0.0
 10
13.540628649
 20
8.1285648856
 30
0.0
 10
13.5403164276
 20
8.1254130716
 30
0.0
 10
13.5400566668
 20
8.1218841846
 30
0.0
 10
13.5397883093
 20
8.1166065652
 30
0.0
 10
13.5397102769
 20
8.1125062795
 30
0.0
 10
13.5397102769
 20
8.109702291
 30
0.0
  0
SPLINE
  5
4FD
100
AcDbEntity
  8
0
100
AcDbSpline
 62
7
  6
CONTINUOUS
 70
0
 71
3
 72
15
 73
11
 74
0
 42
0.0000001
 43
0.0000001
 44
0.0000000001
 40
0.0
 40
0.0
 40
0.0
 40
0.0
 40
0.1284510037
 40
0.2563367398
 40
0.3832458156
 40
0.5089334688
 40
0.6333493966
 40
0.7565596505
 40
0.8787287573
 40
1.0
 40
1.0
 40
1.0
 40
1.0
 10
13.5190540689
 20
8.109702291
 30
0.0
 10
13.5190540689
 20
8.1111322289
 30
0.0
 10
13.5188102966
 20
8.1139916837
 30
0.0
 10
13.5177371162
 20
8.1181399991
 30
0.0
 10
13.5160238505
 20
8.1220330115
 30
0.0
 10
13.5137614187
 20
8.1255859358
 30
0.0
 10
13.5110473455
 20
8.1287501068
 30
0.0
 10
13.5079725535
 20
8.1315039039
 30
0.0
 10
13.5046166888
 20
8.1338429171
 30
0.0
 10
13.5022274398
 20
8.1351351161
 30
0.0
 10
13.5010076936
 20
8.1357136923
 30
0.0
  0
SPLINE
  5
4FE
100
AcDbEntity
  8
0
100
AcDbSpline
 62
7
  6
CONTINUOUS
 70
0
 71
3
 72
15
 73
11
 74
0
 42
0.0000001
 43
0.0000001
 44
0.0000000001
 40
0.0
 40
0.0
 40
0.0
 40
0.0
 40
0.0787695095
 40
0.1713697395
 40
0.2783207041
 40
0.3996989704
 40
0.5348518799
 40
0.6821184283
 40
0.8385562242
 40
1.0
 40
1.0
 40
1.0
 40
1.0
 10
13.5010076936
 20
8.1357136923
 30
0.0
 10
13.5007132447
 20
8.1350838216
 30
0.0
 10
13.5001488477
 20
8.1336776461
 30
0.0
 10
13.4994155221
 20
8.13133109
 30
0.0
 10
13.4987444744
 20
8.1285771467
 30
0.0
 10
13.4981532181
 20
8.1254223223
 30
0.0
 10
13.4976615893
 20
8.1218908883
 30
0.0
 10
13.4972903478
 20
8.1180338484
 30
0.0
 10
13.4970584034
 20
8.1139335814
 30
0.0
 10
13.4970060373
 20
8.1111273513
 30
0.0
 10
13.4970060373
 20
8.109702291
 30
0.0
  0
SPLINE
  5
4FF
100
AcDbEntity
  8
0
100
AcDbSpline
 62
7
  6
CONTINUOUS
 70
0
 71
3
 72
15
 73
11
 74
0
 42
0.0000001
 43
0.0000001
 44
0.0000000001
 40
0.0
 40
0.0
 40
0.0
 40
0.0
 40
0.1304763677
 40
0.2600689451
 40
0.388117424
 40
0.5142326727
 40
0.6383218821
 40
0.760484184
 40
0.8809621766
 40
1.0
 40
1.0
 40
1.0
 40
1.0
 10
13.4752357586
 20
8.109702291
 30
0.0
 10
13.4752357586
 20
8.1111317857
 30
0.0
 10
13.4750034206
 20
8.1139864742
 30
0.0
 10
13.4739797909
 20
8.1181311756
 30
0.0
 10
13.4723446729
 20
8.122022555
 30
0.0
 10
13.4701841166
 20
8.1255757382
 30
0.0
 10
13.4675909424
 20
8.1287413324
 30
0.0
 10
13.4646520574
 20
8.1314970445
 30
0.0
 10
13.4614438178
 20
8.1338379763
 30
0.0
 10
13.4591546913
 20
8.1351339453
 30
0.0
 10
13.45798646
 20
8.1357136923
 30
0.0
  0
SPLINE
  5
500
100
AcDbEntity
  8
0
100
AcDbSpline
 62
7
  6
CONTINUOUS
 70
0
 71
3
 72
15
 73
11
 74
0
 42
0.0000001
 43
0.0000001
 44
0.0000000001
 40
0.0
 40
0.0
 40
0.0
 40
0.0
 40
0.0833307191
 40
0.1787834278
 40
0.2870836887
 40
0.4084944988
 40
0.5425502738
 40
0.687803516
 40
0.8415716734
 40
1.0
 40
1.0
 40
1.0
 40
1.0
 10
13.45798646
 20
8.1357136923
 30
0.0
 10
13.4575635669
 20
8.1350946399
 30
0.0
 10
13.4567451943
 20
8.1337049889
 30
0.0
 10
13.4556686594
 20
8.1313534637
 30
0.0
 10
13.4546846523
 20
8.1285950336
 30
0.0
 10
13.4538183943
 20
8.1254362578
 30
0.0
 10
13.4530984417
 20
8.1219011921
 30
0.0
 10
13.4525549485
 20
8.1180406687
 30
0.0
 10
13.4522154374
 20
8.1139370409
 30
0.0
 10
13.4521387703
 20
8.1111276386
 30
0.0
 10
13.4521387703
 20
8.109702291
 30
0.0
  0
SPLINE
  5
501
100
AcDbEntity
  8
0
100
AcDbSpline
 62
7
  6
CONTINUOUS
 70
0
 71
3
 72
15
 73
11
 74
0
 42
0.0000001
 43
0.0000001
 44
0.0000000001
 40
0.0
 40
0.0
 40
0.0
 40
0.0
 40
0.1329534635
 40
0.2646427155
 40
0.3941054153
 40
0.5207697514
 40
0.6444795554
 40
0.7653626198
 40
0.8837483217
 40
1.0
 40
1.0
 40
1.0
 40
1.0
 10
13.4294640807
 20
8.109702291
 30
0.0
 10
13.4294640807
 20
8.1111312767
 30
0.0
 10
13.4292454385
 20
8.113980475
 30
0.0
 10
13.428281346
 20
8.1181208536
 30
0.0
 10
13.4267403952
 20
8.122010038
 30
0.0
 10
13.4247029045
 20
8.1255631966
 30
0.0
 10
13.4222559911
 20
8.1287302364
 30
0.0
 10
13.4194816005
 20
8.1314881375
 30
0.0
 10
13.4164520068
 20
8.1338314082
 30
0.0
 10
13.4142839832
 20
8.1351323649
 30
0.0
 10
13.4131779789
 20
8.1357136923
 30
0.0
  0
SPLINE
  5
502
100
AcDbEntity
  8
0
100
AcDbSpline
 62
7
  6
CONTINUOUS
 70
0
 71
3
 72
15
 73
11
 74
0
 42
0.0000001
 43
0.0000001
 44
0.0000000001
 40
0.0
 40
0.0
 40
0.0
 40
0.0
 40
0.0886237015
 40
0.1875013309
 40
0.2974925467
 40
0.4190211847
 40
0.5518146441
 40
0.6946707139
 40
0.8452220913
 40
1.0
 40
1.0
 40
1.0
 40
1.0
 10
13.4131779789
 20
8.1357136923
 30
0.0
 10
13.412634496
 20
8.1351045468
 30
0.0
 10
13.4115755696
 20
8.1337331286
 30
0.0
 10
13.4101638288
 20
8.1313785134
 30
0.0
 10
13.4088742113
 20
8.1286163613
 30
0.0
 10
13.4077395232
 20
8.1254536118
 30
0.0
 10
13.4067968209
 20
8.1219144226
 30
0.0
 10
13.4060853426
 20
8.1180496017
 30
0.0
 10
13.4056409531
 20
8.1139416242
 30
0.0
 10
13.4055405723
 20
8.1111280199
 30
0.0
 10
13.4055405723
 20
8.109702291
 30
0.0
  0
SPLINE
  5
503
100
AcDbEntity
  8
0
100
AcDbSpline
 62
7
  6
CONTINUOUS
 70
0
 71
3
 72
15
 73
11
 74
0
 42
0.0000001
 43
0.0000001
 44
0.0000000001
 40
0.0
 40
0.0
 40
0.0
 40
0.0
 40
0.1358651944
 40
0.270031436
 40
0.4011851352
 40
0.5285320423
 40
0.651825825
 40
0.7712104806
 40
0.887103326
 40
1.0
 40
1.0
 40
1.0
 40
1.0
 10
13.3821798413
 20
8.109702291
 30
0.0
 10
13.3821798413
 20
8.1111307215
 30
0.0
 10
13.3819769676
 20
8.1139739107
 30
0.0
 10
13.3810816479
 20
8.1181093577
 30
0.0
 10
13.3796497963
 20
8.121995725
 30
0.0
 10
13.377755289
 20
8.1255483895
 30
0.0
 10
13.3754786317
 20
8.1287166828
 30
0.0
 10
13.3728958802
 20
8.1314768887
 30
0.0
 10
13.3700744101
 20
8.1338228557
 30
0.0
 10
13.3680474435
 20
8.1351302642
 30
0.0
 10
13.3670137804
 20
8.1357136923
 30
0.0
  0
SPLINE
  5
504
100
AcDbEntity
  8
0
100
AcDbSpline
 62
7
  6
CONTINUOUS
 70
0
 71
3
 72
13
 73
9
 74
0
 42
0.0000001
 43
0.0000001
 44
0.0000000001
 40
0.0
 40
0.0
 40
0.0
 40
0.0
 40
0.1964462228
 40
0.3084128777
 40
0.4302424633
 40
0.5618301433
 40
0.7022209202
 40
1.0
 40
1.0
 40
1.0
 40
1.0
 10
13.3670137804
 20
8.1357136923
 30
0.0
 10
13.3656441662
 20
8.134460257
 30
0.0
 10
13.3637774502
 20
8.1321708515
 30
0.0
 10
13.3617547187
 20
8.1286397467
 30
0.0
 10
13.3603603697
 20
8.1254728535
 30
0.0
 10
13.3592027876
 20
8.1219295102
 30
0.0
 10
13.3580157395
 20
8.116671593
 30
0.0
 10
13.3576602093
 20
8.1125165726
 30
0.0
 10
13.3576602093
 20
8.109702291
 30
0.0
  0
SPLINE
  5
505
100
AcDbEntity
  8
0
100
AcDbSpline
 62
7
  6
CONTINUOUS
 70
0
 71
3
 72
15
 73
11
 74
0
 42
0.0000001
 43
0.0000001
 44
0.0000000001
 40
0.0
 40
0.0
 40
0.0
 40
0.0
 40
0.1391793039
 40
0.2761805615
 40
0.4092959191
 40
0.5374691694
 40
0.6603313321
 40
0.7780205613
 40
0.8910327013
 40
1.0
 40
1.0
 40
1.0
 40
1.0
 10
13.3338384136
 20
8.109702291
 30
0.0
 10
13.3338384136
 20
8.1111301412
 30
0.0
 10
13.3336531755
 20
8.1139670295
 30
0.0
 10
13.3328350196
 20
8.1180970764
 30
0.0
 10
13.3315259305
 20
8.1219799843
 30
0.0
 10
13.3297927933
 20
8.1255315036
 30
0.0
 10
13.3277087316
 20
8.1287005939
 30
0.0
 10
13.3253430465
 20
8.1314629778
 30
0.0
 10
13.3227573913
 20
8.1338118595
 30
0.0
 10
13.3208903292
 20
8.1351274882
 30
0.0
 10
13.319938451
 20
8.1357136923
 30
0.0
  0
SPLINE
  5
506
100
AcDbEntity
  8
0
100
AcDbSpline
 62
7
  6
CONTINUOUS
 70
0
 71
3
 72
13
 73
9
 74
0
 42
0.0000001
 43
0.0000001
 44
0.0000000001
 40
0.0
 40
0.0
 40
0.0
 40
0.0
 40
0.0995715445
 40
0.2059096663
 40
0.3198722513
 40
0.4420266378
 40
0.7098586943
 40
1.0
 40
1.0
 40
1.0
 40
1.0
 10
13.319938451
 20
8.1357136923
 30
0.0
 10
13.319175664
 20
8.1351189954
 30
0.0
 10
13.3176806374
 20
8.1337802849
 30
0.0
 10
13.3156412562
 20
8.1314262059
 30
0.0
 10
13.3137774023
 20
8.1286611994
 30
0.0
 10
13.3115227927
 20
8.1243053669
 30
0.0
 10
13.3095076638
 20
8.1179568572
 30
0.0
 10
13.3089587954
 20
8.1125206621
 30
0.0
 10
13.3089587954
 20
8.109702291
 30
0.0
  0
LINE
  5
507
100
AcDbEntity
  8
0
100
AcDbLine
 62
7
  6
CONTINUOUS
 10
12.7903734115
 20
8.062702291
 11
12.7904561709
 21
8.109702291
  0
SPLINE
  5
508
100
AcDbEntity
  8
0
100
AcDbSpline
 62
7
  6
CONTINUOUS
 70
0
 71
3
 72
15
 73
11
 74
0
 42
0.0000001
 43
0.0000001
 44
0.0000000001
 40
0.0
 40
0.0
 40
0.0
 40
0.0
 40
0.1155554984
 40
0.2334210985
 40
0.3539891364
 40
0.4776086797
 40
0.6044130546
 40
0.7342275668
 40
0.8664354719
 40
1.0
 40
1.0
 40
1.0
 40
1.0
 10
12.7897936977
 20
8.1357136923
 30
0.0
 10
12.7887029197
 20
8.1351319488
 30
0.0
 10
12.7865645625
 20
8.1338296994
 30
0.0
 10
12.7835787392
 20
8.1314858655
 30
0.0
 10
12.7808446515
 20
8.1287274681
 30
0.0
 10
12.7784335496
 20
8.1255601321
 30
0.0
 10
12.7764261606
 20
8.1220070382
 30
0.0
 10
12.7749081921
 20
8.1181184213
 30
0.0
 10
12.7739586097
 20
8.1139790777
 30
0.0
 10
12.7737432962
 20
8.1111311644
 30
0.0
 10
12.7737432962
 20
8.109702291
 30
0.0
  0
SPLINE
  5
509
100
AcDbEntity
  8
0
100
AcDbSpline
 62
7
  6
CONTINUOUS
 70
0
 71
3
 72
14
 73
10
 74
0
 42
0.0000001
 43
0.0000001
 44
0.0000000001
 40
0.0
 40
0.0
 40
0.0
 40
0.0
 40
0.1260343091
 40
0.2519002299
 40
0.3774912618
 40
0.502731584
 40
0.627611177
 40
0.7521447576
 40
1.0
 40
1.0
 40
1.0
 40
1.0
 10
12.8256900823
 20
7.239702291
 30
0.0
 10
12.8256900823
 20
7.2382717788
 30
0.0
 10
12.8259481055
 20
7.2354061631
 30
0.0
 10
12.8270828007
 20
7.231253372
 30
0.0
 10
12.828892833
 20
7.227358573
 30
0.0
 10
12.8312808694
 20
7.2238063972
 30
0.0
 10
12.8341445975
 20
7.2206439045
 30
0.0
 10
12.8384564641
 20
7.2169840327
 30
0.0
 10
12.8421548551
 20
7.2148449335
 30
0.0
 10
12.8447204519
 20
7.2136908896
 30
0.0
  0
SPLINE
  5
50A
100
AcDbEntity
  8
0
100
AcDbSpline
 62
7
  6
CONTINUOUS
 70
0
 71
3
 72
14
 73
10
 74
0
 42
0.0000001
 43
0.0000001
 44
0.0000000001
 40
0.0
 40
0.0
 40
0.0
 40
0.0
 40
0.1252894848
 40
0.2505325557
 40
0.3757152242
 40
0.5008111797
 40
0.6258200803
 40
0.7507388415
 40
1.0
 40
1.0
 40
1.0
 40
1.0
 10
12.8498558553
 20
7.239702291
 30
0.0
 10
12.8498558553
 20
7.2382715973
 30
0.0
 10
12.8501182615
 20
7.2354040399
 30
0.0
 10
12.8512718314
 20
7.231249879
 30
0.0
 10
12.85311146
 20
7.2273546012
 30
0.0
 10
12.8555379136
 20
7.2238026996
 30
0.0
 10
12.8584471145
 20
7.22064087
 30
0.0
 10
12.8628308064
 20
7.2169788761
 30
0.0
 10
12.8665842355
 20
7.2148433668
 30
0.0
 10
12.8691868194
 20
7.2136908896
 30
0.0
  0
SPLINE
  5
50B
100
AcDbEntity
  8
0
100
AcDbSpline
 62
7
  6
CONTINUOUS
 70
0
 71
3
 72
14
 73
10
 74
0
 42
0.0000001
 43
0.0000001
 44
0.0000000001
 40
0.0
 40
0.0
 40
0.0
 40
0.0
 40
0.1250070794
 40
0.2500142484
 40
0.375042639
 40
0.5000845182
 40
0.6251429102
 40
0.7502077117
 40
1.0
 40
1.0
 40
1.0
 40
1.0
 10
12.878091011
 20
7.239702291
 30
0.0
 10
12.878091011
 20
7.2382715275
 30
0.0
 10
12.8783550894
 20
7.2354032236
 30
0.0
 10
12.8795158541
 20
7.2312485416
 30
0.0
 10
12.8813667549
 20
7.2273530891
 30
0.0
 10
12.8838078313
 20
7.2238013007
 30
0.0
 10
12.8867343363
 20
7.2206397287
 30
0.0
 10
12.8911453687
 20
7.2169769483
 30
0.0
 10
12.8949197345
 20
7.2148427848
 30
0.0
 10
12.8975364018
 20
7.2136908896
 30
0.0
  0
SPLINE
  5
50C
100
AcDbEntity
  8
0
100
AcDbSpline
 62
7
  6
CONTINUOUS
 70
0
 71
3
 72
15
 73
11
 74
0
 42
0.0000001
 43
0.0000001
 44
0.0000000001
 40
0.0
 40
0.0
 40
0.0
 40
0.0
 40
0.1288615264
 40
0.2570926869
 40
0.3842314902
 40
0.510004274
 40
0.6343528113
 40
0.7573505385
 40
0.8791782934
 40
1.0
 40
1.0
 40
1.0
 40
1.0
 10
12.7904561709
 20
7.239702291
 30
0.0
 10
12.7904561709
 20
7.2382724452
 30
0.0
 10
12.7906976065
 20
7.2354139776
 30
0.0
 10
12.7917606733
 20
7.2312664001
 30
0.0
 10
12.793458006
 20
7.2273737057
 30
0.0
 10
12.7956996864
 20
7.2238207083
 30
0.0
 10
12.798389145
 20
7.220656232
 30
0.0
 10
12.8014362706
 20
7.2179020388
 30
0.0
 10
12.8047620805
 20
7.2155626371
 30
0.0
 10
12.8071309413
 20
7.2142696951
 30
0.0
 10
12.8083401929
 20
7.2136908896
 30
0.0
  0
SPLINE
  5
50D
100
AcDbEntity
  8
0
100
AcDbSpline
 62
7
  6
CONTINUOUS
 70
0
 71
3
 72
11
 73
7
 74
0
 42
0.0000001
 43
0.0000001
 44
0.0000000001
 40
0.0
 40
0.0
 40
0.0
 40
0.0
 40
0.2190685602
 40
0.4600592146
 40
0.7228511491
 40
1.0
 40
1.0
 40
1.0
 40
1.0
 10
13.2698653514
 20
8.1337179116
 30
0.0
 10
13.2684126584
 20
8.1324160812
 30
0.0
 10
13.2656695731
 20
8.1293228949
 30
0.0
 10
13.2624939661
 20
8.1236718638
 30
0.0
 10
13.2603935823
 20
8.1169929122
 30
0.0
 10
13.2599053519
 20
8.112170119
 30
0.0
 10
13.2599053519
 20
8.109702291
 30
0.0
  0
SPLINE
  5
50E
100
AcDbEntity
  8
0
100
AcDbSpline
 62
7
  6
CONTINUOUS
 70
0
 71
3
 72
13
 73
9
 74
0
 42
0.0000001
 43
0.0000001
 44
0.0000000001
 40
0.0
 40
0.0
 40
0.0
 40
0.0
 40
0.2901399422
 40
0.5579718775
 40
0.6801266351
 40
0.7940896405
 40
0.9004282699
 40
1.0
 40
1.0
 40
1.0
 40
1.0
 10
13.2358519084
 20
8.109702291
 30
0.0
 10
13.2358519084
 20
8.1125206489
 30
0.0
 10
13.2353030421
 20
8.117956829
 30
0.0
 10
13.233287925
 20
8.1243053307
 30
0.0
 10
13.2310333178
 20
8.1286611718
 30
0.0
 10
13.2291694602
 20
8.1314261911
 30
0.0
 10
13.2271300725
 20
8.1337802789
 30
0.0
 10
13.2256350413
 20
8.1351189943
 30
0.0
 10
13.2248722528
 20
8.1357136923
 30
0.0
  0
SPLINE
  5
50F
100
AcDbEntity
  8
0
100
AcDbSpline
 62
7
  6
CONTINUOUS
 70
0
 71
3
 72
15
 73
11
 74
0
 42
0.0000001
 43
0.0000001
 44
0.0000000001
 40
0.0
 40
0.0
 40
0.0
 40
0.0
 40
0.1089670989
 40
0.2219787104
 40
0.3396675355
 40
0.4625293596
 40
0.5907028991
 40
0.7238181329
 40
0.8608199426
 40
1.0
 40
1.0
 40
1.0
 40
1.0
 10
13.2248722528
 20
8.1357136923
 30
0.0
 10
13.2239203764
 20
8.1351274893
 30
0.0
 10
13.22205332
 20
8.1338118653
 30
0.0
 10
13.2194676729
 20
8.1314629922
 30
0.0
 10
13.217101993
 20
8.1287006212
 30
0.0
 10
13.2150179285
 20
8.1255315382
 30
0.0
 10
13.2132847906
 20
8.1219800212
 30
0.0
 10
13.2119756895
 20
8.1180971096
 30
0.0
 10
13.2111575311
 20
8.1139670505
 30
0.0
 10
13.2109722902
 20
8.1111301489
 30
0.0
 10
13.2109722902
 20
8.109702291
 30
0.0
  0
SPLINE
  5
510
100
AcDbEntity
  8
0
100
AcDbSpline
 62
7
  6
CONTINUOUS
 70
0
 71
3
 72
13
 73
9
 74
0
 42
0.0000001
 43
0.0000001
 44
0.0000000001
 40
0.0
 40
0.0
 40
0.0
 40
0.0
 40
0.2977776829
 40
0.4381686329
 40
0.569756047
 40
0.6915860215
 40
0.8035531062
 40
1.0
 40
1.0
 40
1.0
 40
1.0
 10
13.1871504945
 20
8.109702291
 30
0.0
 10
13.1871504945
 20
8.1125165594
 30
0.0
 10
13.1867949642
 20
8.1166715675
 30
0.0
 10
13.1856079277
 20
8.121929473
 30
0.0
 10
13.184450346
 20
8.1254728192
 30
0.0
 10
13.1830559992
 20
8.128639719
 30
0.0
 10
13.1810332643
 20
8.1321708382
 30
0.0
 10
13.1791665423
 20
8.1344602528
 30
0.0
 10
13.1777969234
 20
8.1357136923
 30
0.0
  0
SPLINE
  5
511
100
AcDbEntity
  8
0
100
AcDbSpline
 62
7
  6
CONTINUOUS
 70
0
 71
3
 72
15
 73
11
 74
0
 42
0.0000001
 43
0.0000001
 44
0.0000000001
 40
0.0
 40
0.0
 40
0.0
 40
0.0
 40
0.1128964682
 40
0.2287887756
 40
0.3481730333
 40
0.4714664909
 40
0.5988136943
 40
0.7299672843
 40
0.8641340695
 40
1.0
 40
1.0
 40
1.0
 40
1.0
 10
13.1777969234
 20
8.1357136923
 30
0.0
 10
13.1767632622
 20
8.1351302653
 30
0.0
 10
13.1747363018
 20
8.1338228615
 30
0.0
 10
13.1719148404
 20
8.1314769029
 30
0.0
 10
13.1693320947
 20
8.1287167101
 30
0.0
 10
13.1670554345
 20
8.1255484242
 30
0.0
 10
13.1651609263
 20
8.1219957619
 30
0.0
 10
13.1637290618
 20
8.1181093912
 30
0.0
 10
13.1628337393
 20
8.1139739317
 30
0.0
 10
13.1626308625
 20
8.1111307292
 30
0.0
 10
13.1626308625
 20
8.109702291
 30
0.0
  0
SPLINE
  5
512
100
AcDbEntity
  8
0
100
AcDbSpline
 62
7
  6
CONTINUOUS
 70
0
 71
3
 72
15
 73
11
 74
0
 42
0.0000001
 43
0.0000001
 44
0.0000000001
 40
0.0
 40
0.0
 40
0.0
 40
0.0
 40
0.1547770727
 40
0.3053278552
 40
0.4481841139
 40
0.5809773148
 40
0.7025063592
 40
0.8124980146
 40
0.9113761289
 40
1.0
 40
1.0
 40
1.0
 40
1.0
 10
13.1392701316
 20
8.109702291
 30
0.0
 10
13.1392701316
 20
8.1111280122
 30
0.0
 10
13.1391697523
 20
8.1139416034
 30
0.0
 10
13.138725364
 20
8.1180495693
 30
0.0
 10
13.1380138924
 20
8.1219143853
 30
0.0
 10
13.1370711903
 20
8.1254535777
 30
0.0
 10
13.135936504
 20
8.1286163335
 30
0.0
 10
13.134646884
 20
8.1313784981
 30
0.0
 10
13.1332351386
 20
8.1337331223
 30
0.0
 10
13.1321762088
 20
8.1351045457
 30
0.0
 10
13.131632725
 20
8.1357136923
 30
0.0
  0
SPLINE
  5
513
100
AcDbEntity
  8
0
100
AcDbSpline
 62
7
  6
CONTINUOUS
 70
0
 71
3
 72
15
 73
11
 74
0
 42
0.0000001
 43
0.0000001
 44
0.0000000001
 40
0.0
 40
0.0
 40
0.0
 40
0.0
 40
0.1162514673
 40
0.2346366228
 40
0.3555192944
 40
0.4792287849
 40
0.6058934238
 40
0.7353560275
 40
0.8670458157
 40
1.0
 40
1.0
 40
1.0
 40
1.0
 10
13.131632725
 20
8.1357136923
 30
0.0
 10
13.1305267226
 20
8.135132366
 30
0.0
 10
13.1283587058
 20
8.1338314139
 30
0.0
 10
13.1253291213
 20
8.1314881516
 30
0.0
 10
13.122554737
 20
8.1287302635
 30
0.0
 10
13.1201078205
 20
8.1255632314
 30
0.0
 10
13.1180703288
 20
8.1220100748
 30
0.0
 10
13.1165293642
 20
8.1181208872
 30
0.0
 10
13.1155652686
 20
8.1139804961
 30
0.0
 10
13.1153466232
 20
8.1111312845
 30
0.0
 10
13.1153466232
 20
8.109702291
 30
0.0
  0
SPLINE
  5
514
100
AcDbEntity
  8
0
100
AcDbSpline
 62
7
  6
CONTINUOUS
 70
0
 71
3
 72
15
 73
11
 74
0
 42
0.0000001
 43
0.0000001
 44
0.0000000001
 40
0.0
 40
0.0
 40
0.0
 40
0.0
 40
0.1584274711
 40
0.3121950231
 40
0.4574484685
 40
0.5915039913
 40
0.7129152244
 40
0.8212159349
 40
0.9166691187
 40
1.0
 40
1.0
 40
1.0
 40
1.0
 10
13.0926719335
 20
8.109702291
 30
0.0
 10
13.0926719335
 20
8.1111276309
 30
0.0
 10
13.0925952676
 20
8.1139370201
 30
0.0
 10
13.0922557574
 20
8.1180406365
 30
0.0
 10
13.0917122694
 20
8.1219011547
 30
0.0
 10
13.0909923168
 20
8.1254362239
 30
0.0
 10
13.0901260603
 20
8.1285950057
 30
0.0
 10
13.0891420514
 20
8.1313534482
 30
0.0
 10
13.088065513
 20
8.1337049825
 30
0.0
 10
13.0872471378
 20
8.1350946387
 30
0.0
 10
13.0868242438
 20
8.1357136923
 30
0.0
  0
SPLINE
  5
515
100
AcDbEntity
  8
0
100
AcDbSpline
 62
7
  6
CONTINUOUS
 70
0
 71
3
 72
15
 73
11
 74
0
 42
0.0000001
 43
0.0000001
 44
0.0000000001
 40
0.0
 40
0.0
 40
0.0
 40
0.0
 40
0.1190376081
 40
0.2395150473
 40
0.3616769602
 40
0.4857658659
 40
0.6118814229
 40
0.739929817
 40
0.8695229245
 40
1.0
 40
1.0
 40
1.0
 40
1.0
 10
13.0868242438
 20
8.1357136923
 30
0.0
 10
13.0856560146
 20
8.1351339464
 30
0.0
 10
13.0833668952
 20
8.133837982
 30
0.0
 10
13.0801586653
 20
8.1314970585
 30
0.0
 10
13.0772197871
 20
8.1287413594
 30
0.0
 10
13.0746266097
 20
8.125575773
 30
0.0
 10
13.0724660523
 20
8.1220225917
 30
0.0
 10
13.0708309198
 20
8.1181312094
 30
0.0
 10
13.0698072867
 20
8.1139864953
 30
0.0
 10
13.0695749452
 20
8.1111317935
 30
0.0
 10
13.0695749452
 20
8.109702291
 30
0.0
  0
SPLINE
  5
516
100
AcDbEntity
  8
0
100
AcDbSpline
 62
7
  6
CONTINUOUS
 70
0
 71
3
 72
15
 73
11
 74
0
 42
0.0000001
 43
0.0000001
 44
0.0000000001
 40
0.0
 40
0.0
 40
0.0
 40
0.0
 40
0.1614429042
 40
0.3178800859
 40
0.4651468489
 40
0.6002995112
 40
0.7216782142
 40
0.8286296371
 40
0.9212303346
 40
1.0
 40
1.0
 40
1.0
 40
1.0
 10
13.0478046666
 20
8.109702291
 30
0.0
 10
13.0478046666
 20
8.1111273436
 30
0.0
 10
13.0477523013
 20
8.1139335606
 30
0.0
 10
13.0475203575
 20
8.1180338164
 30
0.0
 10
13.0471491195
 20
8.1218908509
 30
0.0
 10
13.0466574908
 20
8.1254222885
 30
0.0
 10
13.0460662354
 20
8.1285771188
 30
0.0
 10
13.0453951865
 20
8.1313310743
 30
0.0
 10
13.0446618585
 20
8.1336776397
 30
0.0
 10
13.0440974598
 20
8.1350838204
 30
0.0
 10
13.0438030102
 20
8.1357136923
 30
0.0
  0
SPLINE
  5
517
100
AcDbEntity
  8
0
100
AcDbSpline
 62
7
  6
CONTINUOUS
 70
0
 71
3
 72
15
 73
11
 74
0
 42
0.0000001
 43
0.0000001
 44
0.0000000001
 40
0.0
 40
0.0
 40
0.0
 40
0.0
 40
0.1212710238
 40
0.2434395714
 40
0.3666494396
 40
0.4910650714
 40
0.6167530375
 40
0.7436620379
 40
0.8715482991
 40
1.0
 40
1.0
 40
1.0
 40
1.0
 10
13.0438030102
 20
8.1357136923
 30
0.0
 10
13.0425832662
 20
8.1351351171
 30
0.0
 10
13.0401940246
 20
8.1338429227
 30
0.0
 10
13.03683817
 20
8.1315039179
 30
0.0
 10
13.0337633851
 20
8.1287501338
 30
0.0
 10
13.0310493087
 20
8.1255859707
 30
0.0
 10
13.0287868756
 20
8.1220330482
 30
0.0
 10
13.0270735949
 20
8.118140033
 30
0.0
 10
13.0260004109
 20
8.1139917049
 30
0.0
 10
13.025756635
 20
8.1111322366
 30
0.0
 10
13.025756635
 20
8.109702291
 30
0.0
  0
SPLINE
  5
518
100
AcDbEntity
  8
0
100
AcDbSpline
 62
7
  6
CONTINUOUS
 70
0
 71
3
 72
14
 73
10
 74
0
 42
0.0000001
 43
0.0000001
 44
0.0000000001
 40
0.0
 40
0.0
 40
0.0
 40
0.0
 40
0.3217465772
 40
0.4704039659
 40
0.6063348669
 40
0.7277292369
 40
0.8337924153
 40
0.9244436276
 40
1.0
 40
1.0
 40
1.0
 40
1.0
 10
13.005100427
 20
8.109702291
 30
0.0
 10
13.005100427
 20
8.1125062664
 30
0.0
 10
13.0050223944
 20
8.1166065409
 30
0.0
 10
13.0047540397
 20
8.1218841471
 30
0.0
 10
13.0044942788
 20
8.1254130379
 30
0.0
 10
13.004182058
 20
8.1285648577
 30
0.0
 10
13.0038279971
 20
8.1313149403
 30
0.0
 10
13.003441514
 20
8.1336565697
 30
0.0
 10
13.0031414293
 20
8.1350744882
 30
0.0
 10
13.0029833421
 20
8.1357136923
 30
0.0
  0
SPLINE
  5
519
100
AcDbEntity
  8
0
100
AcDbSpline
 62
7
  6
CONTINUOUS
 70
0
 71
3
 72
14
 73
10
 74
0
 42
0.0000001
 43
0.0000001
 44
0.0000000001
 40
0.0
 40
0.0
 40
0.0
 40
0.0
 40
0.2461470538
 40
0.3702152049
 40
0.4949407802
 40
0.6203591048
 40
0.7464459317
 40
0.8730656885
 40
1.0
 40
1.0
 40
1.0
 40
1.0
 10
13.0029833421
 20
8.1357136923
 30
0.0
 10
13.0004621203
 20
8.1345576976
 30
0.0
 10
12.9968298638
 20
8.1324141926
 30
0.0
 10
12.9926042002
 20
8.1287569931
 30
0.0
 10
12.9897950649
 20
8.1255937404
 30
0.0
 10
12.9874531337
 20
8.1220412825
 30
0.0
 10
12.9856785712
 20
8.1181470929
 30
0.0
 10
12.9845664731
 20
8.1139959332
 30
0.0
 10
12.9843136867
 20
8.111132597
 30
0.0
 10
12.9843136867
 20
8.109702291
 30
0.0
  0
LINE
  5
51A
100
AcDbEntity
  8
0
100
AcDbLine
 62
7
  6
CONTINUOUS
 10
12.96497048
 20
8.109702291
 11
12.9647583552
 21
8.1357136923
  0
SPLINE
  5
51B
100
AcDbEntity
  8
0
100
AcDbSpline
 62
7
  6
CONTINUOUS
 70
0
 71
3
 72
14
 73
10
 74
0
 42
0.0000001
 43
0.0000001
 44
0.0000000001
 40
0.0
 40
0.0
 40
0.0
 40
0.0
 40
0.2482431019
 40
0.3728825797
 40
0.4977973866
 40
0.6229979408
 40
0.7484760121
 40
0.8741704983
 40
1.0
 40
1.0
 40
1.0
 40
1.0
 10
12.9647583552
 20
8.1357136923
 30
0.0
 10
12.9621825838
 20
8.1345600891
 30
0.0
 10
12.9584690441
 20
8.1324219937
 30
0.0
 10
12.9541374092
 20
8.1287615451
 30
0.0
 10
12.9512611547
 20
8.125599241
 30
0.0
 10
12.9488625387
 20
8.122047139
 30
0.0
 10
12.9470443436
 20
8.1181522031
 30
0.0
 10
12.9459044511
 20
8.1139990219
 30
0.0
 10
12.9456452186
 20
8.1111328608
 30
0.0
 10
12.9456452186
 20
8.109702291
 30
0.0
  0
SPLINE
  5
51C
100
AcDbEntity
  8
0
100
AcDbSpline
 62
7
  6
CONTINUOUS
 70
0
 71
3
 72
14
 73
10
 74
0
 42
0.0000001
 43
0.0000001
 44
0.0000000001
 40
0.0
 40
0.0
 40
0.0
 40
0.0
 40
0.2494536426
 40
0.3744251362
 40
0.4994517228
 40
0.6245282894
 40
0.7496547437
 40
0.8748125215
 40
1.0
 40
1.0
 40
1.0
 40
1.0
 10
12.9294961771
 20
8.1357136923
 30
0.0
 10
12.9268884837
 20
8.1345614312
 30
0.0
 10
12.9231274567
 20
8.1324264198
 30
0.0
 10
12.9187338377
 20
8.1287641544
 30
0.0
 10
12.9158183446
 20
8.1256024262
 30
0.0
 10
12.9133865755
 20
8.1220505668
 30
0.0
 10
12.9115428348
 20
8.118155223
 30
0.0
 10
12.9103866468
 20
8.1140008597
 30
0.0
 10
12.9101236293
 20
8.111133018
 30
0.0
 10
12.9101236293
 20
8.109702291
 30
0.0
  0
SPLINE
  5
51D
100
AcDbEntity
  8
0
100
AcDbSpline
 62
7
  6
CONTINUOUS
 70
0
 71
3
 72
14
 73
10
 74
0
 42
0.0000001
 43
0.0000001
 44
0.0000000001
 40
0.0
 40
0.0
 40
0.0
 40
0.0
 40
0.249791495
 40
0.3748559188
 40
0.4999140285
 40
0.6249562269
 40
0.7499845452
 40
0.8749922266
 40
1.0
 40
1.0
 40
1.0
 40
1.0
 10
12.8975364018
 20
8.1357136923
 30
0.0
 10
12.8949197428
 20
8.1345618008
 30
0.0
 10
12.8911453886
 20
8.1324276448
 30
0.0
 10
12.8867343651
 20
8.1287648801
 30
0.0
 10
12.8838078567
 20
8.1256033163
 30
0.0
 10
12.881366779
 20
8.1220515295
 30
0.0
 10
12.8795158621
 20
8.1181560749
 30
0.0
 10
12.8783550934
 20
8.1140013799
 30
0.0
 10
12.878091011
 20
8.1111330625
 30
0.0
 10
12.878091011
 20
8.109702291
 30
0.0
  0
SPLINE
  5
51E
100
AcDbEntity
  8
0
100
AcDbSpline
 62
7
  6
CONTINUOUS
 70
0
 71
3
 72
14
 73
10
 74
0
 42
0.0000001
 43
0.0000001
 44
0.0000000001
 40
0.0
 40
0.0
 40
0.0
 40
0.0
 40
0.2492603665
 40
0.3741787496
 40
0.4991873668
 40
0.6242836409
 40
0.7494662357
 40
0.8747098197
 40
1.0
 40
1.0
 40
1.0
 40
1.0
 10
12.8691868194
 20
8.1357136923
 30
0.0
 10
12.8665842438
 20
8.1345612188
 30
0.0
 10
12.8628308263
 20
8.1324257169
 30
0.0
 10
12.8584471431
 20
8.1287637388
 30
0.0
 10
12.8555379389
 20
8.1256019173
 30
0.0
 10
12.853111484
 20
8.1220500173
 30
0.0
 10
12.8512718393
 20
8.1181547374
 30
0.0
 10
12.8501182654
 20
8.1140005636
 30
0.0
 10
12.8498558553
 20
8.1111329926
 30
0.0
 10
12.8498558553
 20
8.109702291
 30
0.0
  0
SPLINE
  5
51F
100
AcDbEntity
  8
0
100
AcDbSpline
 62
7
  6
CONTINUOUS
 70
0
 71
3
 72
14
 73
10
 74
0
 42
0.0000001
 43
0.0000001
 44
0.0000000001
 40
0.0
 40
0.0
 40
0.0
 40
0.0
 40
0.2478544538
 40
0.3723876552
 40
0.4972669621
 40
0.6225076012
 40
0.7480985558
 40
0.8739649914
 40
1.0
 40
1.0
 40
1.0
 40
1.0
 10
12.8447204519
 20
8.1357136923
 30
0.0
 10
12.8421548633
 20
8.1345596522
 30
0.0
 10
12.8384564837
 20
8.1324205604
 30
0.0
 10
12.8341446257
 20
8.1287607043
 30
0.0
 10
12.8312808942
 20
8.1255982197
 30
0.0
 10
12.8288928566
 20
8.1220460456
 30
0.0
 10
12.8270828084
 20
8.1181512443
 30
0.0
 10
12.8259481094
 20
8.1139984403
 30
0.0
 10
12.8256900823
 20
8.1111328111
 30
0.0
 10
12.8256900823
 20
8.109702291
 30
0.0
  0
SPLINE
  5
520
100
AcDbEntity
  8
0
100
AcDbSpline
 62
7
  6
CONTINUOUS
 70
0
 71
3
 72
15
 73
11
 74
0
 42
0.0000001
 43
0.0000001
 44
0.0000000001
 40
0.0
 40
0.0
 40
0.0
 40
0.0
 40
0.1226383846
 40
0.2458481954
 40
0.3697094093
 40
0.4943351048
 40
0.6197671244
 40
0.7459763086
 40
0.8728060793
 40
1.0
 40
1.0
 40
1.0
 40
1.0
 10
12.8243729238
 20
8.1357136923
 30
0.0
 10
12.8231208453
 20
8.135135795
 30
0.0
 10
12.8206688119
 20
8.1338458131
 30
0.0
 10
12.8172204183
 20
8.1315079959
 30
0.0
 10
12.8140604575
 20
8.128755448
 30
0.0
 10
12.8112705942
 20
8.1255922715
 30
0.0
 10
12.8089442363
 20
8.1220396384
 30
0.0
 10
12.8071818271
 20
8.118145691
 30
0.0
 10
12.8060774206
 20
8.1139950859
 30
0.0
 10
12.8058264215
 20
8.1111325248
 30
0.0
 10
12.8058264215
 20
8.109702291
 30
0.0
  0
SPLINE
  5
521
100
AcDbEntity
  8
0
100
AcDbSpline
 62
7
  6
CONTINUOUS
 70
0
 71
3
 72
15
 73
11
 74
0
 42
0.0000001
 43
0.0000001
 44
0.0000000001
 40
0.0
 40
0.0
 40
0.0
 40
0.0
 40
0.1208214894
 40
0.242648684
 40
0.3656460284
 40
0.4899942691
 40
0.6157673636
 40
0.7429060764
 40
0.8711377586
 40
1.0
 40
1.0
 40
1.0
 40
1.0
 10
12.8083401929
 20
8.1357136923
 30
0.0
 10
12.8071309435
 20
8.135134888
 30
0.0
 10
12.80476209
 20
8.1338419505
 30
0.0
 10
12.80143629
 20
8.1315025571
 30
0.0
 10
12.7983891716
 20
8.1287483769
 30
0.0
 10
12.7956997096
 20
8.1255839086
 30
0.0
 10
12.7934580282
 20
8.1220309129
 30
0.0
 10
12.7917606805
 20
8.1181382161
 30
0.0
 10
12.7906976101
 20
8.1139906259
 30
0.0
 10
12.7904561709
 20
8.1111321448
 30
0.0
 10
12.7904561709
 20
8.109702291
 30
0.0
  0
SPLINE
  5
522
100
AcDbEntity
  8
0
100
AcDbSpline
 62
7
  6
CONTINUOUS
 70
0
 71
3
 72
14
 73
10
 74
0
 42
0.0000001
 43
0.0000001
 44
0.0000000001
 40
0.0
 40
0.0
 40
0.0
 40
0.0
 40
0.1251867835
 40
0.2503440485
 40
0.375470576
 40
0.5005468237
 40
0.6255736934
 40
0.7505455649
 40
1.0
 40
1.0
 40
1.0
 40
1.0
 10
12.9101236293
 20
7.239702291
 30
0.0
 10
12.9101236293
 20
7.238271572
 30
0.0
 10
12.9103866429
 20
7.2354037438
 30
0.0
 10
12.9115428269
 20
7.2312493935
 30
0.0
 10
12.9133865515
 20
7.2273540517
 30
0.0
 10
12.9158183193
 20
7.2238021907
 30
0.0
 10
12.918733809
 20
7.2206404544
 30
0.0
 10
12.9231274368
 20
7.2169781733
 30
0.0
 10
12.9268884754
 20
7.2148431544
 30
0.0
 10
12.9294961771
 20
7.2136908896
 30
0.0
  0
SPLINE
  5
523
100
AcDbEntity
  8
0
100
AcDbSpline
 62
7
  6
CONTINUOUS
 70
0
 71
3
 72
15
 73
11
 74
0
 42
0.0000001
 43
0.0000001
 44
0.0000000001
 40
0.0
 40
0.0
 40
0.0
 40
0.0
 40
0.1184668903
 40
0.2385141535
 40
0.3604114737
 40
0.4844201259
 40
0.6106467766
 40
0.7389855373
 40
0.8690110728
 40
1.0
 40
1.0
 40
1.0
 40
1.0
 10
12.7967766631
 20
8.1357136923
 30
0.0
 10
12.7956213561
 20
8.1351336339
 30
0.0
 10
12.7933573695
 20
8.1338366741
 30
0.0
 10
12.7901862083
 20
8.1314952658
 30
0.0
 10
12.7872814605
 20
8.1287390995
 30
0.0
 10
12.7847186375
 20
8.1255731871
 30
0.0
 10
12.7825836376
 20
8.1220199803
 30
0.0
 10
12.7809680822
 20
8.1181290347
 30
0.0
 10
12.7799568414
 20
8.1139852229
 30
0.0
 10
12.7797273543
 20
8.1111316854
 30
0.0
 10
12.7797273543
 20
8.109702291
 30
0.0
  0
SPLINE
  5
524
100
AcDbEntity
  8
0
100
AcDbSpline
 62
7
  6
CONTINUOUS
 70
0
 71
3
 72
9
 73
5
 74
0
 42
0.0000001
 43
0.0000001
 44
0.0000000001
 40
0.0
 40
0.0
 40
0.0
 40
0.0
 40
0.2436174389
 40
1.0
 40
1.0
 40
1.0
 40
1.0
 10
13.2724053519
 20
7.2136908896
 30
0.0
 10
13.2727213274
 20
7.2139072733
 30
0.0
 10
13.2739970933
 20
7.2148261949
 30
0.0
 10
13.2751844566
 20
7.2158672593
 30
0.0
 10
13.2760230948
 20
7.216710157
 30
0.0
  0
SPLINE
  5
525
100
AcDbEntity
  8
0
100
AcDbSpline
 62
7
  6
CONTINUOUS
 70
0
 71
3
 72
11
 73
7
 74
0
 42
0.0000001
 43
0.0000001
 44
0.0000000001
 40
0.0
 40
0.0
 40
0.0
 40
0.0
 40
0.2214536426
 40
0.4635875928
 40
0.7254792137
 40
1.0
 40
1.0
 40
1.0
 40
1.0
 10
13.2760230948
 20
7.216710157
 30
0.0
 10
13.2773369651
 20
7.2180307006
 30
0.0
 10
13.2797982982
 20
7.2210952452
 30
0.0
 10
13.2826243058
 20
7.2265463274
 30
0.0
 10
13.284476652
 20
7.2328686871
 30
0.0
 10
13.2849053519
 20
7.2373930842
 30
0.0
 10
13.2849053519
 20
7.239702291
 30
0.0
  0
SPLINE
  5
526
100
AcDbEntity
  8
0
100
AcDbSpline
 62
7
  6
CONTINUOUS
 70
0
 71
3
 72
13
 73
9
 74
0
 42
0.0000001
 43
0.0000001
 44
0.0000000001
 40
0.0
 40
0.0
 40
0.0
 40
0.0
 40
0.2901399296
 40
0.5579718806
 40
0.6801266374
 40
0.7940896392
 40
0.9004282707
 40
1.0
 40
1.0
 40
1.0
 40
1.0
 10
13.3089587954
 20
7.239702291
 30
0.0
 10
13.3089587954
 20
7.2368839332
 30
0.0
 10
13.3095076618
 20
7.2314477531
 30
0.0
 10
13.3115227789
 20
7.2250992513
 30
0.0
 10
13.313777386
 20
7.2207434102
 30
0.0
 10
13.3156412436
 20
7.2179783909
 30
0.0
 10
13.3176806313
 20
7.2156243031
 30
0.0
 10
13.3191756626
 20
7.2142855877
 30
0.0
 10
13.319938451
 20
7.2136908896
 30
0.0
  0
SPLINE
  5
527
100
AcDbEntity
  8
0
100
AcDbSpline
 62
7
  6
CONTINUOUS
 70
0
 71
3
 72
15
 73
11
 74
0
 42
0.0000001
 43
0.0000001
 44
0.0000000001
 40
0.0
 40
0.0
 40
0.0
 40
0.0
 40
0.1089670975
 40
0.2219787137
 40
0.3396675361
 40
0.4625293643
 40
0.5907028993
 40
0.7238181183
 40
0.8608199286
 40
1.0
 40
1.0
 40
1.0
 40
1.0
 10
13.319938451
 20
7.2136908896
 30
0.0
 10
13.3208903275
 20
7.2142770927
 30
0.0
 10
13.3227573838
 20
7.2155927166
 30
0.0
 10
13.3253430309
 20
7.2179415898
 30
0.0
 10
13.3277087109
 20
7.2207039608
 30
0.0
 10
13.3297927754
 20
7.2238730438
 30
0.0
 10
13.3315259132
 20
7.2274245606
 30
0.0
 10
13.3328350142
 20
7.2313074721
 30
0.0
 10
13.3336531727
 20
7.2354375312
 30
0.0
 10
13.3338384136
 20
7.2382744329
 30
0.0
 10
13.3338384136
 20
7.239702291
 30
0.0
  0
SPLINE
  5
528
100
AcDbEntity
  8
0
100
AcDbSpline
 62
7
  6
CONTINUOUS
 70
0
 71
3
 72
13
 73
9
 74
0
 42
0.0000001
 43
0.0000001
 44
0.0000000001
 40
0.0
 40
0.0
 40
0.0
 40
0.0
 40
0.2977776699
 40
0.4381686352
 40
0.5697560502
 40
0.6915860239
 40
0.8035531049
 40
1.0
 40
1.0
 40
1.0
 40
1.0
 10
13.3576602093
 20
7.239702291
 30
0.0
 10
13.3576602093
 20
7.2368880227
 30
0.0
 10
13.3580157397
 20
7.2327330146
 30
0.0
 10
13.3592027761
 20
7.2274751091
 30
0.0
 10
13.3603603579
 20
7.2239317627
 30
0.0
 10
13.3617547047
 20
7.2207648629
 30
0.0
 10
13.3637774395
 20
7.2172337438
 30
0.0
 10
13.3656441615
 20
7.2149443292
 30
0.0
 10
13.3670137804
 20
7.2136908896
 30
0.0
  0
SPLINE
  5
529
100
AcDbEntity
  8
0
100
AcDbSpline
 62
7
  6
CONTINUOUS
 70
0
 71
3
 72
15
 73
11
 74
0
 42
0.0000001
 43
0.0000001
 44
0.0000000001
 40
0.0
 40
0.0
 40
0.0
 40
0.0
 40
0.1128964668
 40
0.2287887789
 40
0.3481730339
 40
0.4714664954
 40
0.5988136946
 40
0.72996727
 40
0.8641340559
 40
1.0
 40
1.0
 40
1.0
 40
1.0
 10
13.3670137804
 20
7.2136908896
 30
0.0
 10
13.3680474416
 20
7.2142743167
 30
0.0
 10
13.370074402
 20
7.2155817205
 30
0.0
 10
13.3728958634
 20
7.2179276791
 30
0.0
 10
13.3754786092
 20
7.220687872
 30
0.0
 10
13.3777552693
 20
7.2238561579
 30
0.0
 10
13.3796497775
 20
7.22740882
 30
0.0
 10
13.3810816419
 20
7.2312951905
 30
0.0
 10
13.3819769646
 20
7.23543065
 30
0.0
 10
13.3821798413
 20
7.2382738526
 30
0.0
 10
13.3821798413
 20
7.239702291
 30
0.0
  0
SPLINE
  5
52A
100
AcDbEntity
  8
0
100
AcDbSpline
 62
7
  6
CONTINUOUS
 70
0
 71
3
 72
15
 73
11
 74
0
 42
0.0000001
 43
0.0000001
 44
0.0000000001
 40
0.0
 40
0.0
 40
0.0
 40
0.0
 40
0.154777054
 40
0.3053278419
 40
0.4481841162
 40
0.580977318
 40
0.7025063616
 40
0.8124980133
 40
0.9113761297
 40
1.0
 40
1.0
 40
1.0
 40
1.0
 10
13.4055405723
 20
7.239702291
 30
0.0
 10
13.4055405723
 20
7.2382765699
 30
0.0
 10
13.4056409515
 20
7.2354629789
 30
0.0
 10
13.4060853399
 20
7.2313550129
 30
0.0
 10
13.4067968114
 20
7.2274901968
 30
0.0
 10
13.4077395136
 20
7.2239510042
 30
0.0
 10
13.4088741999
 20
7.2207882484
 30
0.0
 10
13.4101638198
 20
7.2180260839
 30
0.0
 10
13.4115755652
 20
7.2156714596
 30
0.0
 10
13.412634495
 20
7.2143000363
 30
0.0
 10
13.4131779789
 20
7.2136908896
 30
0.0
  0
SPLINE
  5
52B
100
AcDbEntity
  8
0
100
AcDbSpline
 62
7
  6
CONTINUOUS
 70
0
 71
3
 72
15
 73
11
 74
0
 42
0.0000001
 43
0.0000001
 44
0.0000000001
 40
0.0
 40
0.0
 40
0.0
 40
0.0
 40
0.1162514658
 40
0.2346366262
 40
0.355519295
 40
0.4792287894
 40
0.6058934241
 40
0.7353560135
 40
0.8670458023
 40
1.0
 40
1.0
 40
1.0
 40
1.0
 10
13.4131779789
 20
7.2136908896
 30
0.0
 10
13.4142839812
 20
7.214272216
 30
0.0
 10
13.4164519981
 20
7.2155731681
 30
0.0
 10
13.4194815826
 20
7.2179164304
 30
0.0
 10
13.4222559669
 20
7.2206743185
 30
0.0
 10
13.4247028834
 20
7.2238413507
 30
0.0
 10
13.426740375
 20
7.2273945071
 30
0.0
 10
13.4282813395
 20
7.2312836945
 30
0.0
 10
13.4292454352
 20
7.2354240856
 30
0.0
 10
13.4294640807
 20
7.2382732973
 30
0.0
 10
13.4294640807
 20
7.239702291
 30
0.0
  0
SPLINE
  5
52C
100
AcDbEntity
  8
0
100
AcDbSpline
 62
7
  6
CONTINUOUS
 70
0
 71
3
 72
15
 73
11
 74
0
 42
0.0000001
 43
0.0000001
 44
0.0000000001
 40
0.0
 40
0.0
 40
0.0
 40
0.0
 40
0.158427452
 40
0.3121950095
 40
0.4574484709
 40
0.5915039945
 40
0.7129152268
 40
0.8212159336
 40
0.9166691195
 40
1.0
 40
1.0
 40
1.0
 40
1.0
 10
13.4521387703
 20
7.239702291
 30
0.0
 10
13.4521387703
 20
7.2382769512
 30
0.0
 10
13.4522154362
 20
7.2354675622
 30
0.0
 10
13.4525549465
 20
7.2313639458
 30
0.0
 10
13.4530984344
 20
7.2275034274
 30
0.0
 10
13.453818387
 20
7.2239683581
 30
0.0
 10
13.4546846436
 20
7.2208095762
 30
0.0
 10
13.4556686525
 20
7.2180511338
 30
0.0
 10
13.4567451909
 20
7.2156995995
 30
0.0
 10
13.4575635661
 20
7.2143099433
 30
0.0
 10
13.45798646
 20
7.2136908896
 30
0.0
  0
SPLINE
  5
52D
100
AcDbEntity
  8
0
100
AcDbSpline
 62
7
  6
CONTINUOUS
 70
0
 71
3
 72
15
 73
11
 74
0
 42
0.0000001
 43
0.0000001
 44
0.0000000001
 40
0.0
 40
0.0
 40
0.0
 40
0.0
 40
0.1190376066
 40
0.2395150507
 40
0.3616769609
 40
0.4857658704
 40
0.6118814232
 40
0.7399298031
 40
0.8695229114
 40
1.0
 40
1.0
 40
1.0
 40
1.0
 10
13.45798646
 20
7.2136908896
 30
0.0
 10
13.4591546892
 20
7.2142706356
 30
0.0
 10
13.4614438087
 20
7.2155666
 30
0.0
 10
13.4646520385
 20
7.2179075236
 30
0.0
 10
13.4675909168
 20
7.2206632226
 30
0.0
 10
13.4701840941
 20
7.223828809
 30
0.0
 10
13.4723446515
 20
7.2273819902
 30
0.0
 10
13.4739797839
 20
7.2312733723
 30
0.0
 10
13.4750034171
 20
7.2354180864
 30
0.0
 10
13.4752357586
 20
7.2382727884
 30
0.0
 10
13.4752357586
 20
7.239702291
 30
0.0
  0
SPLINE
  5
52E
100
AcDbEntity
  8
0
100
AcDbSpline
 62
7
  6
CONTINUOUS
 70
0
 71
3
 72
15
 73
11
 74
0
 42
0.0000001
 43
0.0000001
 44
0.0000000001
 40
0.0
 40
0.0
 40
0.0
 40
0.0
 40
0.1614428847
 40
0.3178800721
 40
0.4651468513
 40
0.6002995144
 40
0.7216782167
 40
0.8286296358
 40
0.9212303353
 40
1.0
 40
1.0
 40
1.0
 40
1.0
 10
13.4970060373
 20
7.239702291
 30
0.0
 10
13.4970060373
 20
7.2382772385
 30
0.0
 10
13.4970584026
 20
7.2354710217
 30
0.0
 10
13.4972903464
 20
7.2313707659
 30
0.0
 10
13.4976615843
 20
7.2275137312
 30
0.0
 10
13.4981532131
 20
7.2239822935
 30
0.0
 10
13.4987444685
 20
7.2208274631
 30
0.0
 10
13.4994155173
 20
7.2180735077
 30
0.0
 10
13.5001488454
 20
7.2157269423
 30
0.0
 10
13.5007132441
 20
7.2143207616
 30
0.0
 10
13.5010076936
 20
7.2136908896
 30
0.0
  0
SPLINE
  5
52F
100
AcDbEntity
  8
0
100
AcDbSpline
 62
7
  6
CONTINUOUS
 70
0
 71
3
 72
15
 73
11
 74
0
 42
0.0000001
 43
0.0000001
 44
0.0000000001
 40
0.0
 40
0.0
 40
0.0
 40
0.0
 40
0.1212710223
 40
0.2434395749
 40
0.3666494403
 40
0.4910650759
 40
0.6167530378
 40
0.7436620242
 40
0.8715482861
 40
1.0
 40
1.0
 40
1.0
 40
1.0
 10
13.5010076936
 20
7.2136908896
 30
0.0
 10
13.5022274376
 20
7.2142694649
 30
0.0
 10
13.5046166793
 20
7.2155616593
 30
0.0
 10
13.5079725339
 20
7.2179006642
 30
0.0
 10
13.5110473188
 20
7.2206544482
 30
0.0
 10
13.5137613951
 20
7.2238186113
 30
0.0
 10
13.5160238282
 20
7.2273715337
 30
0.0
 10
13.5177371089
 20
7.2312645487
 30
0.0
 10
13.518810293
 20
7.2354128768
 30
0.0
 10
13.5190540689
 20
7.2382723452
 30
0.0
 10
13.5190540689
 20
7.239702291
 30
0.0
  0
SPLINE
  5
530
100
AcDbEntity
  8
0
100
AcDbSpline
 62
7
  6
CONTINUOUS
 70
0
 71
3
 72
14
 73
10
 74
0
 42
0.0000001
 43
0.0000001
 44
0.0000000001
 40
0.0
 40
0.0
 40
0.0
 40
0.0
 40
0.3217465632
 40
0.4704039684
 40
0.6063348701
 40
0.7277292393
 40
0.833792414
 40
0.9244436283
 40
1.0
 40
1.0
 40
1.0
 40
1.0
 10
13.5397102769
 20
7.239702291
 30
0.0
 10
13.5397102769
 20
7.2368983157
 30
0.0
 10
13.5397883094
 20
7.2327980412
 30
0.0
 10
13.5400566642
 20
7.227520435
 30
0.0
 10
13.540316425
 20
7.223991544
 30
0.0
 10
13.5406286459
 20
7.2208397242
 30
0.0
 10
13.5409827068
 20
7.2180896417
 30
0.0
 10
13.5413691899
 20
7.2157480123
 30
0.0
 10
13.5416692745
 20
7.2143300938
 30
0.0
 10
13.5418273618
 20
7.2136908896
 30
0.0
  0
SPLINE
  5
531
100
AcDbEntity
  8
0
100
AcDbSpline
 62
7
  6
CONTINUOUS
 70
0
 71
3
 72
14
 73
10
 74
0
 42
0.0000001
 43
0.0000001
 44
0.0000000001
 40
0.0
 40
0.0
 40
0.0
 40
0.0
 40
0.2461470572
 40
0.3702152055
 40
0.4949407846
 40
0.6203591051
 40
0.7464459181
 40
0.8730656757
 40
1.0
 40
1.0
 40
1.0
 40
1.0
 10
13.5418273618
 20
7.2136908896
 30
0.0
 10
13.5443485836
 20
7.2148468844
 30
0.0
 10
13.5479808401
 20
7.2169903895
 30
0.0
 10
13.5522065038
 20
7.2206475889
 30
0.0
 10
13.5550156389
 20
7.2238108416
 30
0.0
 10
13.5573575701
 20
7.2273632994
 30
0.0
 10
13.5591321326
 20
7.2312574888
 30
0.0
 10
13.5602442307
 20
7.2354086485
 30
0.0
 10
13.5604970172
 20
7.2382719848
 30
0.0
 10
13.5604970172
 20
7.239702291
 30
0.0
  0
LINE
  5
532
100
AcDbEntity
  8
0
100
AcDbLine
 62
7
  6
CONTINUOUS
 10
13.5798402239
 20
7.239702291
 11
13.5800523486
 21
7.2136908896
  0
SPLINE
  5
533
100
AcDbEntity
  8
0
100
AcDbSpline
 62
7
  6
CONTINUOUS
 70
0
 71
3
 72
14
 73
10
 74
0
 42
0.0000001
 43
0.0000001
 44
0.0000000001
 40
0.0
 40
0.0
 40
0.0
 40
0.0
 40
0.2482431053
 40
0.3728825804
 40
0.497797391
 40
0.6229979411
 40
0.7484759986
 40
0.8741704856
 40
1.0
 40
1.0
 40
1.0
 40
1.0
 10
13.5800523486
 20
7.2136908896
 30
0.0
 10
13.5826281201
 20
7.2148444929
 30
0.0
 10
13.5863416597
 20
7.2169825884
 30
0.0
 10
13.5906732948
 20
7.2206430369
 30
0.0
 10
13.5935495491
 20
7.223805341
 30
0.0
 10
13.5959481651
 20
7.2273574429
 30
0.0
 10
13.5977663602
 20
7.2312523786
 30
0.0
 10
13.5989062527
 20
7.2354055598
 30
0.0
 10
13.5991654852
 20
7.238271721
 30
0.0
 10
13.5991654852
 20
7.239702291
 30
0.0
  0
SPLINE
  5
534
100
AcDbEntity
  8
0
100
AcDbSpline
 62
7
  6
CONTINUOUS
 70
0
 71
3
 72
14
 73
10
 74
0
 42
0.0000001
 43
0.0000001
 44
0.0000000001
 40
0.0
 40
0.0
 40
0.0
 40
0.0
 40
0.249453646
 40
0.3744251369
 40
0.4994517272
 40
0.6245282897
 40
0.7496547302
 40
0.8748125089
 40
1.0
 40
1.0
 40
1.0
 40
1.0
 10
13.6153145267
 20
7.2136908896
 30
0.0
 10
13.6179222202
 20
7.2148431508
 30
0.0
 10
13.6216832472
 20
7.2169781623
 30
0.0
 10
13.6260768662
 20
7.2206404276
 30
0.0
 10
13.6289923593
 20
7.2238021558
 30
0.0
 10
13.6314241283
 20
7.2273540151
 30
0.0
 10
13.6332678689
 20
7.2312493587
 30
0.0
 10
13.634424057
 20
7.235403722
 30
0.0
 10
13.6346870746
 20
7.2382715639
 30
0.0
 10
13.6346870746
 20
7.239702291
 30
0.0
  0
SPLINE
  5
535
100
AcDbEntity
  8
0
100
AcDbSpline
 62
7
  6
CONTINUOUS
 70
0
 71
3
 72
14
 73
10
 74
0
 42
0.0000001
 43
0.0000001
 44
0.0000000001
 40
0.0
 40
0.0
 40
0.0
 40
0.0
 40
0.2497914984
 40
0.3748559194
 40
0.4999140328
 40
0.6249562272
 40
0.7499845318
 40
0.874992214
 40
1.0
 40
1.0
 40
1.0
 40
1.0
 10
13.647274302
 20
7.2136908896
 30
0.0
 10
13.6498909611
 20
7.2148427812
 30
0.0
 10
13.6536653152
 20
7.2169769373
 30
0.0
 10
13.6580763389
 20
7.220639702
 30
0.0
 10
13.6610028471
 20
7.2238012658
 30
0.0
 10
13.6634439249
 20
7.2273530524
 30
0.0
 10
13.6652948416
 20
7.2312485068
 30
0.0
 10
13.6664556105
 20
7.2354032018
 30
0.0
 10
13.6667196929
 20
7.2382715194
 30
0.0
 10
13.6667196929
 20
7.239702291
 30
0.0
  0
SPLINE
  5
536
100
AcDbEntity
  8
0
100
AcDbSpline
 62
7
  6
CONTINUOUS
 70
0
 71
3
 72
11
 73
7
 74
0
 42
0.0000001
 43
0.0000001
 44
0.0000000001
 40
0.0
 40
0.0
 40
0.0
 40
0.0
 40
0.2123961279
 40
0.4501260017
 40
0.7153699209
 40
1.0
 40
1.0
 40
1.0
 40
1.0
 10
13.7676556431
 20
8.1347102366
 30
0.0
 10
13.7693775681
 20
8.1334986235
 30
0.0
 10
13.7726900938
 20
8.1304262668
 30
0.0
 10
13.7765839331
 20
8.1244205384
 30
0.0
 10
13.7792115291
 20
8.1169963248
 30
0.0
 10
13.7798276938
 20
8.1115238206
 30
0.0
 10
13.7798276938
 20
8.1087022909
 30
0.0
  0
SPLINE
  5
537
100
AcDbEntity
  8
0
100
AcDbSpline
 62
7
  6
CONTINUOUS
 70
0
 71
3
 72
11
 73
7
 74
0
 42
0.0000001
 43
0.0000001
 44
0.0000000001
 40
0.0
 40
0.0
 40
0.0
 40
0.0
 40
0.2203625177
 40
0.460409321
 40
0.7223610263
 40
1.0
 40
1.0
 40
1.0
 40
1.0
 10
13.7749266841
 20
8.1347102366
 30
0.0
 10
13.7768247228
 20
8.1335149267
 30
0.0
 10
13.7804845715
 20
8.1304979576
 30
0.0
 10
13.7848622684
 20
8.1244968634
 30
0.0
 10
13.7878279517
 20
8.117047541
 30
0.0
 10
13.788526657
 20
8.1115283649
 30
0.0
 10
13.788526657
 20
8.1087022909
 30
0.0
  0
SPLINE
  5
538
100
AcDbEntity
  8
0
100
AcDbSpline
 62
7
  6
CONTINUOUS
 70
0
 71
3
 72
11
 73
7
 74
0
 42
0.0000001
 43
0.0000001
 44
0.0000000001
 40
0.0
 40
0.0
 40
0.0
 40
0.0
 40
0.2776390394
 40
0.5395907056
 40
0.779637493
 40
1.0
 40
1.0
 40
1.0
 40
1.0
 10
12.7562840469
 20
8.108702291
 30
0.0
 10
12.7562840469
 20
8.1115283656
 30
0.0
 10
12.7569827523
 20
8.117047542
 30
0.0
 10
12.7599484361
 20
8.1244968643
 30
0.0
 10
12.7643261326
 20
8.1304979579
 30
0.0
 10
12.7679859812
 20
8.1335149268
 30
0.0
 10
12.7698840198
 20
8.1347102366
 30
0.0
  0
SPLINE
  5
539
100
AcDbEntity
  8
0
100
AcDbSpline
 62
7
  6
CONTINUOUS
 70
0
 71
3
 72
11
 73
7
 74
0
 42
0.0000001
 43
0.0000001
 44
0.0000000001
 40
0.0
 40
0.0
 40
0.0
 40
0.0
 40
0.2846301463
 40
0.5498740249
 40
0.7876038825
 40
1.0
 40
1.0
 40
1.0
 40
1.0
 10
12.76498301
 20
8.108702291
 30
0.0
 10
12.76498301
 20
8.1115238213
 30
0.0
 10
12.7655991749
 20
8.1169963257
 30
0.0
 10
12.7682267713
 20
8.1244205393
 30
0.0
 10
12.7721206103
 20
8.130426267
 30
0.0
 10
12.7754331358
 20
8.1334986235
 30
0.0
 10
12.7771550607
 20
8.1347102366
 30
0.0
  0
SPLINE
  5
53A
100
AcDbEntity
  8
0
100
AcDbSpline
 62
7
  6
CONTINUOUS
 70
0
 71
3
 72
9
 73
5
 74
0
 42
0.0000001
 43
0.0000001
 44
0.0000000001
 40
0.0
 40
0.0
 40
0.0
 40
0.0
 40
0.5029103459
 40
1.0
 40
1.0
 40
1.0
 40
1.0
 10
13.7731643455
 20
8.1128228437
 30
0.0
 10
13.7728723315
 20
8.1146119913
 30
0.0
 10
13.7719104545
 20
8.1181170688
 30
0.0
 10
13.7702647691
 20
8.1213525013
 30
0.0
 10
13.7693061103
 20
8.1228663254
 30
0.0
  0
SPLINE
  5
53B
100
AcDbEntity
  8
0
100
AcDbSpline
 62
7
  6
CONTINUOUS
 70
0
 71
3
 72
14
 73
10
 74
0
 42
0.0000001
 43
0.0000001
 44
0.0000000001
 40
0.0
 40
0.0
 40
0.0
 40
0.0
 40
0.1310447142
 40
0.2611292307
 40
0.3895201097
 40
0.5157964151
 40
0.6398511764
 40
0.7617893954
 40
1.0
 40
1.0
 40
1.0
 40
1.0
 10
13.7847049519
 20
8.1087022909
 30
0.0
 10
13.7847049519
 20
8.1101315539
 30
0.0
 10
13.784475314
 20
8.1129848733
 30
0.0
 10
13.7834636086
 20
8.1171281879
 30
0.0
 10
13.7818473384
 20
8.121018437
 30
0.0
 10
13.7797121175
 20
8.1245706739
 30
0.0
 10
13.7771485134
 20
8.1277360704
 30
0.0
 10
13.7733104871
 20
8.1313791386
 30
0.0
 10
13.7699772563
 20
8.1335439734
 30
0.0
 10
13.7676556431
 20
8.1347102366
 30
0.0
  0
SPLINE
  5
53C
100
AcDbEntity
  8
0
100
AcDbSpline
 62
7
  6
CONTINUOUS
 70
0
 71
3
 72
15
 73
11
 74
0
 42
0.0000001
 43
0.0000001
 44
0.0000000001
 40
0.0
 40
0.0
 40
0.0
 40
0.0
 40
0.1335682819
 40
0.2657831547
 40
0.3955977641
 40
0.5224003965
 40
0.646015815
 40
0.7665762612
 40
0.884452196
 40
1.0
 40
1.0
 40
1.0
 40
1.0
 10
13.7909770855
 20
8.1087022909
 30
0.0
 10
13.7909770855
 20
8.1101310323
 30
0.0
 10
13.7907616343
 20
8.1129787201
 30
0.0
 10
13.7898116042
 20
8.1171175724
 30
0.0
 10
13.7882930112
 20
8.1210054728
 30
0.0
 10
13.78628523
 20
8.1245577047
 30
0.0
 10
13.7838740379
 20
8.127724165
 30
0.0
 10
13.7811402819
 20
8.1304821851
 30
0.0
 10
13.7781549929
 20
8.1328258538
 30
0.0
 10
13.7760171287
 20
8.1341283596
 30
0.0
 10
13.7749266841
 20
8.1347102366
 30
0.0
  0
SPLINE
  5
53D
100
AcDbEntity
  8
0
100
AcDbSpline
 62
7
  6
CONTINUOUS
 70
0
 71
3
 72
15
 73
11
 74
0
 42
0.0000001
 43
0.0000001
 44
0.0000000001
 40
0.0
 40
0.0
 40
0.0
 40
0.0
 40
0.115547808
 40
0.2334237499
 40
0.3539842021
 40
0.4775996301
 40
0.6044022741
 40
0.7342169088
 40
0.8664317496
 40
1.0
 40
1.0
 40
1.0
 40
1.0
 10
12.7698840198
 20
8.1347102366
 30
0.0
 10
12.7687935751
 20
8.1341283596
 30
0.0
 10
12.7666557108
 20
8.1328258537
 30
0.0
 10
12.7636704216
 20
8.1304821849
 30
0.0
 10
12.7609366655
 20
8.1277241645
 30
0.0
 10
12.7585254734
 20
8.1245577039
 30
0.0
 10
12.756517692
 20
8.1210054715
 30
0.0
 10
12.7549990993
 20
8.117117571
 30
0.0
 10
12.7540490694
 20
8.1129787191
 30
0.0
 10
12.7538336184
 20
8.110131032
 30
0.0
 10
12.7538336184
 20
8.108702291
 30
0.0
  0
SPLINE
  5
53E
100
AcDbEntity
  8
0
100
AcDbSpline
 62
7
  6
CONTINUOUS
 70
0
 71
3
 72
9
 73
5
 74
0
 42
0.0000001
 43
0.0000001
 44
0.0000000001
 40
0.0
 40
0.0
 40
0.0
 40
0.0
 40
0.4970914895
 40
1.0
 40
1.0
 40
1.0
 40
1.0
 10
12.775501783
 20
8.1228618864
 30
0.0
 10
12.7745438251
 20
8.121348555
 30
0.0
 10
12.7728993639
 20
8.1181143351
 30
0.0
 10
12.7719381454
 20
8.1146107828
 30
0.0
 10
12.7716462913
 20
8.1128224336
 30
0.0
  0
SPLINE
  5
53F
100
AcDbEntity
  8
0
100
AcDbSpline
 62
7
  6
CONTINUOUS
 70
0
 71
3
 72
14
 73
10
 74
0
 42
0.0000001
 43
0.0000001
 44
0.0000000001
 40
0.0
 40
0.0
 40
0.0
 40
0.0
 40
0.2382106158
 40
0.3601488407
 40
0.4842036114
 40
0.6104799281
 40
0.7388708318
 40
0.8689553167
 40
1.0
 40
1.0
 40
1.0
 40
1.0
 10
12.7771550607
 20
8.1347102366
 30
0.0
 10
12.7748334475
 20
8.1335439733
 30
0.0
 10
12.7715002165
 20
8.1313791385
 30
0.0
 10
12.7676621901
 20
8.1277360699
 30
0.0
 10
12.7650985859
 20
8.1245706732
 30
0.0
 10
12.7629633647
 20
8.1210184358
 30
0.0
 10
12.7613470949
 20
8.1171281865
 30
0.0
 10
12.7603353897
 20
8.1129848723
 30
0.0
 10
12.760105752
 20
8.1101315536
 30
0.0
 10
12.760105752
 20
8.108702291
 30
0.0
  0
ENDSEC
  0
SECTION
  2
OBJECTS
  0
DICTIONARY
  5
C
100
AcDbDictionary
280
0
281
1
  3
ACAD_GROUP
350
D
  3
ACAD_MLINESTYLE
350
17
  3
ACAD_LAYOUT
350
1A
  3
ACAD_PLOTSETTINGS
350
19
  3
ACAD_PLOTSTYLENAME
350
E
  0
DICTIONARY
  5
D
102
{ACAD_REACTORS
330
C
102
}
100
AcDbDictionary
280
0
281
1
  0
ACDBDICTIONARYWDFLT
  5
E
102
{ACAD_REACTORS
330
C
102
}
100
AcDbDictionary
281
1
  3
Normal
350
F
100
AcDbDictionaryWithDefault
340
F
  0
DICTIONARY
  5
17
102
{ACAD_REACTORS
330
C
102
}
100
AcDbDictionary
280
0
281
1
  3
Standard
350
18
  0
DICTIONARY
  5
19
102
{ACAD_REACTORS
330
C
102
}
100
AcDbDictionary
281
1
  0
DICTIONARY
  5
1A
102
{ACAD_REACTORS
330
C
102
}
100
AcDbDictionary
281
1
  3
Model
350
540
  3
Layout1
350
541
  0
ACDBPLACEHOLDER
  5
F
102
{ACAD_REACTORS
330
E
102
}
  0
MLINESTYLE
  5
18
102
{ACAD_REACTORS
330
17
102
}
100
AcDbMlineStyle
  2
STANDARD
 70
0
  3

 62
256
 51
90.0
 52
90.0
 71
2
 49
0.5
 62
256
  6
BYLAYER
 49
-0.5
 62
256
  6
BYLAYER
  0
LAYOUT
  5
540
102
{ACAD_REACTORS
330
1A
102
}
100
AcDbPlotSettings
  1

  2
none_device
  4
ANSI_C_(22.00_x_17.00_Inches)
  6

 40
0.0
 41
0.0
 42
0.0
 43
0.0
 44
558.8
 45
431.8
 46
0.0
 47
0.0
 48
0.0
 49
0.0
140
0.0
141
0.0
142
1.0
143
1.0
 70
1024
 72
0
 73
0
 74
0
  7

 75
0
147
1.0
148
0.0
149
0.0
100
AcDbLayout
  1
Model
 70
0
 71
0
 10
0.0
 20
0.0
 11
22.0
 21
17.0
 12
0.0
 22
0.0
 32
0.0
 14
0.0
 24
0.0
 34
0.0
 15
0.0
 25
0.0
 35
0.0
146
0.0
 13
0.0
 23
0.0
 33
0.0
 16
1.0
 26
0.0
 36
0.0
 17
0.0
 27
1.0
 37
0.0
 76
0
330
202
345
0
346
0
  0
LAYOUT
  5
541
102
{ACAD_REACTORS
330
1A
102
}
100
AcDbPlotSettings
  1

  2
none_device
  4
ANSI_C_(22.00_x_17.00_Inches)
  6

 40
0.0
 41
0.0
 42
0.0
 43
0.0
 44
558.8
 45
431.8
 46
0.0
 47
0.0
 48
0.0
 49
0.0
140
0.0
141
0.0
142
1.0
143
1.0
 70
0
 72
0
 73
0
 74
0
  7

 75
0
147
1.0
148
0.0
149
0.0
100
AcDbLayout
  1
Layout1
 70
0
 71
1
 10
0.0
 20
0.0
 11
22.0
 21
17.0
 12
0.0
 22
0.0
 32
0.0
 14
0.0
 24
0.0
 34
0.0
 15
0.0
 25
0.0
 35
0.0
146
0.0
 13
0.0
 23
0.0
 33
0.0
 16
1.0
 26
0.0
 36
0.0
 17
0.0
 27
1.0
 37
0.0
 76
0
330
203
345
0
346
0
  0
ENDSEC
  0
EOF
