999
DXF file: 3250-1230_Top.dxf
999
Pro/ENGINEER 2023134 by Parametric Technology Corporation
  0
SECTION
  2
HEADER
  9
$ACADVER
  1
AC1032
  9
$DWGCODEPAGE
  3
ANSI_1252
  9
$EXTMAX
 10
11.0
 20
8.5
 30
0.0
  9
$EXTMIN
 10
0.0
 20
0.0
 30
0.0
  9
$LIMMIN
 10
0.0
 20
0.0
  9
$LIMMAX
 10
11.0
 20
8.5
  9
$VIEWCTR
 10
5.5
 20
4.25
  9
$VIEWSIZE
 40
8.5
  9
$CLAYER
  8
0
  9
$LTSCALE
 40
0.605
  9
$CELTYPE
  6
BYLAYER
  9
$DIMSCALE
 40
1.0
  9
$DIMASZ
 40
0.1
  9
$DIMEXO
 40
0.0625
  9
$DIMDLI
 40
0.418
  9
$DIMEXE
 40
0.125
  9
$DIMCEN
 40
0.099
  9
$DIMLFAC
 40
1.0
  9
$DIMBLK
  1
_FILLED
  9
$DIMALT
 70
1
  9
$DIMALTD
 70
2
  9
$DIMALTTD
 70
2
  9
$DIMALTF
 40
25.4
  9
$DIMTXT
 40
0.08
  9
$DIMTOL
 70
1
  9
$DIMLIM
 70
0
  9
$DIMTFAC
 40
1.0
  9
$DIMTP
 40
0.001
  9
$DIMTM
 40
0.001
  9
$DIMGAP
 40
0.09
  9
$DIMDSEP
 70
46
  9
$AUNITS
 70
0
  9
$PDMODE
 70
3
  9
$PDSIZE
 40
0.3125
  9
$HANDSEED
  5
28D
  9
$TILEMODE
 70
1
  9
$MEASUREMENT
 70
0
  9
$INSUNITS
 70
1
  0
ENDSEC
  0
SECTION
  2
CLASSES
  0
CLASS
  1
ACDBDICTIONARYWDFLT
  2
AcDbDictionaryWithDefault
  3
AutoCAD 2000
 90
0
 91
1
280
0
281
0
  0
CLASS
  1
ACDBPLACEHOLDER
  2
AcDbPlaceHolder
  3
AutoCAD 2000
 90
0
 91
1
280
0
281
0
  0
CLASS
  1
LAYOUT
  2
AcDbLayout
  3
AutoCAD 2000
 90
0
 91
0
280
0
281
0
  0
ENDSEC
  0
SECTION
  2
TABLES
  0
TABLE
  2
VPORT
  5
8
100
AcDbSymbolTable
 70
2
  0
VPORT
  5
1F4
100
AcDbSymbolTableRecord
100
AcDbViewportTableRecord
  2
*ACTIVE
 70
0
 10
0.0
 20
0.0
 11
1.0
 21
1.0
 12
5.5
 22
4.25
 13
0.0
 23
0.0
 14
1.0
 24
1.0
 15
0.0
 25
0.0
 16
0.0
 26
0.0
 36
1.0
 17
0.0
 27
0.0
 37
0.0
 40
8.5
 41
1.2941176471
 42
50.0
 43
0.0
 44
0.0
 50
0.0
 51
0.0
 71
0
 72
100
 73
1
 74
1
 75
0
 76
0
 77
0
 78
0
  0
ENDTAB
  0
TABLE
  2
LTYPE
  5
5
100
AcDbSymbolTable
 70
6
  0
LTYPE
  5
14
100
AcDbSymbolTableRecord
100
AcDbLinetypeTableRecord
  2
BYBLOCK
 70
0
  3

 72
65
 73
0
 40
0.0
  0
LTYPE
  5
15
100
AcDbSymbolTableRecord
100
AcDbLinetypeTableRecord
  2
BYLAYER
 70
0
  3

 72
65
 73
0
 40
0.0
  0
LTYPE
  5
16
100
AcDbSymbolTableRecord
100
AcDbLinetypeTableRecord
  2
CONTINUOUS
 70
64
  3
Solid line
 72
65
 73
0
 40
0.0
  0
LTYPE
  5
1F5
100
AcDbSymbolTableRecord
100
AcDbLinetypeTableRecord
  2
CENTER
 70
64
  3
____ _ ____ _ ____ _ ____ _ ____ _ ____ _ ____
 72
65
 73
4
 40
0.6
 49
0.375
 74
0
 49
-0.075
 74
0
 49
0.075
 74
0
 49
-0.075
 74
0
  0
LTYPE
  5
1F6
100
AcDbSymbolTableRecord
100
AcDbLinetypeTableRecord
  2
HIDDEN
 70
64
  3
- - - - - - - - - - - - - - - - - - - -
 72
65
 73
2
 40
0.2
 49
0.1
 74
0
 49
-0.1
 74
0
  0
LTYPE
  5
1F7
100
AcDbSymbolTableRecord
100
AcDbLinetypeTableRecord
  2
PHANTOM
 70
64
  3
_____ _ _ _____ _ _ _____ _ _ _____
 72
65
 73
6
 40
0.8
 49
0.45
 74
0
 49
-0.05
 74
0
 49
0.1
 74
0
 49
-0.05
 74
0
 49
0.1
 74
0
 49
-0.05
 74
0
  0
LTYPE
  5
1F8
100
AcDbSymbolTableRecord
100
AcDbLinetypeTableRecord
  2
DOT
 70
64
  3
. . . . . . . . . . . . . . . . . . . .
 72
65
 73
2
 40
0.2
 49
0.1
 74
0
 49
-0.1
 74
0
  0
LTYPE
  5
1F9
100
AcDbSymbolTableRecord
100
AcDbLinetypeTableRecord
  2
DASHED
 70
64
  3
- - - - - - - - - - - - - - - - - - - -
 72
65
 73
2
 40
0.2
 49
0.1
 74
0
 49
-0.1
 74
0
  0
ENDTAB
  0
TABLE
  2
LAYER
  5
2
100
AcDbSymbolTable
 70
36
  0
LAYER
  5
10
100
AcDbSymbolTableRecord
100
AcDbLayerTableRecord
  2
0
 70
0
 62
7
  6
CONTINUOUS
370
-3
390
F
  0
LAYER
  5
1FA
100
AcDbSymbolTableRecord
100
AcDbLayerTableRecord
  2
DEFAULT_1
 70
0
 62
7
  6
CENTER
370
-3
390
F
  0
LAYER
  5
1FB
100
AcDbSymbolTableRecord
100
AcDbLayerTableRecord
  2
DEFAULT_2
 70
0
 62
8
  6
HIDDEN
370
-3
390
F
  0
LAYER
  5
1FC
100
AcDbSymbolTableRecord
100
AcDbLayerTableRecord
  2
DEFAULT_3
 70
0
 62
7
  6
PHANTOM
370
-3
390
F
  0
LAYER
  5
1FD
100
AcDbSymbolTableRecord
100
AcDbLayerTableRecord
  2
DEFAULT_COORDINATE_SYSTEM
 70
0
 62
7
  6
CONTINUOUS
370
-3
390
F
  0
LAYER
  5
1FE
100
AcDbSymbolTableRecord
100
AcDbLayerTableRecord
  2
DEFAULT_DATUM_AXES
 70
0
 62
7
  6
CONTINUOUS
370
-3
390
F
  0
LAYER
  5
1FF
100
AcDbSymbolTableRecord
100
AcDbLayerTableRecord
  2
DEFAULT_DATUM_CURVES
 70
0
 62
7
  6
CONTINUOUS
370
-3
390
F
  0
LAYER
  5
200
100
AcDbSymbolTableRecord
100
AcDbLayerTableRecord
  2
DEFAULT_DATUM_PLANES
 70
0
 62
7
  6
CONTINUOUS
370
-3
390
F
  0
ENDTAB
  0
TABLE
  2
STYLE
  5
3
100
AcDbSymbolTable
 70
1
  0
STYLE
  5
11
100
AcDbSymbolTableRecord
100
AcDbTextStyleTableRecord
  2
STANDARD
 70
0
 40
0.0
 41
0.8
 50
0.0
 71
0
 42
0.2
  3
txt
  4

  0
STYLE
  5
201
100
AcDbSymbolTableRecord
100
AcDbTextStyleTableRecord
  2
TEXTSTYLE_1
 70
0
 40
0.0
 41
0.8
 50
0.0
 71
0
 42
0.2
  3
gdt
  4

  0
ENDTAB
  0
TABLE
  2
VIEW
  5
6
100
AcDbSymbolTable
 70
0
  0
ENDTAB
  0
TABLE
  2
UCS
  5
7
100
AcDbSymbolTable
 70
0
  0
ENDTAB
  0
TABLE
  2
APPID
  5
9
100
AcDbSymbolTable
 70
1
  0
APPID
  5
202
100
AcDbSymbolTableRecord
100
AcDbRegAppTableRecord
  2
ACAD
 70
0
  0
ENDTAB
  0
TABLE
  2
BLOCK_RECORD
  5
1
100
AcDbSymbolTable
 70
0
  0
BLOCK_RECORD
  5
203
100
AcDbSymbolTableRecord
100
AcDbBlockTableRecord
  2
*Model_Space
  0
BLOCK_RECORD
  5
204
100
AcDbSymbolTableRecord
100
AcDbBlockTableRecord
  2
*Paper_Space
  0
BLOCK_RECORD
  5
205
100
AcDbSymbolTableRecord
100
AcDbBlockTableRecord
  2
_FILLED
  0
ENDTAB
  0
TABLE
  2
DIMSTYLE
  5
A
100
AcDbSymbolTable
 70
1
100
AcDbDimStyleTable
 71
0
  0
DIMSTYLE
105
206
100
AcDbSymbolTableRecord
100
AcDbDimStyleTableRecord
  2
STANDARD
 70
0
  3

  4

 40
1.0
 41
0.1
 42
0.0625
 43
0.38
 44
0.125
 45
0.0
 46
0.0
 47
0.001
 48
0.001
140
0.08
141
0.09
142
0.0
143
25.4
144
1.0
145
0.0
146
1.0
147
0.09
 71
1
 72
0
 73
1
 74
1
 75
0
 76
0
 77
0
 78
4
 79
1
170
1
171
2
172
0
173
0
174
0
175
0
176
0
177
0
178
0
270
2
179
3
271
3
272
3
273
2
274
2
275
0
280
0
281
0
282
0
283
1
284
4
285
0
286
0
287
3
288
0
340
11
278
46
341
205
342
205
343
205
344
205
  0
ENDTAB
  0
ENDSEC
  0
SECTION
  2
BLOCKS
  0
BLOCK
  5
20
100
AcDbEntity
  8
0
100
AcDbBlockBegin
  2
*Model_Space
 70
0
 10
0.0
 20
0.0
 30
0.0
  3
*Model_Space
  1

  0
ENDBLK
  5
21
100
AcDbEntity
  8
0
100
AcDbBlockEnd
  0
BLOCK
  5
1C
100
AcDbEntity
  8
0
100
AcDbBlockBegin
  2
*Paper_Space
 70
0
 10
0.0
 20
0.0
 30
0.0
  3
*Paper_Space
  1

  0
ENDBLK
  5
1D
100
AcDbEntity
  8
0
100
AcDbBlockEnd
  0
BLOCK
  5
207
100
AcDbEntity
  8
0
100
AcDbBlockBegin
  2
_FILLED
 70
64
 10
0.0
 20
0.0
  3
_FILLED
  1

  0
SOLID
  5
208
100
AcDbEntity
  8
0
  6
BYBLOCK
 62
0
100
AcDbTrace
 10
0.0
 20
0.0
 11
-1.0
 21
0.2
 12
-1.0
 22
-0.2
 13
-1.0
 23
-0.2
  0
ENDBLK
  5
209
100
AcDbEntity
  8
0
  6
BYBLOCK
 62
0
100
AcDbBlockEnd
  0
ENDSEC
  0
SECTION
  2
ENTITIES
  0
MTEXT
  5
20A
100
AcDbEntity
  8
0
100
AcDbMText
 62
2
  6
CONTINUOUS
  7
STANDARD
 71
2
 72
1
 10
5.5155820742
 20
2.8387894918
 30
0.0
 11
1.0
 21
0.0
 31
0.0
 73
2
 44
0.9
  1
SCALE 0.500
 40
0.08
 41
0.704
  0
LINE
  5
20B
100
AcDbEntity
  8
0
100
AcDbLine
 62
7
  6
CONTINUOUS
 10
0.0
 20
0.0
 11
0.0
 21
8.5
  0
LINE
  5
20C
100
AcDbEntity
  8
0
100
AcDbLine
 62
7
  6
CONTINUOUS
 10
0.0
 20
0.0
 11
11.0
 21
0.0
  0
LINE
  5
20D
100
AcDbEntity
  8
0
100
AcDbLine
 62
7
  6
CONTINUOUS
 10
0.0
 20
8.5
 11
11.0
 21
8.5
  0
LINE
  5
20E
100
AcDbEntity
  8
0
100
AcDbLine
 62
7
  6
CONTINUOUS
 10
11.0
 20
0.0
 11
11.0
 21
8.5
  0
LINE
  5
20F
100
AcDbEntity
  8
0
100
AcDbLine
 62
7
  6
CONTINUOUS
 10
0.4701334033
 20
4.8830271397
 11
0.4701334033
 21
4.9960482486
  0
LINE
  5
210
100
AcDbEntity
  8
0
100
AcDbLine
 62
7
  6
CONTINUOUS
 10
0.7913834033
 20
4.5310482486
 11
0.7913834033
 21
4.1753543283
  0
LINE
  5
211
100
AcDbEntity
  8
0
100
AcDbLine
 62
7
  6
CONTINUOUS
 10
0.7913834033
 20
3.8307760825
 11
0.7913834033
 21
3.4150806002
  0
LINE
  5
212
100
AcDbEntity
  8
0
100
AcDbLine
 62
7
  6
CONTINUOUS
 10
0.8201334033
 20
4.5410482486
 11
0.8201334033
 21
4.5460482486
  0
LINE
  5
213
100
AcDbEntity
  8
0
100
AcDbLine
 62
7
  6
CONTINUOUS
 10
0.9026334033
 20
3.9210482486
 11
0.9026334033
 21
4.0485482486
  0
LINE
  5
214
100
AcDbEntity
  8
0
100
AcDbLine
 62
7
  6
CONTINUOUS
 10
1.1626334033
 20
3.9210482486
 11
1.1626334033
 21
4.0485482486
  0
LINE
  5
215
100
AcDbEntity
  8
0
100
AcDbLine
 62
7
  6
CONTINUOUS
 10
1.2451334033
 20
4.5410482486
 11
1.2451334033
 21
4.5460482486
  0
LINE
  5
216
100
AcDbEntity
  8
0
100
AcDbLine
 62
7
  6
CONTINUOUS
 10
1.2738834033
 20
4.5310482486
 11
1.2738834033
 21
4.1753543283
  0
LINE
  5
217
100
AcDbEntity
  8
0
100
AcDbLine
 62
7
  6
CONTINUOUS
 10
1.2738834033
 20
3.8307760825
 11
1.2738834033
 21
3.7860482486
  0
LINE
  5
218
100
AcDbEntity
  8
0
100
AcDbLine
 62
7
  6
CONTINUOUS
 10
1.2738834033
 20
3.4560482486
 11
1.2738834033
 21
3.4150806002
  0
LINE
  5
219
100
AcDbEntity
  8
0
100
AcDbLine
 62
7
  6
CONTINUOUS
 10
0.8368599006
 20
4.0885482486
 11
0.7954026411
 21
4.1603543283
  0
LINE
  5
21A
100
AcDbEntity
  8
0
100
AcDbLine
 62
7
  6
CONTINUOUS
 10
1.5951334033
 20
4.8830271397
 11
1.5951334033
 21
4.9960482486
  0
LINE
  5
21B
100
AcDbEntity
  8
0
100
AcDbLine
 62
7
  6
CONTINUOUS
 10
0.7958041983
 20
3.8464510395
 11
0.8172811381
 21
3.8814982199
  0
LINE
  5
21C
100
AcDbEntity
  8
0
100
AcDbLine
 62
7
  6
CONTINUOUS
 10
1.2694626082
 20
3.8464510395
 11
1.2479856684
 21
3.8814982199
  0
LINE
  5
21D
100
AcDbEntity
  8
0
100
AcDbLine
 62
7
  6
CONTINUOUS
 10
1.2284069059
 20
4.0885482486
 11
1.2698641654
 21
4.1603543283
  0
LINE
  5
21E
100
AcDbEntity
  8
0
100
AcDbLine
 62
7
  6
CONTINUOUS
 10
0.8021646533
 20
3.3973319482
 11
1.2631021533
 21
3.3973319482
  0
LINE
  5
21F
100
AcDbEntity
  8
0
100
AcDbLine
 62
7
  6
CONTINUOUS
 10
9.8021646533
 20
3.3973319482
 11
10.2631021533
 21
3.3973319482
  0
LINE
  5
220
100
AcDbEntity
  8
0
100
AcDbLine
 62
7
  6
CONTINUOUS
 10
0.7913834033
 20
3.4150806002
 11
1.2738834033
 21
3.4150806002
  0
LINE
  5
221
100
AcDbEntity
  8
0
100
AcDbLine
 62
7
  6
CONTINUOUS
 10
9.7913834033
 20
3.4150806002
 11
10.2738834033
 21
3.4150806002
  0
LINE
  5
222
100
AcDbEntity
  8
0
100
AcDbLine
 62
7
  6
CONTINUOUS
 10
9.7972754555
 20
3.4647982486
 11
1.267999439
 21
3.4647982486
  0
LINE
  5
223
100
AcDbEntity
  8
0
100
AcDbLine
 62
7
  6
CONTINUOUS
 10
9.7972754553
 20
3.7772982486
 11
1.2679994393
 21
3.7772982486
  0
LINE
  5
224
100
AcDbEntity
  8
0
100
AcDbLine
 62
7
  6
CONTINUOUS
 10
10.2738834033
 20
3.8307760825
 11
9.7913834033
 21
3.8307760825
  0
LINE
  5
225
100
AcDbEntity
  8
0
100
AcDbLine
 62
7
  6
CONTINUOUS
 10
1.2738834033
 20
3.8307760825
 11
0.7913834033
 21
3.8307760825
  0
LINE
  5
226
100
AcDbEntity
  8
0
100
AcDbLine
 62
7
  6
CONTINUOUS
 10
10.2694626082
 20
3.8464510395
 11
9.7958041983
 21
3.8464510395
  0
LINE
  5
227
100
AcDbEntity
  8
0
100
AcDbLine
 62
7
  6
CONTINUOUS
 10
1.2694626082
 20
3.8464510395
 11
0.7958041983
 21
3.8464510395
  0
LINE
  5
228
100
AcDbEntity
  8
0
100
AcDbLine
 62
7
  6
CONTINUOUS
 10
0.8172811381
 20
3.8814982199
 11
1.2479856684
 21
3.8814982199
  0
LINE
  5
229
100
AcDbEntity
  8
0
100
AcDbLine
 62
7
  6
CONTINUOUS
 10
9.8172811381
 20
3.8814982199
 11
10.2479856684
 21
3.8814982199
  0
LINE
  5
22A
100
AcDbEntity
  8
0
100
AcDbLine
 62
7
  6
CONTINUOUS
 10
0.8343339414
 20
3.8910482486
 11
1.2309328651
 21
3.8910482486
  0
LINE
  5
22B
100
AcDbEntity
  8
0
100
AcDbLine
 62
7
  6
CONTINUOUS
 10
9.8343339414
 20
3.8910482486
 11
10.2309328651
 21
3.8910482486
  0
LINE
  5
22C
100
AcDbEntity
  8
0
100
AcDbLine
 62
7
  6
CONTINUOUS
 10
10.1626334033
 20
3.9210482486
 11
9.9026334033
 21
3.9210482486
  0
LINE
  5
22D
100
AcDbEntity
  8
0
100
AcDbLine
 62
7
  6
CONTINUOUS
 10
1.1626334033
 20
3.9210482486
 11
0.9026334033
 21
3.9210482486
  0
LINE
  5
22E
100
AcDbEntity
  8
0
100
AcDbLine
 62
7
  6
CONTINUOUS
 10
10.1626334033
 20
4.0485482486
 11
9.9026334033
 21
4.0485482486
  0
LINE
  5
22F
100
AcDbEntity
  8
0
100
AcDbLine
 62
7
  6
CONTINUOUS
 10
1.1626334033
 20
4.0485482486
 11
0.9026334033
 21
4.0485482486
  0
LINE
  5
230
100
AcDbEntity
  8
0
100
AcDbLine
 62
7
  6
CONTINUOUS
 10
0.8541804086
 20
4.0785482486
 11
1.2110863979
 21
4.0785482486
  0
LINE
  5
231
100
AcDbEntity
  8
0
100
AcDbLine
 62
7
  6
CONTINUOUS
 10
9.8541804086
 20
4.0785482486
 11
10.2110863979
 21
4.0785482486
  0
LINE
  5
232
100
AcDbEntity
  8
0
100
AcDbLine
 62
7
  6
CONTINUOUS
 10
0.8368599006
 20
4.0885482486
 11
1.2284069059
 21
4.0885482486
  0
LINE
  5
233
100
AcDbEntity
  8
0
100
AcDbLine
 62
7
  6
CONTINUOUS
 10
9.8368599006
 20
4.0885482486
 11
10.2284069059
 21
4.0885482486
  0
LINE
  5
234
100
AcDbEntity
  8
0
100
AcDbLine
 62
7
  6
CONTINUOUS
 10
0.7954026411
 20
4.1603543283
 11
1.2698641654
 21
4.1603543283
  0
LINE
  5
235
100
AcDbEntity
  8
0
100
AcDbLine
 62
7
  6
CONTINUOUS
 10
9.7954026411
 20
4.1603543283
 11
10.2698641654
 21
4.1603543283
  0
LINE
  5
236
100
AcDbEntity
  8
0
100
AcDbLine
 62
7
  6
CONTINUOUS
 10
0.7913834033
 20
4.1753543283
 11
1.2738834033
 21
4.1753543283
  0
LINE
  5
237
100
AcDbEntity
  8
0
100
AcDbLine
 62
7
  6
CONTINUOUS
 10
9.7913834033
 20
4.1753543283
 11
10.2738834033
 21
4.1753543283
  0
LINE
  5
238
100
AcDbEntity
  8
0
100
AcDbLine
 62
7
  6
CONTINUOUS
 10
0.7913834033
 20
4.5310482486
 11
1.2738834033
 21
4.5310482486
  0
LINE
  5
239
100
AcDbEntity
  8
0
100
AcDbLine
 62
7
  6
CONTINUOUS
 10
9.7913834033
 20
4.5310482486
 11
10.2738834033
 21
4.5310482486
  0
LINE
  5
23A
100
AcDbEntity
  8
0
100
AcDbLine
 62
7
  6
CONTINUOUS
 10
0.8013834033
 20
4.5410482486
 11
1.2638834033
 21
4.5410482486
  0
LINE
  5
23B
100
AcDbEntity
  8
0
100
AcDbLine
 62
7
  6
CONTINUOUS
 10
9.8013834033
 20
4.5410482486
 11
10.2638834033
 21
4.5410482486
  0
LINE
  5
23C
100
AcDbEntity
  8
0
100
AcDbLine
 62
7
  6
CONTINUOUS
 10
10.259252479
 20
4.5460482486
 11
9.8060143275
 21
4.5460482486
  0
LINE
  5
23D
100
AcDbEntity
  8
0
100
AcDbLine
 62
7
  6
CONTINUOUS
 10
1.259252479
 20
4.5460482486
 11
0.8060143275
 21
4.5460482486
  0
LINE
  5
23E
100
AcDbEntity
  8
0
100
AcDbLine
 62
7
  6
CONTINUOUS
 10
10.2742343278
 20
4.5603105437
 11
9.7910324788
 21
4.5603105437
  0
LINE
  5
23F
100
AcDbEntity
  8
0
100
AcDbLine
 62
7
  6
CONTINUOUS
 10
1.2742343278
 20
4.5603105437
 11
0.7910324788
 21
4.5603105437
  0
LINE
  5
240
100
AcDbEntity
  8
0
100
AcDbLine
 62
7
  6
CONTINUOUS
 10
10.4385613115
 20
4.8075714279
 11
9.626705495
 21
4.8075714279
  0
LINE
  5
241
100
AcDbEntity
  8
0
100
AcDbLine
 62
7
  6
CONTINUOUS
 10
0.626705495
 20
4.8075714279
 11
1.4385613115
 21
4.8075714279
  0
LINE
  5
242
100
AcDbEntity
  8
0
100
AcDbLine
 62
7
  6
CONTINUOUS
 10
10.5717067753
 20
4.853756151
 11
9.4935600312
 21
4.853756151
  0
LINE
  5
243
100
AcDbEntity
  8
0
100
AcDbLine
 62
7
  6
CONTINUOUS
 10
1.5717067753
 20
4.853756151
 11
0.4935600312
 21
4.853756151
  0
LINE
  5
244
100
AcDbEntity
  8
0
100
AcDbLine
 62
7
  6
CONTINUOUS
 10
10.5951334033
 20
4.8830271397
 11
9.4701334033
 21
4.8830271397
  0
LINE
  5
245
100
AcDbEntity
  8
0
100
AcDbLine
 62
7
  6
CONTINUOUS
 10
1.5951334033
 20
4.8830271397
 11
0.4701334033
 21
4.8830271397
  0
LINE
  5
246
100
AcDbEntity
  8
0
100
AcDbLine
 62
7
  6
CONTINUOUS
 10
10.5951334033
 20
4.9960482486
 11
9.4701334033
 21
4.9960482486
  0
LINE
  5
247
100
AcDbEntity
  8
0
100
AcDbLine
 62
7
  6
CONTINUOUS
 10
0.4701334033
 20
4.9960482486
 11
1.5951334033
 21
4.9960482486
  0
LINE
  5
248
100
AcDbEntity
  8
0
100
AcDbLine
 62
7
  6
CONTINUOUS
 10
9.7958041983
 20
3.8464510395
 11
9.8172811381
 21
3.8814982199
  0
LINE
  5
249
100
AcDbEntity
  8
0
100
AcDbLine
 62
7
  6
CONTINUOUS
 10
9.8368599006
 20
4.0885482486
 11
9.7954026411
 21
4.1603543283
  0
LINE
  5
24A
100
AcDbEntity
  8
0
100
AcDbLine
 62
7
  6
CONTINUOUS
 10
9.4701334033
 20
4.9960482486
 11
9.4701334033
 21
4.8830271397
  0
LINE
  5
24B
100
AcDbEntity
  8
0
100
AcDbLine
 62
7
  6
CONTINUOUS
 10
10.2284069059
 20
4.0885482486
 11
10.2698641654
 21
4.1603543283
  0
LINE
  5
24C
100
AcDbEntity
  8
0
100
AcDbLine
 62
7
  6
CONTINUOUS
 10
10.2694626082
 20
3.8464510395
 11
10.2479856684
 21
3.8814982199
  0
LINE
  5
24D
100
AcDbEntity
  8
0
100
AcDbLine
 62
7
  6
CONTINUOUS
 10
9.7913834033
 20
4.5310482486
 11
9.7913834033
 21
4.1753543283
  0
LINE
  5
24E
100
AcDbEntity
  8
0
100
AcDbLine
 62
7
  6
CONTINUOUS
 10
9.7913834033
 20
3.8307760825
 11
9.7913834033
 21
3.7860482486
  0
LINE
  5
24F
100
AcDbEntity
  8
0
100
AcDbLine
 62
7
  6
CONTINUOUS
 10
9.7913834033
 20
3.4560482486
 11
9.7913834033
 21
3.4150806002
  0
LINE
  5
250
100
AcDbEntity
  8
0
100
AcDbLine
 62
7
  6
CONTINUOUS
 10
9.8201334033
 20
4.5410482486
 11
9.8201334033
 21
4.5460482486
  0
LINE
  5
251
100
AcDbEntity
  8
0
100
AcDbLine
 62
7
  6
CONTINUOUS
 10
9.9026334033
 20
3.9210482486
 11
9.9026334033
 21
4.0485482486
  0
LINE
  5
252
100
AcDbEntity
  8
0
100
AcDbLine
 62
7
  6
CONTINUOUS
 10
10.1626334033
 20
3.9210482486
 11
10.1626334033
 21
4.0485482486
  0
LINE
  5
253
100
AcDbEntity
  8
0
100
AcDbLine
 62
7
  6
CONTINUOUS
 10
10.2451334033
 20
4.5410482486
 11
10.2451334033
 21
4.5460482486
  0
LINE
  5
254
100
AcDbEntity
  8
0
100
AcDbLine
 62
7
  6
CONTINUOUS
 10
10.2738834033
 20
4.5310482486
 11
10.2738834033
 21
4.1753543283
  0
LINE
  5
255
100
AcDbEntity
  8
0
100
AcDbLine
 62
7
  6
CONTINUOUS
 10
10.2738834033
 20
3.8307760825
 11
10.2738834033
 21
3.4150806002
  0
LINE
  5
256
100
AcDbEntity
  8
0
100
AcDbLine
 62
7
  6
CONTINUOUS
 10
10.5951334033
 20
4.9960482486
 11
10.5951334033
 21
4.8830271397
  0
ARC
  5
257
100
AcDbEntity
  8
0
100
AcDbCircle
 62
7
  6
CONTINUOUS
 10
1.0326334033
 20
3.8410482486
 40
0.5
100
AcDbArc
 50
242.5523807758
 51
297.4476192242
  0
ARC
  5
258
100
AcDbEntity
  8
0
100
AcDbCircle
 62
7
  6
CONTINUOUS
 10
0.8213834033
 20
3.8307760825
 40
0.03
100
AcDbArc
 50
148.5
 51
180.0
  0
ARC
  5
259
100
AcDbEntity
  8
0
100
AcDbCircle
 62
7
  6
CONTINUOUS
 10
1.2438834033
 20
3.8307760825
 40
0.03
100
AcDbArc
 50
0.0
 51
31.5
  0
ARC
  5
25A
100
AcDbEntity
  8
0
100
AcDbCircle
 62
7
  6
CONTINUOUS
 10
0.8726334033
 20
3.9210482486
 40
0.03
100
AcDbArc
 50
270.0000000008
 51
360.0
  0
ARC
  5
25B
100
AcDbEntity
  8
0
100
AcDbCircle
 62
7
  6
CONTINUOUS
 10
1.1926334033
 20
3.9210482486
 40
0.03
100
AcDbArc
 50
180.0
 51
269.9999999992
  0
ARC
  5
25C
100
AcDbEntity
  8
0
100
AcDbCircle
 62
7
  6
CONTINUOUS
 10
0.8726334033
 20
4.0485482486
 40
0.03
100
AcDbArc
 50
0.0
 51
89.9999999975
  0
ARC
  5
25D
100
AcDbEntity
  8
0
100
AcDbCircle
 62
7
  6
CONTINUOUS
 10
1.1926334033
 20
4.0485482486
 40
0.03
100
AcDbArc
 50
90.0000000025
 51
180.0
  0
ARC
  5
25E
100
AcDbEntity
  8
0
100
AcDbCircle
 62
7
  6
CONTINUOUS
 10
1.2538834033
 20
3.4150806002
 40
0.02
100
AcDbArc
 50
297.4476192236
 51
360.0
  0
ARC
  5
25F
100
AcDbEntity
  8
0
100
AcDbCircle
 62
7
  6
CONTINUOUS
 10
0.8113834033
 20
3.4150806002
 40
0.02
100
AcDbArc
 50
180.0
 51
242.5523807764
  0
ARC
  5
260
100
AcDbEntity
  8
0
100
AcDbCircle
 62
7
  6
CONTINUOUS
 10
1.2309328651
 20
3.8710482486
 40
0.02
100
AcDbArc
 50
31.5
 51
90.0
  0
ARC
  5
261
100
AcDbEntity
  8
0
100
AcDbCircle
 62
7
  6
CONTINUOUS
 10
0.8343339414
 20
3.8710482486
 40
0.02
100
AcDbArc
 50
90.0
 51
148.5
  0
ARC
  5
262
100
AcDbEntity
  8
0
100
AcDbCircle
 62
7
  6
CONTINUOUS
 10
1.2110863979
 20
4.0985482486
 40
0.02
100
AcDbArc
 50
270.0
 51
330.0
  0
ARC
  5
263
100
AcDbEntity
  8
0
100
AcDbCircle
 62
7
  6
CONTINUOUS
 10
0.8541804086
 20
4.0985482486
 40
0.02
100
AcDbArc
 50
210.0
 51
270.0
  0
ARC
  5
264
100
AcDbEntity
  8
0
100
AcDbCircle
 62
7
  6
CONTINUOUS
 10
1.7086520265
 20
4.2439438863
 40
0.625
100
AcDbArc
 50
102.6569054446
 51
115.6037735864
  0
ARC
  5
265
100
AcDbEntity
  8
0
100
AcDbCircle
 62
7
  6
CONTINUOUS
 10
0.35661478
 20
4.2439438863
 40
0.625
100
AcDbArc
 50
64.3962264136
 51
77.3430945554
  0
ARC
  5
266
100
AcDbEntity
  8
0
100
AcDbCircle
 62
7
  6
CONTINUOUS
 10
1.5638834033
 20
4.5460482486
 40
0.29
100
AcDbArc
 50
115.6037735864
 51
177.1810376254
  0
ARC
  5
267
100
AcDbEntity
  8
0
100
AcDbCircle
 62
7
  6
CONTINUOUS
 10
0.5013834033
 20
4.5460482486
 40
0.29
100
AcDbArc
 50
2.8189623746
 51
64.3962264136
  0
ARC
  5
268
100
AcDbEntity
  8
0
100
AcDbCircle
 62
7
  6
CONTINUOUS
 10
1.5651334033
 20
4.8830271397
 40
0.03
100
AcDbArc
 50
282.6569054446
 51
360.0
  0
ARC
  5
269
100
AcDbEntity
  8
0
100
AcDbCircle
 62
7
  6
CONTINUOUS
 10
0.5001334033
 20
4.8830271397
 40
0.03
100
AcDbArc
 50
180.0
 51
257.3430945554
  0
ARC
  5
26A
100
AcDbEntity
  8
0
100
AcDbCircle
 62
7
  6
CONTINUOUS
 10
1.2438834033
 20
4.1753543283
 40
0.03
100
AcDbArc
 50
329.9999999999
 51
360.0
  0
ARC
  5
26B
100
AcDbEntity
  8
0
100
AcDbCircle
 62
7
  6
CONTINUOUS
 10
0.8213834033
 20
4.1753543283
 40
0.03
100
AcDbArc
 50
180.0
 51
210.0000000001
  0
ARC
  5
26C
100
AcDbEntity
  8
0
100
AcDbCircle
 62
7
  6
CONTINUOUS
 10
1.259252479
 20
4.5610482486
 40
0.015
100
AcDbArc
 50
270.0
 51
357.1810376254
  0
ARC
  5
26D
100
AcDbEntity
  8
0
100
AcDbCircle
 62
7
  6
CONTINUOUS
 10
0.8060143275
 20
4.5610482486
 40
0.015
100
AcDbArc
 50
182.8189623746
 51
270.0
  0
ARC
  5
26E
100
AcDbEntity
  8
0
100
AcDbCircle
 62
7
  6
CONTINUOUS
 10
1.2638834033
 20
4.5310482486
 40
0.01
100
AcDbArc
 50
0.0
 51
90.0
  0
ARC
  5
26F
100
AcDbEntity
  8
0
100
AcDbCircle
 62
7
  6
CONTINUOUS
 10
0.8013834033
 20
4.5310482486
 40
0.01
100
AcDbArc
 50
90.0
 51
180.0
  0
ARC
  5
270
100
AcDbEntity
  8
0
100
AcDbCircle
 62
7
  6
CONTINUOUS
 10
10.0326334033
 20
3.8410482486
 40
0.5
100
AcDbArc
 50
242.5523807758
 51
297.4476192242
  0
ARC
  5
271
100
AcDbEntity
  8
0
100
AcDbCircle
 62
7
  6
CONTINUOUS
 10
10.1926334033
 20
4.0485482486
 40
0.03
100
AcDbArc
 50
90.0000000026
 51
180.0
  0
ARC
  5
272
100
AcDbEntity
  8
0
100
AcDbCircle
 62
7
  6
CONTINUOUS
 10
9.8726334033
 20
4.0485482486
 40
0.03
100
AcDbArc
 50
0.0
 51
89.9999999974
  0
ARC
  5
273
100
AcDbEntity
  8
0
100
AcDbCircle
 62
7
  6
CONTINUOUS
 10
10.1926334033
 20
3.9210482486
 40
0.03
100
AcDbArc
 50
180.0
 51
269.9999999992
  0
ARC
  5
274
100
AcDbEntity
  8
0
100
AcDbCircle
 62
7
  6
CONTINUOUS
 10
9.8726334033
 20
3.9210482486
 40
0.03
100
AcDbArc
 50
270.0000000008
 51
360.0
  0
ARC
  5
275
100
AcDbEntity
  8
0
100
AcDbCircle
 62
7
  6
CONTINUOUS
 10
9.8213834033
 20
3.8307760825
 40
0.03
100
AcDbArc
 50
148.5
 51
180.0
  0
ARC
  5
276
100
AcDbEntity
  8
0
100
AcDbCircle
 62
7
  6
CONTINUOUS
 10
10.2438834033
 20
3.8307760825
 40
0.03
100
AcDbArc
 50
0.0
 51
31.5
  0
ARC
  5
277
100
AcDbEntity
  8
0
100
AcDbCircle
 62
7
  6
CONTINUOUS
 10
9.8541804086
 20
4.0985482486
 40
0.02
100
AcDbArc
 50
210.0
 51
270.0
  0
ARC
  5
278
100
AcDbEntity
  8
0
100
AcDbCircle
 62
7
  6
CONTINUOUS
 10
10.2538834033
 20
3.4150806002
 40
0.02
100
AcDbArc
 50
297.4476192236
 51
360.0
  0
ARC
  5
279
100
AcDbEntity
  8
0
100
AcDbCircle
 62
7
  6
CONTINUOUS
 10
9.8113834033
 20
3.4150806002
 40
0.02
100
AcDbArc
 50
180.0
 51
242.5523807764
  0
ARC
  5
27A
100
AcDbEntity
  8
0
100
AcDbCircle
 62
7
  6
CONTINUOUS
 10
10.2110863979
 20
4.0985482486
 40
0.02
100
AcDbArc
 50
270.0
 51
330.0
  0
ARC
  5
27B
100
AcDbEntity
  8
0
100
AcDbCircle
 62
7
  6
CONTINUOUS
 10
10.2309328651
 20
3.8710482486
 40
0.02
100
AcDbArc
 50
31.5
 51
90.0
  0
ARC
  5
27C
100
AcDbEntity
  8
0
100
AcDbCircle
 62
7
  6
CONTINUOUS
 10
9.8343339414
 20
3.8710482486
 40
0.02
100
AcDbArc
 50
90.0
 51
148.5
  0
ARC
  5
27D
100
AcDbEntity
  8
0
100
AcDbCircle
 62
7
  6
CONTINUOUS
 10
9.35661478
 20
4.2439438863
 40
0.625
100
AcDbArc
 50
64.3962264136
 51
77.3430945554
  0
ARC
  5
27E
100
AcDbEntity
  8
0
100
AcDbCircle
 62
7
  6
CONTINUOUS
 10
10.7086520265
 20
4.2439438863
 40
0.625
100
AcDbArc
 50
102.6569054446
 51
115.6037735864
  0
ARC
  5
27F
100
AcDbEntity
  8
0
100
AcDbCircle
 62
7
  6
CONTINUOUS
 10
10.5638834033
 20
4.5460482486
 40
0.29
100
AcDbArc
 50
115.6037735864
 51
177.1810376254
  0
ARC
  5
280
100
AcDbEntity
  8
0
100
AcDbCircle
 62
7
  6
CONTINUOUS
 10
9.5013834033
 20
4.5460482486
 40
0.29
100
AcDbArc
 50
2.8189623746
 51
64.3962264136
  0
ARC
  5
281
100
AcDbEntity
  8
0
100
AcDbCircle
 62
7
  6
CONTINUOUS
 10
10.5651334033
 20
4.8830271397
 40
0.03
100
AcDbArc
 50
282.6569054446
 51
360.0
  0
ARC
  5
282
100
AcDbEntity
  8
0
100
AcDbCircle
 62
7
  6
CONTINUOUS
 10
9.5001334033
 20
4.8830271397
 40
0.03
100
AcDbArc
 50
180.0
 51
257.3430945554
  0
ARC
  5
283
100
AcDbEntity
  8
0
100
AcDbCircle
 62
7
  6
CONTINUOUS
 10
9.8213834033
 20
4.1753543283
 40
0.03
100
AcDbArc
 50
180.0
 51
210.0000000001
  0
ARC
  5
284
100
AcDbEntity
  8
0
100
AcDbCircle
 62
7
  6
CONTINUOUS
 10
10.2438834033
 20
4.1753543283
 40
0.03
100
AcDbArc
 50
329.9999999999
 51
360.0
  0
ARC
  5
285
100
AcDbEntity
  8
0
100
AcDbCircle
 62
7
  6
CONTINUOUS
 10
10.259252479
 20
4.5610482486
 40
0.015
100
AcDbArc
 50
270.0
 51
357.1810376252
  0
ARC
  5
286
100
AcDbEntity
  8
0
100
AcDbCircle
 62
7
  6
CONTINUOUS
 10
9.8060143275
 20
4.5610482486
 40
0.015
100
AcDbArc
 50
182.8189623748
 51
270.0
  0
ARC
  5
287
100
AcDbEntity
  8
0
100
AcDbCircle
 62
7
  6
CONTINUOUS
 10
9.8013834033
 20
4.5310482486
 40
0.01
100
AcDbArc
 50
90.0
 51
180.0
  0
ARC
  5
288
100
AcDbEntity
  8
0
100
AcDbCircle
 62
7
  6
CONTINUOUS
 10
10.2638834033
 20
4.5310482486
 40
0.01
100
AcDbArc
 50
0.0
 51
90.0
  0
SPLINE
  5
289
100
AcDbEntity
  8
0
100
AcDbSpline
 62
7
  6
CONTINUOUS
 70
0
 71
3
 72
35
 73
31
 74
0
 42
0.0000001
 43
0.0000001
 44
0.0000000001
 40
0.0
 40
0.0
 40
0.0
 40
0.0
 40
0.0113970623
 40
0.0441469306
 40
0.0947876108
 40
0.1594083392
 40
0.1958858951
 40
0.2346704754
 40
0.2754643836
 40
0.3180038912
 40
0.3620314723
 40
0.4072743836
 40
0.4302509598
 40
0.4534015152
 40
0.4766718097
 40
0.5000000211
 40
0.5233282301
 40
0.546598522
 40
0.5697490781
 40
0.592725651
 40
0.6379685614
 40
0.6819961374
 40
0.7245356429
 40
0.7653295411
 40
0.8041141134
 40
0.8405916635
 40
0.9052123883
 40
0.9558530691
 40
0.9886029379
 40
1.0
 40
1.0
 40
1.0
 40
1.0
 10
1.2738834033
 20
3.4560482486
 30
0.0
 10
1.2731107291
 20
3.4571778724
 30
0.0
 10
1.2701289179
 20
3.461561194
 30
0.0
 10
1.2638238341
 20
3.4710384765
 30
0.0
 10
1.2543009506
 20
3.4860483853
 30
0.0
 10
1.2450958434
 20
3.501782128
 30
0.0
 10
1.2371994205
 20
3.516610978
 30
0.0
 10
1.231079003
 20
3.5291354298
 30
0.0
 10
1.2251963939
 20
3.5425740171
 30
0.0
 10
1.2197940931
 20
3.5568909957
 30
0.0
 10
1.2151283147
 20
3.5720282101
 30
0.0
 10
1.2121177508
 20
3.5851829359
 30
0.0
 10
1.2103437096
 20
3.5960137174
 30
0.0
 10
1.2093670738
 20
3.6042928778
 30
0.0
 10
1.2087707189
 20
3.6126503855
 30
0.0
 10
1.2085670584
 20
3.6210482559
 30
0.0
 10
1.2087707177
 20
3.6294461262
 30
0.0
 10
1.2093670768
 20
3.6378036331
 30
0.0
 10
1.2103437106
 20
3.646082793
 30
0.0
 10
1.2121177529
 20
3.6569135739
 30
0.0
 10
1.2151283182
 20
3.6700682982
 30
0.0
 10
1.219794096
 20
3.6852055118
 30
0.0
 10
1.225196398
 20
3.6995224878
 30
0.0
 10
1.2310790051
 20
3.7129610733
 30
0.0
 10
1.2371994227
 20
3.7254855219
 30
0.0
 10
1.2450958437
 20
3.7403143705
 30
0.0
 10
1.2543009507
 20
3.7560481121
 30
0.0
 10
1.263823834
 20
3.7710580207
 30
0.0
 10
1.2701289179
 20
3.7805353033
 30
0.0
 10
1.2731107291
 20
3.7849186249
 30
0.0
 10
1.2738834033
 20
3.7860482486
 30
0.0
  0
SPLINE
  5
28A
100
AcDbEntity
  8
0
100
AcDbSpline
 62
7
  6
CONTINUOUS
 70
0
 71
3
 72
37
 73
33
 74
0
 42
0.0000001
 43
0.0000001
 44
0.0000000001
 40
0.0
 40
0.0
 40
0.0
 40
0.0
 40
0.0441417821
 40
0.0947814598
 40
0.1594037239
 40
0.1958836854
 40
0.234668925
 40
0.2754640131
 40
0.296533145
 40
0.3180079096
 40
0.3620356334
 40
0.3845261998
 40
0.4072822894
 40
0.430258611
 40
0.4534072496
 40
0.4766734856
 40
0.5000000071
 40
0.5233265297
 40
0.5465927667
 40
0.5697414065
 40
0.5927177252
 40
0.6154738131
 40
0.6379643784
 40
0.6819921029
 40
0.703466867
 40
0.7245359987
 40
0.7653310836
 40
0.8041163191
 40
0.8405962774
 40
0.9052185394
 40
0.9558582176
 40
1.0
 40
1.0
 40
1.0
 40
1.0
 10
9.7913834033
 20
3.7860482486
 30
0.0
 10
9.7943753125
 20
3.7816725114
 30
0.0
 10
9.8007095728
 20
3.7722145003
 30
0.0
 10
9.8109651953
 20
3.7560487194
 30
0.0
 10
9.8201717221
 20
3.7403147779
 30
0.0
 10
9.8280666102
 20
3.7254839754
 30
0.0
 10
9.8341891851
 20
3.7129597837
 30
0.0
 10
9.8390364297
 20
3.7018822611
 30
0.0
 10
9.8426949142
 20
3.6925656437
 30
0.0
 10
9.8462198704
 20
3.6827842776
 30
0.0
 10
9.8493331481
 20
3.6726762583
 30
0.0
 10
9.8519240606
 20
3.6622710483
 30
0.0
 10
9.8535867827
 20
3.6542463988
 30
0.0
 10
9.8549230449
 20
3.6460806745
 30
0.0
 10
9.8559004163
 20
3.6378022796
 30
0.0
 10
9.8564983181
 20
3.6294454893
 30
0.0
 10
9.8566981324
 20
3.6210482459
 30
0.0
 10
9.856498318
 20
3.6126510024
 30
0.0
 10
9.8559004154
 20
3.6042942118
 30
0.0
 10
9.8549230445
 20
3.5960158169
 30
0.0
 10
9.8535867818
 20
3.5878500931
 30
0.0
 10
9.8519240596
 20
3.5798254444
 30
0.0
 10
9.8493331468
 20
3.5694202347
 30
0.0
 10
9.8462198692
 20
3.5593122154
 30
0.0
 10
9.8426949126
 20
3.5495308495
 30
0.0
 10
9.8390364282
 20
3.5402142326
 30
0.0
 10
9.8341891837
 20
3.5291367109
 30
0.0
 10
9.8280666095
 20
3.5166125203
 30
0.0
 10
9.8201717217
 20
3.5017817188
 30
0.0
 10
9.8109651953
 20
3.4860477778
 30
0.0
 10
9.8007095729
 20
3.4698819971
 30
0.0
 10
9.7943753126
 20
3.4604239859
 30
0.0
 10
9.7913834033
 20
3.4560482486
 30
0.0
  0
ENDSEC
  0
SECTION
  2
OBJECTS
  0
DICTIONARY
  5
C
100
AcDbDictionary
280
0
281
1
  3
ACAD_GROUP
350
D
  3
ACAD_MLINESTYLE
350
17
  3
ACAD_LAYOUT
350
1A
  3
ACAD_PLOTSETTINGS
350
19
  3
ACAD_PLOTSTYLENAME
350
E
  0
DICTIONARY
  5
D
102
{ACAD_REACTORS
330
C
102
}
100
AcDbDictionary
280
0
281
1
  0
ACDBDICTIONARYWDFLT
  5
E
102
{ACAD_REACTORS
330
C
102
}
100
AcDbDictionary
281
1
  3
Normal
350
F
100
AcDbDictionaryWithDefault
340
F
  0
DICTIONARY
  5
17
102
{ACAD_REACTORS
330
C
102
}
100
AcDbDictionary
280
0
281
1
  3
Standard
350
18
  0
DICTIONARY
  5
19
102
{ACAD_REACTORS
330
C
102
}
100
AcDbDictionary
281
1
  0
DICTIONARY
  5
1A
102
{ACAD_REACTORS
330
C
102
}
100
AcDbDictionary
281
1
  3
Model
350
28B
  3
Layout1
350
28C
  0
ACDBPLACEHOLDER
  5
F
102
{ACAD_REACTORS
330
E
102
}
  0
MLINESTYLE
  5
18
102
{ACAD_REACTORS
330
17
102
}
100
AcDbMlineStyle
  2
STANDARD
 70
0
  3

 62
256
 51
90.0
 52
90.0
 71
2
 49
0.5
 62
256
  6
BYLAYER
 49
-0.5
 62
256
  6
BYLAYER
  0
LAYOUT
  5
28B
102
{ACAD_REACTORS
330
1A
102
}
100
AcDbPlotSettings
  1

  2
none_device
  4
ANSI_A_(11.00_x_8.50_Inches)
  6

 40
0.0
 41
0.0
 42
0.0
 43
0.0
 44
279.4
 45
215.9
 46
0.0
 47
0.0
 48
0.0
 49
0.0
140
0.0
141
0.0
142
1.0
143
1.0
 70
1024
 72
0
 73
0
 74
0
  7

 75
0
147
1.0
148
0.0
149
0.0
100
AcDbLayout
  1
Model
 70
0
 71
0
 10
0.0
 20
0.0
 11
11.0
 21
8.5
 12
0.0
 22
0.0
 32
0.0
 14
0.0
 24
0.0
 34
0.0
 15
0.0
 25
0.0
 35
0.0
146
0.0
 13
0.0
 23
0.0
 33
0.0
 16
1.0
 26
0.0
 36
0.0
 17
0.0
 27
1.0
 37
0.0
 76
0
330
203
345
0
346
0
  0
LAYOUT
  5
28C
102
{ACAD_REACTORS
330
1A
102
}
100
AcDbPlotSettings
  1

  2
none_device
  4
ANSI_A_(11.00_x_8.50_Inches)
  6

 40
0.0
 41
0.0
 42
0.0
 43
0.0
 44
279.4
 45
215.9
 46
0.0
 47
0.0
 48
0.0
 49
0.0
140
0.0
141
0.0
142
1.0
143
1.0
 70
0
 72
0
 73
0
 74
0
  7

 75
0
147
1.0
148
0.0
149
0.0
100
AcDbLayout
  1
Layout1
 70
0
 71
1
 10
0.0
 20
0.0
 11
11.0
 21
8.5
 12
0.0
 22
0.0
 32
0.0
 14
0.0
 24
0.0
 34
0.0
 15
0.0
 25
0.0
 35
0.0
146
0.0
 13
0.0
 23
0.0
 33
0.0
 16
1.0
 26
0.0
 36
0.0
 17
0.0
 27
1.0
 37
0.0
 76
0
330
204
345
0
346
0
  0
ENDSEC
  0
EOF
