999
DXF file: C:\Prowork\plots\3251_top.dxf
999
Pro/ENGINEER 2018500 by Parametric Technology Corporation
  0
SECTION
  2
HEADER
  9
$ACADVER
  1
AC1032
  9
$DWGCODEPAGE
  3
ANSI_1252
  9
$EXTMAX
 10
11.0
 20
8.5
 30
0.0
  9
$EXTMIN
 10
0.0
 20
0.0
 30
0.0
  9
$LIMMIN
 10
0.0
 20
0.0
  9
$LIMMAX
 10
11.0
 20
8.5
  9
$VIEWCTR
 10
5.5
 20
4.25
  9
$VIEWSIZE
 40
8.5
  9
$CLAYER
  8
0
  9
$LTSCALE
 40
0.605
  9
$CELTYPE
  6
BYLAYER
  9
$DIMSCALE
 40
1.0
  9
$DIMASZ
 40
0.1
  9
$DIMEXO
 40
0.0625
  9
$DIMDLI
 40
0.418
  9
$DIMEXE
 40
0.125
  9
$DIMCEN
 40
0.099
  9
$DIMLFAC
 40
1.0
  9
$DIMBLK
  1
_FILLED
  9
$DIMALT
 70
1
  9
$DIMALTD
 70
2
  9
$DIMALTTD
 70
2
  9
$DIMALTF
 40
25.4
  9
$DIMTXT
 40
0.08
  9
$DIMTOL
 70
1
  9
$DIMLIM
 70
0
  9
$DIMTFAC
 40
1.0
  9
$DIMTP
 40
0.001
  9
$DIMTM
 40
0.001
  9
$DIMGAP
 40
0.09
  9
$DIMDSEP
 70
46
  9
$AUNITS
 70
0
  9
$PDMODE
 70
3
  9
$PDSIZE
 40
0.06
  9
$HANDSEED
  5
266
  9
$TILEMODE
 70
1
  9
$MEASUREMENT
 70
0
  9
$INSUNITS
 70
1
  0
ENDSEC
  0
SECTION
  2
CLASSES
  0
CLASS
  1
ACDBDICTIONARYWDFLT
  2
AcDbDictionaryWithDefault
  3
AutoCAD 2000
 90
0
 91
1
280
0
281
0
  0
CLASS
  1
ACDBPLACEHOLDER
  2
AcDbPlaceHolder
  3
AutoCAD 2000
 90
0
 91
1
280
0
281
0
  0
CLASS
  1
LAYOUT
  2
AcDbLayout
  3
AutoCAD 2000
 90
0
 91
0
280
0
281
0
  0
ENDSEC
  0
SECTION
  2
TABLES
  0
TABLE
  2
VPORT
  5
8
100
AcDbSymbolTable
 70
2
  0
VPORT
  5
1F4
100
AcDbSymbolTableRecord
100
AcDbViewportTableRecord
  2
*ACTIVE
 70
0
 10
0.0
 20
0.0
 11
1.0
 21
1.0
 12
5.5
 22
4.25
 13
0.0
 23
0.0
 14
1.0
 24
1.0
 15
0.0
 25
0.0
 16
0.0
 26
0.0
 36
1.0
 17
0.0
 27
0.0
 37
0.0
 40
8.5
 41
1.2941176471
 42
50.0
 43
0.0
 44
0.0
 50
0.0
 51
0.0
 71
0
 72
100
 73
1
 74
1
 75
0
 76
0
 77
0
 78
0
  0
ENDTAB
  0
TABLE
  2
LTYPE
  5
5
100
AcDbSymbolTable
 70
6
  0
LTYPE
  5
14
100
AcDbSymbolTableRecord
100
AcDbLinetypeTableRecord
  2
BYBLOCK
 70
0
  3

 72
65
 73
0
 40
0.0
  0
LTYPE
  5
15
100
AcDbSymbolTableRecord
100
AcDbLinetypeTableRecord
  2
BYLAYER
 70
0
  3

 72
65
 73
0
 40
0.0
  0
LTYPE
  5
16
100
AcDbSymbolTableRecord
100
AcDbLinetypeTableRecord
  2
CONTINUOUS
 70
64
  3
Solid line
 72
65
 73
0
 40
0.0
  0
LTYPE
  5
1F5
100
AcDbSymbolTableRecord
100
AcDbLinetypeTableRecord
  2
CENTER
 70
64
  3
____ _ ____ _ ____ _ ____ _ ____ _ ____ _ ____
 72
65
 73
4
 40
0.6
 49
0.375
 74
0
 49
-0.075
 74
0
 49
0.075
 74
0
 49
-0.075
 74
0
  0
LTYPE
  5
1F6
100
AcDbSymbolTableRecord
100
AcDbLinetypeTableRecord
  2
HIDDEN
 70
64
  3
- - - - - - - - - - - - - - - - - - - -
 72
65
 73
2
 40
0.2
 49
0.1
 74
0
 49
-0.1
 74
0
  0
LTYPE
  5
1F7
100
AcDbSymbolTableRecord
100
AcDbLinetypeTableRecord
  2
PHANTOM
 70
64
  3
_____ _ _ _____ _ _ _____ _ _ _____
 72
65
 73
6
 40
0.8
 49
0.45
 74
0
 49
-0.05
 74
0
 49
0.1
 74
0
 49
-0.05
 74
0
 49
0.1
 74
0
 49
-0.05
 74
0
  0
LTYPE
  5
1F8
100
AcDbSymbolTableRecord
100
AcDbLinetypeTableRecord
  2
DOT
 70
64
  3
. . . . . . . . . . . . . . . . . . . .
 72
65
 73
2
 40
0.2
 49
0.1
 74
0
 49
-0.1
 74
0
  0
LTYPE
  5
1F9
100
AcDbSymbolTableRecord
100
AcDbLinetypeTableRecord
  2
DASHED
 70
64
  3
- - - - - - - - - - - - - - - - - - - -
 72
65
 73
2
 40
0.2
 49
0.1
 74
0
 49
-0.1
 74
0
  0
ENDTAB
  0
TABLE
  2
LAYER
  5
2
100
AcDbSymbolTable
 70
36
  0
LAYER
  5
10
100
AcDbSymbolTableRecord
100
AcDbLayerTableRecord
  2
0
 70
0
 62
7
  6
CONTINUOUS
370
-3
390
F
  0
LAYER
  5
1FA
100
AcDbSymbolTableRecord
100
AcDbLayerTableRecord
  2
DEFAULT_1
 70
0
 62
7
  6
CENTER
370
-3
390
F
  0
LAYER
  5
1FB
100
AcDbSymbolTableRecord
100
AcDbLayerTableRecord
  2
DEFAULT_2
 70
0
 62
8
  6
HIDDEN
370
-3
390
F
  0
LAYER
  5
1FC
100
AcDbSymbolTableRecord
100
AcDbLayerTableRecord
  2
DEFAULT_3
 70
0
 62
7
  6
PHANTOM
370
-3
390
F
  0
LAYER
  5
1FD
100
AcDbSymbolTableRecord
100
AcDbLayerTableRecord
  2
10576
 70
0
 62
7
  6
CONTINUOUS
370
-3
390
F
  0
LAYER
  5
1FE
100
AcDbSymbolTableRecord
100
AcDbLayerTableRecord
  2
10577
 70
0
 62
7
  6
CONTINUOUS
370
-3
390
F
  0
LAYER
  5
1FF
100
AcDbSymbolTableRecord
100
AcDbLayerTableRecord
  2
92000
 70
0
 62
7
  6
CONTINUOUS
370
-3
390
F
  0
LAYER
  5
200
100
AcDbSymbolTableRecord
100
AcDbLayerTableRecord
  2
92000_1
 70
0
 62
7
  6
CONTINUOUS
370
-3
390
F
  0
LAYER
  5
201
100
AcDbSymbolTableRecord
100
AcDbLayerTableRecord
  2
ALL_FEATURES_1
 70
0
 62
7
  6
CONTINUOUS
370
-3
390
F
  0
LAYER
  5
202
100
AcDbSymbolTableRecord
100
AcDbLayerTableRecord
  2
DEFAULT_COORDINATE_SYSTEM
 70
0
 62
7
  6
CONTINUOUS
370
-3
390
F
  0
LAYER
  5
203
100
AcDbSymbolTableRecord
100
AcDbLayerTableRecord
  2
DEFAULT_DATUM_AXES
 70
0
 62
7
  6
CONTINUOUS
370
-3
390
F
  0
LAYER
  5
204
100
AcDbSymbolTableRecord
100
AcDbLayerTableRecord
  2
DEFAULT_DATUM_PLANES
 70
0
 62
7
  6
CONTINUOUS
370
-3
390
F
  0
LAYER
  5
205
100
AcDbSymbolTableRecord
100
AcDbLayerTableRecord
  2
DEFAULT_SURFACES
 70
0
 62
7
  6
CONTINUOUS
370
-3
390
F
  0
LAYER
  5
206
100
AcDbSymbolTableRecord
100
AcDbLayerTableRecord
  2
INTF_10576
 70
0
 62
7
  6
CONTINUOUS
370
-3
390
F
  0
LAYER
  5
207
100
AcDbSymbolTableRecord
100
AcDbLayerTableRecord
  2
INTF_10577
 70
0
 62
7
  6
CONTINUOUS
370
-3
390
F
  0
LAYER
  5
208
100
AcDbSymbolTableRecord
100
AcDbLayerTableRecord
  2
INTF_92000
 70
0
 62
7
  6
CONTINUOUS
370
-3
390
F
  0
LAYER
  5
209
100
AcDbSymbolTableRecord
100
AcDbLayerTableRecord
  2
INTF_BLANK
 70
0
 62
7
  6
CONTINUOUS
370
-3
390
F
  0
LAYER
  5
20A
100
AcDbSymbolTableRecord
100
AcDbLayerTableRecord
  2
_BLACK_HOLE
 70
0
 62
7
  6
CONTINUOUS
370
-3
390
F
  0
ENDTAB
  0
TABLE
  2
STYLE
  5
3
100
AcDbSymbolTable
 70
1
  0
STYLE
  5
11
100
AcDbSymbolTableRecord
100
AcDbTextStyleTableRecord
  2
STANDARD
 70
0
 40
0.0
 41
0.8
 50
0.0
 71
0
 42
0.2
  3
txt
  4

  0
STYLE
  5
20B
100
AcDbSymbolTableRecord
100
AcDbTextStyleTableRecord
  2
TEXTSTYLE_1
 70
0
 40
0.0
 41
0.8
 50
0.0
 71
0
 42
0.2
  3
gdt
  4

  0
ENDTAB
  0
TABLE
  2
VIEW
  5
6
100
AcDbSymbolTable
 70
0
  0
ENDTAB
  0
TABLE
  2
UCS
  5
7
100
AcDbSymbolTable
 70
0
  0
ENDTAB
  0
TABLE
  2
APPID
  5
9
100
AcDbSymbolTable
 70
1
  0
APPID
  5
20C
100
AcDbSymbolTableRecord
100
AcDbRegAppTableRecord
  2
ACAD
 70
0
  0
ENDTAB
  0
TABLE
  2
BLOCK_RECORD
  5
1
100
AcDbSymbolTable
 70
0
  0
BLOCK_RECORD
  5
20D
100
AcDbSymbolTableRecord
100
AcDbBlockTableRecord
  2
*Model_Space
  0
BLOCK_RECORD
  5
20E
100
AcDbSymbolTableRecord
100
AcDbBlockTableRecord
  2
*Paper_Space
  0
BLOCK_RECORD
  5
20F
100
AcDbSymbolTableRecord
100
AcDbBlockTableRecord
  2
_FILLED
  0
ENDTAB
  0
TABLE
  2
DIMSTYLE
  5
A
100
AcDbSymbolTable
 70
1
100
AcDbDimStyleTable
 71
0
  0
DIMSTYLE
105
210
100
AcDbSymbolTableRecord
100
AcDbDimStyleTableRecord
  2
STANDARD
 70
0
  3

  4

 40
1.0
 41
0.1
 42
0.0625
 43
0.38
 44
0.125
 45
0.0
 46
0.0
 47
0.001
 48
0.001
140
0.08
141
0.09
142
0.0
143
25.4
144
1.0
145
0.0
146
1.0
147
0.09
 71
1.0
 72
0.0
 73
1
 74
1
 75
0
 76
0
 77
0
 78
4
 79
1
170
1
171
2
172
0
173
0
174
0
175
0
176
0
177
0
178
0
270
2
179
3
271
3
272
3
273
2
274
2
275
0
280
0
281
0
282
0
283
1
284
4
285
0
286
0
287
3
288
0
340
11
278
46
341
20F
342
20F
343
20F
344
20F
  0
ENDTAB
  0
ENDSEC
  0
SECTION
  2
BLOCKS
  0
BLOCK
  5
20
100
AcDbEntity
  8
0
100
AcDbBlockBegin
  2
*Model_Space
 70
0
 10
0.0
 20
0.0
 30
0.0
  3
*Model_Space
  1

  0
ENDBLK
  5
21
100
AcDbEntity
  8
0
100
AcDbBlockEnd
  0
BLOCK
  5
1C
100
AcDbEntity
  8
0
100
AcDbBlockBegin
  2
*Paper_Space
 70
0
 10
0.0
 20
0.0
 30
0.0
  3
*Paper_Space
  1

  0
ENDBLK
  5
1D
100
AcDbEntity
  8
0
100
AcDbBlockEnd
  0
BLOCK
  5
211
100
AcDbEntity
  8
0
100
AcDbBlockBegin
  2
_FILLED
 70
64
 10
0.0
 20
0.0
  3
_FILLED
  1

  0
SOLID
  5
212
100
AcDbEntity
  8
0
  6
BYBLOCK
 62
0
100
AcDbTrace
 10
0.0
 20
0.0
 11
-1.0
 21
0.2
 12
-1.0
 22
-0.2
 13
-1.0
 23
-0.2
  0
ENDBLK
  5
213
100
AcDbEntity
  8
0
  6
BYBLOCK
 62
0
100
AcDbBlockEnd
  0
ENDSEC
  0
SECTION
  2
ENTITIES
  0
MTEXT
  5
214
100
AcDbEntity
  8
0
100
AcDbMText
 62
7
  6
CONTINUOUS
  7
STANDARD
 71
1
 72
1
 10
9.6909743789
 20
0.3642041925
 30
0.0
 11
1.0
 21
0.0
 31
0.0
 73
2
 44
0.9
  1
SCALE: 1.19
 40
0.08
 41
0.704
  0
LINE
  5
215
100
AcDbEntity
  8
0
100
AcDbLine
 62
7
  6
CONTINUOUS
 10
0.0
 20
0.0
 11
0.0
 21
8.5
  0
LINE
  5
216
100
AcDbEntity
  8
0
100
AcDbLine
 62
7
  6
CONTINUOUS
 10
0.0
 20
0.0
 11
11.0
 21
0.0
  0
LINE
  5
217
100
AcDbEntity
  8
0
100
AcDbLine
 62
7
  6
CONTINUOUS
 10
0.0
 20
8.5
 11
11.0
 21
8.5
  0
LINE
  5
218
100
AcDbEntity
  8
0
100
AcDbLine
 62
7
  6
CONTINUOUS
 10
11.0
 20
0.0
 11
11.0
 21
8.5
  0
LINE
  5
219
100
AcDbEntity
  8
0
100
AcDbLine
 62
7
  6
CONTINUOUS
 10
5.21024808
 20
3.8383735714
 11
5.3577571188
 21
3.8383735714
  0
LINE
  5
21A
100
AcDbEntity
  8
0
100
AcDbLine
 62
7
  6
CONTINUOUS
 10
5.33480118
 20
3.8420506713
 11
5.2255550255
 21
3.8420506713
  0
LINE
  5
21B
100
AcDbEntity
  8
0
100
AcDbLine
 62
7
  6
CONTINUOUS
 10
5.2102225994
 20
3.8383735714
 11
5.1915494703
 21
3.8570467005
  0
LINE
  5
21C
100
AcDbEntity
  8
0
100
AcDbLine
 62
7
  6
CONTINUOUS
 10
5.3644969137
 20
3.845731255
 11
5.3616191797
 21
3.8474066832
  0
LINE
  5
21D
100
AcDbEntity
  8
0
100
AcDbLine
 62
7
  6
CONTINUOUS
 10
5.269465984
 20
3.9583338996
 11
5.2877036032
 21
3.9592083129
  0
LINE
  5
21E
100
AcDbEntity
  8
0
100
AcDbLine
 62
7
  6
CONTINUOUS
 10
5.2966769836
 20
3.9596464716
 11
5.3375310556
 21
3.9596464716
  0
LINE
  5
21F
100
AcDbEntity
  8
0
100
AcDbLine
 62
7
  6
CONTINUOUS
 10
5.3810537678
 20
3.8732960431
 11
5.3787152911
 21
3.8746539392
  0
LINE
  5
220
100
AcDbEntity
  8
0
100
AcDbLine
 62
7
  6
CONTINUOUS
 10
5.2340225994
 20
3.9871235714
 11
5.3339825994
 21
3.9871235714
  0
LINE
  5
221
100
AcDbEntity
  8
0
100
AcDbLine
 62
7
  6
CONTINUOUS
 10
5.3339825994
 20
3.9871235714
 11
5.3529628764
 21
3.9681432945
  0
LINE
  5
222
100
AcDbEntity
  8
0
100
AcDbLine
 62
7
  6
CONTINUOUS
 10
5.2150426158
 20
3.9681435878
 11
5.2340225994
 21
3.9871235714
  0
LINE
  5
223
100
AcDbEntity
  8
0
100
AcDbLine
 62
7
  6
CONTINUOUS
 10
5.2172690577
 20
4.1682244117
 11
5.2333264
 21
4.1461233761
  0
LINE
  5
224
100
AcDbEntity
  8
0
100
AcDbLine
 62
7
  6
CONTINUOUS
 10
5.3614494007
 20
3.8471151278
 11
5.3614494008
 21
3.8564058094
  0
LINE
  5
225
100
AcDbEntity
  8
0
100
AcDbLine
 62
7
  6
CONTINUOUS
 10
5.3815825994
 20
3.8680335254
 11
5.3815825994
 21
3.8726830155
  0
LINE
  5
226
100
AcDbEntity
  8
0
100
AcDbLine
 62
7
  6
CONTINUOUS
 10
5.2072221121
 20
3.8664907249
 11
5.1916968006
 21
3.8574619
  0
LINE
  5
227
100
AcDbEntity
  8
0
100
AcDbLine
 62
7
  6
CONTINUOUS
 10
5.3577825994
 20
3.8383735714
 11
5.3646678248
 21
3.8452587969
  0
LINE
  5
228
100
AcDbEntity
  8
0
100
AcDbLine
 62
7
  6
CONTINUOUS
 10
5.3607790419
 20
3.8556243311
 11
5.3763683885
 21
3.8646915962
  0
ARC
  5
229
100
AcDbEntity
  8
0
100
AcDbCircle
 62
7
  6
CONTINUOUS
 10
5.0768898987
 20
6.8163790217
 40
2.8744413013
100
AcDbArc
 50
274.3872265835
 51
274.7528305951
  0
ARC
  5
22A
100
AcDbEntity
  8
0
100
AcDbCircle
 62
7
  6
CONTINUOUS
 10
5.2694729693
 20
4.9087983453
 40
1.0687461696
100
AcDbArc
 50
273.5044481981
 51
273.8700063906
  0
ARC
  5
22B
100
AcDbEntity
  8
0
100
AcDbCircle
 62
7
  6
CONTINUOUS
 10
5.287243016
 20
4.3192371751
 40
0.479550004
100
AcDbArc
 50
275.6908485689
 51
276.5142236836
  0
CIRCLE
  5
22C
100
AcDbEntity
  8
0
100
AcDbCircle
 62
7
  6
CONTINUOUS
 10
5.2840025994
 20
4.0763735714
 40
0.223125
  0
CIRCLE
  5
22D
100
AcDbEntity
  8
0
100
AcDbCircle
 62
7
  6
CONTINUOUS
 10
5.2840025994
 20
4.0763735714
 40
0.12852
  0
ARC
  5
22E
100
AcDbEntity
  8
0
100
AcDbCircle
 62
7
  6
CONTINUOUS
 10
5.2835881014
 20
4.0755366159
 40
0.1144701282
100
AcDbArc
 50
62.8287493211
 51
69.2620353849
  0
ARC
  5
22F
100
AcDbEntity
  8
0
100
AcDbCircle
 62
7
  6
CONTINUOUS
 10
5.2838314451
 20
4.0761906183
 40
0.1137723322
100
AcDbArc
 50
69.2600203254
 51
73.796558973
  0
ARC
  5
230
100
AcDbEntity
  8
0
100
AcDbCircle
 62
7
  6
CONTINUOUS
 10
5.2710393748
 20
4.0800703485
 40
0.1127283277
100
AcDbArc
 50
68.8834061752
 51
74.1924050657
  0
ARC
  5
231
100
AcDbEntity
  8
0
100
AcDbCircle
 62
7
  6
CONTINUOUS
 10
5.2841820135
 20
4.0773378673
 40
0.1125728309
100
AcDbArc
 50
73.804959078
 51
74.3529169994
  0
ARC
  5
232
100
AcDbEntity
  8
0
100
AcDbCircle
 62
7
  6
CONTINUOUS
 10
5.2843114494
 20
4.0778040349
 40
0.1120890286
100
AcDbArc
 50
74.3523590949
 51
75.6588204597
  0
ARC
  5
233
100
AcDbEntity
  8
0
100
AcDbCircle
 62
7
  6
CONTINUOUS
 10
5.2717505818
 20
4.0818438763
 40
0.110817672
100
AcDbArc
 50
63.5933481822
 51
68.8960761204
  0
ARC
  5
234
100
AcDbEntity
  8
0
100
AcDbCircle
 62
7
  6
CONTINUOUS
 10
5.2846875471
 20
4.0793076559
 40
0.1105391062
100
AcDbArc
 50
75.6546415296
 51
80.1814197481
  0
ARC
  5
235
100
AcDbEntity
  8
0
100
AcDbCircle
 62
7
  6
CONTINUOUS
 10
5.2850931914
 20
4.0814795913
 40
0.1083298137
100
AcDbArc
 50
80.1969295718
 51
81.1248402597
  0
ARC
  5
236
100
AcDbEntity
  8
0
100
AcDbCircle
 62
7
  6
CONTINUOUS
 10
5.2731396783
 20
4.0846023231
 40
0.107729257
100
AcDbArc
 50
58.2002777322
 51
63.6025859242
  0
ARC
  5
237
100
AcDbEntity
  8
0
100
AcDbCircle
 62
7
  6
CONTINUOUS
 10
5.2732487043
 20
4.084978188
 40
0.1073524115
100
AcDbArc
 50
41.7013818576
 51
58.1440229118
  0
ARC
  5
238
100
AcDbEntity
  8
0
100
AcDbCircle
 62
7
  6
CONTINUOUS
 10
5.2836850466
 20
4.0750161168
 40
0.0889062321
100
AcDbArc
 50
72.3964467103
 51
78.4869789789
  0
ARC
  5
239
100
AcDbEntity
  8
0
100
AcDbCircle
 62
7
  6
CONTINUOUS
 10
5.2838043239
 20
4.0753596264
 40
0.0885427361
100
AcDbArc
 50
66.2884645834
 51
72.4027912132
  0
ARC
  5
23A
100
AcDbEntity
  8
0
100
AcDbCircle
 62
7
  6
CONTINUOUS
 10
5.2888636125
 20
4.0751315539
 40
0.0879047784
100
AcDbArc
 50
81.7812184963
 51
83.6887256122
  0
ARC
  5
23B
100
AcDbEntity
  8
0
100
AcDbCircle
 62
7
  6
CONTINUOUS
 10
5.2889071146
 20
4.0755657737
 40
0.0874684083
100
AcDbArc
 50
83.6857809928
 51
89.4142321837
  0
ARC
  5
23C
100
AcDbEntity
  8
0
100
AcDbCircle
 62
7
  6
CONTINUOUS
 10
5.2889229687
 20
4.0761989037
 40
0.0868351497
100
AcDbArc
 50
89.4204216622
 51
91.336261906
  0
ARC
  5
23D
100
AcDbEntity
  8
0
100
AcDbCircle
 62
7
  6
CONTINUOUS
 10
5.288912828
 20
4.0766250938
 40
0.0864088391
100
AcDbArc
 50
91.3361298384
 51
93.2576182159
  0
CIRCLE
  5
23E
100
AcDbEntity
  8
0
100
AcDbCircle
 62
7
  6
CONTINUOUS
 10
5.2840025994
 20
4.0763735714
 40
0.0862155
  0
ARC
  5
23F
100
AcDbEntity
  8
0
100
AcDbCircle
 62
7
  6
CONTINUOUS
 10
5.288880109
 20
4.0771662133
 40
0.0858667347
100
AcDbArc
 50
93.2563392931
 51
96.8262698438
  0
CIRCLE
  5
240
100
AcDbEntity
  8
0
100
AcDbCircle
 62
7
  6
CONTINUOUS
 10
5.2840025994
 20
4.0763735714
 40
0.0758625
  0
ARC
  5
241
100
AcDbEntity
  8
0
100
AcDbCircle
 62
7
  6
CONTINUOUS
 10
5.8282900022
 20
-3.3315734497
 40
7.1992884256
100
AcDbArc
 50
94.3411805982
 51
94.4779350037
  0
ARC
  5
242
100
AcDbEntity
  8
0
100
AcDbCircle
 62
7
  6
CONTINUOUS
 10
5.4818557702
 20
-0.5546761898
 40
4.5180050342
100
AcDbArc
 50
92.694446953
 51
93.0995763741
  0
SPLINE
  5
243
100
AcDbEntity
  8
0
100
AcDbSpline
 62
7
  6
CONTINUOUS
 70
0
 71
3
 72
18
 73
14
 74
0
 42
0.0000001
 43
0.0000001
 44
0.0000000001
 40
0.0
 40
0.0
 40
0.0
 40
0.0
 40
0.1248370594
 40
0.1874627946
 40
0.2500469932
 40
0.374968748
 40
0.4998796242
 40
0.624892745
 40
0.6874432103
 40
0.7499709947
 40
0.8124783446
 40
0.8749951703
 40
1.0
 40
1.0
 40
1.0
 40
1.0
 10
5.355629757
 20
4.0284130695
 30
0.0
 10
5.3595815383
 20
4.0327047491
 30
0.0
 10
5.3648714759
 20
4.0397837171
 30
0.0
 10
5.3704305563
 20
4.0500766116
 30
0.0
 10
5.3749619427
 20
4.0608698116
 30
0.0
 10
5.378640744
 20
4.0751017439
 30
0.0
 10
5.379699116
 20
4.0926861469
 30
0.0
 10
5.3779261713
 20
4.1072651608
 30
0.0
 10
5.3749988719
 20
4.1185926766
 30
0.0
 10
5.3720633892
 20
4.1268655287
 30
0.0
 10
5.3684020359
 20
4.1348426111
 30
0.0
 10
5.3626013524
 20
4.1449977573
 30
0.0
 10
5.3572878064
 20
4.1520336265
 30
0.0
 10
5.3534003913
 20
4.1563942039
 30
0.0
  0
SPLINE
  5
244
100
AcDbEntity
  8
0
100
AcDbSpline
 62
7
  6
CONTINUOUS
 70
0
 71
3
 72
14
 73
10
 74
0
 42
0.0000001
 43
0.0000001
 44
0.0000000001
 40
0.0
 40
0.0
 40
0.0
 40
0.0
 40
0.2496671293
 40
0.3748093417
 40
0.4998703584
 40
0.6248909224
 40
0.7499826519
 40
0.8751033535
 40
1.0
 40
1.0
 40
1.0
 40
1.0
 10
5.3017474498
 20
4.1885355042
 30
0.0
 10
5.2944210021
 20
4.1896794739
 30
0.0
 10
5.2832143248
 20
4.1903087556
 30
0.0
 10
5.2684098703
 20
4.189011259
 30
0.0
 10
5.2574347372
 20
4.1869695663
 30
0.0
 10
5.246715295
 20
4.1838613664
 30
0.0
 10
5.2363629263
 20
4.1796823183
 30
0.0
 10
5.2264848451
 20
4.1744933623
 30
0.0
 10
5.220266188
 20
4.1704101621
 30
0.0
 10
5.2172678581
 20
4.1682260628
 30
0.0
  0
SPLINE
  5
245
100
AcDbEntity
  8
0
100
AcDbSpline
 62
7
  6
CONTINUOUS
 70
0
 71
3
 72
16
 73
12
 74
0
 42
0.0000001
 43
0.0000001
 44
0.0000000001
 40
0.0
 40
0.0
 40
0.0
 40
0.0
 40
0.125084303
 40
0.250046778
 40
0.3750306182
 40
0.5000564728
 40
0.6250325164
 40
0.6875233746
 40
0.750008466
 40
0.8749626632
 40
1.0
 40
1.0
 40
1.0
 40
1.0
 10
5.3194102021
 20
4.1564277308
 30
0.0
 10
5.3230160393
 20
4.1548429544
 30
0.0
 10
5.3300194139
 20
4.151180005
 30
0.0
 10
5.3396484574
 20
4.1442822557
 30
0.0
 10
5.3482650461
 20
4.1361580303
 30
0.0
 10
5.3557333234
 20
4.1269688681
 30
0.0
 10
5.3608891108
 20
4.1185498111
 30
0.0
 10
5.3642951792
 20
4.1114482997
 30
0.0
 10
5.3671980858
 20
4.1041271097
 30
0.0
 10
5.369872
 20
4.0946253512
 30
0.0
 10
5.370978477
 20
4.0868046991
 30
0.0
 10
5.3712708702
 20
4.0828783221
 30
0.0
  0
SPLINE
  5
246
100
AcDbEntity
  8
0
100
AcDbSpline
 62
7
  6
CONTINUOUS
 70
0
 71
3
 72
11
 73
7
 74
0
 42
0.0000001
 43
0.0000001
 44
0.0000000001
 40
0.0
 40
0.0
 40
0.0
 40
0.0
 40
0.2501597687
 40
0.5001991345
 40
0.7500954237
 40
1.0
 40
1.0
 40
1.0
 40
1.0
 10
5.3712708702
 20
4.0828783221
 30
0.0
 10
5.3715048819
 20
4.0797359149
 30
0.0
 10
5.3716393371
 20
4.0734226622
 30
0.0
 10
5.3708322866
 20
4.0639911749
 30
0.0
 10
5.3690098202
 20
4.0547044696
 30
0.0
 10
5.367112698
 20
4.0486855785
 30
0.0
 10
5.3660050919
 20
4.0457389796
 30
0.0
  0
LINE
  5
247
100
AcDbEntity
  8
0
100
AcDbLine
 62
7
  6
CONTINUOUS
 10
5.3815415995
 20
3.8678543971
 11
5.3810378736
 21
3.867401485
  0
SPLINE
  5
248
100
AcDbEntity
  8
0
100
AcDbSpline
 62
7
  6
CONTINUOUS
 70
0
 71
3
 72
13
 73
9
 74
0
 42
0.0000001
 43
0.0000001
 44
0.0000000001
 40
0.0
 40
0.0
 40
0.0
 40
0.0
 40
0.0919871477
 40
0.1954417801
 40
0.3093669402
 40
0.432713532
 40
0.7035976786
 40
1.0
 40
1.0
 40
1.0
 40
1.0
 10
5.2255550255
 20
3.8420506713
 30
0.0
 10
5.2268395585
 20
3.8425006565
 30
0.0
 10
5.2295967406
 20
3.8433770485
 30
0.0
 10
5.2340099724
 20
3.8445947714
 30
0.0
 10
5.2389066853
 20
3.8457966271
 30
0.0
 10
5.2462464053
 20
3.8474299302
 30
0.0
 10
5.2562761091
 20
3.8493942208
 30
0.0
 10
5.2645444957
 20
3.8508411124
 30
0.0
 10
5.268869179
 20
3.8515698936
 30
0.0
  0
SPLINE
  5
249
100
AcDbEntity
  8
0
100
AcDbSpline
 62
7
  6
CONTINUOUS
 70
0
 71
3
 72
10
 73
6
 74
0
 42
0.0000001
 43
0.0000001
 44
0.0000000001
 40
0.0
 40
0.0
 40
0.0
 40
0.0
 40
0.5675817158
 40
0.8021726428
 40
1.0
 40
1.0
 40
1.0
 40
1.0
 10
5.2280204936
 20
3.8606049475
 30
0.0
 10
5.2229847224
 20
3.8603551056
 30
0.0
 10
5.2158685752
 20
3.8599771392
 30
0.0
 10
5.2070045177
 20
3.859392241
 30
0.0
 10
5.2031746911
 20
3.8590933774
 30
0.0
 10
5.2014241828
 20
3.8589384807
 30
0.0
  0
SPLINE
  5
24A
100
AcDbEntity
  8
0
100
AcDbSpline
 62
7
  6
CONTINUOUS
 70
0
 71
3
 72
12
 73
8
 74
0
 42
0.0000001
 43
0.0000001
 44
0.0000000001
 40
0.0
 40
0.0
 40
0.0
 40
0.0
 40
0.3452094112
 40
0.6279159512
 40
0.8464240659
 40
0.9313506066
 40
1.0
 40
1.0
 40
1.0
 40
1.0
 10
5.2014241828
 20
3.8589384807
 30
0.0
 10
5.2003772304
 20
3.8588458393
 30
0.0
 10
5.1984738125
 20
3.8586655457
 30
0.0
 10
5.1959137078
 20
3.8583696411
 30
0.0
 10
5.1941473074
 20
3.8581097721
 30
0.0
 10
5.1930355418
 20
3.8578912554
 30
0.0
 10
5.1925809331
 20
3.857780383
 30
0.0
 10
5.1923800703
 20
3.857722583
 30
0.0
  0
LINE
  5
24B
100
AcDbEntity
  8
0
100
AcDbLine
 62
7
  6
CONTINUOUS
 10
5.1923800703
 20
3.857722583
 11
5.1916980968
 21
3.8574609606
  0
SPLINE
  5
24C
100
AcDbEntity
  8
0
100
AcDbSpline
 62
7
  6
CONTINUOUS
 70
0
 71
3
 72
11
 73
7
 74
0
 42
0.0000001
 43
0.0000001
 44
0.0000000001
 40
0.0
 40
0.0
 40
0.0
 40
0.0
 40
0.3256177921
 40
0.6017353123
 40
0.8268040602
 40
1.0
 40
1.0
 40
1.0
 40
1.0
 10
5.3672578405
 20
3.869436314
 30
0.0
 10
5.3685803339
 20
3.8695900589
 30
0.0
 10
5.3710223139
 20
3.8698914257
 30
0.0
 10
5.3743684355
 20
3.8703771512
 30
0.0
 10
5.3770835451
 20
3.8708598411
 30
0.0
 10
5.3786728794
 20
3.8712227363
 30
0.0
 10
5.3793538842
 20
3.8714170008
 30
0.0
  0
LINE
  5
24D
100
AcDbEntity
  8
0
100
AcDbLine
 62
7
  6
CONTINUOUS
 10
5.3793538842
 20
3.8714170008
 11
5.3810708396
 21
3.8720772473
  0
LINE
  5
24E
100
AcDbEntity
  8
0
100
AcDbLine
 62
7
  6
CONTINUOUS
 10
5.3810708396
 20
3.8720772473
 11
5.3815801888
 21
3.872683685
  0
LINE
  5
24F
100
AcDbEntity
  8
0
100
AcDbLine
 62
7
  6
CONTINUOUS
 10
5.2255611217
 20
3.8420506713
 11
5.2399016507
 21
3.8435252077
  0
LINE
  5
250
100
AcDbEntity
  8
0
100
AcDbLine
 62
7
  6
CONTINUOUS
 10
5.2399016507
 20
3.8435252077
 11
5.2662043328
 21
3.8457389675
  0
LINE
  5
251
100
AcDbEntity
  8
0
100
AcDbLine
 62
7
  6
CONTINUOUS
 10
5.2833368319
 20
3.8470601164
 11
5.2949973748
 21
3.8479540063
  0
SPLINE
  5
252
100
AcDbEntity
  8
0
100
AcDbSpline
 62
7
  6
CONTINUOUS
 70
0
 71
3
 72
10
 73
6
 74
0
 42
0.0000001
 43
0.0000001
 44
0.0000000001
 40
0.0
 40
0.0
 40
0.0
 40
0.0
 40
0.5381580603
 40
0.7816492179
 40
1.0
 40
1.0
 40
1.0
 40
1.0
 10
5.2949973748
 20
3.8479540063
 30
0.0
 10
5.3026700822
 20
3.8485463579
 30
0.0
 10
5.3138133082
 20
3.8494222172
 30
0.0
 10
5.3280580951
 20
3.850676238
 30
0.0
 10
5.3346310948
 20
3.8513200376
 30
0.0
 10
5.3377360191
 20
3.8516496134
 30
0.0
  0
LINE
  5
253
100
AcDbEntity
  8
0
100
AcDbLine
 62
7
  6
CONTINUOUS
 10
5.3377360191
 20
3.8516496134
 11
5.3498605127
 21
3.8531280127
  0
LINE
  5
254
100
AcDbEntity
  8
0
100
AcDbLine
 62
7
  6
CONTINUOUS
 10
5.3498605127
 20
3.8531280127
 11
5.3544257636
 21
3.8538674952
  0
SPLINE
  5
255
100
AcDbEntity
  8
0
100
AcDbSpline
 62
7
  6
CONTINUOUS
 70
0
 71
3
 72
11
 73
7
 74
0
 42
0.0000001
 43
0.0000001
 44
0.0000000001
 40
0.0
 40
0.0
 40
0.0
 40
0.0
 40
0.3193352242
 40
0.5928399889
 40
0.8198275849
 40
1.0
 40
1.0
 40
1.0
 40
1.0
 10
5.3544257636
 20
3.8538674952
 30
0.0
 10
5.3550523639
 20
3.8539825545
 30
0.0
 10
5.3562133551
 20
3.8542089462
 30
0.0
 10
5.3578083767
 20
3.8545729977
 30
0.0
 10
5.3591175301
 20
3.8549350465
 30
0.0
 10
5.3598853921
 20
3.8552046072
 30
0.0
 10
5.3602158411
 20
3.8553460448
 30
0.0
  0
LINE
  5
256
100
AcDbEntity
  8
0
100
AcDbLine
 62
7
  6
CONTINUOUS
 10
5.3602158411
 20
3.8553460448
 11
5.3607805899
 21
3.8556242787
  0
SPLINE
  5
257
100
AcDbEntity
  8
0
100
AcDbSpline
 62
7
  6
CONTINUOUS
 70
0
 71
3
 72
17
 73
13
 74
0
 42
0.0000001
 43
0.0000001
 44
0.0000000001
 40
0.0
 40
0.0
 40
0.0
 40
0.0
 40
0.2036527627
 40
0.3873160684
 40
0.5491743584
 40
0.6878814571
 40
0.8027765154
 40
0.893290401
 40
0.9292554907
 40
0.9589744482
 40
0.9825003514
 40
1.0
 40
1.0
 40
1.0
 40
1.0
 10
5.3416058614
 20
3.842489187
 30
0.0
 10
5.3431667912
 20
3.8425953067
 30
0.0
 10
5.3461348969
 20
3.8428052608
 30
0.0
 10
5.3503410807
 20
3.8431339508
 30
0.0
 10
5.3540468129
 20
3.8434603738
 30
0.0
 10
5.3572222853
 20
3.8437838097
 30
0.0
 10
5.3598465851
 20
3.84410375
 30
0.0
 10
5.3616805941
 20
3.8443821945
 30
0.0
 10
5.3628582273
 20
3.8446133716
 30
0.0
 10
5.3635253499
 20
3.8447720815
 30
0.0
 10
5.3640457055
 20
3.844929299
 30
0.0
 10
5.3643387598
 20
3.8450491312
 30
0.0
 10
5.3644567921
 20
3.8451134902
 30
0.0
  0
LINE
  5
258
100
AcDbEntity
  8
0
100
AcDbLine
 62
7
  6
CONTINUOUS
 10
5.2877030651
 20
3.9592085804
 11
5.2966769836
 21
3.9596464716
  0
LINE
  5
259
100
AcDbEntity
  8
0
100
AcDbLine
 62
7
  6
CONTINUOUS
 10
5.2966769041
 20
3.9596464716
 11
5.2784894656
 21
3.9582530802
  0
LINE
  5
25A
100
AcDbEntity
  8
0
100
AcDbLine
 62
7
  6
CONTINUOUS
 10
5.2784894656
 20
3.9582530802
 11
5.2694424141
 21
3.9575543785
  0
LINE
  5
25B
100
AcDbEntity
  8
0
100
AcDbLine
 62
7
  6
CONTINUOUS
 10
5.2694424141
 20
3.9575543785
 11
5.2414288789
 21
3.955229302
  0
SPLINE
  5
25C
100
AcDbEntity
  8
0
100
AcDbSpline
 62
7
  6
CONTINUOUS
 70
0
 71
3
 72
16
 73
12
 74
0
 42
0.0000001
 43
0.0000001
 44
0.0000000001
 40
0.0
 40
0.0
 40
0.0
 40
0.0
 40
0.0498422174
 40
0.0794728597
 40
0.1137106085
 40
0.1985350994
 40
0.3075613681
 40
0.4419366584
 40
0.6020914891
 40
0.7881321969
 40
1.0
 40
1.0
 40
1.0
 40
1.0
 10
5.3614534739
 20
3.8471120374
 30
0.0
 10
5.3614533814
 20
3.8470200692
 30
0.0
 10
5.3614039167
 20
3.8468727666
 30
0.0
 10
5.3612769162
 20
3.8467055245
 30
0.0
 10
5.3610777538
 20
3.8465150853
 30
0.0
 10
5.3607216753
 20
3.8462856086
 30
0.0
 10
5.3601736192
 20
3.8460263487
 30
0.0
 10
5.3594751577
 20
3.845766107
 30
0.0
 10
5.3586274915
 20
3.8455047941
 30
0.0
 10
5.3576314473
 20
3.8452426486
 30
0.0
 10
5.3569158138
 20
3.8450780566
 30
0.0
 10
5.3565338483
 20
3.84499479
 30
0.0
  0
LINE
  5
25D
100
AcDbEntity
  8
0
100
AcDbLine
 62
7
  6
CONTINUOUS
 10
5.3565338483
 20
3.84499479
 11
5.3526034536
 21
3.8442576983
  0
LINE
  5
25E
100
AcDbEntity
  8
0
100
AcDbLine
 62
7
  6
CONTINUOUS
 10
5.3526034536
 20
3.8442576983
 11
5.3416478991
 21
3.8427832791
  0
LINE
  5
25F
100
AcDbEntity
  8
0
100
AcDbLine
 62
7
  6
CONTINUOUS
 10
5.3810378736
 20
3.867401485
 11
5.3787292905
 21
3.866592094
  0
LINE
  5
260
100
AcDbEntity
  8
0
100
AcDbLine
 62
7
  6
CONTINUOUS
 10
5.3787292905
 20
3.866592094
 11
5.3757020344
 21
3.8659607508
  0
LINE
  5
261
100
AcDbEntity
  8
0
100
AcDbLine
 62
7
  6
CONTINUOUS
 10
5.3757020344
 20
3.8659607508
 11
5.3665616846
 21
3.8646978234
  0
LINE
  5
262
100
AcDbEntity
  8
0
100
AcDbLine
 62
7
  6
CONTINUOUS
 10
5.3665616846
 20
3.8646978234
 11
5.3536754631
 21
3.8634372309
  0
LINE
  5
263
100
AcDbEntity
  8
0
100
AcDbLine
 62
7
  6
CONTINUOUS
 10
5.2967753022
 20
3.950360319
 11
5.2724051491
 21
3.9484900858
  0
ENDSEC
  0
SECTION
  2
OBJECTS
  0
DICTIONARY
  5
C
100
AcDbDictionary
280
0
281
1
  3
ACAD_GROUP
350
D
  3
ACAD_MLINESTYLE
350
17
  3
ACAD_LAYOUT
350
1A
  3
ACAD_PLOTSETTINGS
350
19
  3
ACAD_PLOTSTYLENAME
350
E
  0
DICTIONARY
  5
D
102
{ACAD_REACTORS
330
C
102
}
100
AcDbDictionary
280
0
281
1
  0
ACDBDICTIONARYWDFLT
  5
E
102
{ACAD_REACTORS
330
C
102
}
100
AcDbDictionary
281
1
  3
Normal
350
F
100
AcDbDictionaryWithDefault
340
F
  0
DICTIONARY
  5
17
102
{ACAD_REACTORS
330
C
102
}
100
AcDbDictionary
280
0
281
1
  3
Standard
350
18
  0
DICTIONARY
  5
19
102
{ACAD_REACTORS
330
C
102
}
100
AcDbDictionary
281
1
  0
DICTIONARY
  5
1A
102
{ACAD_REACTORS
330
C
102
}
100
AcDbDictionary
281
1
  3
Model
350
264
  3
Layout1
350
265
  0
ACDBPLACEHOLDER
  5
F
102
{ACAD_REACTORS
330
E
102
}
  0
MLINESTYLE
  5
18
102
{ACAD_REACTORS
330
17
102
}
100
AcDbMlineStyle
  2
STANDARD
 70
0
  3

 62
256
 51
90.0
 52
90.0
 71
2
 49
0.5
 62
256
  6
BYLAYER
 49
-0.5
 62
256
  6
BYLAYER
  0
LAYOUT
  5
264
102
{ACAD_REACTORS
330
1A
102
}
100
AcDbPlotSettings
  1

  2
none_device
  4
ANSI_A_(11.00_x_8.50_Inches)
  6

 40
0.0
 41
0.0
 42
0.0
 43
0.0
 44
279.4
 45
215.9
 46
0.0
 47
0.0
 48
0.0
 49
0.0
140
0.0
141
0.0
142
1.0
143
1.0
 70
1024
 72
0
 73
0
 74
0
  7

 75
0
147
1.0
148
0.0
149
0.0
100
AcDbLayout
  1
Model
 70
0
 71
0
 10
0.0
 20
0.0
 11
11.0
 21
8.5
 12
0.0
 22
0.0
 32
0.0
 14
0.0
 24
0.0
 34
0.0
 15
0.0
 25
0.0
 35
0.0
146
0.0
 13
0.0
 23
0.0
 33
0.0
 16
1.0
 26
0.0
 36
0.0
 17
0.0
 27
1.0
 37
0.0
 76
0
330
20D
345
0
346
0
  0
LAYOUT
  5
265
102
{ACAD_REACTORS
330
1A
102
}
100
AcDbPlotSettings
  1

  2
none_device
  4
ANSI_A_(11.00_x_8.50_Inches)
  6

 40
0.0
 41
0.0
 42
0.0
 43
0.0
 44
279.4
 45
215.9
 46
0.0
 47
0.0
 48
0.0
 49
0.0
140
0.0
141
0.0
142
1.0
143
1.0
 70
0
 72
0
 73
0
 74
0
  7

 75
0
147
1.0
148
0.0
149
0.0
100
AcDbLayout
  1
Layout1
 70
0
 71
1
 10
0.0
 20
0.0
 11
11.0
 21
8.5
 12
0.0
 22
0.0
 32
0.0
 14
0.0
 24
0.0
 34
0.0
 15
0.0
 25
0.0
 35
0.0
146
0.0
 13
0.0
 23
0.0
 33
0.0
 16
1.0
 26
0.0
 36
0.0
 17
0.0
 27
1.0
 37
0.0
 76
0
330
20E
345
0
346
0
  0
ENDSEC
  0
EOF
