999
DXF file: 3270-1230_Top.dxf
999
Pro/ENGINEER 2023134 by Parametric Technology Corporation
  0
SECTION
  2
HEADER
  9
$ACADVER
  1
AC1032
  9
$DWGCODEPAGE
  3
ANSI_1252
  9
$EXTMAX
 10
11.0
 20
8.5
 30
0.0
  9
$EXTMIN
 10
0.0
 20
0.0
 30
0.0
  9
$LIMMIN
 10
0.0
 20
0.0
  9
$LIMMAX
 10
11.0
 20
8.5
  9
$VIEWCTR
 10
5.5
 20
4.25
  9
$VIEWSIZE
 40
8.5
  9
$CLAYER
  8
0
  9
$LTSCALE
 40
0.605
  9
$CELTYPE
  6
BYLAYER
  9
$DIMSCALE
 40
1.0
  9
$DIMASZ
 40
0.1
  9
$DIMEXO
 40
0.0625
  9
$DIMDLI
 40
0.418
  9
$DIMEXE
 40
0.125
  9
$DIMCEN
 40
0.099
  9
$DIMLFAC
 40
1.0
  9
$DIMBLK
  1
_FILLED
  9
$DIMALT
 70
1
  9
$DIMALTD
 70
2
  9
$DIMALTTD
 70
2
  9
$DIMALTF
 40
25.4
  9
$DIMTXT
 40
0.08
  9
$DIMTOL
 70
1
  9
$DIMLIM
 70
0
  9
$DIMTFAC
 40
1.0
  9
$DIMTP
 40
0.001
  9
$DIMTM
 40
0.001
  9
$DIMGAP
 40
0.09
  9
$DIMDSEP
 70
46
  9
$AUNITS
 70
0
  9
$PDMODE
 70
3
  9
$PDSIZE
 40
0.3125
  9
$HANDSEED
  5
291
  9
$TILEMODE
 70
1
  9
$MEASUREMENT
 70
0
  9
$INSUNITS
 70
1
  0
ENDSEC
  0
SECTION
  2
CLASSES
  0
CLASS
  1
ACDBDICTIONARYWDFLT
  2
AcDbDictionaryWithDefault
  3
AutoCAD 2000
 90
0
 91
1
280
0
281
0
  0
CLASS
  1
ACDBPLACEHOLDER
  2
AcDbPlaceHolder
  3
AutoCAD 2000
 90
0
 91
1
280
0
281
0
  0
CLASS
  1
LAYOUT
  2
AcDbLayout
  3
AutoCAD 2000
 90
0
 91
0
280
0
281
0
  0
ENDSEC
  0
SECTION
  2
TABLES
  0
TABLE
  2
VPORT
  5
8
100
AcDbSymbolTable
 70
2
  0
VPORT
  5
1F4
100
AcDbSymbolTableRecord
100
AcDbViewportTableRecord
  2
*ACTIVE
 70
0
 10
0.0
 20
0.0
 11
1.0
 21
1.0
 12
5.5
 22
4.25
 13
0.0
 23
0.0
 14
1.0
 24
1.0
 15
0.0
 25
0.0
 16
0.0
 26
0.0
 36
1.0
 17
0.0
 27
0.0
 37
0.0
 40
8.5
 41
1.2941176471
 42
50.0
 43
0.0
 44
0.0
 50
0.0
 51
0.0
 71
0
 72
100
 73
1
 74
1
 75
0
 76
0
 77
0
 78
0
  0
ENDTAB
  0
TABLE
  2
LTYPE
  5
5
100
AcDbSymbolTable
 70
6
  0
LTYPE
  5
14
100
AcDbSymbolTableRecord
100
AcDbLinetypeTableRecord
  2
BYBLOCK
 70
0
  3

 72
65
 73
0
 40
0.0
  0
LTYPE
  5
15
100
AcDbSymbolTableRecord
100
AcDbLinetypeTableRecord
  2
BYLAYER
 70
0
  3

 72
65
 73
0
 40
0.0
  0
LTYPE
  5
16
100
AcDbSymbolTableRecord
100
AcDbLinetypeTableRecord
  2
CONTINUOUS
 70
64
  3
Solid line
 72
65
 73
0
 40
0.0
  0
LTYPE
  5
1F5
100
AcDbSymbolTableRecord
100
AcDbLinetypeTableRecord
  2
CENTER
 70
64
  3
____ _ ____ _ ____ _ ____ _ ____ _ ____ _ ____
 72
65
 73
4
 40
0.6
 49
0.375
 74
0
 49
-0.075
 74
0
 49
0.075
 74
0
 49
-0.075
 74
0
  0
LTYPE
  5
1F6
100
AcDbSymbolTableRecord
100
AcDbLinetypeTableRecord
  2
HIDDEN
 70
64
  3
- - - - - - - - - - - - - - - - - - - -
 72
65
 73
2
 40
0.2
 49
0.1
 74
0
 49
-0.1
 74
0
  0
LTYPE
  5
1F7
100
AcDbSymbolTableRecord
100
AcDbLinetypeTableRecord
  2
PHANTOM
 70
64
  3
_____ _ _ _____ _ _ _____ _ _ _____
 72
65
 73
6
 40
0.8
 49
0.45
 74
0
 49
-0.05
 74
0
 49
0.1
 74
0
 49
-0.05
 74
0
 49
0.1
 74
0
 49
-0.05
 74
0
  0
LTYPE
  5
1F8
100
AcDbSymbolTableRecord
100
AcDbLinetypeTableRecord
  2
DOT
 70
64
  3
. . . . . . . . . . . . . . . . . . . .
 72
65
 73
2
 40
0.2
 49
0.1
 74
0
 49
-0.1
 74
0
  0
LTYPE
  5
1F9
100
AcDbSymbolTableRecord
100
AcDbLinetypeTableRecord
  2
DASHED
 70
64
  3
- - - - - - - - - - - - - - - - - - - -
 72
65
 73
2
 40
0.2
 49
0.1
 74
0
 49
-0.1
 74
0
  0
ENDTAB
  0
TABLE
  2
LAYER
  5
2
100
AcDbSymbolTable
 70
36
  0
LAYER
  5
10
100
AcDbSymbolTableRecord
100
AcDbLayerTableRecord
  2
0
 70
0
 62
7
  6
CONTINUOUS
370
-3
390
F
  0
LAYER
  5
1FA
100
AcDbSymbolTableRecord
100
AcDbLayerTableRecord
  2
DEFAULT_1
 70
0
 62
7
  6
CENTER
370
-3
390
F
  0
LAYER
  5
1FB
100
AcDbSymbolTableRecord
100
AcDbLayerTableRecord
  2
DEFAULT_2
 70
0
 62
8
  6
HIDDEN
370
-3
390
F
  0
LAYER
  5
1FC
100
AcDbSymbolTableRecord
100
AcDbLayerTableRecord
  2
DEFAULT_3
 70
0
 62
7
  6
PHANTOM
370
-3
390
F
  0
LAYER
  5
1FD
100
AcDbSymbolTableRecord
100
AcDbLayerTableRecord
  2
DEFAULT_COORDINATE_SYSTEM
 70
0
 62
7
  6
CONTINUOUS
370
-3
390
F
  0
LAYER
  5
1FE
100
AcDbSymbolTableRecord
100
AcDbLayerTableRecord
  2
DEFAULT_DATUM_AXES
 70
0
 62
7
  6
CONTINUOUS
370
-3
390
F
  0
LAYER
  5
1FF
100
AcDbSymbolTableRecord
100
AcDbLayerTableRecord
  2
DEFAULT_DATUM_CURVES
 70
0
 62
7
  6
CONTINUOUS
370
-3
390
F
  0
LAYER
  5
200
100
AcDbSymbolTableRecord
100
AcDbLayerTableRecord
  2
DEFAULT_DATUM_PLANES
 70
0
 62
7
  6
CONTINUOUS
370
-3
390
F
  0
ENDTAB
  0
TABLE
  2
STYLE
  5
3
100
AcDbSymbolTable
 70
1
  0
STYLE
  5
11
100
AcDbSymbolTableRecord
100
AcDbTextStyleTableRecord
  2
STANDARD
 70
0
 40
0.0
 41
0.8
 50
0.0
 71
0
 42
0.2
  3
txt
  4

  0
STYLE
  5
201
100
AcDbSymbolTableRecord
100
AcDbTextStyleTableRecord
  2
TEXTSTYLE_1
 70
0
 40
0.0
 41
0.8
 50
0.0
 71
0
 42
0.2
  3
gdt
  4

  0
ENDTAB
  0
TABLE
  2
VIEW
  5
6
100
AcDbSymbolTable
 70
0
  0
ENDTAB
  0
TABLE
  2
UCS
  5
7
100
AcDbSymbolTable
 70
0
  0
ENDTAB
  0
TABLE
  2
APPID
  5
9
100
AcDbSymbolTable
 70
1
  0
APPID
  5
202
100
AcDbSymbolTableRecord
100
AcDbRegAppTableRecord
  2
ACAD
 70
0
  0
ENDTAB
  0
TABLE
  2
BLOCK_RECORD
  5
1
100
AcDbSymbolTable
 70
0
  0
BLOCK_RECORD
  5
203
100
AcDbSymbolTableRecord
100
AcDbBlockTableRecord
  2
*Model_Space
  0
BLOCK_RECORD
  5
204
100
AcDbSymbolTableRecord
100
AcDbBlockTableRecord
  2
*Paper_Space
  0
BLOCK_RECORD
  5
205
100
AcDbSymbolTableRecord
100
AcDbBlockTableRecord
  2
_FILLED
  0
ENDTAB
  0
TABLE
  2
DIMSTYLE
  5
A
100
AcDbSymbolTable
 70
1
100
AcDbDimStyleTable
 71
0
  0
DIMSTYLE
105
206
100
AcDbSymbolTableRecord
100
AcDbDimStyleTableRecord
  2
STANDARD
 70
0
  3

  4

 40
1.0
 41
0.1
 42
0.0625
 43
0.38
 44
0.125
 45
0.0
 46
0.0
 47
0.001
 48
0.001
140
0.08
141
0.09
142
0.0
143
25.4
144
1.0
145
0.0
146
1.0
147
0.09
 71
1
 72
0
 73
1
 74
1
 75
0
 76
0
 77
0
 78
4
 79
1
170
1
171
2
172
0
173
0
174
0
175
0
176
0
177
0
178
0
270
2
179
3
271
3
272
3
273
2
274
2
275
0
280
0
281
0
282
0
283
1
284
4
285
0
286
0
287
3
288
0
340
11
278
46
341
205
342
205
343
205
344
205
  0
ENDTAB
  0
ENDSEC
  0
SECTION
  2
BLOCKS
  0
BLOCK
  5
20
100
AcDbEntity
  8
0
100
AcDbBlockBegin
  2
*Model_Space
 70
0
 10
0.0
 20
0.0
 30
0.0
  3
*Model_Space
  1

  0
ENDBLK
  5
21
100
AcDbEntity
  8
0
100
AcDbBlockEnd
  0
BLOCK
  5
1C
100
AcDbEntity
  8
0
100
AcDbBlockBegin
  2
*Paper_Space
 70
0
 10
0.0
 20
0.0
 30
0.0
  3
*Paper_Space
  1

  0
ENDBLK
  5
1D
100
AcDbEntity
  8
0
100
AcDbBlockEnd
  0
BLOCK
  5
207
100
AcDbEntity
  8
0
100
AcDbBlockBegin
  2
_FILLED
 70
64
 10
0.0
 20
0.0
  3
_FILLED
  1

  0
SOLID
  5
208
100
AcDbEntity
  8
0
  6
BYBLOCK
 62
0
100
AcDbTrace
 10
0.0
 20
0.0
 11
-1.0
 21
0.2
 12
-1.0
 22
-0.2
 13
-1.0
 23
-0.2
  0
ENDBLK
  5
209
100
AcDbEntity
  8
0
  6
BYBLOCK
 62
0
100
AcDbBlockEnd
  0
ENDSEC
  0
SECTION
  2
ENTITIES
  0
MTEXT
  5
20A
100
AcDbEntity
  8
0
100
AcDbMText
 62
2
  6
CONTINUOUS
  7
STANDARD
 71
2
 72
1
 10
5.6444883242
 20
2.9113308723
 30
0.0
 11
1.0
 21
0.0
 31
0.0
 73
2
 44
0.9
  1
SCALE 0.500
 40
0.08
 41
0.704
  0
LINE
  5
20B
100
AcDbEntity
  8
0
100
AcDbLine
 62
7
  6
CONTINUOUS
 10
0.0
 20
0.0
 11
0.0
 21
8.5
  0
LINE
  5
20C
100
AcDbEntity
  8
0
100
AcDbLine
 62
7
  6
CONTINUOUS
 10
0.0
 20
0.0
 11
11.0
 21
0.0
  0
LINE
  5
20D
100
AcDbEntity
  8
0
100
AcDbLine
 62
7
  6
CONTINUOUS
 10
0.0
 20
8.5
 11
11.0
 21
8.5
  0
LINE
  5
20E
100
AcDbEntity
  8
0
100
AcDbLine
 62
7
  6
CONTINUOUS
 10
11.0
 20
0.0
 11
11.0
 21
8.5
  0
LINE
  5
20F
100
AcDbEntity
  8
0
100
AcDbLine
 62
7
  6
CONTINUOUS
 10
0.5819883242
 20
4.9597999657
 11
0.5819883242
 21
4.9247999657
  0
LINE
  5
210
100
AcDbEntity
  8
0
100
AcDbLine
 62
7
  6
CONTINUOUS
 10
0.6219883242
 20
4.8847999657
 11
0.6219883242
 21
4.7997999657
  0
LINE
  5
211
100
AcDbEntity
  8
0
100
AcDbLine
 62
7
  6
CONTINUOUS
 10
0.8694883242
 20
4.7697999657
 11
0.8694883242
 21
3.8492337224
  0
LINE
  5
212
100
AcDbEntity
  8
0
100
AcDbLine
 62
7
  6
CONTINUOUS
 10
0.8694883242
 20
3.829026463
 11
0.8694883242
 21
3.7947999657
  0
LINE
  5
213
100
AcDbEntity
  8
0
100
AcDbLine
 62
7
  6
CONTINUOUS
 10
0.8694883242
 20
3.3747999657
 11
0.8694883242
 21
3.3447999657
  0
LINE
  5
214
100
AcDbEntity
  8
0
100
AcDbLine
 62
7
  6
CONTINUOUS
 10
0.8894883242
 20
3.7747999657
 11
0.8894883242
 21
3.3947999657
  0
LINE
  5
215
100
AcDbEntity
  8
0
100
AcDbLine
 62
7
  6
CONTINUOUS
 10
0.9319883242
 20
4.7797999657
 11
0.9319883242
 21
4.7847999657
  0
LINE
  5
216
100
AcDbEntity
  8
0
100
AcDbLine
 62
7
  6
CONTINUOUS
 10
1.3569883242
 20
4.7797999657
 11
1.3569883242
 21
4.7847999657
  0
LINE
  5
217
100
AcDbEntity
  8
0
100
AcDbLine
 62
7
  6
CONTINUOUS
 10
1.3994883242
 20
3.7747999657
 11
1.3994883242
 21
3.7497999657
  0
LINE
  5
218
100
AcDbEntity
  8
0
100
AcDbLine
 62
7
  6
CONTINUOUS
 10
1.3994883242
 20
3.4197999657
 11
1.3994883242
 21
3.3947999657
  0
LINE
  5
219
100
AcDbEntity
  8
0
100
AcDbLine
 62
7
  6
CONTINUOUS
 10
1.4194883242
 20
4.7697999657
 11
1.4194883242
 21
3.8492337224
  0
LINE
  5
21A
100
AcDbEntity
  8
0
100
AcDbLine
 62
7
  6
CONTINUOUS
 10
1.4194883242
 20
3.829026463
 11
1.4194883242
 21
3.7947999657
  0
LINE
  5
21B
100
AcDbEntity
  8
0
100
AcDbLine
 62
7
  6
CONTINUOUS
 10
1.4194883242
 20
3.3747999657
 11
1.4194883242
 21
3.3447999657
  0
LINE
  5
21C
100
AcDbEntity
  8
0
100
AcDbLine
 62
7
  6
CONTINUOUS
 10
1.6669883242
 20
4.8847999657
 11
1.6669883242
 21
4.7997999657
  0
LINE
  5
21D
100
AcDbEntity
  8
0
100
AcDbLine
 62
7
  6
CONTINUOUS
 10
1.7069883242
 20
4.9597999657
 11
1.7069883242
 21
4.9247999657
  0
LINE
  5
21E
100
AcDbEntity
  8
0
100
AcDbLine
 62
7
  6
CONTINUOUS
 10
0.8744883242
 20
3.8405734684
 11
0.8769883242
 21
3.8391300927
  0
LINE
  5
21F
100
AcDbEntity
  8
0
100
AcDbLine
 62
7
  6
CONTINUOUS
 10
1.4119883242
 20
3.8391300927
 11
1.4144883242
 21
3.837686717
  0
LINE
  5
220
100
AcDbEntity
  8
0
100
AcDbLine
 62
7
  6
CONTINUOUS
 10
0.8769883242
 20
3.8391300927
 11
0.8744883242
 21
3.837686717
  0
LINE
  5
221
100
AcDbEntity
  8
0
100
AcDbLine
 62
7
  6
CONTINUOUS
 10
1.4144883242
 20
3.8405734684
 11
1.4119883242
 21
3.8391300927
  0
LINE
  5
222
100
AcDbEntity
  8
0
100
AcDbLine
 62
7
  6
CONTINUOUS
 10
10.4094883242
 20
3.3347999657
 11
9.8794883242
 21
3.3347999657
  0
LINE
  5
223
100
AcDbEntity
  8
0
100
AcDbLine
 62
7
  6
CONTINUOUS
 10
1.4094883242
 20
3.3347999657
 11
0.8794883242
 21
3.3347999657
  0
LINE
  5
224
100
AcDbEntity
  8
0
100
AcDbLine
 62
7
  6
CONTINUOUS
 10
10.4194883242
 20
3.3447999657
 11
9.8694883242
 21
3.3447999657
  0
LINE
  5
225
100
AcDbEntity
  8
0
100
AcDbLine
 62
7
  6
CONTINUOUS
 10
1.4194883242
 20
3.3447999657
 11
0.8694883242
 21
3.3447999657
  0
LINE
  5
226
100
AcDbEntity
  8
0
100
AcDbLine
 62
7
  6
CONTINUOUS
 10
10.4194883242
 20
3.3747999657
 11
9.8694883242
 21
3.3747999657
  0
LINE
  5
227
100
AcDbEntity
  8
0
100
AcDbLine
 62
7
  6
CONTINUOUS
 10
1.4194883242
 20
3.3747999657
 11
0.8694883242
 21
3.3747999657
  0
LINE
  5
228
100
AcDbEntity
  8
0
100
AcDbLine
 62
7
  6
CONTINUOUS
 10
0.8794883242
 20
3.3847999657
 11
1.4094883242
 21
3.3847999657
  0
LINE
  5
229
100
AcDbEntity
  8
0
100
AcDbLine
 62
7
  6
CONTINUOUS
 10
9.8794883242
 20
3.3847999657
 11
10.4094883242
 21
3.3847999657
  0
LINE
  5
22A
100
AcDbEntity
  8
0
100
AcDbLine
 62
7
  6
CONTINUOUS
 10
0.8894883242
 20
3.3947999657
 11
1.3994883242
 21
3.3947999657
  0
LINE
  5
22B
100
AcDbEntity
  8
0
100
AcDbLine
 62
7
  6
CONTINUOUS
 10
9.8894883242
 20
3.3947999657
 11
10.3994883242
 21
3.3947999657
  0
LINE
  5
22C
100
AcDbEntity
  8
0
100
AcDbLine
 62
7
  6
CONTINUOUS
 10
9.895055158
 20
3.4285499657
 11
1.3939296728
 21
3.4285499657
  0
LINE
  5
22D
100
AcDbEntity
  8
0
100
AcDbLine
 62
7
  6
CONTINUOUS
 10
9.8950551581
 20
3.7410499657
 11
1.3939296726
 21
3.7410499657
  0
LINE
  5
22E
100
AcDbEntity
  8
0
100
AcDbLine
 62
7
  6
CONTINUOUS
 10
0.8894883242
 20
3.7747999657
 11
1.3994883242
 21
3.7747999657
  0
LINE
  5
22F
100
AcDbEntity
  8
0
100
AcDbLine
 62
7
  6
CONTINUOUS
 10
9.8894883242
 20
3.7747999657
 11
10.3994883242
 21
3.7747999657
  0
LINE
  5
230
100
AcDbEntity
  8
0
100
AcDbLine
 62
7
  6
CONTINUOUS
 10
0.8794883242
 20
3.7847999657
 11
1.4094883242
 21
3.7847999657
  0
LINE
  5
231
100
AcDbEntity
  8
0
100
AcDbLine
 62
7
  6
CONTINUOUS
 10
9.8794883242
 20
3.7847999657
 11
10.4094883242
 21
3.7847999657
  0
LINE
  5
232
100
AcDbEntity
  8
0
100
AcDbLine
 62
7
  6
CONTINUOUS
 10
0.8694883242
 20
3.7947999657
 11
1.4194883242
 21
3.7947999657
  0
LINE
  5
233
100
AcDbEntity
  8
0
100
AcDbLine
 62
7
  6
CONTINUOUS
 10
9.8694883242
 20
3.7947999657
 11
10.4194883242
 21
3.7947999657
  0
LINE
  5
234
100
AcDbEntity
  8
0
100
AcDbLine
 62
7
  6
CONTINUOUS
 10
10.4194883242
 20
3.829026463
 11
9.8694883242
 21
3.829026463
  0
LINE
  5
235
100
AcDbEntity
  8
0
100
AcDbLine
 62
7
  6
CONTINUOUS
 10
1.4194883242
 20
3.829026463
 11
0.8694883242
 21
3.829026463
  0
LINE
  5
236
100
AcDbEntity
  8
0
100
AcDbLine
 62
7
  6
CONTINUOUS
 10
10.4144883242
 20
3.837686717
 11
9.8744883242
 21
3.837686717
  0
LINE
  5
237
100
AcDbEntity
  8
0
100
AcDbLine
 62
7
  6
CONTINUOUS
 10
1.4144883242
 20
3.837686717
 11
0.8744883242
 21
3.837686717
  0
LINE
  5
238
100
AcDbEntity
  8
0
100
AcDbLine
 62
7
  6
CONTINUOUS
 10
0.8769883242
 20
3.8391300927
 11
1.4119883242
 21
3.8391300927
  0
LINE
  5
239
100
AcDbEntity
  8
0
100
AcDbLine
 62
7
  6
CONTINUOUS
 10
9.8769883242
 20
3.8391300927
 11
10.4119883242
 21
3.8391300927
  0
LINE
  5
23A
100
AcDbEntity
  8
0
100
AcDbLine
 62
7
  6
CONTINUOUS
 10
0.8744883242
 20
3.8405734684
 11
1.4144883242
 21
3.8405734684
  0
LINE
  5
23B
100
AcDbEntity
  8
0
100
AcDbLine
 62
7
  6
CONTINUOUS
 10
9.8744883242
 20
3.8405734684
 11
10.4144883242
 21
3.8405734684
  0
LINE
  5
23C
100
AcDbEntity
  8
0
100
AcDbLine
 62
7
  6
CONTINUOUS
 10
0.8694883242
 20
3.8492337224
 11
1.4194883242
 21
3.8492337224
  0
LINE
  5
23D
100
AcDbEntity
  8
0
100
AcDbLine
 62
7
  6
CONTINUOUS
 10
9.8694883242
 20
3.8492337224
 11
10.4194883242
 21
3.8492337224
  0
LINE
  5
23E
100
AcDbEntity
  8
0
100
AcDbLine
 62
7
  6
CONTINUOUS
 10
0.8694883242
 20
4.7697999657
 11
1.4194883242
 21
4.7697999657
  0
LINE
  5
23F
100
AcDbEntity
  8
0
100
AcDbLine
 62
7
  6
CONTINUOUS
 10
9.8694883242
 20
4.7697999657
 11
10.4194883242
 21
4.7697999657
  0
LINE
  5
240
100
AcDbEntity
  8
0
100
AcDbLine
 62
7
  6
CONTINUOUS
 10
0.8794883242
 20
4.7797999657
 11
1.4094883242
 21
4.7797999657
  0
LINE
  5
241
100
AcDbEntity
  8
0
100
AcDbLine
 62
7
  6
CONTINUOUS
 10
9.8794883242
 20
4.7797999657
 11
10.4094883242
 21
4.7797999657
  0
LINE
  5
242
100
AcDbEntity
  8
0
100
AcDbLine
 62
7
  6
CONTINUOUS
 10
10.6519883242
 20
4.7847999657
 11
9.6369883242
 21
4.7847999657
  0
LINE
  5
243
100
AcDbEntity
  8
0
100
AcDbLine
 62
7
  6
CONTINUOUS
 10
1.6519883242
 20
4.7847999657
 11
0.6369883242
 21
4.7847999657
  0
LINE
  5
244
100
AcDbEntity
  8
0
100
AcDbLine
 62
7
  6
CONTINUOUS
 10
10.6669883242
 20
4.7997999657
 11
9.6219883242
 21
4.7997999657
  0
LINE
  5
245
100
AcDbEntity
  8
0
100
AcDbLine
 62
7
  6
CONTINUOUS
 10
1.6669883242
 20
4.7997999657
 11
0.6219883242
 21
4.7997999657
  0
LINE
  5
246
100
AcDbEntity
  8
0
100
AcDbLine
 62
7
  6
CONTINUOUS
 10
0.6219883242
 20
4.8847999657
 11
1.6669883242
 21
4.8847999657
  0
LINE
  5
247
100
AcDbEntity
  8
0
100
AcDbLine
 62
7
  6
CONTINUOUS
 10
9.6219883242
 20
4.8847999657
 11
10.6669883242
 21
4.8847999657
  0
LINE
  5
248
100
AcDbEntity
  8
0
100
AcDbLine
 62
7
  6
CONTINUOUS
 10
0.5969883242
 20
4.9097999657
 11
1.6919883242
 21
4.9097999657
  0
LINE
  5
249
100
AcDbEntity
  8
0
100
AcDbLine
 62
7
  6
CONTINUOUS
 10
9.5969883242
 20
4.9097999657
 11
10.6919883242
 21
4.9097999657
  0
LINE
  5
24A
100
AcDbEntity
  8
0
100
AcDbLine
 62
7
  6
CONTINUOUS
 10
10.7069883242
 20
4.9247999657
 11
9.5819883242
 21
4.9247999657
  0
LINE
  5
24B
100
AcDbEntity
  8
0
100
AcDbLine
 62
7
  6
CONTINUOUS
 10
1.7069883242
 20
4.9247999657
 11
0.5819883242
 21
4.9247999657
  0
LINE
  5
24C
100
AcDbEntity
  8
0
100
AcDbLine
 62
7
  6
CONTINUOUS
 10
10.7069883242
 20
4.9597999657
 11
9.5819883242
 21
4.9597999657
  0
LINE
  5
24D
100
AcDbEntity
  8
0
100
AcDbLine
 62
7
  6
CONTINUOUS
 10
1.7069883242
 20
4.9597999657
 11
0.5819883242
 21
4.9597999657
  0
LINE
  5
24E
100
AcDbEntity
  8
0
100
AcDbLine
 62
7
  6
CONTINUOUS
 10
9.8744883242
 20
3.8405734684
 11
9.8769883242
 21
3.8391300927
  0
LINE
  5
24F
100
AcDbEntity
  8
0
100
AcDbLine
 62
7
  6
CONTINUOUS
 10
9.8769883242
 20
3.8391300927
 11
9.8744883242
 21
3.837686717
  0
LINE
  5
250
100
AcDbEntity
  8
0
100
AcDbLine
 62
7
  6
CONTINUOUS
 10
10.4119883242
 20
3.8391300927
 11
10.4144883242
 21
3.837686717
  0
LINE
  5
251
100
AcDbEntity
  8
0
100
AcDbLine
 62
7
  6
CONTINUOUS
 10
10.4144883242
 20
3.8405734684
 11
10.4119883242
 21
3.8391300927
  0
LINE
  5
252
100
AcDbEntity
  8
0
100
AcDbLine
 62
7
  6
CONTINUOUS
 10
9.5819883242
 20
4.9597999657
 11
9.5819883242
 21
4.9247999657
  0
LINE
  5
253
100
AcDbEntity
  8
0
100
AcDbLine
 62
7
  6
CONTINUOUS
 10
9.6219883242
 20
4.8847999657
 11
9.6219883242
 21
4.7997999657
  0
LINE
  5
254
100
AcDbEntity
  8
0
100
AcDbLine
 62
7
  6
CONTINUOUS
 10
9.8694883242
 20
4.7697999657
 11
9.8694883242
 21
3.8492337224
  0
LINE
  5
255
100
AcDbEntity
  8
0
100
AcDbLine
 62
7
  6
CONTINUOUS
 10
9.8694883242
 20
3.829026463
 11
9.8694883242
 21
3.7947999657
  0
LINE
  5
256
100
AcDbEntity
  8
0
100
AcDbLine
 62
7
  6
CONTINUOUS
 10
9.8694883242
 20
3.3747999657
 11
9.8694883242
 21
3.3447999657
  0
LINE
  5
257
100
AcDbEntity
  8
0
100
AcDbLine
 62
7
  6
CONTINUOUS
 10
9.8894883242
 20
3.7747999657
 11
9.8894883242
 21
3.7497999657
  0
LINE
  5
258
100
AcDbEntity
  8
0
100
AcDbLine
 62
7
  6
CONTINUOUS
 10
9.8894883242
 20
3.4197999657
 11
9.8894883242
 21
3.3947999657
  0
LINE
  5
259
100
AcDbEntity
  8
0
100
AcDbLine
 62
7
  6
CONTINUOUS
 10
9.9319883242
 20
4.7797999657
 11
9.9319883242
 21
4.7847999657
  0
LINE
  5
25A
100
AcDbEntity
  8
0
100
AcDbLine
 62
7
  6
CONTINUOUS
 10
10.3569883242
 20
4.7797999657
 11
10.3569883242
 21
4.7847999657
  0
LINE
  5
25B
100
AcDbEntity
  8
0
100
AcDbLine
 62
7
  6
CONTINUOUS
 10
10.3994883242
 20
3.7747999657
 11
10.3994883242
 21
3.3947999657
  0
LINE
  5
25C
100
AcDbEntity
  8
0
100
AcDbLine
 62
7
  6
CONTINUOUS
 10
10.4194883242
 20
4.7697999657
 11
10.4194883242
 21
3.8492337224
  0
LINE
  5
25D
100
AcDbEntity
  8
0
100
AcDbLine
 62
7
  6
CONTINUOUS
 10
10.4194883242
 20
3.829026463
 11
10.4194883242
 21
3.7947999657
  0
LINE
  5
25E
100
AcDbEntity
  8
0
100
AcDbLine
 62
7
  6
CONTINUOUS
 10
10.4194883242
 20
3.3747999657
 11
10.4194883242
 21
3.3447999657
  0
LINE
  5
25F
100
AcDbEntity
  8
0
100
AcDbLine
 62
7
  6
CONTINUOUS
 10
10.6669883242
 20
4.8847999657
 11
10.6669883242
 21
4.7997999657
  0
LINE
  5
260
100
AcDbEntity
  8
0
100
AcDbLine
 62
7
  6
CONTINUOUS
 10
10.7069883242
 20
4.9597999657
 11
10.7069883242
 21
4.9247999657
  0
ARC
  5
261
100
AcDbEntity
  8
0
100
AcDbCircle
 62
7
  6
CONTINUOUS
 10
0.8794883242
 20
3.3447999657
 40
0.01
100
AcDbArc
 50
180.0
 51
270.0
  0
ARC
  5
262
100
AcDbEntity
  8
0
100
AcDbCircle
 62
7
  6
CONTINUOUS
 10
1.4094883242
 20
3.3447999657
 40
0.01
100
AcDbArc
 50
270.0
 51
360.0
  0
ARC
  5
263
100
AcDbEntity
  8
0
100
AcDbCircle
 62
7
  6
CONTINUOUS
 10
1.4094883242
 20
3.7947999657
 40
0.01
100
AcDbArc
 50
270.0
 51
360.0
  0
ARC
  5
264
100
AcDbEntity
  8
0
100
AcDbCircle
 62
7
  6
CONTINUOUS
 10
0.8794883242
 20
3.7947999657
 40
0.01
100
AcDbArc
 50
180.0
 51
270.0
  0
ARC
  5
265
100
AcDbEntity
  8
0
100
AcDbCircle
 62
7
  6
CONTINUOUS
 10
0.8794883242
 20
3.3747999657
 40
0.01
100
AcDbArc
 50
90.0
 51
180.0
  0
ARC
  5
266
100
AcDbEntity
  8
0
100
AcDbCircle
 62
7
  6
CONTINUOUS
 10
1.4094883242
 20
3.3747999657
 40
0.01
100
AcDbArc
 50
0.0
 51
90.0
  0
ARC
  5
267
100
AcDbEntity
  8
0
100
AcDbCircle
 62
7
  6
CONTINUOUS
 10
1.4094883242
 20
3.3947999657
 40
0.01
100
AcDbArc
 50
180.0
 51
269.9999999999
  0
ARC
  5
268
100
AcDbEntity
  8
0
100
AcDbCircle
 62
7
  6
CONTINUOUS
 10
0.8794883242
 20
3.3947999657
 40
0.01
100
AcDbArc
 50
270.0000000001
 51
360.0
  0
ARC
  5
269
100
AcDbEntity
  8
0
100
AcDbCircle
 62
7
  6
CONTINUOUS
 10
1.4094883242
 20
3.7747999657
 40
0.01
100
AcDbArc
 50
90.0000000001
 51
180.0
  0
ARC
  5
26A
100
AcDbEntity
  8
0
100
AcDbCircle
 62
7
  6
CONTINUOUS
 10
0.8794883242
 20
3.7747999657
 40
0.01
100
AcDbArc
 50
0.0
 51
89.9999999999
  0
ARC
  5
26B
100
AcDbEntity
  8
0
100
AcDbCircle
 62
7
  6
CONTINUOUS
 10
1.4094883242
 20
3.829026463
 40
0.01
100
AcDbArc
 50
0.0
 51
60.0000000006
  0
ARC
  5
26C
100
AcDbEntity
  8
0
100
AcDbCircle
 62
7
  6
CONTINUOUS
 10
0.8794883242
 20
3.829026463
 40
0.01
100
AcDbArc
 50
119.9999999994
 51
180.0
  0
ARC
  5
26D
100
AcDbEntity
  8
0
100
AcDbCircle
 62
7
  6
CONTINUOUS
 10
1.4094883242
 20
3.8492337224
 40
0.01
100
AcDbArc
 50
299.9999999978
 51
360.0
  0
ARC
  5
26E
100
AcDbEntity
  8
0
100
AcDbCircle
 62
7
  6
CONTINUOUS
 10
0.8794883242
 20
3.8492337224
 40
0.01
100
AcDbArc
 50
180.0
 51
240.0000000022
  0
ARC
  5
26F
100
AcDbEntity
  8
0
100
AcDbCircle
 62
7
  6
CONTINUOUS
 10
1.6919883242
 20
4.8847999657
 40
0.025
100
AcDbArc
 50
90.0
 51
180.0
  0
ARC
  5
270
100
AcDbEntity
  8
0
100
AcDbCircle
 62
7
  6
CONTINUOUS
 10
0.5969883242
 20
4.8847999657
 40
0.025
100
AcDbArc
 50
0.0
 51
90.0
  0
ARC
  5
271
100
AcDbEntity
  8
0
100
AcDbCircle
 62
7
  6
CONTINUOUS
 10
0.5969883242
 20
4.9247999657
 40
0.015
100
AcDbArc
 50
180.0
 51
270.0
  0
ARC
  5
272
100
AcDbEntity
  8
0
100
AcDbCircle
 62
7
  6
CONTINUOUS
 10
1.6919883242
 20
4.9247999657
 40
0.015
100
AcDbArc
 50
270.0
 51
360.0
  0
ARC
  5
273
100
AcDbEntity
  8
0
100
AcDbCircle
 62
7
  6
CONTINUOUS
 10
0.6369883242
 20
4.7997999657
 40
0.015
100
AcDbArc
 50
180.0
 51
270.0
  0
ARC
  5
274
100
AcDbEntity
  8
0
100
AcDbCircle
 62
7
  6
CONTINUOUS
 10
1.6519883242
 20
4.7997999657
 40
0.015
100
AcDbArc
 50
270.0
 51
360.0
  0
ARC
  5
275
100
AcDbEntity
  8
0
100
AcDbCircle
 62
7
  6
CONTINUOUS
 10
1.4094883242
 20
4.7697999657
 40
0.01
100
AcDbArc
 50
0.0
 51
90.0
  0
ARC
  5
276
100
AcDbEntity
  8
0
100
AcDbCircle
 62
7
  6
CONTINUOUS
 10
0.8794883242
 20
4.7697999657
 40
0.01
100
AcDbArc
 50
90.0
 51
180.0
  0
ARC
  5
277
100
AcDbEntity
  8
0
100
AcDbCircle
 62
7
  6
CONTINUOUS
 10
9.8794883242
 20
3.3447999657
 40
0.01
100
AcDbArc
 50
180.0
 51
270.0
  0
ARC
  5
278
100
AcDbEntity
  8
0
100
AcDbCircle
 62
7
  6
CONTINUOUS
 10
10.4094883242
 20
3.3447999657
 40
0.01
100
AcDbArc
 50
270.0
 51
360.0
  0
ARC
  5
279
100
AcDbEntity
  8
0
100
AcDbCircle
 62
7
  6
CONTINUOUS
 10
10.4094883242
 20
3.7947999657
 40
0.01
100
AcDbArc
 50
270.0
 51
360.0
  0
ARC
  5
27A
100
AcDbEntity
  8
0
100
AcDbCircle
 62
7
  6
CONTINUOUS
 10
9.8794883242
 20
3.7947999657
 40
0.01
100
AcDbArc
 50
180.0
 51
270.0
  0
ARC
  5
27B
100
AcDbEntity
  8
0
100
AcDbCircle
 62
7
  6
CONTINUOUS
 10
9.8794883242
 20
3.3747999657
 40
0.01
100
AcDbArc
 50
90.0
 51
180.0
  0
ARC
  5
27C
100
AcDbEntity
  8
0
100
AcDbCircle
 62
7
  6
CONTINUOUS
 10
10.4094883242
 20
3.3747999657
 40
0.01
100
AcDbArc
 50
0.0
 51
90.0
  0
ARC
  5
27D
100
AcDbEntity
  8
0
100
AcDbCircle
 62
7
  6
CONTINUOUS
 10
10.4094883242
 20
3.3947999657
 40
0.01
100
AcDbArc
 50
180.0
 51
269.9999999999
  0
ARC
  5
27E
100
AcDbEntity
  8
0
100
AcDbCircle
 62
7
  6
CONTINUOUS
 10
9.8794883242
 20
3.3947999657
 40
0.01
100
AcDbArc
 50
270.0000000001
 51
360.0
  0
ARC
  5
27F
100
AcDbEntity
  8
0
100
AcDbCircle
 62
7
  6
CONTINUOUS
 10
10.4094883242
 20
3.7747999657
 40
0.01
100
AcDbArc
 50
90.0000000001
 51
180.0
  0
ARC
  5
280
100
AcDbEntity
  8
0
100
AcDbCircle
 62
7
  6
CONTINUOUS
 10
9.8794883242
 20
3.7747999657
 40
0.01
100
AcDbArc
 50
0.0
 51
89.9999999999
  0
ARC
  5
281
100
AcDbEntity
  8
0
100
AcDbCircle
 62
7
  6
CONTINUOUS
 10
10.4094883242
 20
3.829026463
 40
0.01
100
AcDbArc
 50
0.0
 51
60.0000000006
  0
ARC
  5
282
100
AcDbEntity
  8
0
100
AcDbCircle
 62
7
  6
CONTINUOUS
 10
9.8794883242
 20
3.829026463
 40
0.01
100
AcDbArc
 50
119.9999999994
 51
180.0
  0
ARC
  5
283
100
AcDbEntity
  8
0
100
AcDbCircle
 62
7
  6
CONTINUOUS
 10
10.4094883242
 20
3.8492337224
 40
0.01
100
AcDbArc
 50
299.9999999978
 51
360.0
  0
ARC
  5
284
100
AcDbEntity
  8
0
100
AcDbCircle
 62
7
  6
CONTINUOUS
 10
9.8794883242
 20
3.8492337224
 40
0.01
100
AcDbArc
 50
180.0
 51
240.0000000022
  0
ARC
  5
285
100
AcDbEntity
  8
0
100
AcDbCircle
 62
7
  6
CONTINUOUS
 10
9.5969883242
 20
4.8847999657
 40
0.025
100
AcDbArc
 50
0.0
 51
90.0
  0
ARC
  5
286
100
AcDbEntity
  8
0
100
AcDbCircle
 62
7
  6
CONTINUOUS
 10
10.6919883242
 20
4.8847999657
 40
0.025
100
AcDbArc
 50
90.0
 51
180.0
  0
ARC
  5
287
100
AcDbEntity
  8
0
100
AcDbCircle
 62
7
  6
CONTINUOUS
 10
10.6519883242
 20
4.7997999657
 40
0.015
100
AcDbArc
 50
270.0
 51
360.0
  0
ARC
  5
288
100
AcDbEntity
  8
0
100
AcDbCircle
 62
7
  6
CONTINUOUS
 10
9.6369883242
 20
4.7997999657
 40
0.015
100
AcDbArc
 50
180.0
 51
270.0
  0
ARC
  5
289
100
AcDbEntity
  8
0
100
AcDbCircle
 62
7
  6
CONTINUOUS
 10
10.6919883242
 20
4.9247999657
 40
0.015
100
AcDbArc
 50
270.0
 51
360.0
  0
ARC
  5
28A
100
AcDbEntity
  8
0
100
AcDbCircle
 62
7
  6
CONTINUOUS
 10
9.5969883242
 20
4.9247999657
 40
0.015
100
AcDbArc
 50
180.0
 51
270.0
  0
ARC
  5
28B
100
AcDbEntity
  8
0
100
AcDbCircle
 62
7
  6
CONTINUOUS
 10
10.4094883242
 20
4.7697999657
 40
0.01
100
AcDbArc
 50
0.0
 51
90.0
  0
ARC
  5
28C
100
AcDbEntity
  8
0
100
AcDbCircle
 62
7
  6
CONTINUOUS
 10
9.8794883242
 20
4.7697999657
 40
0.01
100
AcDbArc
 50
90.0
 51
180.0
  0
SPLINE
  5
28D
100
AcDbEntity
  8
0
100
AcDbSpline
 62
7
  6
CONTINUOUS
 70
0
 71
3
 72
35
 73
31
 74
0
 42
0.0000001
 43
0.0000001
 44
0.0000000001
 40
0.0
 40
0.0
 40
0.0
 40
0.0
 40
0.011220343
 40
0.043548221
 40
0.0937481825
 40
0.1581037787
 40
0.1945501516
 40
0.2333772347
 40
0.2742852092
 40
0.317002061
 40
0.3612539162
 40
0.4067497254
 40
0.4298569191
 40
0.4531391122
 40
0.4765404933
 40
0.5000000001
 40
0.523459507
 40
0.5468608883
 40
0.5701430817
 40
0.5932502755
 40
0.6387460851
 40
0.6829979402
 40
0.7257147919
 40
0.7666227661
 40
0.805449849
 40
0.8418962219
 40
0.9062518179
 40
0.9564517793
 40
0.9887796571
 40
1.0
 40
1.0
 40
1.0
 40
1.0
 10
1.3994883242
 20
3.7497999657
 30
0.0
 10
1.3987639884
 20
3.7486806668
 30
0.0
 10
1.3959644605
 20
3.7443288127
 30
0.0
 10
1.3900400875
 20
3.7348948031
 30
0.0
 10
1.3810966388
 20
3.7199046869
 30
0.0
 10
1.3724828432
 20
3.7041565464
 30
0.0
 10
1.3651210012
 20
3.6892853798
 30
0.0
 10
1.3594305721
 20
3.6767040298
 30
0.0
 10
1.3539899696
 20
3.663203976
 30
0.0
 10
1.3490246467
 20
3.6488354326
 30
0.0
 10
1.3447686248
 20
3.6336711598
 30
0.0
 10
1.3420436666
 20
3.6205275745
 30
0.0
 10
1.3404448115
 20
3.6097247271
 30
0.0
 10
1.3395672124
 20
3.6014760726
 30
0.0
 10
1.3390320428
 20
3.5931562514
 30
0.0
 10
1.338849721
 20
3.5847999656
 30
0.0
 10
1.3390320428
 20
3.5764436798
 30
0.0
 10
1.3395672125
 20
3.5681238586
 30
0.0
 10
1.3404448115
 20
3.5598752039
 30
0.0
 10
1.3420436667
 20
3.5490723565
 30
0.0
 10
1.3447686249
 20
3.5359287711
 30
0.0
 10
1.3490246468
 20
3.5207644983
 30
0.0
 10
1.3539899698
 20
3.5063959549
 30
0.0
 10
1.3594305722
 20
3.4928959012
 30
0.0
 10
1.3651210013
 20
3.4803145514
 30
0.0
 10
1.3724828432
 20
3.4654433848
 30
0.0
 10
1.3810966388
 20
3.4496952442
 30
0.0
 10
1.3900400876
 20
3.4347051281
 30
0.0
 10
1.3959644605
 20
3.4252711186
 30
0.0
 10
1.3987639884
 20
3.4209192645
 30
0.0
 10
1.3994883242
 20
3.4197999657
 30
0.0
  0
SPLINE
  5
28E
100
AcDbEntity
  8
0
100
AcDbSpline
 62
7
  6
CONTINUOUS
 70
0
 71
3
 72
33
 73
29
 74
0
 42
0.0000001
 43
0.0000001
 44
0.0000000001
 40
0.0
 40
0.0
 40
0.0
 40
0.0
 40
0.043546111
 40
0.0937483083
 40
0.1581091883
 40
0.1945598428
 40
0.2333900092
 40
0.3169944069
 40
0.361249578
 40
0.3838652022
 40
0.4067510408
 40
0.4298594347
 40
0.4531411964
 40
0.4765405518
 40
0.4999999998
 40
0.5234594479
 40
0.5468588033
 40
0.5701405652
 40
0.5932489592
 40
0.6161347979
 40
0.6387504222
 40
0.6830055933
 40
0.7666099908
 40
0.805440157
 40
0.8418908116
 40
0.9062516917
 40
0.956453889
 40
1.0
 40
1.0
 40
1.0
 40
1.0
 10
9.8894883242
 20
3.4197999657
 30
0.0
 10
9.8922986351
 20
3.4241442068
 30
0.0
 10
9.8982532456
 20
3.4335594561
 30
0.0
 10
9.9078794662
 20
3.4496946858
 30
0.0
 10
9.9164942998
 20
3.4654429077
 30
0.0
 10
9.9238552118
 20
3.4803160907
 30
0.0
 10
9.9316377244
 20
3.4975179789
 30
0.0
 10
9.9386409395
 20
3.516086869
 30
0.0
 10
9.9434727995
 20
3.5333134133
 30
0.0
 10
9.9458239206
 20
3.5437179215
 30
0.0
 10
9.9473273587
 20
3.551732184
 30
0.0
 10
9.9485317339
 20
3.5598770319
 30
0.0
 10
9.9494101343
 20
3.5681250111
 30
0.0
 10
9.9499464925
 20
3.5764442185
 30
0.0
 10
9.9501255469
 20
3.5847999656
 30
0.0
 10
9.9499464925
 20
3.5931557127
 30
0.0
 10
9.9494101343
 20
3.6014749202
 30
0.0
 10
9.948531734
 20
3.6097228993
 30
0.0
 10
9.9473273587
 20
3.6178677474
 30
0.0
 10
9.9458239206
 20
3.6258820099
 30
0.0
 10
9.9434727995
 20
3.6362865181
 30
0.0
 10
9.9386409395
 20
3.6535130624
 30
0.0
 10
9.9316377244
 20
3.6720819524
 30
0.0
 10
9.9238552118
 20
3.6892838406
 30
0.0
 10
9.9164942998
 20
3.7041570236
 30
0.0
 10
9.9078794663
 20
3.7199052455
 30
0.0
 10
9.8982532456
 20
3.7360404753
 30
0.0
 10
9.8922986351
 20
3.7454557245
 30
0.0
 10
9.8894883242
 20
3.7497999657
 30
0.0
  0
ENDSEC
  0
SECTION
  2
OBJECTS
  0
DICTIONARY
  5
C
100
AcDbDictionary
280
0
281
1
  3
ACAD_GROUP
350
D
  3
ACAD_MLINESTYLE
350
17
  3
ACAD_LAYOUT
350
1A
  3
ACAD_PLOTSETTINGS
350
19
  3
ACAD_PLOTSTYLENAME
350
E
  0
DICTIONARY
  5
D
102
{ACAD_REACTORS
330
C
102
}
100
AcDbDictionary
280
0
281
1
  0
ACDBDICTIONARYWDFLT
  5
E
102
{ACAD_REACTORS
330
C
102
}
100
AcDbDictionary
281
1
  3
Normal
350
F
100
AcDbDictionaryWithDefault
340
F
  0
DICTIONARY
  5
17
102
{ACAD_REACTORS
330
C
102
}
100
AcDbDictionary
280
0
281
1
  3
Standard
350
18
  0
DICTIONARY
  5
19
102
{ACAD_REACTORS
330
C
102
}
100
AcDbDictionary
281
1
  0
DICTIONARY
  5
1A
102
{ACAD_REACTORS
330
C
102
}
100
AcDbDictionary
281
1
  3
Model
350
28F
  3
Layout1
350
290
  0
ACDBPLACEHOLDER
  5
F
102
{ACAD_REACTORS
330
E
102
}
  0
MLINESTYLE
  5
18
102
{ACAD_REACTORS
330
17
102
}
100
AcDbMlineStyle
  2
STANDARD
 70
0
  3

 62
256
 51
90.0
 52
90.0
 71
2
 49
0.5
 62
256
  6
BYLAYER
 49
-0.5
 62
256
  6
BYLAYER
  0
LAYOUT
  5
28F
102
{ACAD_REACTORS
330
1A
102
}
100
AcDbPlotSettings
  1

  2
none_device
  4
ANSI_A_(11.00_x_8.50_Inches)
  6

 40
0.0
 41
0.0
 42
0.0
 43
0.0
 44
279.4
 45
215.9
 46
0.0
 47
0.0
 48
0.0
 49
0.0
140
0.0
141
0.0
142
1.0
143
1.0
 70
1024
 72
0
 73
0
 74
0
  7

 75
0
147
1.0
148
0.0
149
0.0
100
AcDbLayout
  1
Model
 70
0
 71
0
 10
0.0
 20
0.0
 11
11.0
 21
8.5
 12
0.0
 22
0.0
 32
0.0
 14
0.0
 24
0.0
 34
0.0
 15
0.0
 25
0.0
 35
0.0
146
0.0
 13
0.0
 23
0.0
 33
0.0
 16
1.0
 26
0.0
 36
0.0
 17
0.0
 27
1.0
 37
0.0
 76
0
330
203
345
0
346
0
  0
LAYOUT
  5
290
102
{ACAD_REACTORS
330
1A
102
}
100
AcDbPlotSettings
  1

  2
none_device
  4
ANSI_A_(11.00_x_8.50_Inches)
  6

 40
0.0
 41
0.0
 42
0.0
 43
0.0
 44
279.4
 45
215.9
 46
0.0
 47
0.0
 48
0.0
 49
0.0
140
0.0
141
0.0
142
1.0
143
1.0
 70
0
 72
0
 73
0
 74
0
  7

 75
0
147
1.0
148
0.0
149
0.0
100
AcDbLayout
  1
Layout1
 70
0
 71
1
 10
0.0
 20
0.0
 11
11.0
 21
8.5
 12
0.0
 22
0.0
 32
0.0
 14
0.0
 24
0.0
 34
0.0
 15
0.0
 25
0.0
 35
0.0
146
0.0
 13
0.0
 23
0.0
 33
0.0
 16
1.0
 26
0.0
 36
0.0
 17
0.0
 27
1.0
 37
0.0
 76
0
330
204
345
0
346
0
  0
ENDSEC
  0
EOF
