999
DXF file: C:\Prowork\plots\327_right.dxf
999
Pro/ENGINEER 2018500 by Parametric Technology Corporation
  0
SECTION
  2
HEADER
  9
$ACADVER
  1
AC1032
  9
$DWGCODEPAGE
  3
ANSI_1252
  9
$EXTMAX
 10
11.0
 20
8.5
 30
0.0
  9
$EXTMIN
 10
0.0
 20
0.0
 30
0.0
  9
$LIMMIN
 10
0.0
 20
0.0
  9
$LIMMAX
 10
11.0
 20
8.5
  9
$VIEWCTR
 10
5.5
 20
4.25
  9
$VIEWSIZE
 40
8.5
  9
$CLAYER
  8
0
  9
$LTSCALE
 40
0.605
  9
$CELTYPE
  6
BYLAYER
  9
$DIMSCALE
 40
1.0
  9
$DIMASZ
 40
0.1
  9
$DIMEXO
 40
0.0625
  9
$DIMDLI
 40
0.418
  9
$DIMEXE
 40
0.125
  9
$DIMCEN
 40
0.099
  9
$DIMLFAC
 40
1.0
  9
$DIMBLK
  1
_FILLED
  9
$DIMALT
 70
1
  9
$DIMALTD
 70
2
  9
$DIMALTTD
 70
2
  9
$DIMALTF
 40
25.4
  9
$DIMTXT
 40
0.08
  9
$DIMTOL
 70
1
  9
$DIMLIM
 70
0
  9
$DIMTFAC
 40
1.0
  9
$DIMTP
 40
0.001
  9
$DIMTM
 40
0.001
  9
$DIMGAP
 40
0.09
  9
$DIMDSEP
 70
46
  9
$AUNITS
 70
0
  9
$PDMODE
 70
3
  9
$PDSIZE
 40
0.06
  9
$HANDSEED
  5
2E5
  9
$TILEMODE
 70
1
  9
$MEASUREMENT
 70
0
  9
$INSUNITS
 70
1
  0
ENDSEC
  0
SECTION
  2
CLASSES
  0
CLASS
  1
ACDBDICTIONARYWDFLT
  2
AcDbDictionaryWithDefault
  3
AutoCAD 2000
 90
0
 91
1
280
0
281
0
  0
CLASS
  1
ACDBPLACEHOLDER
  2
AcDbPlaceHolder
  3
AutoCAD 2000
 90
0
 91
1
280
0
281
0
  0
CLASS
  1
LAYOUT
  2
AcDbLayout
  3
AutoCAD 2000
 90
0
 91
0
280
0
281
0
  0
ENDSEC
  0
SECTION
  2
TABLES
  0
TABLE
  2
VPORT
  5
8
100
AcDbSymbolTable
 70
2
  0
VPORT
  5
1F4
100
AcDbSymbolTableRecord
100
AcDbViewportTableRecord
  2
*ACTIVE
 70
0
 10
0.0
 20
0.0
 11
1.0
 21
1.0
 12
5.5
 22
4.25
 13
0.0
 23
0.0
 14
1.0
 24
1.0
 15
0.0
 25
0.0
 16
0.0
 26
0.0
 36
1.0
 17
0.0
 27
0.0
 37
0.0
 40
8.5
 41
1.2941176471
 42
50.0
 43
0.0
 44
0.0
 50
0.0
 51
0.0
 71
0
 72
100
 73
1
 74
1
 75
0
 76
0
 77
0
 78
0
  0
ENDTAB
  0
TABLE
  2
LTYPE
  5
5
100
AcDbSymbolTable
 70
6
  0
LTYPE
  5
14
100
AcDbSymbolTableRecord
100
AcDbLinetypeTableRecord
  2
BYBLOCK
 70
0
  3

 72
65
 73
0
 40
0.0
  0
LTYPE
  5
15
100
AcDbSymbolTableRecord
100
AcDbLinetypeTableRecord
  2
BYLAYER
 70
0
  3

 72
65
 73
0
 40
0.0
  0
LTYPE
  5
16
100
AcDbSymbolTableRecord
100
AcDbLinetypeTableRecord
  2
CONTINUOUS
 70
64
  3
Solid line
 72
65
 73
0
 40
0.0
  0
LTYPE
  5
1F5
100
AcDbSymbolTableRecord
100
AcDbLinetypeTableRecord
  2
CENTER
 70
64
  3
____ _ ____ _ ____ _ ____ _ ____ _ ____ _ ____
 72
65
 73
4
 40
0.6
 49
0.375
 74
0
 49
-0.075
 74
0
 49
0.075
 74
0
 49
-0.075
 74
0
  0
LTYPE
  5
1F6
100
AcDbSymbolTableRecord
100
AcDbLinetypeTableRecord
  2
HIDDEN
 70
64
  3
- - - - - - - - - - - - - - - - - - - -
 72
65
 73
2
 40
0.2
 49
0.1
 74
0
 49
-0.1
 74
0
  0
LTYPE
  5
1F7
100
AcDbSymbolTableRecord
100
AcDbLinetypeTableRecord
  2
PHANTOM
 70
64
  3
_____ _ _ _____ _ _ _____ _ _ _____
 72
65
 73
6
 40
0.8
 49
0.45
 74
0
 49
-0.05
 74
0
 49
0.1
 74
0
 49
-0.05
 74
0
 49
0.1
 74
0
 49
-0.05
 74
0
  0
LTYPE
  5
1F8
100
AcDbSymbolTableRecord
100
AcDbLinetypeTableRecord
  2
DOT
 70
64
  3
. . . . . . . . . . . . . . . . . . . .
 72
65
 73
2
 40
0.2
 49
0.1
 74
0
 49
-0.1
 74
0
  0
LTYPE
  5
1F9
100
AcDbSymbolTableRecord
100
AcDbLinetypeTableRecord
  2
DASHED
 70
64
  3
- - - - - - - - - - - - - - - - - - - -
 72
65
 73
2
 40
0.2
 49
0.1
 74
0
 49
-0.1
 74
0
  0
ENDTAB
  0
TABLE
  2
LAYER
  5
2
100
AcDbSymbolTable
 70
36
  0
LAYER
  5
10
100
AcDbSymbolTableRecord
100
AcDbLayerTableRecord
  2
0
 70
0
 62
7
  6
CONTINUOUS
370
-3
390
F
  0
LAYER
  5
1FA
100
AcDbSymbolTableRecord
100
AcDbLayerTableRecord
  2
DEFAULT_1
 70
0
 62
7
  6
CENTER
370
-3
390
F
  0
LAYER
  5
1FB
100
AcDbSymbolTableRecord
100
AcDbLayerTableRecord
  2
DEFAULT_2
 70
0
 62
8
  6
HIDDEN
370
-3
390
F
  0
LAYER
  5
1FC
100
AcDbSymbolTableRecord
100
AcDbLayerTableRecord
  2
DEFAULT_3
 70
0
 62
7
  6
PHANTOM
370
-3
390
F
  0
LAYER
  5
1FD
100
AcDbSymbolTableRecord
100
AcDbLayerTableRecord
  2
ALL_FEATURES
 70
0
 62
7
  6
CONTINUOUS
370
-3
390
F
  0
LAYER
  5
1FE
100
AcDbSymbolTableRecord
100
AcDbLayerTableRecord
  2
AXES_FEATURES
 70
0
 62
7
  6
CONTINUOUS
370
-3
390
F
  0
LAYER
  5
1FF
100
AcDbSymbolTableRecord
100
AcDbLayerTableRecord
  2
DEFAULT_COORDINATE_SYSTEM
 70
0
 62
7
  6
CONTINUOUS
370
-3
390
F
  0
LAYER
  5
200
100
AcDbSymbolTableRecord
100
AcDbLayerTableRecord
  2
DEFAULT_DATUM_AXES
 70
0
 62
7
  6
CONTINUOUS
370
-3
390
F
  0
LAYER
  5
201
100
AcDbSymbolTableRecord
100
AcDbLayerTableRecord
  2
DEFAULT_DATUM_CURVES
 70
0
 62
7
  6
CONTINUOUS
370
-3
390
F
  0
LAYER
  5
202
100
AcDbSymbolTableRecord
100
AcDbLayerTableRecord
  2
DEFAULT_DATUM_PLANES
 70
0
 62
7
  6
CONTINUOUS
370
-3
390
F
  0
LAYER
  5
203
100
AcDbSymbolTableRecord
100
AcDbLayerTableRecord
  2
DIMENSIONS
 70
0
 62
7
  6
CONTINUOUS
370
-3
390
F
  0
LAYER
  5
204
100
AcDbSymbolTableRecord
100
AcDbLayerTableRecord
  2
QUILT
 70
0
 62
7
  6
CONTINUOUS
370
-3
390
F
  0
ENDTAB
  0
TABLE
  2
STYLE
  5
3
100
AcDbSymbolTable
 70
1
  0
STYLE
  5
11
100
AcDbSymbolTableRecord
100
AcDbTextStyleTableRecord
  2
STANDARD
 70
0
 40
0.0
 41
0.8
 50
0.0
 71
0
 42
0.2
  3
txt
  4

  0
STYLE
  5
205
100
AcDbSymbolTableRecord
100
AcDbTextStyleTableRecord
  2
TEXTSTYLE_1
 70
0
 40
0.0
 41
0.8
 50
0.0
 71
0
 42
0.2
  3
gdt
  4

  0
ENDTAB
  0
TABLE
  2
VIEW
  5
6
100
AcDbSymbolTable
 70
0
  0
ENDTAB
  0
TABLE
  2
UCS
  5
7
100
AcDbSymbolTable
 70
0
  0
ENDTAB
  0
TABLE
  2
APPID
  5
9
100
AcDbSymbolTable
 70
1
  0
APPID
  5
206
100
AcDbSymbolTableRecord
100
AcDbRegAppTableRecord
  2
ACAD
 70
0
  0
ENDTAB
  0
TABLE
  2
BLOCK_RECORD
  5
1
100
AcDbSymbolTable
 70
0
  0
BLOCK_RECORD
  5
207
100
AcDbSymbolTableRecord
100
AcDbBlockTableRecord
  2
*Model_Space
  0
BLOCK_RECORD
  5
208
100
AcDbSymbolTableRecord
100
AcDbBlockTableRecord
  2
*Paper_Space
  0
BLOCK_RECORD
  5
209
100
AcDbSymbolTableRecord
100
AcDbBlockTableRecord
  2
_FILLED
  0
ENDTAB
  0
TABLE
  2
DIMSTYLE
  5
A
100
AcDbSymbolTable
 70
1
100
AcDbDimStyleTable
 71
0
  0
DIMSTYLE
105
20A
100
AcDbSymbolTableRecord
100
AcDbDimStyleTableRecord
  2
STANDARD
 70
0
  3

  4

 40
1.0
 41
0.1
 42
0.0625
 43
0.38
 44
0.125
 45
0.0
 46
0.0
 47
0.001
 48
0.001
140
0.08
141
0.09
142
0.0
143
25.4
144
1.0
145
0.0
146
1.0
147
0.09
 71
1.0
 72
0.0
 73
1
 74
1
 75
0
 76
0
 77
0
 78
4
 79
1
170
1
171
2
172
0
173
0
174
0
175
0
176
0
177
0
178
0
270
2
179
3
271
3
272
3
273
2
274
2
275
0
280
0
281
0
282
0
283
1
284
4
285
0
286
0
287
3
288
0
340
11
278
46
341
209
342
209
343
209
344
209
  0
ENDTAB
  0
ENDSEC
  0
SECTION
  2
BLOCKS
  0
BLOCK
  5
20
100
AcDbEntity
  8
0
100
AcDbBlockBegin
  2
*Model_Space
 70
0
 10
0.0
 20
0.0
 30
0.0
  3
*Model_Space
  1

  0
ENDBLK
  5
21
100
AcDbEntity
  8
0
100
AcDbBlockEnd
  0
BLOCK
  5
1C
100
AcDbEntity
  8
0
100
AcDbBlockBegin
  2
*Paper_Space
 70
0
 10
0.0
 20
0.0
 30
0.0
  3
*Paper_Space
  1

  0
ENDBLK
  5
1D
100
AcDbEntity
  8
0
100
AcDbBlockEnd
  0
BLOCK
  5
20B
100
AcDbEntity
  8
0
100
AcDbBlockBegin
  2
_FILLED
 70
64
 10
0.0
 20
0.0
  3
_FILLED
  1

  0
SOLID
  5
20C
100
AcDbEntity
  8
0
  6
BYBLOCK
 62
0
100
AcDbTrace
 10
0.0
 20
0.0
 11
-1.0
 21
0.2
 12
-1.0
 22
-0.2
 13
-1.0
 23
-0.2
  0
ENDBLK
  5
20D
100
AcDbEntity
  8
0
  6
BYBLOCK
 62
0
100
AcDbBlockEnd
  0
ENDSEC
  0
SECTION
  2
ENTITIES
  0
MTEXT
  5
20E
100
AcDbEntity
  8
0
100
AcDbMText
 62
7
  6
CONTINUOUS
  7
STANDARD
 71
1
 72
1
 10
9.6217973602
 20
0.3180861801
 30
0.0
 11
1.0
 21
0.0
 31
0.0
 73
2
 44
0.9
  1
SCALE: 1.25
 40
0.08
 41
0.704
  0
LINE
  5
20F
100
AcDbEntity
  8
0
100
AcDbLine
 62
7
  6
CONTINUOUS
 10
0.0
 20
0.0
 11
0.0
 21
8.5
  0
LINE
  5
210
100
AcDbEntity
  8
0
100
AcDbLine
 62
7
  6
CONTINUOUS
 10
0.0
 20
0.0
 11
11.0
 21
0.0
  0
LINE
  5
211
100
AcDbEntity
  8
0
100
AcDbLine
 62
7
  6
CONTINUOUS
 10
0.0
 20
8.5
 11
11.0
 21
8.5
  0
LINE
  5
212
100
AcDbEntity
  8
0
100
AcDbLine
 62
7
  6
CONTINUOUS
 10
11.0
 20
0.0
 11
11.0
 21
8.5
  0
LINE
  5
213
100
AcDbEntity
  8
0
100
AcDbLine
 62
7
  6
CONTINUOUS
 10
0.6325892857
 20
2.9438230225
 11
0.6325892857
 21
4.4648227448
  0
LINE
  5
214
100
AcDbEntity
  8
0
100
AcDbLine
 62
7
  6
CONTINUOUS
 10
0.6513392857
 20
3.0550754392
 11
0.6513392857
 21
2.9211578708
  0
LINE
  5
215
100
AcDbEntity
  8
0
100
AcDbLine
 62
7
  6
CONTINUOUS
 10
0.6687191711
 20
4.4834945917
 11
0.65371504
 21
4.4575102532
  0
LINE
  5
216
100
AcDbEntity
  8
0
100
AcDbLine
 62
7
  6
CONTINUOUS
 10
0.6325892857
 20
2.9437246477
 11
0.6377411654
 21
2.9348025753
  0
LINE
  5
217
100
AcDbEntity
  8
0
100
AcDbLine
 62
7
  6
CONTINUOUS
 10
0.7690346739
 20
2.9485058182
 11
0.769051995
 21
2.948431009
  0
LINE
  5
218
100
AcDbEntity
  8
0
100
AcDbLine
 62
7
  6
CONTINUOUS
 10
0.6765402683
 20
2.948494323
 11
0.6765574991
 21
2.9484191755
  0
LINE
  5
219
100
AcDbEntity
  8
0
100
AcDbLine
 62
7
  6
CONTINUOUS
 10
0.6765402504
 20
2.9483342903
 11
0.6765574816
 21
2.9482344562
  0
LINE
  5
21A
100
AcDbEntity
  8
0
100
AcDbLine
 62
7
  6
CONTINUOUS
 10
0.7690346597
 20
2.9483655379
 11
0.7690519807
 21
2.9482640091
  0
LINE
  5
21B
100
AcDbEntity
  8
0
100
AcDbLine
 62
7
  6
CONTINUOUS
 10
0.7149691711
 20
4.4834945917
 11
0.69996504
 21
4.4575102532
  0
LINE
  5
21C
100
AcDbEntity
  8
0
100
AcDbLine
 62
7
  6
CONTINUOUS
 10
0.7612191711
 20
4.4834945917
 11
0.74621504
 21
4.4575102532
  0
LINE
  5
21D
100
AcDbEntity
  8
0
100
AcDbLine
 62
7
  6
CONTINUOUS
 10
0.8074691711
 20
4.4834945917
 11
0.79246504
 21
4.4575102532
  0
LINE
  5
21E
100
AcDbEntity
  8
0
100
AcDbLine
 62
7
  6
CONTINUOUS
 10
0.8537191711
 20
4.4834945917
 11
0.83871504
 21
4.4575102532
  0
LINE
  5
21F
100
AcDbEntity
  8
0
100
AcDbLine
 62
7
  6
CONTINUOUS
 10
0.8999691711
 20
4.4834945917
 11
0.88496504
 21
4.4575102532
  0
LINE
  5
220
100
AcDbEntity
  8
0
100
AcDbLine
 62
7
  6
CONTINUOUS
 10
0.9462191711
 20
4.4834945917
 11
0.93121504
 21
4.4575102532
  0
LINE
  5
221
100
AcDbEntity
  8
0
100
AcDbLine
 62
7
  6
CONTINUOUS
 10
0.9924691711
 20
4.4834945917
 11
0.97746504
 21
4.4575102532
  0
LINE
  5
222
100
AcDbEntity
  8
0
100
AcDbLine
 62
7
  6
CONTINUOUS
 10
0.6380303928
 20
2.9344074954
 11
0.6377411654
 21
2.9348025753
  0
LINE
  5
223
100
AcDbEntity
  8
0
100
AcDbLine
 62
7
  6
CONTINUOUS
 10
0.67684004
 20
2.9471869517
 11
0.6918441711
 21
2.9212026132
  0
LINE
  5
224
100
AcDbEntity
  8
0
100
AcDbLine
 62
7
  6
CONTINUOUS
 10
0.72309004
 20
2.9471869517
 11
0.7380941711
 21
2.9212026132
  0
LINE
  5
225
100
AcDbEntity
  8
0
100
AcDbLine
 62
7
  6
CONTINUOUS
 10
0.76934004
 20
2.9471869517
 11
0.7843441711
 21
2.9212026132
  0
LINE
  5
226
100
AcDbEntity
  8
0
100
AcDbLine
 62
7
  6
CONTINUOUS
 10
0.81559004
 20
2.9471869517
 11
0.8305941711
 21
2.9212026132
  0
LINE
  5
227
100
AcDbEntity
  8
0
100
AcDbLine
 62
7
  6
CONTINUOUS
 10
0.86184004
 20
2.9471869517
 11
0.8768441711
 21
2.9212026132
  0
LINE
  5
228
100
AcDbEntity
  8
0
100
AcDbLine
 62
7
  6
CONTINUOUS
 10
0.90809004
 20
2.9471869517
 11
0.9230941711
 21
2.9212026132
  0
LINE
  5
229
100
AcDbEntity
  8
0
100
AcDbLine
 62
7
  6
CONTINUOUS
 10
0.95434004
 20
2.9471869517
 11
0.9693441711
 21
2.9212026132
  0
LINE
  5
22A
100
AcDbEntity
  8
0
100
AcDbLine
 62
7
  6
CONTINUOUS
 10
0.639452262
 20
4.4717115788
 11
0.6325892857
 21
4.4648486025
  0
LINE
  5
22B
100
AcDbEntity
  8
0
100
AcDbLine
 62
7
  6
CONTINUOUS
 10
0.6513392857
 20
2.9210986025
 11
0.6380303928
 21
2.9344074954
  0
LINE
  5
22C
100
AcDbEntity
  8
0
100
AcDbLine
 62
7
  6
CONTINUOUS
 10
0.9975892857
 20
3.014125755
 11
1.0125892857
 21
2.9904513444
  0
LINE
  5
22D
100
AcDbEntity
  8
0
100
AcDbLine
 62
7
  6
CONTINUOUS
 10
0.6558344003
 20
2.9212026132
 11
0.6708385314
 21
2.9471869517
  0
LINE
  5
22E
100
AcDbEntity
  8
0
100
AcDbLine
 62
7
  6
CONTINUOUS
 10
0.7020844003
 20
2.9212026132
 11
0.7170885314
 21
2.9471869517
  0
LINE
  5
22F
100
AcDbEntity
  8
0
100
AcDbLine
 62
7
  6
CONTINUOUS
 10
0.7483344003
 20
2.9212026132
 11
0.7633385314
 21
2.9471869517
  0
LINE
  5
230
100
AcDbEntity
  8
0
100
AcDbLine
 62
7
  6
CONTINUOUS
 10
0.7945844003
 20
2.9212026132
 11
0.8095885314
 21
2.9471869517
  0
LINE
  5
231
100
AcDbEntity
  8
0
100
AcDbLine
 62
7
  6
CONTINUOUS
 10
0.8408344003
 20
2.9212026132
 11
0.8558385314
 21
2.9471869517
  0
LINE
  5
232
100
AcDbEntity
  8
0
100
AcDbLine
 62
7
  6
CONTINUOUS
 10
0.8870844003
 20
2.9212026132
 11
0.9020885314
 21
2.9471869517
  0
LINE
  5
233
100
AcDbEntity
  8
0
100
AcDbLine
 62
7
  6
CONTINUOUS
 10
0.9333344003
 20
2.9212026132
 11
0.9483385314
 21
2.9471869517
  0
LINE
  5
234
100
AcDbEntity
  8
0
100
AcDbLine
 62
7
  6
CONTINUOUS
 10
0.7149691711
 20
4.4834945917
 11
0.7150892857
 21
4.4835986025
  0
LINE
  5
235
100
AcDbEntity
  8
0
100
AcDbLine
 62
7
  6
CONTINUOUS
 10
0.7612191711
 20
4.4834945917
 11
0.7613392857
 21
4.4835986025
  0
LINE
  5
236
100
AcDbEntity
  8
0
100
AcDbLine
 62
7
  6
CONTINUOUS
 10
0.8074691711
 20
4.4834945917
 11
0.8075892857
 21
4.4835986025
  0
LINE
  5
237
100
AcDbEntity
  8
0
100
AcDbLine
 62
7
  6
CONTINUOUS
 10
0.8537191711
 20
4.4834945917
 11
0.8538392857
 21
4.4835986025
  0
LINE
  5
238
100
AcDbEntity
  8
0
100
AcDbLine
 62
7
  6
CONTINUOUS
 10
0.8999691711
 20
4.4834945917
 11
0.9000892857
 21
4.4835986025
  0
LINE
  5
239
100
AcDbEntity
  8
0
100
AcDbLine
 62
7
  6
CONTINUOUS
 10
0.6918441711
 20
2.9212026132
 11
0.6919642857
 21
2.9210986025
  0
LINE
  5
23A
100
AcDbEntity
  8
0
100
AcDbLine
 62
7
  6
CONTINUOUS
 10
0.7380941711
 20
2.9212026132
 11
0.7382142857
 21
2.9210986025
  0
LINE
  5
23B
100
AcDbEntity
  8
0
100
AcDbLine
 62
7
  6
CONTINUOUS
 10
0.7843441711
 20
2.9212026132
 11
0.7844642857
 21
2.9210986025
  0
LINE
  5
23C
100
AcDbEntity
  8
0
100
AcDbLine
 62
7
  6
CONTINUOUS
 10
0.8305941711
 20
2.9212026132
 11
0.8307142857
 21
2.9210986025
  0
LINE
  5
23D
100
AcDbEntity
  8
0
100
AcDbLine
 62
7
  6
CONTINUOUS
 10
0.8768441711
 20
2.9212026132
 11
0.8769642857
 21
2.9210986025
  0
LINE
  5
23E
100
AcDbEntity
  8
0
100
AcDbLine
 62
7
  6
CONTINUOUS
 10
0.9230941711
 20
2.9212026132
 11
0.9232142857
 21
2.9210986025
  0
LINE
  5
23F
100
AcDbEntity
  8
0
100
AcDbLine
 62
7
  6
CONTINUOUS
 10
0.6477135314
 20
4.4575102532
 11
0.6407650558
 21
4.4695436792
  0
LINE
  5
240
100
AcDbEntity
  8
0
100
AcDbLine
 62
7
  6
CONTINUOUS
 10
0.6939635314
 20
4.4575102532
 11
0.6789594003
 21
4.4834945917
  0
LINE
  5
241
100
AcDbEntity
  8
0
100
AcDbLine
 62
7
  6
CONTINUOUS
 10
0.7402135314
 20
4.4575102532
 11
0.7252094003
 21
4.4834945917
  0
LINE
  5
242
100
AcDbEntity
  8
0
100
AcDbLine
 62
7
  6
CONTINUOUS
 10
0.7864635314
 20
4.4575102532
 11
0.7714594003
 21
4.4834945917
  0
LINE
  5
243
100
AcDbEntity
  8
0
100
AcDbLine
 62
7
  6
CONTINUOUS
 10
0.8327135314
 20
4.4575102532
 11
0.8177094003
 21
4.4834945917
  0
LINE
  5
244
100
AcDbEntity
  8
0
100
AcDbLine
 62
7
  6
CONTINUOUS
 10
0.8789635314
 20
4.4575102532
 11
0.8639594003
 21
4.4834945917
  0
LINE
  5
245
100
AcDbEntity
  8
0
100
AcDbLine
 62
7
  6
CONTINUOUS
 10
0.9252135314
 20
4.4575102532
 11
0.9102094003
 21
4.4834945917
  0
LINE
  5
246
100
AcDbEntity
  8
0
100
AcDbLine
 62
7
  6
CONTINUOUS
 10
0.9763392857
 20
2.9904513444
 11
0.9913392857
 21
3.014125755
  0
LINE
  5
247
100
AcDbEntity
  8
0
100
AcDbLine
 62
7
  6
CONTINUOUS
 10
0.9924691711
 20
4.4834945917
 11
0.9925892857
 21
4.4835986025
  0
LINE
  5
248
100
AcDbEntity
  8
0
100
AcDbLine
 62
7
  6
CONTINUOUS
 10
0.9693441711
 20
2.9212026132
 11
0.9694642857
 21
2.9210986025
  0
LINE
  5
249
100
AcDbEntity
  8
0
100
AcDbLine
 62
7
  6
CONTINUOUS
 10
0.9714635314
 20
4.4575102532
 11
0.9564594003
 21
4.4834945917
  0
LINE
  5
24A
100
AcDbEntity
  8
0
100
AcDbLine
 62
7
  6
CONTINUOUS
 10
0.6557142857
 20
2.9210986025
 11
0.6558344003
 21
2.9212026132
  0
LINE
  5
24B
100
AcDbEntity
  8
0
100
AcDbLine
 62
7
  6
CONTINUOUS
 10
0.7020844003
 20
2.9212026132
 11
0.7019642857
 21
2.9210986025
  0
LINE
  5
24C
100
AcDbEntity
  8
0
100
AcDbLine
 62
7
  6
CONTINUOUS
 10
0.7945844003
 20
2.9212026132
 11
0.7944642857
 21
2.9210986025
  0
LINE
  5
24D
100
AcDbEntity
  8
0
100
AcDbLine
 62
7
  6
CONTINUOUS
 10
0.8408344003
 20
2.9212026132
 11
0.8407142857
 21
2.9210986025
  0
LINE
  5
24E
100
AcDbEntity
  8
0
100
AcDbLine
 62
7
  6
CONTINUOUS
 10
0.8870844003
 20
2.9212026132
 11
0.8869642857
 21
2.9210986025
  0
LINE
  5
24F
100
AcDbEntity
  8
0
100
AcDbLine
 62
7
  6
CONTINUOUS
 10
0.6788392857
 20
4.4835986025
 11
0.6789594003
 21
4.4834945917
  0
LINE
  5
250
100
AcDbEntity
  8
0
100
AcDbLine
 62
7
  6
CONTINUOUS
 10
0.7252094003
 20
4.4834945917
 11
0.7250892857
 21
4.4835986025
  0
LINE
  5
251
100
AcDbEntity
  8
0
100
AcDbLine
 62
7
  6
CONTINUOUS
 10
0.7714594003
 20
4.4834945917
 11
0.7713392857
 21
4.4835986025
  0
LINE
  5
252
100
AcDbEntity
  8
0
100
AcDbLine
 62
7
  6
CONTINUOUS
 10
0.8177094003
 20
4.4834945917
 11
0.8175892857
 21
4.4835986025
  0
LINE
  5
253
100
AcDbEntity
  8
0
100
AcDbLine
 62
7
  6
CONTINUOUS
 10
0.8639594003
 20
4.4834945917
 11
0.8638392857
 21
4.4835986025
  0
LINE
  5
254
100
AcDbEntity
  8
0
100
AcDbLine
 62
7
  6
CONTINUOUS
 10
0.9102094003
 20
4.4834945917
 11
0.9100892857
 21
4.4835986025
  0
LINE
  5
255
100
AcDbEntity
  8
0
100
AcDbLine
 62
7
  6
CONTINUOUS
 10
0.9564594003
 20
4.4834945917
 11
0.9563392857
 21
4.4835986025
  0
LINE
  5
256
100
AcDbEntity
  8
0
100
AcDbLine
 62
7
  6
CONTINUOUS
 10
0.639452262
 20
4.4717115788
 11
0.6395295802
 21
4.4716832905
  0
LINE
  5
257
100
AcDbEntity
  8
0
100
AcDbLine
 62
7
  6
CONTINUOUS
 10
10.6138392857
 20
2.9210986025
 11
0.9694642857
 21
2.9210986025
  0
LINE
  5
258
100
AcDbEntity
  8
0
100
AcDbLine
 62
7
  6
CONTINUOUS
 10
0.9332142857
 20
2.9210986025
 11
0.9232142857
 21
2.9210986025
  0
LINE
  5
259
100
AcDbEntity
  8
0
100
AcDbLine
 62
7
  6
CONTINUOUS
 10
0.8869642857
 20
2.9210986025
 11
0.8769642857
 21
2.9210986025
  0
LINE
  5
25A
100
AcDbEntity
  8
0
100
AcDbLine
 62
7
  6
CONTINUOUS
 10
0.8407142857
 20
2.9210986025
 11
0.8307142857
 21
2.9210986025
  0
LINE
  5
25B
100
AcDbEntity
  8
0
100
AcDbLine
 62
7
  6
CONTINUOUS
 10
0.7944642857
 20
2.9210986025
 11
0.7844642857
 21
2.9210986025
  0
LINE
  5
25C
100
AcDbEntity
  8
0
100
AcDbLine
 62
7
  6
CONTINUOUS
 10
0.7482142857
 20
2.9210986025
 11
0.7382142857
 21
2.9210986025
  0
LINE
  5
25D
100
AcDbEntity
  8
0
100
AcDbLine
 62
7
  6
CONTINUOUS
 10
0.7019642857
 20
2.9210986025
 11
0.6919642857
 21
2.9210986025
  0
LINE
  5
25E
100
AcDbEntity
  8
0
100
AcDbLine
 62
7
  6
CONTINUOUS
 10
0.6557142857
 20
2.9210986025
 11
0.6513392857
 21
2.9210986025
  0
LINE
  5
25F
100
AcDbEntity
  8
0
100
AcDbLine
 62
7
  6
CONTINUOUS
 10
0.6707142857
 20
2.9470793646
 11
0.6769642857
 21
2.9470793646
  0
LINE
  5
260
100
AcDbEntity
  8
0
100
AcDbLine
 62
7
  6
CONTINUOUS
 10
0.7169642857
 20
2.9470793646
 11
0.7232142857
 21
2.9470793646
  0
LINE
  5
261
100
AcDbEntity
  8
0
100
AcDbLine
 62
7
  6
CONTINUOUS
 10
0.7632142857
 20
2.9470793646
 11
0.7694642857
 21
2.9470793646
  0
LINE
  5
262
100
AcDbEntity
  8
0
100
AcDbLine
 62
7
  6
CONTINUOUS
 10
0.8094642857
 20
2.9470793646
 11
0.8157142857
 21
2.9470793646
  0
LINE
  5
263
100
AcDbEntity
  8
0
100
AcDbLine
 62
7
  6
CONTINUOUS
 10
0.8557142857
 20
2.9470793646
 11
0.8619642857
 21
2.9470793646
  0
LINE
  5
264
100
AcDbEntity
  8
0
100
AcDbLine
 62
7
  6
CONTINUOUS
 10
0.9019642857
 20
2.9470793646
 11
0.9082142857
 21
2.9470793646
  0
LINE
  5
265
100
AcDbEntity
  8
0
100
AcDbLine
 62
7
  6
CONTINUOUS
 10
0.9482142857
 20
2.9470793646
 11
0.9544642857
 21
2.9470793646
  0
LINE
  5
266
100
AcDbEntity
  8
0
100
AcDbLine
 62
7
  6
CONTINUOUS
 10
1.0125892857
 20
2.9904513444
 11
0.9763392857
 21
2.9904513444
  0
LINE
  5
267
100
AcDbEntity
  8
0
100
AcDbLine
 62
7
  6
CONTINUOUS
 10
0.9913392857
 20
3.014125755
 11
0.9975892857
 21
3.014125755
  0
LINE
  5
268
100
AcDbEntity
  8
0
100
AcDbLine
 62
7
  6
CONTINUOUS
 10
0.9775892857
 20
4.4576178404
 11
0.9713392857
 21
4.4576178404
  0
LINE
  5
269
100
AcDbEntity
  8
0
100
AcDbLine
 62
7
  6
CONTINUOUS
 10
0.9313392857
 20
4.4576178404
 11
0.9250892857
 21
4.4576178404
  0
LINE
  5
26A
100
AcDbEntity
  8
0
100
AcDbLine
 62
7
  6
CONTINUOUS
 10
0.8850892857
 20
4.4576178404
 11
0.8788392857
 21
4.4576178404
  0
LINE
  5
26B
100
AcDbEntity
  8
0
100
AcDbLine
 62
7
  6
CONTINUOUS
 10
0.8388392857
 20
4.4576178404
 11
0.8325892857
 21
4.4576178404
  0
LINE
  5
26C
100
AcDbEntity
  8
0
100
AcDbLine
 62
7
  6
CONTINUOUS
 10
0.7925892857
 20
4.4576178404
 11
0.7863392857
 21
4.4576178404
  0
LINE
  5
26D
100
AcDbEntity
  8
0
100
AcDbLine
 62
7
  6
CONTINUOUS
 10
0.7463392857
 20
4.4576178404
 11
0.7400892857
 21
4.4576178404
  0
LINE
  5
26E
100
AcDbEntity
  8
0
100
AcDbLine
 62
7
  6
CONTINUOUS
 10
0.7000892857
 20
4.4576178404
 11
0.6938392857
 21
4.4576178404
  0
LINE
  5
26F
100
AcDbEntity
  8
0
100
AcDbLine
 62
7
  6
CONTINUOUS
 10
0.6538392857
 20
4.4576178404
 11
0.6475892857
 21
4.4576178404
  0
LINE
  5
270
100
AcDbEntity
  8
0
100
AcDbLine
 62
7
  6
CONTINUOUS
 10
10.6138392857
 20
4.4835986025
 11
0.9925892857
 21
4.4835986025
  0
LINE
  5
271
100
AcDbEntity
  8
0
100
AcDbLine
 62
7
  6
CONTINUOUS
 10
0.9563392857
 20
4.4835986025
 11
0.9463392857
 21
4.4835986025
  0
LINE
  5
272
100
AcDbEntity
  8
0
100
AcDbLine
 62
7
  6
CONTINUOUS
 10
0.9100892857
 20
4.4835986025
 11
0.9000892857
 21
4.4835986025
  0
LINE
  5
273
100
AcDbEntity
  8
0
100
AcDbLine
 62
7
  6
CONTINUOUS
 10
0.8638392857
 20
4.4835986025
 11
0.8538392857
 21
4.4835986025
  0
LINE
  5
274
100
AcDbEntity
  8
0
100
AcDbLine
 62
7
  6
CONTINUOUS
 10
0.8175892857
 20
4.4835986025
 11
0.8075892857
 21
4.4835986025
  0
LINE
  5
275
100
AcDbEntity
  8
0
100
AcDbLine
 62
7
  6
CONTINUOUS
 10
0.7713392857
 20
4.4835986025
 11
0.7613392857
 21
4.4835986025
  0
LINE
  5
276
100
AcDbEntity
  8
0
100
AcDbLine
 62
7
  6
CONTINUOUS
 10
0.7250892857
 20
4.4835986025
 11
0.7150892857
 21
4.4835986025
  0
LINE
  5
277
100
AcDbEntity
  8
0
100
AcDbLine
 62
7
  6
CONTINUOUS
 10
0.6788392857
 20
4.4835986025
 11
0.6688392857
 21
4.4835986025
  0
LINE
  5
278
100
AcDbEntity
  8
0
100
AcDbLine
 62
7
  6
CONTINUOUS
 10
10.6325892857
 20
2.9398486025
 11
10.6138392857
 21
2.9210986025
  0
LINE
  5
279
100
AcDbEntity
  8
0
100
AcDbLine
 62
7
  6
CONTINUOUS
 10
10.6325892857
 20
4.4648486025
 11
10.6138392857
 21
4.4835986025
  0
LINE
  5
27A
100
AcDbEntity
  8
0
100
AcDbLine
 62
7
  6
CONTINUOUS
 10
10.6138392857
 20
2.9210986025
 11
10.6138392857
 21
4.4835986025
  0
LINE
  5
27B
100
AcDbEntity
  8
0
100
AcDbLine
 62
7
  6
CONTINUOUS
 10
10.6325892857
 20
2.9398486025
 11
10.6325892857
 21
4.4648486025
  0
ARC
  5
27C
100
AcDbEntity
  8
0
100
AcDbCircle
 62
7
  6
CONTINUOUS
 10
-4.0505575707
 20
4.3408220701
 40
4.6924281363
100
AcDbArc
 50
0.8510772992
 51
1.2646039904
  0
ARC
  5
27D
100
AcDbEntity
  8
0
100
AcDbCircle
 62
7
  6
CONTINUOUS
 10
-0.8626355242
 20
4.411045713
 40
1.5037327503
100
AcDbArc
 50
1.2703186079
 51
1.7259830287
  0
ARC
  5
27E
100
AcDbEntity
  8
0
100
AcDbCircle
 62
7
  6
CONTINUOUS
 10
1.7802585276
 20
3.0563136359
 40
1.1504232518
100
AcDbArc
 50
183.9653199487
 51
184.1983800273
  0
SPLINE
  5
27F
100
AcDbEntity
  8
0
100
AcDbSpline
 62
7
  6
CONTINUOUS
 70
0
 71
3
 72
38
 73
34
 74
0
 42
0.0000001
 43
0.0000001
 44
0.0000000001
 40
0.0
 40
0.0
 40
0.0
 40
0.0
 40
0.0969456551
 40
0.1930774271
 40
0.2873560725
 40
0.3789015579
 40
0.4668781861
 40
0.5504614874
 40
0.6288440958
 40
0.7012973023
 40
0.7671338043
 40
0.7973786198
 40
0.8257443687
 40
0.8521595926
 40
0.8765640151
 40
0.898903877
 40
0.9191255241
 40
0.9371760817
 40
0.9530142083
 40
0.9666076887
 40
0.9725527502
 40
0.9779247524
 40
0.9827197807
 40
0.9869343907
 40
0.9905670835
 40
0.9936170178
 40
0.9960836268
 40
0.9970981894
 40
0.9979670449
 40
0.9986904845
 40
0.9992691357
 40
0.9997044079
 40
1.0
 40
1.0
 40
1.0
 40
1.0
 10
0.7266517857
 20
3.7023486025
 30
0.0
 10
0.726889663
 20
3.6771015231
 30
0.0
 10
0.7273634226
 20
3.6268193199
 30
0.0
 10
0.7280751456
 20
3.551984656
 30
0.0
 10
0.728786883
 20
3.4785564587
 30
0.0
 10
0.7294982365
 20
3.4072522578
 30
0.0
 10
0.7302093367
 20
3.3387336568
 30
0.0
 10
0.7309199065
 20
3.2736433382
 30
0.0
 10
0.7316299716
 20
3.2125961352
 30
0.0
 10
0.7323390778
 20
3.1561711726
 30
0.0
 10
0.7329449417
 20
3.1122827723
 30
0.0
 10
0.7334342108
 20
3.0798758863
 30
0.0
 10
0.7337905279
 20
3.0577349188
 30
0.0
 10
0.7341467028
 20
3.0371152114
 30
0.0
 10
0.7345026665
 20
3.0180651133
 30
0.0
 10
0.7348582831
 20
3.000628347
 30
0.0
 10
0.7352134288
 20
2.9848467261
 30
0.0
 10
0.7355680017
 20
2.9707588522
 30
0.0
 10
0.7359218657
 20
2.9583977944
 30
0.0
 10
0.7362276263
 20
2.9491894335
 30
0.0
 10
0.7364761041
 20
2.9427065613
 30
0.0
 10
0.7366538355
 20
2.9385141343
 30
0.0
 10
0.73683127
 20
2.9347728125
 30
0.0
 10
0.7370083821
 20
2.9314850279
 30
0.0
 10
0.7371848762
 20
2.9286524274
 30
0.0
 10
0.7373606482
 20
2.9262760769
 30
0.0
 10
0.7375140005
 20
2.924581892
 30
0.0
 10
0.7376403813
 20
2.9234560266
 30
0.0
 10
0.7377285678
 20
2.9227827681
 30
0.0
 10
0.7378163285
 20
2.9222242463
 30
0.0
 10
0.7379030831
 20
2.9217797343
 30
0.0
 10
0.737988896
 20
2.9214499817
 30
0.0
 10
0.7380557708
 20
2.9212700339
 30
0.0
 10
0.73809417
 20
2.9212033115
 30
0.0
  0
SPLINE
  5
280
100
AcDbEntity
  8
0
100
AcDbSpline
 62
7
  6
CONTINUOUS
 70
0
 71
3
 72
16
 73
12
 74
0
 42
0.0000001
 43
0.0000001
 44
0.0000000001
 40
0.0
 40
0.0
 40
0.0
 40
0.0
 40
0.0251000525
 40
0.046675223
 40
0.0752527495
 40
0.1110900699
 40
0.1543126836
 40
0.2631511205
 40
0.4020624427
 40
0.5711533755
 40
1.0
 40
1.0
 40
1.0
 40
1.0
 10
0.7613392865
 20
4.4835983775
 30
0.0
 10
0.7613843561
 20
4.4835982031
 30
0.0
 10
0.7614502531
 20
4.4835196918
 30
0.0
 10
0.7615058243
 20
4.483402958
 30
0.0
 10
0.7615592686
 20
4.4832556242
 30
0.0
 10
0.7616112141
 20
4.4830701664
 30
0.0
 10
0.7616876964
 20
4.4827411067
 30
0.0
 10
0.7617791799
 20
4.4822266582
 30
0.0
 10
0.7618839103
 20
4.4814853806
 30
0.0
 10
0.7620364933
 20
4.4801710519
 30
0.0
 10
0.7621316945
 20
4.4791014225
 30
0.0
 10
0.7621941283
 20
4.4783339152
 30
0.0
  0
LINE
  5
281
100
AcDbEntity
  8
0
100
AcDbLine
 62
7
  6
CONTINUOUS
 10
0.7621941283
 20
4.4783339152
 11
0.7631651939
 21
4.4596834896
  0
SPLINE
  5
282
100
AcDbEntity
  8
0
100
AcDbSpline
 62
7
  6
CONTINUOUS
 70
0
 71
3
 72
18
 73
14
 74
0
 42
0.0000001
 43
0.0000001
 44
0.0000000001
 40
0.0
 40
0.0
 40
0.0
 40
0.0
 40
0.0243402911
 40
0.0553412926
 40
0.0927963583
 40
0.136439257
 40
0.1859840219
 40
0.2410819885
 40
0.3664208593
 40
0.5090519454
 40
0.6650590061
 40
0.8302408938
 40
1.0
 40
1.0
 40
1.0
 40
1.0
 10
0.7631651939
 20
4.4596834896
 30
0.0
 10
0.7634007995
 20
4.4535428394
 30
0.0
 10
0.7638443767
 20
4.4395776771
 30
0.0
 10
0.7644386531
 20
4.4161569669
 30
0.0
 10
0.7650365092
 20
4.3878616965
 30
0.0
 10
0.7656374945
 20
4.3548839101
 30
0.0
 10
0.7662398797
 20
4.3174512125
 30
0.0
 10
0.7670813386
 20
4.2593940731
 30
0.0
 10
0.7681099443
 20
4.1778358701
 30
0.0
 10
0.7693041648
 20
4.0708014723
 30
0.0
 10
0.7705017182
 20
3.9537074149
 30
0.0
 10
0.7717013348
 20
3.8297640653
 30
0.0
 10
0.7724979882
 20
3.745205608
 30
0.0
 10
0.7729017857
 20
3.7023486025
 30
0.0
  0
SPLINE
  5
283
100
AcDbEntity
  8
0
100
AcDbSpline
 62
7
  6
CONTINUOUS
 70
0
 71
3
 72
15
 73
11
 74
0
 42
0.0000001
 43
0.0000001
 44
0.0000000001
 40
0.0
 40
0.0
 40
0.0
 40
0.0
 40
0.0175490011
 40
0.040803573
 40
0.1050342533
 40
0.1933454412
 40
0.3059554591
 40
0.44294891
 40
0.604315617
 40
1.0
 40
1.0
 40
1.0
 40
1.0
 10
0.9714635295
 20
4.4575078605
 30
0.0
 10
0.9714869197
 20
4.4574674948
 30
0.0
 10
0.9715308723
 20
4.4573677733
 30
0.0
 10
0.9716174013
 20
4.457102178
 30
0.0
 10
0.971718267
 20
4.4566449543
 30
0.0
 10
0.9718333209
 20
4.4559495675
 30
0.0
 10
0.9719491327
 20
4.4550585275
 30
0.0
 10
0.9720659657
 20
4.4539722285
 30
0.0
 10
0.9722339174
 20
4.4521347435
 30
0.0
 10
0.9723416753
 20
4.450657666
 30
0.0
 10
0.9724120844
 20
4.449608122
 30
0.0
  0
SPLINE
  5
284
100
AcDbEntity
  8
0
100
AcDbSpline
 62
7
  6
CONTINUOUS
 70
0
 71
3
 72
30
 73
26
 74
0
 42
0.0000001
 43
0.0000001
 44
0.0000000001
 40
0.0
 40
0.0
 40
0.0
 40
0.0
 40
0.0034953651
 40
0.0078226959
 40
0.0129762703
 40
0.0189499261
 40
0.0333150307
 40
0.0508194864
 40
0.071357548
 40
0.0947925824
 40
0.1209735586
 40
0.1497354589
 40
0.2142327348
 40
0.2866238655
 40
0.3650445208
 40
0.447472909
 40
0.5317844074
 40
0.6158072807
 40
0.6973766561
 40
0.7743894983
 40
0.8448624382
 40
0.9069748695
 40
0.9591438076
 40
0.9810660544
 40
1.0
 40
1.0
 40
1.0
 40
1.0
 10
0.9724120844
 20
4.449608122
 30
0.0
 10
0.9725240455
 20
4.4479391884
 30
0.0
 10
0.9727384755
 20
4.444201679
 30
0.0
 10
0.9730289636
 20
4.4379987165
 30
0.0
 10
0.9733208798
 20
4.4306087415
 30
0.0
 10
0.9737373265
 20
4.4184166187
 30
0.0
 10
0.9742432067
 20
4.4003139077
 30
0.0
 10
0.9748245511
 20
4.3752412671
 30
0.0
 10
0.9754079233
 20
4.345827313
 30
0.0
 10
0.9759933727
 20
4.3122606101
 30
0.0
 10
0.9765800232
 20
4.2747579288
 30
0.0
 10
0.977394599
 20
4.217606391
 30
0.0
 10
0.9783935887
 20
4.1383417334
 30
0.0
 10
0.9795563885
 20
4.0353134922
 30
0.0
 10
0.9807217837
 20
3.9237039579
 30
0.0
 10
0.9818888762
 20
3.8063897356
 30
0.0
 10
0.9830566293
 20
3.6863944856
 30
0.0
 10
0.9842242952
 20
3.5668103295
 30
0.0
 10
0.9853910181
 20
3.4507190572
 30
0.0
 10
0.9865559254
 20
3.3411123438
 30
0.0
 10
0.98771723
 20
3.2408171383
 30
0.0
 10
0.9888736324
 20
3.1524116676
 30
0.0
 10
0.9898771256
 20
3.0872398747
 30
0.0
 10
0.9907056887
 20
3.0427309644
 30
0.0
 10
0.9911249581
 20
3.0231839396
 30
0.0
 10
0.9913392857
 20
3.014125755
 30
0.0
  0
SPLINE
  5
285
100
AcDbEntity
  8
0
100
AcDbSpline
 62
7
  6
CONTINUOUS
 70
0
 71
3
 72
18
 73
14
 74
0
 42
0.0000001
 43
0.0000001
 44
0.0000000001
 40
0.0
 40
0.0
 40
0.0
 40
0.0
 40
0.0096438749
 40
0.0241795747
 40
0.0453358787
 40
0.0736489572
 40
0.1093298852
 40
0.1524784943
 40
0.2613604585
 40
0.4005115519
 40
0.5699971535
 40
0.7698304556
 40
1.0
 40
1.0
 40
1.0
 40
1.0
 10
0.7150892857
 20
4.4835986025
 30
0.0
 10
0.7151111536
 20
4.4835986032
 30
0.0
 10
0.7151636797
 20
4.4835691824
 30
0.0
 10
0.7152196414
 20
4.4834822169
 30
0.0
 10
0.715278492
 20
4.4833491133
 30
0.0
 10
0.7153365778
 20
4.4831647334
 30
0.0
 10
0.7153957433
 20
4.4829290228
 30
0.0
 10
0.7154815484
 20
4.4825120147
 30
0.0
 10
0.7155847472
 20
4.4818595994
 30
0.0
 10
0.7157025253
 20
4.4809201482
 30
0.0
 10
0.7158209463
 20
4.4797731923
 30
0.0
 10
0.715939932
 20
4.4784190134
 30
0.0
 10
0.7160142128
 20
4.4774467777
 30
0.0
 10
0.7160518409
 20
4.4769262169
 30
0.0
  0
LINE
  5
286
100
AcDbEntity
  8
0
100
AcDbLine
 62
7
  6
CONTINUOUS
 10
0.7160518409
 20
4.4769262169
 11
0.7165332727
 21
4.4686145367
  0
SPLINE
  5
287
100
AcDbEntity
  8
0
100
AcDbSpline
 62
7
  6
CONTINUOUS
 70
0
 71
3
 72
19
 73
15
 74
0
 42
0.0000001
 43
0.0000001
 44
0.0000000001
 40
0.0
 40
0.0
 40
0.0
 40
0.0
 40
0.0094664774
 40
0.0207591011
 40
0.0487299676
 40
0.0837190214
 40
0.1254625577
 40
0.1736553615
 40
0.2279450756
 40
0.353160834
 40
0.4974342425
 40
0.6564963736
 40
0.8256986288
 40
1.0
 40
1.0
 40
1.0
 40
1.0
 10
0.7165332727
 20
4.4686145367
 30
0.0
 10
0.7166500298
 20
4.4661991575
 30
0.0
 10
0.7168768603
 20
4.4609010472
 30
0.0
 10
0.7173254734
 20
4.4484610752
 30
0.0
 10
0.7178662343
 20
4.4295008468
 30
0.0
 10
0.7184852919
 20
4.4027616022
 30
0.0
 10
0.7191075586
 20
4.3708555773
 30
0.0
 10
0.719732585
 20
4.3340184947
 30
0.0
 10
0.720610046
 20
4.2758598537
 30
0.0
 10
0.721679439
 20
4.1931577888
 30
0.0
 10
0.7229179619
 20
4.0836918947
 30
0.0
 10
0.7241605131
 20
3.9629891005
 30
0.0
 10
0.725405638
 20
3.8346153566
 30
0.0
 10
0.7262322904
 20
3.7468716885
 30
0.0
 10
0.7266517857
 20
3.7023486025
 30
0.0
  0
SPLINE
  5
288
100
AcDbEntity
  8
0
100
AcDbSpline
 62
7
  6
CONTINUOUS
 70
0
 71
3
 72
38
 73
34
 74
0
 42
0.0000001
 43
0.0000001
 44
0.0000000001
 40
0.0
 40
0.0
 40
0.0
 40
0.0
 40
0.0969461208
 40
0.1930788392
 40
0.2873589165
 40
0.3789058762
 40
0.4668838793
 40
0.5504690524
 40
0.6288538423
 40
0.7013081045
 40
0.7671432664
 40
0.7973863488
 40
0.825750346
 40
0.8521641398
 40
0.8765671851
 40
0.8989057607
 40
0.9191262827
 40
0.9371760184
 40
0.9530138408
 40
0.966607301
 40
0.9725523734
 40
0.9779243549
 40
0.9827192967
 40
0.9869338496
 40
0.9905665985
 40
0.9936166592
 40
0.9960834221
 40
0.9970980586
 40
0.9979669789
 40
0.998690469
 40
0.9992691509
 40
0.9997044295
 40
1.0
 40
1.0
 40
1.0
 40
1.0
 10
0.7729017857
 20
3.7023486025
 30
0.0
 10
0.7731396642
 20
3.6771013975
 30
0.0
 10
0.7736134273
 20
3.6268188179
 30
0.0
 10
0.7743251574
 20
3.5519834005
 30
0.0
 10
0.7750369056
 20
3.4785541873
 30
0.0
 10
0.7757482707
 20
3.4072488593
 30
0.0
 10
0.7764593857
 20
3.3387290171
 30
0.0
 10
0.777169974
 20
3.2736372737
 30
0.0
 10
0.7778800624
 20
3.2125887298
 30
0.0
 10
0.7785891846
 20
3.1561632636
 30
0.0
 10
0.7791950429
 20
3.1122753812
 30
0.0
 10
0.7796843066
 20
3.0798697462
 30
0.0
 10
0.780040611
 20
3.057730055
 30
0.0
 10
0.7803967665
 20
3.0371115311
 30
0.0
 10
0.7807527132
 20
3.0180624958
 30
0.0
 10
0.7811083137
 20
3.0006267131
 30
0.0
 10
0.7814634459
 20
2.9848459314
 30
0.0
 10
0.7818180109
 20
2.9707586414
 30
0.0
 10
0.7821718651
 20
2.9583978799
 30
0.0
 10
0.7824776184
 20
2.9491895989
 30
0.0
 10
0.7827260929
 20
2.9427067332
 30
0.0
 10
0.7829038221
 20
2.9385143305
 30
0.0
 10
0.7830812575
 20
2.934773051
 30
0.0
 10
0.7832583719
 20
2.9314852887
 30
0.0
 10
0.7834348659
 20
2.928652655
 30
0.0
 10
0.7836106383
 20
2.9262762164
 30
0.0
 10
0.7837639909
 20
2.9245819385
 30
0.0
 10
0.7838903725
 20
2.9234559963
 30
0.0
 10
0.78397856
 20
2.9227826881
 30
0.0
 10
0.7840663217
 20
2.922224128
 30
0.0
 10
0.7841530769
 20
2.9217795924
 30
0.0
 10
0.7842388905
 20
2.9214498365
 30
0.0
 10
0.7843057667
 20
2.921269892
 30
0.0
 10
0.7843441699
 20
2.9212031783
 30
0.0
  0
SPLINE
  5
289
100
AcDbEntity
  8
0
100
AcDbSpline
 62
7
  6
CONTINUOUS
 70
0
 71
3
 72
19
 73
15
 74
0
 42
0.0000001
 43
0.0000001
 44
0.0000000001
 40
0.0
 40
0.0
 40
0.0
 40
0.0
 40
0.1749602786
 40
0.3447460539
 40
0.5042424617
 40
0.6487484625
 40
0.773945642
 40
0.8281182307
 40
0.8761165505
 40
0.9175862363
 40
0.9522207283
 40
0.979755848
 40
0.9908007445
 40
1.0
 40
1.0
 40
1.0
 40
1.0
 10
0.6804017857
 20
3.7023486025
 30
0.0
 10
0.6799801142
 20
3.7471026621
 30
0.0
 10
0.6791493105
 20
3.8352871675
 30
0.0
 10
0.6778979027
 20
3.9642697994
 30
0.0
 10
0.6766491685
 20
4.0854616669
 30
0.0
 10
0.6754045656
 20
4.1952468477
 30
0.0
 10
0.6743295664
 20
4.2780896095
 30
0.0
 10
0.6734470677
 20
4.3362452672
 30
0.0
 10
0.6728189451
 20
4.3729841772
 30
0.0
 10
0.6721937449
 20
4.40472436
 30
0.0
 10
0.671571902
 20
4.4312287591
 30
0.0
 10
0.6710284558
 20
4.4499498902
 30
0.0
 10
0.6705767833
 20
4.4621638632
 30
0.0
 10
0.6703483101
 20
4.4673375027
 30
0.0
 10
0.6702304383
 20
4.4696877818
 30
0.0
  0
SPLINE
  5
28A
100
AcDbEntity
  8
0
100
AcDbSpline
 62
7
  6
CONTINUOUS
 70
0
 71
3
 72
12
 73
8
 74
0
 42
0.0000001
 43
0.0000001
 44
0.0000000001
 40
0.0
 40
0.0
 40
0.0
 40
0.0
 40
0.3489098962
 40
0.6319430712
 40
0.8489761949
 40
0.9327322386
 40
1.0
 40
1.0
 40
1.0
 40
1.0
 10
0.6702304383
 20
4.4696877818
 30
0.0
 10
0.670156669
 20
4.4711586862
 30
0.0
 10
0.6700131324
 20
4.4738223364
 30
0.0
 10
0.6697766733
 20
4.4773981035
 30
0.0
 10
0.6695696444
 20
4.4798541002
 30
0.0
 10
0.6693957671
 20
4.4813979905
 30
0.0
 10
0.6693077491
 20
4.4820295232
 30
0.0
 10
0.6692617661
 20
4.4823097132
 30
0.0
  0
SPLINE
  5
28B
100
AcDbEntity
  8
0
100
AcDbSpline
 62
7
  6
CONTINUOUS
 70
0
 71
3
 72
13
 73
9
 74
0
 42
0.0000001
 43
0.0000001
 44
0.0000000001
 40
0.0
 40
0.0
 40
0.0
 40
0.0
 40
0.4132085337
 40
0.5773372206
 40
0.7134541861
 40
0.8220446141
 40
0.9041034381
 40
1.0
 40
1.0
 40
1.0
 40
1.0
 10
0.6692617661
 20
4.4823097132
 30
0.0
 10
0.6692308259
 20
4.4824982426
 30
0.0
 10
0.6691836792
 20
4.4827610102
 30
0.0
 10
0.6691080651
 20
4.4830825355
 30
0.0
 10
0.6690567146
 20
4.4832637858
 30
0.0
 10
0.6690038855
 20
4.483407711
 30
0.0
 10
0.6689488497
 20
4.4835220465
 30
0.0
 10
0.6688836249
 20
4.4835984071
 30
0.0
 10
0.6688392862
 20
4.4835985201
 30
0.0
  0
SPLINE
  5
28C
100
AcDbEntity
  8
0
100
AcDbSpline
 62
7
  6
CONTINUOUS
 70
0
 71
3
 72
38
 73
34
 74
0
 42
0.0000001
 43
0.0000001
 44
0.0000000001
 40
0.0
 40
0.0
 40
0.0
 40
0.0
 40
0.0969495279
 40
0.1930822874
 40
0.2873582481
 40
0.3788999612
 40
0.4668734565
 40
0.5504540776
 40
0.6288376606
 40
0.7012945107
 40
0.7671338471
 40
0.7973801464
 40
0.8257460951
 40
0.8521608531
 40
0.8765659324
 40
0.8989063514
 40
0.9191271536
 40
0.9371759606
 40
0.9530142608
 40
0.9666083081
 40
0.9725532471
 40
0.9779245614
 40
0.982718309
 40
0.9869322594
 40
0.9905651075
 40
0.9936156955
 40
0.9960831403
 40
0.9970980901
 40
0.9979672602
 40
0.9986909024
 40
0.9992696062
 40
0.9997047463
 40
1.0
 40
1.0
 40
1.0
 40
1.0
 10
0.8291517857
 20
3.7023486025
 30
0.0
 10
0.8289138987
 20
3.7275967129
 30
0.0
 10
0.8284401269
 20
3.7778802266
 30
0.0
 10
0.8277283969
 20
3.8527155236
 30
0.0
 10
0.8270166736
 20
3.9261423618
 30
0.0
 10
0.8263053402
 20
3.9974441286
 30
0.0
 10
0.8255942746
 20
4.0659602944
 30
0.0
 10
0.8248837163
 20
4.1310494109
 30
0.0
 10
0.8241736436
 20
4.1920971729
 30
0.0
 10
0.8234645233
 20
4.2485241265
 30
0.0
 10
0.8228586218
 20
4.2924146391
 30
0.0
 10
0.8223693486
 20
4.3248227307
 30
0.0
 10
0.8220130192
 20
4.3469640348
 30
0.0
 10
0.8216568209
 20
4.367583862
 30
0.0
 10
0.821300863
 20
4.386634172
 30
0.0
 10
0.8209452572
 20
4.4040710501
 30
0.0
 10
0.8205901178
 20
4.4198521542
 30
0.0
 10
0.8202355155
 20
4.433939409
 30
0.0
 10
0.8198816782
 20
4.4463002152
 30
0.0
 10
0.8195759435
 20
4.4555087463
 30
0.0
 10
0.8193274735
 20
4.4619915611
 30
0.0
 10
0.8191497543
 20
4.4661834474
 30
0.0
 10
0.8189722985
 20
4.4699240862
 30
0.0
 10
0.8187951824
 20
4.4732114079
 30
0.0
 10
0.8186186935
 20
4.4760440502
 30
0.0
 10
0.8184429262
 20
4.4784208324
 30
0.0
 10
0.8182895813
 20
4.4801155103
 30
0.0
 10
0.8181632033
 20
4.4812417798
 30
0.0
 10
0.818075018
 20
4.481915277
 30
0.0
 10
0.817987259
 20
4.4824739486
 30
0.0
 10
0.8179005113
 20
4.4829184987
 30
0.0
 10
0.8178147064
 20
4.4832481344
 30
0.0
 10
0.8177478294
 20
4.4834279653
 30
0.0
 10
0.8177094006
 20
4.4834945691
 30
0.0
  0
SPLINE
  5
28D
100
AcDbEntity
  8
0
100
AcDbSpline
 62
7
  6
CONTINUOUS
 70
0
 71
3
 72
38
 73
34
 74
0
 42
0.0000001
 43
0.0000001
 44
0.0000000001
 40
0.0
 40
0.0
 40
0.0
 40
0.0
 40
0.09694862
 40
0.1930804652
 40
0.2873548791
 40
0.3788962904
 40
0.4668726393
 40
0.5504575232
 40
0.6288430648
 40
0.7013000988
 40
0.7671387011
 40
0.7973841571
 40
0.8257496127
 40
0.8521638475
 40
0.8765676887
 40
0.8989068095
 40
0.9191269209
 40
0.9371755878
 40
0.9530135445
 40
0.9666073783
 40
0.9725523702
 40
0.9779239026
 40
0.9827179706
 40
0.9869320511
 40
0.9905648828
 40
0.9936153802
 40
0.9960827323
 40
0.9970976575
 40
0.9979668293
 40
0.9986905084
 40
0.9992692925
 40
0.9997045634
 40
1.0
 40
1.0
 40
1.0
 40
1.0
 10
0.8191517857
 20
3.7023486025
 30
0.0
 10
0.8193896704
 20
3.6771007333
 30
0.0
 10
0.8198634381
 20
3.6268177038
 30
0.0
 10
0.8205751593
 20
3.5519832985
 30
0.0
 10
0.8212868735
 20
3.4785571939
 30
0.0
 10
0.8219982089
 20
3.407255179
 30
0.0
 10
0.822709297
 20
3.3387372517
 30
0.0
 10
0.8234198763
 20
3.2736457843
 30
0.0
 10
0.8241299718
 20
3.2125963659
 30
0.0
 10
0.8248391013
 20
3.1561690563
 30
0.0
 10
0.8254450005
 20
3.1122789151
 30
0.0
 10
0.8259342774
 20
3.0798713691
 30
0.0
 10
0.8262905979
 20
3.0577305534
 30
0.0
 10
0.8266467789
 20
3.0371113171
 30
0.0
 10
0.8270027282
 20
3.0180618075
 30
0.0
 10
0.8273583256
 20
3.0006257733
 30
0.0
 10
0.8277134534
 20
2.9848452265
 30
0.0
 10
0.8280680357
 20
2.9707582799
 30
0.0
 10
0.8284218697
 20
2.9583976575
 30
0.0
 10
0.8287276036
 20
2.9491892596
 30
0.0
 10
0.8289760724
 20
2.942706431
 30
0.0
 10
0.8291537927
 20
2.9385143914
 30
0.0
 10
0.8293312436
 20
2.9347735788
 30
0.0
 10
0.8295083631
 20
2.9314861446
 30
0.0
 10
0.8296848563
 20
2.9286534971
 30
0.0
 10
0.8298606289
 20
2.9262767678
 30
0.0
 10
0.8300139792
 20
2.9245821451
 30
0.0
 10
0.8301403603
 20
2.9234559065
 30
0.0
 10
0.8302285485
 20
2.9227824063
 30
0.0
 10
0.8303163107
 20
2.9222237035
 30
0.0
 10
0.8304030634
 20
2.9217790901
 30
0.0
 10
0.8304888737
 20
2.9214493474
 30
0.0
 10
0.8305557512
 20
2.9212694352
 30
0.0
 10
0.8305941705
 20
2.9212027709
 30
0.0
  0
SPLINE
  5
28E
100
AcDbEntity
  8
0
100
AcDbSpline
 62
7
  6
CONTINUOUS
 70
0
 71
3
 72
38
 73
34
 74
0
 42
0.0000001
 43
0.0000001
 44
0.0000000001
 40
0.0
 40
0.0
 40
0.0
 40
0.0
 40
0.0969504737
 40
0.1930824484
 40
0.2873581401
 40
0.3789006043
 40
0.466874429
 40
0.5504540895
 40
0.6288365987
 40
0.7012923656
 40
0.7671317454
 40
0.7973783981
 40
0.8257440487
 40
0.8521587614
 40
0.8765645996
 40
0.898905724
 40
0.9191263219
 40
0.9371749743
 40
0.953014097
 40
0.9666089192
 40
0.9725539067
 40
0.977924873
 40
0.9827181878
 40
0.9869320462
 40
0.9905650325
 40
0.9936158715
 40
0.9960835627
 40
0.9970985976
 40
0.9979678077
 40
0.9986914309
 40
0.9992700428
 40
0.9997050063
 40
1.0
 40
1.0
 40
1.0
 40
1.0
 10
0.8654017857
 20
3.7023486025
 30
0.0
 10
0.865639675
 20
3.6771002451
 30
0.0
 10
0.866113447
 20
3.6268166881
 30
0.0
 10
0.8668251773
 20
3.5519814173
 30
0.0
 10
0.8675368993
 20
3.478554656
 30
0.0
 10
0.8682482362
 20
3.4072526759
 30
0.0
 10
0.8689592998
 20
3.3387364771
 30
0.0
 10
0.8696698567
 20
3.2736478029
 30
0.0
 10
0.8703799151
 20
3.2126008512
 30
0.0
 10
0.8710890316
 20
3.1561744464
 30
0.0
 10
0.8716949294
 20
3.1122841114
 30
0.0
 10
0.872184192
 20
3.0798759931
 30
0.0
 10
0.8725405284
 20
3.0577346859
 30
0.0
 10
0.8728967327
 20
3.0371147501
 30
0.0
 10
0.8732526863
 20
3.0180640699
 30
0.0
 10
0.8736082856
 20
3.000626863
 30
0.0
 10
0.873963437
 20
2.9848456684
 30
0.0
 10
0.8743180594
 20
2.970758293
 30
0.0
 10
0.8746718934
 20
2.9583971104
 30
0.0
 10
0.8749776263
 20
2.9491881502
 30
0.0
 10
0.8752260994
 20
2.9427052114
 30
0.0
 10
0.8754038242
 20
2.9385135161
 30
0.0
 10
0.8755812911
 20
2.9347731053
 30
0.0
 10
0.8757584059
 20
2.9314858843
 30
0.0
 10
0.8759348931
 20
2.9286531643
 30
0.0
 10
0.8761106573
 20
2.9262762158
 30
0.0
 10
0.8762639978
 20
2.9245813851
 30
0.0
 10
0.8763903738
 20
2.9234550182
 30
0.0
 10
0.8764785566
 20
2.9227814925
 30
0.0
 10
0.8765663119
 20
2.9222228395
 30
0.0
 10
0.8766530545
 20
2.9217783631
 30
0.0
 10
0.8767388489
 20
2.9214488695
 30
0.0
 10
0.8768057318
 20
2.921269155
 30
0.0
 10
0.8768441713
 20
2.9212026356
 30
0.0
  0
SPLINE
  5
28F
100
AcDbEntity
  8
0
100
AcDbSpline
 62
7
  6
CONTINUOUS
 70
0
 71
3
 72
16
 73
12
 74
0
 42
0.0000001
 43
0.0000001
 44
0.0000000001
 40
0.0
 40
0.0
 40
0.0
 40
0.0
 40
0.0244725795
 40
0.0458911066
 40
0.0743732692
 40
0.1101589731
 40
0.1533639372
 40
0.2622478004
 40
0.4012897869
 40
0.5705812059
 40
1.0
 40
1.0
 40
1.0
 40
1.0
 10
0.9332142852
 20
2.9210986938
 30
0.0
 10
0.9331664527
 20
2.9210988192
 30
0.0
 10
0.9330978523
 20
2.9211857509
 30
0.0
 10
0.9330403219
 20
2.9213117207
 30
0.0
 10
0.9329845004
 20
2.9214725047
 30
0.0
 10
0.932930299
 20
2.921674593
 30
0.0
 10
0.9328504098
 20
2.9220335281
 30
0.0
 10
0.932754897
 20
2.9225944833
 30
0.0
 10
0.9326455376
 20
2.9234027621
 30
0.0
 10
0.9324862024
 20
2.9248359514
 30
0.0
 10
0.932386796
 20
2.9260021244
 30
0.0
 10
0.9323216007
 20
2.9268389057
 30
0.0
  0
LINE
  5
290
100
AcDbEntity
  8
0
100
AcDbLine
 62
7
  6
CONTINUOUS
 10
0.9323216007
 20
2.9268389057
 11
0.9318388667
 21
2.9346974583
  0
SPLINE
  5
291
100
AcDbEntity
  8
0
100
AcDbSpline
 62
7
  6
CONTINUOUS
 70
0
 71
3
 72
20
 73
16
 74
0
 42
0.0000001
 43
0.0000001
 44
0.0000000001
 40
0.0
 40
0.0
 40
0.0
 40
0.0
 40
0.0091194404
 40
0.0200904153
 40
0.0474954944
 40
0.082023999
 40
0.1234112716
 40
0.1713488204
 40
0.2254819217
 40
0.28540032
 40
0.3506662506
 40
0.4952436499
 40
0.6548796875
 40
0.8248459783
 40
1.0
 40
1.0
 40
1.0
 40
1.0
 10
0.9318388667
 20
2.9346974583
 30
0.0
 10
0.9317206543
 20
2.9370282277
 30
0.0
 10
0.931491687
 20
2.9421645769
 30
0.0
 10
0.9310390917
 20
2.9543108236
 30
0.0
 10
0.9304948411
 20
2.9729602112
 30
0.0
 10
0.9298721718
 20
2.9993938699
 30
0.0
 10
0.9292461085
 20
3.0310831835
 30
0.0
 10
0.9286171554
 20
3.0677902834
 30
0.0
 10
0.9279867701
 20
3.1092402936
 30
0.0
 10
0.9273550649
 20
3.1551252637
 30
0.0
 10
0.9264818869
 20
3.2241547519
 30
0.0
 10
0.9254103369
 20
3.318702557
 30
0.0
 10
0.9241593639
 20
3.4400439362
 30
0.0
 10
0.9229061636
 20
3.5692105751
 30
0.0
 10
0.922074096
 20
3.6575267473
 30
0.0
 10
0.9216517857
 20
3.7023486025
 30
0.0
  0
SPLINE
  5
292
100
AcDbEntity
  8
0
100
AcDbSpline
 62
7
  6
CONTINUOUS
 70
0
 71
3
 72
16
 73
12
 74
0
 42
0.0000001
 43
0.0000001
 44
0.0000000001
 40
0.0
 40
0.0
 40
0.0
 40
0.0
 40
0.0254223577
 40
0.0470058874
 40
0.0755470023
 40
0.1113270644
 40
0.1544876475
 40
0.2632308463
 40
0.4020989824
 40
0.5711792768
 40
1.0
 40
1.0
 40
1.0
 40
1.0
 10
0.8388392836
 20
4.4576160418
 30
0.0
 10
0.8388837184
 20
4.4576163463
 30
0.0
 10
0.8389502949
 20
4.4575416971
 30
0.0
 10
0.8390062617
 20
4.4574280248
 30
0.0
 10
0.8390598904
 20
4.4572854828
 30
0.0
 10
0.8391119949
 20
4.4571056135
 30
0.0
 10
0.8391887183
 20
4.4567862386
 30
0.0
 10
0.8392804632
 20
4.4562862654
 30
0.0
 10
0.8393854771
 20
4.4555653899
 30
0.0
 10
0.8395384813
 20
4.4542866396
 30
0.0
 10
0.8396339491
 20
4.4532457377
 30
0.0
 10
0.8396965672
 20
4.4524988203
 30
0.0
  0
SPLINE
  5
293
100
AcDbEntity
  8
0
100
AcDbSpline
 62
7
  6
CONTINUOUS
 70
0
 71
3
 72
46
 73
42
 74
0
 42
0.0000001
 43
0.0000001
 44
0.0000000001
 40
0.0
 40
0.0
 40
0.0
 40
0.0
 40
0.0032598884
 40
0.0075878534
 40
0.0129771005
 40
0.0194182991
 40
0.0268954083
 40
0.0353910566
 40
0.0553676622
 40
0.0791791185
 40
0.1066149617
 40
0.1374438552
 40
0.1713930693
 40
0.2081749985
 40
0.2474663579
 40
0.3322085885
 40
0.4226941225
 40
0.5157990848
 40
0.6083092497
 40
0.6533400325
 40
0.6970310093
 40
0.7390071758
 40
0.7789016173
 40
0.8163737231
 40
0.8510949447
 40
0.8827690126
 40
0.911119118
 40
0.935901641
 40
0.9468880378
 40
0.9569029204
 40
0.9659257984
 40
0.9739392422
 40
0.9809258896
 40
0.9868685216
 40
0.9917539318
 40
0.9937978392
 40
0.9955747636
 40
0.9970839393
 40
0.9983247132
 40
0.9992966702
 40
1.0
 40
1.0
 40
1.0
 40
1.0
 10
0.8396965672
 20
4.4524988203
 30
0.0
 10
0.8398331714
 20
4.4508693862
 30
0.0
 10
0.8400849589
 20
4.4470712474
 30
0.0
 10
0.8404181286
 20
4.4405704689
 30
0.0
 10
0.8407537712
 20
4.4324722865
 30
0.0
 10
0.8410914857
 20
4.422793533
 30
0.0
 10
0.8414303937
 20
4.4115558335
 30
0.0
 10
0.8419096548
 20
4.3935300853
 30
0.0
 10
0.842494663
 20
4.367311156
 30
0.0
 10
0.8431687102
 20
4.3315917839
 30
0.0
 10
0.8438452114
 20
4.2904281389
 30
0.0
 10
0.8445233118
 20
4.2441788541
 30
0.0
 10
0.8452027301
 20
4.1932411656
 30
0.0
 10
0.8458828148
 20
4.1380583939
 30
0.0
 10
0.8468140814
 20
4.0573991846
 30
0.0
 10
0.8479588883
 20
3.9498031117
 30
0.0
 10
0.8493039192
 20
3.8152149444
 30
0.0
 10
0.8506501212
 20
3.6767302291
 30
0.0
 10
0.8517816077
 20
3.5610444689
 30
0.0
 10
0.8526987129
 20
3.4701437078
 30
0.0
 10
0.8533802558
 20
3.404589564
 30
0.0
 10
0.8540614204
 20
3.3416119332
 30
0.0
 10
0.8547423203
 20
3.2817538569
 30
0.0
 10
0.8554225565
 20
3.2255350791
 30
0.0
 10
0.8561021987
 20
3.1734399308
 30
0.0
 10
0.8567806467
 20
3.1259207527
 30
0.0
 10
0.857457767
 20
3.0833873381
 30
0.0
 10
0.8580410396
 20
3.0512306722
 30
0.0
 10
0.8585145992
 20
3.0282705264
 30
0.0
 10
0.8588550843
 20
3.0132143372
 30
0.0
 10
0.8591951101
 20
2.9996497783
 30
0.0
 10
0.8595344975
 20
2.9876046874
 30
0.0
 10
0.859872794
 20
2.9771052856
 30
0.0
 10
0.8602098755
 20
2.968175807
 30
0.0
 10
0.8605034104
 20
2.9617258195
 30
0.0
 10
0.8607443339
 20
2.9573654148
 30
0.0
 10
0.8609136281
 20
2.954697214
 30
0.0
 10
0.8610822795
 20
2.9524327927
 30
0.0
 10
0.8612494682
 20
2.9505731987
 30
0.0
 10
0.861415244
 20
2.9491199602
 30
0.0
 10
0.8615418068
 20
2.9482884969
 30
0.0
 10
0.8616122742
 20
2.9479428182
 30
0.0
  0
LINE
  5
294
100
AcDbEntity
  8
0
100
AcDbLine
 62
7
  6
CONTINUOUS
 10
0.8616122742
 20
2.9479428182
 11
0.8618400411
 21
2.9471876776
  0
SPLINE
  5
295
100
AcDbEntity
  8
0
100
AcDbSpline
 62
7
  6
CONTINUOUS
 70
0
 71
3
 72
14
 73
10
 74
0
 42
0.0000001
 43
0.0000001
 44
0.0000000001
 40
0.0
 40
0.0
 40
0.0
 40
0.0
 40
0.0423620388
 40
0.1077322827
 40
0.196716702
 40
0.3095471369
 40
0.4463028935
 40
0.6069831356
 40
1.0
 40
1.0
 40
1.0
 40
1.0
 10
0.9252135293
 20
4.4575083227
 30
0.0
 10
0.9252626631
 20
4.4574235643
 30
0.0
 10
0.9253443087
 20
4.4571852961
 30
0.0
 10
0.9254490712
 20
4.4567434398
 30
0.0
 10
0.9255548134
 20
4.4561338845
 30
0.0
 10
0.9256622446
 20
4.4553584016
 30
0.0
 10
0.9257701808
 20
4.4544156049
 30
0.0
 10
0.9259253695
 20
4.4528263517
 30
0.0
 10
0.9260250933
 20
4.4515495776
 30
0.0
 10
0.9260902453
 20
4.450642992
 30
0.0
  0
SPLINE
  5
296
100
AcDbEntity
  8
0
100
AcDbSpline
 62
7
  6
CONTINUOUS
 70
0
 71
3
 72
58
 73
54
 74
0
 42
0.0000001
 43
0.0000001
 44
0.0000000001
 40
0.0
 40
0.0
 40
0.0
 40
0.0
 40
0.0037521774
 40
0.0085901145
 40
0.0145055899
 40
0.0214877481
 40
0.0295189605
 40
0.0385803684
 40
0.0597173568
 40
0.0847154691
 40
0.1133505486
 40
0.1453754496
 40
0.1805023398
 40
0.2184273412
 40
0.2588109841
 40
0.3455216536
 40
0.4375837174
 40
0.4846133626
 40
0.5317582904
 40
0.5786019692
 40
0.6247322388
 40
0.6697423665
 40
0.713234761
 40
0.7548281137
 40
0.7941524731
 40
0.8308657782
 40
0.8646389817
 40
0.8803312319
 40
0.8951804791
 40
0.9091519139
 40
0.9222151574
 40
0.9343435202
 40
0.9455104325
 40
0.955689359
 40
0.9648567834
 40
0.9729950817
 40
0.9800873459
 40
0.9832359513
 40
0.9861167401
 40
0.9887277582
 40
0.9910678954
 40
0.9931363862
 40
0.9949325015
 40
0.9964555744
 40
0.9977050548
 40
0.9986806414
 40
0.9990658141
 40
0.9993827652
 40
0.9996319121
 40
0.9998142602
 40
0.9998812346
 40
0.9999330775
 40
1.0
 40
1.0
 40
1.0
 40
1.0
 10
0.9260902453
 20
4.450642992
 30
0.0
 10
0.9262250728
 20
4.4487668776
 30
0.0
 10
0.9264780133
 20
4.444467831
 30
0.0
 10
0.9268156681
 20
4.4372040243
 30
0.0
 10
0.927155467
 20
4.4283196531
 30
0.0
 10
0.9274968912
 20
4.4178336245
 30
0.0
 10
0.9278393728
 20
4.4057698574
 30
0.0
 10
0.9283221137
 20
4.3866115517
 30
0.0
 10
0.9289124003
 20
4.3589479504
 30
0.0
 10
0.9295934352
 20
4.3214720864
 30
0.0
 10
0.9302767352
 20
4.2785374047
 30
0.0
 10
0.9309615306
 20
4.2305246642
 30
0.0
 10
0.9316475568
 20
4.1778545085
 30
0.0
 10
0.9323342096
 20
4.1209938283
 30
0.0
 10
0.9332729629
 20
4.0382755694
 30
0.0
 10
0.9344272607
 20
3.9284193259
 30
0.0
 10
0.9355504515
 20
3.8152309888
 30
0.0
 10
0.9364617384
 20
3.7218756897
 30
0.0
 10
0.9371500574
 20
3.6511871056
 30
0.0
 10
0.9378383623
 20
3.5809493964
 30
0.0
 10
0.9385265631
 20
3.5117819056
 30
0.0
 10
0.9392145932
 20
3.4442944843
 30
0.0
 10
0.9399024313
 20
3.3790815223
 30
0.0
 10
0.9405898658
 20
3.3167189753
 30
0.0
 10
0.9412769511
 20
3.2577549733
 30
0.0
 10
0.9419632928
 20
3.2027114575
 30
0.0
 10
0.9425480391
 20
3.1595143049
 30
0.0
 10
0.9430194453
 20
3.1272770235
 30
0.0
 10
0.9433641547
 20
3.1049655127
 30
0.0
 10
0.9437087642
 20
3.083972078
 30
0.0
 10
0.944053251
 20
3.064342806
 30
0.0
 10
0.9443975171
 20
3.0461196584
 30
0.0
 10
0.9447414922
 20
3.0293426802
 30
0.0
 10
0.9450851333
 20
3.0140503415
 30
0.0
 10
0.9454283787
 20
3.0002766452
 30
0.0
 10
0.9457710124
 20
2.9880508021
 30
0.0
 10
0.9460661775
 20
2.9788420806
 30
0.0
 10
0.946305351
 20
2.9722685809
 30
0.0
 10
0.9464773991
 20
2.9679405823
 30
0.0
 10
0.9466492902
 20
2.9640182085
 30
0.0
 10
0.946820969
 20
2.9605034584
 30
0.0
 10
0.9469923094
 20
2.9573977376
 30
0.0
 10
0.9471632188
 20
2.9547022942
 30
0.0
 10
0.9473332606
 20
2.9524182765
 30
0.0
 10
0.9475024348
 20
2.950546918
 30
0.0
 10
0.9476504347
 20
2.9492465273
 30
0.0
 10
0.9477739704
 20
2.9484145149
 30
0.0
 10
0.9478583475
 20
2.9479450975
 30
0.0
 10
0.9479426065
 20
2.9475791566
 30
0.0
 10
0.9480156836
 20
2.9473401485
 30
0.0
 10
0.9480798105
 20
2.9472019988
 30
0.0
 10
0.9481273398
 20
2.9471244642
 30
0.0
 10
0.94818074
 20
2.9470799309
 30
0.0
 10
0.9482142874
 20
2.9470801405
 30
0.0
  0
SPLINE
  5
297
100
AcDbEntity
  8
0
100
AcDbSpline
 62
7
  6
CONTINUOUS
 70
0
 71
3
 72
17
 73
13
 74
0
 42
0.0000001
 43
0.0000001
 44
0.0000000001
 40
0.0
 40
0.0
 40
0.0
 40
0.0
 40
0.0240287982
 40
0.0453385088
 40
0.0737548237
 40
0.1095051411
 40
0.1526982854
 40
0.2616143649
 40
0.400747385
 40
0.5701778695
 40
0.7699297069
 40
1.0
 40
1.0
 40
1.0
 40
1.0
 10
0.8869642855
 20
2.9210986384
 30
0.0
 10
0.8869142629
 20
2.9210987249
 30
0.0
 10
0.8868436519
 20
2.9211924676
 30
0.0
 10
0.886784593
 20
2.9213257571
 30
0.0
 10
0.8867269446
 20
2.9214973307
 30
0.0
 10
0.8866710008
 20
2.9217127269
 30
0.0
 10
0.8865884859
 20
2.9220955877
 30
0.0
 10
0.8864898607
 20
2.9226937765
 30
0.0
 10
0.8863769537
 20
2.9235557028
 30
0.0
 10
0.8862635657
 20
2.9246078415
 30
0.0
 10
0.8861495931
 20
2.9258501818
 30
0.0
 10
0.8860784528
 20
2.9267421593
 30
0.0
 10
0.8860424147
 20
2.9272197566
 30
0.0
  0
LINE
  5
298
100
AcDbEntity
  8
0
100
AcDbLine
 62
7
  6
CONTINUOUS
 10
0.8860424147
 20
2.9272197566
 11
0.885559999
 21
2.935272532
  0
SPLINE
  5
299
100
AcDbEntity
  8
0
100
AcDbSpline
 62
7
  6
CONTINUOUS
 70
0
 71
3
 72
19
 73
15
 74
0
 42
0.0000001
 43
0.0000001
 44
0.0000000001
 40
0.0
 40
0.0
 40
0.0
 40
0.0
 40
0.0092662276
 40
0.0203734404
 40
0.048018779
 40
0.0827442475
 40
0.1242857073
 40
0.1723341164
 40
0.2265369414
 40
0.3517332615
 40
0.4961755536
 40
0.6555653984
 40
0.8252071884
 40
1.0
 40
1.0
 40
1.0
 40
1.0
 10
0.885559999
 20
2.935272532
 30
0.0
 10
0.8854424061
 20
2.9376391636
 30
0.0
 10
0.8852143382
 20
2.9428441324
 30
0.0
 10
0.8847634148
 20
2.9551152218
 30
0.0
 10
0.884220601
 20
2.9738973476
 30
0.0
 10
0.8835994139
 20
3.0004624815
 30
0.0
 10
0.8829749343
 20
3.0322462154
 30
0.0
 10
0.8823475468
 20
3.0690114232
 30
0.0
 10
0.8814663502
 20
3.127167456
 30
0.0
 10
0.8803927692
 20
3.2099730131
 30
0.0
 10
0.87914972
 20
3.3196767561
 30
0.0
 10
0.8779025231
 20
3.4407466675
 30
0.0
 10
0.8766526777
 20
3.5695781348
 30
0.0
 10
0.875822909
 20
3.6576527282
 30
0.0
 10
0.8754017857
 20
3.7023486025
 30
0.0
  0
SPLINE
  5
29A
100
AcDbEntity
  8
0
100
AcDbSpline
 62
7
  6
CONTINUOUS
 70
0
 71
3
 72
20
 73
16
 74
0
 42
0.0000001
 43
0.0000001
 44
0.0000000001
 40
0.0
 40
0.0
 40
0.0
 40
0.0
 40
0.0086644836
 40
0.0148465019
 40
0.02262503
 40
0.0434032877
 40
0.07149087
 40
0.1070542109
 40
0.1501687572
 40
0.2008724619
 40
0.2591851626
 40
0.398669406
 40
0.5686489284
 40
0.769105052
 40
1.0
 40
1.0
 40
1.0
 40
1.0
 10
0.8407142863
 20
2.9210989925
 30
0.0
 10
0.8406887518
 20
2.9210988794
 30
0.0
 10
0.8406471972
 20
2.9211256912
 30
0.0
 10
0.8406075725
 20
2.9211783024
 30
0.0
 10
0.8405569803
 20
2.9212680693
 30
0.0
 10
0.8404983767
 20
2.9214248037
 30
0.0
 10
0.8404313582
 20
2.9216645794
 30
0.0
 10
0.8403641327
 20
2.9219720859
 30
0.0
 10
0.8402963459
 20
2.922347357
 30
0.0
 10
0.8402283506
 20
2.9227905518
 30
0.0
 10
0.8401315735
 20
2.923516509
 30
0.0
 10
0.8400136479
 20
2.9245940624
 30
0.0
 10
0.8398782293
 20
2.9260907576
 30
0.0
 10
0.839742329
 20
2.927857739
 30
0.0
 10
0.8396574447
 20
2.9291261357
 30
0.0
 10
0.8396144492
 20
2.929805237
 30
0.0
  0
LINE
  5
29B
100
AcDbEntity
  8
0
100
AcDbLine
 62
7
  6
CONTINUOUS
 10
0.8396144492
 20
2.929805237
 11
0.8391425683
 21
2.9388402763
  0
SPLINE
  5
29C
100
AcDbEntity
  8
0
100
AcDbSpline
 62
7
  6
CONTINUOUS
 70
0
 71
3
 72
19
 73
15
 74
0
 42
0.0000001
 43
0.0000001
 44
0.0000000001
 40
0.0
 40
0.0
 40
0.0
 40
0.0
 40
0.0101023331
 40
0.0219841473
 40
0.0509918963
 40
0.0868273846
 40
0.1292269263
 40
0.1778858889
 40
0.232458543
 40
0.3577206151
 40
0.5014252054
 40
0.6594339501
 40
0.8272533089
 40
1.0
 40
1.0
 40
1.0
 40
1.0
 10
0.8391425683
 20
2.9388402763
 30
0.0
 10
0.8390283515
 20
2.9414090705
 30
0.0
 10
0.8388054161
 20
2.9470002797
 30
0.0
 10
0.8383640624
 20
2.9599717082
 30
0.0
 10
0.8378299072
 20
2.9794932977
 30
0.0
 10
0.837217631
 20
3.0067828224
 30
0.0
 10
0.8366024674
 20
3.0390751577
 30
0.0
 10
0.8359848687
 20
3.0761373206
 30
0.0
 10
0.8351195514
 20
3.1342890716
 30
0.0
 10
0.8340637582
 20
3.2166323644
 30
0.0
 10
0.8328400627
 20
3.3253029206
 30
0.0
 10
0.8316125856
 20
3.4448061013
 30
0.0
 10
0.8303826751
 20
3.571701658
 30
0.0
 10
0.8295660417
 20
3.658381591
 30
0.0
 10
0.8291517857
 20
3.7023486025
 30
0.0
  0
SPLINE
  5
29D
100
AcDbEntity
  8
0
100
AcDbSpline
 62
7
  6
CONTINUOUS
 70
0
 71
3
 72
15
 73
11
 74
0
 42
0.0000001
 43
0.0000001
 44
0.0000000001
 40
0.0
 40
0.0
 40
0.0
 40
0.0
 40
0.0268272694
 40
0.0487762323
 40
0.0775477268
 40
0.1134623923
 40
0.1566838472
 40
0.2653615934
 40
0.5725399869
 40
1.0
 40
1.0
 40
1.0
 40
1.0
 10
0.7925892837
 20
4.4576165394
 30
0.0
 10
0.7926288174
 20
4.4576168125
 30
0.0
 10
0.7926898763
 20
4.4575562614
 30
0.0
 10
0.7927421804
 20
4.4574589145
 30
0.0
 10
0.7927912717
 20
4.4573393756
 30
0.0
 10
0.7928391005
 20
4.4571881236
 30
0.0
 10
0.7929093632
 20
4.4569200989
 30
0.0
 10
0.7930419089
 20
4.4562564442
 30
0.0
 10
0.7932084427
 20
4.455024009
 30
0.0
 10
0.7933173497
 20
4.4539469198
 30
0.0
 10
0.7933747281
 20
4.4533196018
 30
0.0
  0
SPLINE
  5
29E
100
AcDbEntity
  8
0
100
AcDbSpline
 62
7
  6
CONTINUOUS
 70
0
 71
3
 72
45
 73
41
 74
0
 42
0.0000001
 43
0.0000001
 44
0.0000000001
 40
0.0
 40
0.0
 40
0.0
 40
0.0
 40
0.0030338289
 40
0.0071368317
 40
0.0123028483
 40
0.0185230904
 40
0.0257820147
 40
0.0340627327
 40
0.0536211427
 40
0.0770329817
 40
0.1040912404
 40
0.134567889
 40
0.1681932031
 40
0.20468244
 40
0.2437147836
 40
0.3280488044
 40
0.4182837255
 40
0.5113043252
 40
0.6038992897
 40
0.6490351987
 40
0.6928720807
 40
0.7350335895
 40
0.7751512823
 40
0.8128825491
 40
0.8478966481
 40
0.8798947429
 40
0.9085972382
 40
0.9337574517
 40
0.9449411483
 40
0.9551584111
 40
0.9643883091
 40
0.9726129585
 40
0.979814539
 40
0.9859753659
 40
0.9910817246
 40
0.9951256391
 40
0.9967469675
 40
0.9981001396
 40
0.999184552
 40
1.0
 40
1.0
 40
1.0
 40
1.0
 10
0.7933747281
 20
4.4533196018
 30
0.0
 10
0.7935133786
 20
4.4518037362
 30
0.0
 10
0.7937657234
 20
4.4482312553
 30
0.0
 10
0.7940980974
 20
4.4420673646
 30
0.0
 10
0.7944331056
 20
4.4343028524
 30
0.0
 10
0.794770524
 20
4.4249538748
 30
0.0
 10
0.7951092171
 20
4.4140412838
 30
0.0
 10
0.7955890646
 20
4.3964376982
 30
0.0
 10
0.7961741718
 20
4.3707295833
 30
0.0
 10
0.796847888
 20
4.3355999027
 30
0.0
 10
0.7975241584
 20
4.2949912781
 30
0.0
 10
0.7982021121
 20
4.2492575564
 30
0.0
 10
0.7988814295
 20
4.1987914878
 30
0.0
 10
0.7995614416
 20
4.1440323397
 30
0.0
 10
0.8004932161
 20
4.0638317966
 30
0.0
 10
0.8016384179
 20
3.9566655877
 30
0.0
 10
0.8029833369
 20
3.8224119452
 30
0.0
 10
0.8043295077
 20
3.6840132696
 30
0.0
 10
0.8054605259
 20
3.5682415492
 30
0.0
 10
0.8063772155
 20
3.477146355
 30
0.0
 10
0.8070587809
 20
3.4113545604
 30
0.0
 10
0.8077399805
 20
3.3480807412
 30
0.0
 10
0.8084209252
 20
3.2878705357
 30
0.0
 10
0.8091012267
 20
3.2312467052
 30
0.0
 10
0.8097809567
 20
3.1786971083
 30
0.0
 10
0.810459536
 20
3.1306779987
 30
0.0
 10
0.8111368399
 20
3.0876035036
 30
0.0
 10
0.8117199405
 20
3.0549722865
 30
0.0
 10
0.8121931339
 20
3.0316154655
 30
0.0
 10
0.8125336923
 20
3.0162505013
 30
0.0
 10
0.8128738368
 20
3.0023705995
 30
0.0
 10
0.8132133415
 20
2.9900042688
 30
0.0
 10
0.8135519822
 20
2.9791784458
 30
0.0
 10
0.8138891086
 20
2.9699179899
 30
0.0
 10
0.8142247125
 20
2.9622430823
 30
0.0
 10
0.8145180298
 20
2.9568462542
 30
0.0
 10
0.814761593
 20
2.9533332172
 30
0.0
 10
0.8149294886
 20
2.9513035026
 30
0.0
 10
0.8150960799
 20
2.9496798127
 30
0.0
 10
0.8152221183
 20
2.9487345021
 30
0.0
 10
0.8152904351
 20
2.9483311031
 30
0.0
  0
LINE
  5
29F
100
AcDbEntity
  8
0
100
AcDbLine
 62
7
  6
CONTINUOUS
 10
0.8152904351
 20
2.9483311031
 11
0.815590042
 21
2.9471883373
  0
SPLINE
  5
2A0
100
AcDbEntity
  8
0
100
AcDbSpline
 62
7
  6
CONTINUOUS
 70
0
 71
3
 72
19
 73
15
 74
0
 42
0.0000001
 43
0.0000001
 44
0.0000000001
 40
0.0
 40
0.0
 40
0.0
 40
0.0
 40
0.0090713956
 40
0.023210031
 40
0.044083322
 40
0.0721857393
 40
0.1077122307
 40
0.1507578736
 40
0.2013761417
 40
0.2596002998
 40
0.3989392959
 40
0.5688196763
 40
0.7691958198
 40
1.0
 40
1.0
 40
1.0
 40
1.0
 10
0.9775892844
 20
4.4576148163
 30
0.0
 10
0.9776139109
 20
4.4576149136
 30
0.0
 10
0.9776735443
 20
4.4575786283
 30
0.0
 10
0.9777347018
 20
4.457475407
 30
0.0
 10
0.9778004368
 20
4.4573165801
 30
0.0
 10
0.977864956
 20
4.4570962219
 30
0.0
 10
0.9779309064
 20
4.456814146
 30
0.0
 10
0.9779969168
 20
4.4564696207
 30
0.0
 10
0.9780632909
 20
4.4560626226
 30
0.0
 10
0.9781576935
 20
4.4553954767
 30
0.0
 10
0.9782727314
 20
4.4544044793
 30
0.0
 10
0.9784047991
 20
4.4530273198
 30
0.0
 10
0.978537349
 20
4.451400932
 30
0.0
 10
0.9786201444
 20
4.4502332949
 30
0.0
 10
0.9786620844
 20
4.449608122
 30
0.0
  0
SPLINE
  5
2A1
100
AcDbEntity
  8
0
100
AcDbSpline
 62
7
  6
CONTINUOUS
 70
0
 71
3
 72
30
 73
26
 74
0
 42
0.0000001
 43
0.0000001
 44
0.0000000001
 40
0.0
 40
0.0
 40
0.0
 40
0.0
 40
0.0034953651
 40
0.0078226959
 40
0.0129762703
 40
0.0189499261
 40
0.0333150307
 40
0.0508194864
 40
0.071357548
 40
0.0947925824
 40
0.1209735586
 40
0.1497354589
 40
0.2142327348
 40
0.2866238655
 40
0.3650445208
 40
0.447472909
 40
0.5317844074
 40
0.6158072807
 40
0.6973766561
 40
0.7743894983
 40
0.8448624382
 40
0.9069748695
 40
0.9591438076
 40
0.9810660544
 40
1.0
 40
1.0
 40
1.0
 40
1.0
 10
0.9786620844
 20
4.449608122
 30
0.0
 10
0.9787740455
 20
4.4479391884
 30
0.0
 10
0.9789884755
 20
4.444201679
 30
0.0
 10
0.9792789636
 20
4.4379987165
 30
0.0
 10
0.9795708798
 20
4.4306087415
 30
0.0
 10
0.9799873265
 20
4.4184166187
 30
0.0
 10
0.9804932067
 20
4.4003139077
 30
0.0
 10
0.9810745511
 20
4.3752412671
 30
0.0
 10
0.9816579233
 20
4.345827313
 30
0.0
 10
0.9822433727
 20
4.3122606101
 30
0.0
 10
0.9828300232
 20
4.2747579288
 30
0.0
 10
0.983644599
 20
4.217606391
 30
0.0
 10
0.9846435887
 20
4.1383417334
 30
0.0
 10
0.9858063885
 20
4.0353134922
 30
0.0
 10
0.9869717837
 20
3.9237039579
 30
0.0
 10
0.9881388762
 20
3.8063897356
 30
0.0
 10
0.9893066293
 20
3.6863944856
 30
0.0
 10
0.9904742952
 20
3.5668103295
 30
0.0
 10
0.9916410181
 20
3.4507190572
 30
0.0
 10
0.9928059254
 20
3.3411123438
 30
0.0
 10
0.99396723
 20
3.2408171383
 30
0.0
 10
0.9951236324
 20
3.1524116676
 30
0.0
 10
0.9961271256
 20
3.0872398747
 30
0.0
 10
0.9969556887
 20
3.0427309644
 30
0.0
 10
0.9973749581
 20
3.0231839396
 30
0.0
 10
0.9975892857
 20
3.014125755
 30
0.0
  0
SPLINE
  5
2A2
100
AcDbEntity
  8
0
100
AcDbSpline
 62
7
  6
CONTINUOUS
 70
0
 71
3
 72
18
 73
14
 74
0
 42
0.0000001
 43
0.0000001
 44
0.0000000001
 40
0.0
 40
0.0
 40
0.0
 40
0.0
 40
0.0093881684
 40
0.0237613693
 40
0.0448189069
 40
0.0730734736
 40
0.1087243348
 40
0.1518648412
 40
0.2607822908
 40
0.4000223824
 40
0.5696391972
 40
0.7696377725
 40
1.0
 40
1.0
 40
1.0
 40
1.0
 10
0.794464286
 20
2.9210986252
 30
0.0
 10
0.7944415745
 20
2.9210985939
 30
0.0
 10
0.7943868188
 20
2.9211305029
 30
0.0
 10
0.7943295044
 20
2.9212231045
 30
0.0
 10
0.7942686282
 20
2.9213651248
 30
0.0
 10
0.7942086908
 20
2.9215619587
 30
0.0
 10
0.7941475348
 20
2.921813674
 30
0.0
 10
0.794058859
 20
2.9222591306
 30
0.0
 10
0.7939522052
 20
2.9229559739
 30
0.0
 10
0.7938304916
 20
2.9239593451
 30
0.0
 10
0.7937081071
 20
2.9251843253
 30
0.0
 10
0.7935851378
 20
2.9266305791
 30
0.0
 10
0.7935083691
 20
2.9276688759
 30
0.0
 10
0.7934694804
 20
2.9282248001
 30
0.0
  0
LINE
  5
2A3
100
AcDbEntity
  8
0
100
AcDbLine
 62
7
  6
CONTINUOUS
 10
0.7934694804
 20
2.9282248001
 11
0.7929900747
 21
2.9367143755
  0
SPLINE
  5
2A4
100
AcDbEntity
  8
0
100
AcDbSpline
 62
7
  6
CONTINUOUS
 70
0
 71
3
 72
19
 73
15
 74
0
 42
0.0000001
 43
0.0000001
 44
0.0000000001
 40
0.0
 40
0.0
 40
0.0
 40
0.0
 40
0.0096178705
 40
0.0210507032
 40
0.0492684617
 40
0.0844595393
 40
0.1263597677
 40
0.1746643774
 40
0.2290222598
 40
0.3542505581
 40
0.4983896734
 40
0.6571994754
 40
0.826068949
 40
1.0
 40
1.0
 40
1.0
 40
1.0
 10
0.7929900747
 20
2.9367143755
 30
0.0
 10
0.7928739393
 20
2.939166472
 30
0.0
 10
0.7926480436
 20
2.9445347317
 30
0.0
 10
0.7922011702
 20
2.9571020168
 30
0.0
 10
0.7916619656
 20
2.9761970472
 30
0.0
 10
0.7910445111
 20
3.0030688657
 30
0.0
 10
0.7904239056
 20
3.0350686981
 30
0.0
 10
0.7898006293
 20
3.0719613439
 30
0.0
 10
0.7889260367
 20
3.1301211638
 30
0.0
 10
0.7878598509
 20
3.2127413298
 30
0.0
 10
0.7866248281
 20
3.3220214294
 30
0.0
 10
0.7853858458
 20
3.4424410113
 30
0.0
 10
0.784144325
 20
3.5704649667
 30
0.0
 10
0.7833200443
 20
3.6579567745
 30
0.0
 10
0.7829017857
 20
3.7023486025
 30
0.0
  0
SPLINE
  5
2A5
100
AcDbEntity
  8
0
100
AcDbSpline
 62
7
  6
CONTINUOUS
 70
0
 71
3
 72
38
 73
34
 74
0
 42
0.0000001
 43
0.0000001
 44
0.0000000001
 40
0.0
 40
0.0
 40
0.0
 40
0.0
 40
0.0969464733
 40
0.193078181
 40
0.287355986
 40
0.3789005141
 40
0.466876204
 40
0.5504580627
 40
0.6288393491
 40
0.7012921097
 40
0.7671292403
 40
0.7973749163
 40
0.8257411677
 40
0.8521565541
 40
0.8765616261
 40
0.8989021844
 40
0.9191240765
 40
0.9371744053
 40
0.9530129514
 40
0.9666070572
 40
0.9725523245
 40
0.9779243633
 40
0.9827191882
 40
0.9869336242
 40
0.9905663575
 40
0.9936164697
 40
0.9960833166
 40
0.9970979965
 40
0.9979669555
 40
0.9986904751
 40
0.9992691734
 40
0.9997044509
 40
1.0
 40
1.0
 40
1.0
 40
1.0
 10
0.9116517857
 20
3.7023486025
 30
0.0
 10
0.9118896651
 20
3.6771013026
 30
0.0
 10
0.9123634266
 20
3.6268188883
 30
0.0
 10
0.9130751499
 20
3.551984225
 30
0.0
 10
0.9137868823
 20
3.4785564911
 30
0.0
 10
0.9144982298
 20
3.4072529818
 30
0.0
 10
0.9152093192
 20
3.33873523
 30
0.0
 10
0.9159198782
 20
3.2736458566
 30
0.0
 10
0.9166299309
 20
3.2125994717
 30
0.0
 10
0.9173390282
 20
3.1561747892
 30
0.0
 10
0.9179448977
 20
3.1122861044
 30
0.0
 10
0.918434164
 20
3.07987869
 30
0.0
 10
0.9187904851
 20
3.0577373188
 30
0.0
 10
0.9191466717
 20
3.0371172631
 30
0.0
 10
0.9195026351
 20
3.0180667665
 30
0.0
 10
0.9198582511
 20
3.0006295807
 30
0.0
 10
0.9202133964
 20
2.9848477695
 30
0.0
 10
0.9205679871
 20
2.9707597784
 30
0.0
 10
0.9209218501
 20
2.9583985044
 30
0.0
 10
0.9212276082
 20
2.9491898148
 30
0.0
 10
0.9214760877
 20
2.9427067145
 30
0.0
 10
0.9216538178
 20
2.938514276
 30
0.0
 10
0.9218312583
 20
2.9347730423
 30
0.0
 10
0.9220083769
 20
2.931485345
 30
0.0
 10
0.9221848714
 20
2.9286527321
 30
0.0
 10
0.9223606441
 20
2.9262762618
 30
0.0
 10
0.9225139957
 20
2.9245819369
 30
0.0
 10
0.9226403763
 20
2.923455951
 30
0.0
 10
0.9227285632
 20
2.9227826133
 30
0.0
 10
0.9228163241
 20
2.9222240308
 30
0.0
 10
0.9229030779
 20
2.9217794827
 30
0.0
 10
0.9229888897
 20
2.9214497285
 30
0.0
 10
0.923055765
 20
2.9212697887
 30
0.0
 10
0.9230941702
 20
2.9212030826
 30
0.0
  0
SPLINE
  5
2A6
100
AcDbEntity
  8
0
100
AcDbSpline
 62
7
  6
CONTINUOUS
 70
0
 71
3
 72
17
 73
13
 74
0
 42
0.0000001
 43
0.0000001
 44
0.0000000001
 40
0.0
 40
0.0
 40
0.0
 40
0.0
 40
0.0243727804
 40
0.0457665544
 40
0.0742336033
 40
0.1100110342
 40
0.1532130134
 40
0.2621034089
 40
0.4011650298
 40
0.5704867049
 40
0.7700979034
 40
1.0
 40
1.0
 40
1.0
 40
1.0
 10
0.7482142852
 20
2.9210986775
 30
0.0
 10
0.7481659807
 20
2.9210987933
 30
0.0
 10
0.748096936
 20
2.9211871835
 30
0.0
 10
0.7480390747
 20
2.9213147316
 30
0.0
 10
0.7479828548
 20
2.9214778333
 30
0.0
 10
0.7479282743
 20
2.9216827829
 30
0.0
 10
0.7478478135
 20
2.9220468612
 30
0.0
 10
0.7477516202
 20
2.9226158209
 30
0.0
 10
0.7476415057
 20
2.9234356345
 30
0.0
 10
0.747530922
 20
2.9244363784
 30
0.0
 10
0.7474197714
 20
2.9256180441
 30
0.0
 10
0.7473503924
 20
2.9264664848
 30
0.0
 10
0.7473152469
 20
2.9269207724
 30
0.0
  0
LINE
  5
2A7
100
AcDbEntity
  8
0
100
AcDbLine
 62
7
  6
CONTINUOUS
 10
0.7473152469
 20
2.9269207724
 11
0.7468324713
 21
2.934823844
  0
SPLINE
  5
2A8
100
AcDbEntity
  8
0
100
AcDbSpline
 62
7
  6
CONTINUOUS
 70
0
 71
3
 72
20
 73
16
 74
0
 42
0.0000001
 43
0.0000001
 44
0.0000000001
 40
0.0
 40
0.0
 40
0.0
 40
0.0
 40
0.0091520049
 40
0.0201531733
 40
0.0476113588
 40
0.0821830467
 40
0.1236037066
 40
0.1715651508
 40
0.2257128945
 40
0.2856370268
 40
0.3509002535
 40
0.4954492917
 40
0.6550317525
 40
0.8249263771
 40
1.0
 40
1.0
 40
1.0
 40
1.0
 10
0.7468324713
 20
2.934823844
 30
0.0
 10
0.7467143975
 20
2.9371625783
 30
0.0
 10
0.7464856306
 20
2.9423141604
 30
0.0
 10
0.7460334088
 20
2.9544880822
 30
0.0
 10
0.7454894806
 20
2.9731667769
 30
0.0
 10
0.7448671468
 20
2.9996292736
 30
0.0
 10
0.7442414363
 20
3.0313390793
 30
0.0
 10
0.7436128558
 20
3.0680585394
 30
0.0
 10
0.7429828473
 20
3.1095130505
 30
0.0
 10
0.7423515245
 20
3.1553949834
 30
0.0
 10
0.7414789273
 20
3.224406617
 30
0.0
 10
0.7404080537
 20
3.3189171847
 30
0.0
 10
0.7391578346
 20
3.4401992641
 30
0.0
 10
0.7379053965
 20
3.5692919979
 30
0.0
 10
0.7370738326
 20
3.6575547059
 30
0.0
 10
0.7366517857
 20
3.7023486025
 30
0.0
  0
SPLINE
  5
2A9
100
AcDbEntity
  8
0
100
AcDbSpline
 62
7
  6
CONTINUOUS
 70
0
 71
3
 72
20
 73
16
 74
0
 42
0.0000001
 43
0.0000001
 44
0.0000000001
 40
0.0
 40
0.0
 40
0.0
 40
0.0
 40
0.0082519397
 40
0.0142942813
 40
0.0219661783
 40
0.042599949
 40
0.0706073309
 40
0.1061366301
 40
0.1492523066
 40
0.1999851779
 40
0.2583498858
 40
0.3979911194
 40
0.568176383
 40
0.7688651547
 40
1.0
 40
1.0
 40
1.0
 40
1.0
 10
0.7463392841
 20
4.4576170347
 30
0.0
 10
0.746367761
 20
4.457617213
 30
0.0
 10
0.7464139365
 20
4.4575849589
 30
0.0
 10
0.7464569523
 20
4.4575239542
 30
0.0
 10
0.7465128407
 20
4.4574184667
 30
0.0
 10
0.7465772406
 20
4.4572347538
 30
0.0
 10
0.7466510632
 20
4.4569536235
 30
0.0
 10
0.7467250746
 20
4.4565929637
 30
0.0
 10
0.7467997482
 20
4.4561527136
 30
0.0
 10
0.7468746479
 20
4.4556327507
 30
0.0
 10
0.7469812707
 20
4.454780965
 30
0.0
 10
0.7471111788
 20
4.4535168621
 30
0.0
 10
0.747260361
 20
4.4517613542
 30
0.0
 10
0.7474100763
 20
4.4496891779
 30
0.0
 10
0.7475035984
 20
4.4482018743
 30
0.0
 10
0.7475509697
 20
4.4474056356
 30
0.0
  0
SPLINE
  5
2AA
100
AcDbEntity
  8
0
100
AcDbSpline
 62
7
  6
CONTINUOUS
 70
0
 71
3
 72
44
 73
40
 74
0
 42
0.0000001
 43
0.0000001
 44
0.0000000001
 40
0.0
 40
0.0
 40
0.0
 40
0.0
 40
0.0042843694
 40
0.0095934423
 40
0.0159165181
 40
0.0232383118
 40
0.0408158128
 40
0.0621882766
 40
0.0871708738
 40
0.1155625624
 40
0.1471227911
 40
0.1815919295
 40
0.218682949
 40
0.2580864243
 40
0.3425084499
 40
0.4320570155
 40
0.5237606781
 40
0.6145765247
 40
0.658705923
 40
0.7014913687
 40
0.7425778001
 40
0.7816216811
 40
0.8183020945
 40
0.8523092142
 40
0.8833662134
 40
0.9112092129
 40
0.9356120073
 40
0.9464583008
 40
0.9563684536
 40
0.9653240783
 40
0.9733078575
 40
0.9803025063
 40
0.9862912185
 40
0.9912625627
 40
0.9952088833
 40
0.9967954308
 40
0.9981231521
 40
0.9991914224
 40
1.0
 40
1.0
 40
1.0
 40
1.0
 10
0.7475509697
 20
4.4474056356
 30
0.0
 10
0.7476781283
 20
4.4452682931
 30
0.0
 10
0.7479215988
 20
4.4404799815
 30
0.0
 10
0.7482511688
 20
4.4325324528
 30
0.0
 10
0.7485823262
 20
4.4230659186
 30
0.0
 10
0.749054746
 20
4.407469596
 30
0.0
 10
0.7496287553
 20
4.3843521768
 30
0.0
 10
0.7502879604
 20
4.3524085161
 30
0.0
 10
0.7509501568
 20
4.3150595126
 30
0.0
 10
0.7516142956
 20
4.2726185037
 30
0.0
 10
0.7522798768
 20
4.2254360812
 30
0.0
 10
0.752946318
 20
4.1739057724
 30
0.0
 10
0.7536134493
 20
4.1184554928
 30
0.0
 10
0.7545246371
 20
4.0380423129
 30
0.0
 10
0.7556461259
 20
3.9314141005
 30
0.0
 10
0.756965802
 20
3.7986494437
 30
0.0
 10
0.7582864109
 20
3.6626893193
 30
0.0
 10
0.7593968597
 20
3.5494265385
 30
0.0
 10
0.7602965695
 20
3.4606098435
 30
0.0
 10
0.7609647497
 20
3.396644451
 30
0.0
 10
0.7616326107
 20
3.3352206953
 30
0.0
 10
0.762300194
 20
3.2768481263
 30
0.0
 10
0.7629671377
 20
3.2220136928
 30
0.0
 10
0.763633572
 20
3.1711710275
 30
0.0
 10
0.76429879
 20
3.1247452678
 30
0.0
 10
0.764962898
 20
3.0831198156
 30
0.0
 10
0.7655345255
 20
3.051594564
 30
0.0
 10
0.7659984306
 20
3.029030905
 30
0.0
 10
0.7663323204
 20
3.014185984
 30
0.0
 10
0.7666657703
 20
3.000771996
 30
0.0
 10
0.7669986059
 20
2.9888155152
 30
0.0
 10
0.7673305977
 20
2.9783423793
 30
0.0
 10
0.7676612075
 20
2.9693755044
 30
0.0
 10
0.7679902969
 20
2.9619332359
 30
0.0
 10
0.7682778603
 20
2.9566913781
 30
0.0
 10
0.7685164541
 20
2.9532710466
 30
0.0
 10
0.768681148
 20
2.9512874719
 30
0.0
 10
0.768844593
 20
2.9496943018
 30
0.0
 10
0.7689680382
 20
2.9487640963
 30
0.0
 10
0.7690346597
 20
2.9483655379
 30
0.0
  0
LINE
  5
2AB
100
AcDbEntity
  8
0
100
AcDbLine
 62
7
  6
CONTINUOUS
 10
0.7690519807
 20
2.9482640091
 11
0.7693400421
 21
2.9471888336
  0
SPLINE
  5
2AC
100
AcDbEntity
  8
0
100
AcDbSpline
 62
7
  6
CONTINUOUS
 70
0
 71
3
 72
16
 73
12
 74
0
 42
0.0000001
 43
0.0000001
 44
0.0000000001
 40
0.0
 40
0.0
 40
0.0
 40
0.0
 40
0.0246322566
 40
0.0460907844
 40
0.0745973084
 40
0.1103961488
 40
0.1536055051
 40
0.2624773785
 40
0.401485569
 40
0.5707256112
 40
1.0
 40
1.0
 40
1.0
 40
1.0
 10
0.7019642852
 20
2.9210987401
 30
0.0
 10
0.701917177
 20
2.9210988898
 30
0.0
 10
0.7018492799
 20
2.9211835903
 30
0.0
 10
0.7017922589
 20
2.9213071333
 30
0.0
 10
0.7017370576
 20
2.9214643575
 30
0.0
 10
0.7016834442
 20
2.9216620463
 30
0.0
 10
0.7016044432
 20
2.9220130712
 30
0.0
 10
0.7015099805
 20
2.9225617112
 30
0.0
 10
0.7014018273
 20
2.9233522457
 30
0.0
 10
0.7012442509
 20
2.9247539594
 30
0.0
 10
0.70114594
 20
2.9258945673
 30
0.0
 10
0.701081464
 20
2.9267130054
 30
0.0
  0
LINE
  5
2AD
100
AcDbEntity
  8
0
100
AcDbLine
 62
7
  6
CONTINUOUS
 10
0.701081464
 20
2.9267130054
 11
0.7001113627
 21
2.9457227578
  0
SPLINE
  5
2AE
100
AcDbEntity
  8
0
100
AcDbSpline
 62
7
  6
CONTINUOUS
 70
0
 71
3
 72
18
 73
14
 74
0
 42
0.0000001
 43
0.0000001
 44
0.0000000001
 40
0.0
 40
0.0
 40
0.0
 40
0.0
 40
0.0245857092
 40
0.0557941234
 40
0.0934187576
 40
0.1371931591
 40
0.1868324236
 40
0.2419882556
 40
0.3673347624
 40
0.509850561
 40
0.6656476522
 40
0.8305508652
 40
1.0
 40
1.0
 40
1.0
 40
1.0
 10
0.7001113627
 20
2.9457227578
 30
0.0
 10
0.6998769934
 20
2.9519196413
 30
0.0
 10
0.6994349532
 20
2.9659860202
 30
0.0
 10
0.6988420303
 20
2.9895418494
 30
0.0
 10
0.6982456256
 20
3.0179389128
 30
0.0
 10
0.6976461701
 20
3.0509856147
 30
0.0
 10
0.6970453577
 20
3.0884548702
 30
0.0
 10
0.6962064375
 20
3.1464980075
 30
0.0
 10
0.6951807171
 20
3.2279672698
 30
0.0
 10
0.6939896734
 20
3.3348212995
 30
0.0
 10
0.6927953429
 20
3.4516533433
 30
0.0
 10
0.6915989775
 20
3.5752791551
 30
0.0
 10
0.6908044683
 20
3.6596099275
 30
0.0
 10
0.6904017857
 20
3.7023486025
 30
0.0
  0
SPLINE
  5
2AF
100
AcDbEntity
  8
0
100
AcDbSpline
 62
7
  6
CONTINUOUS
 70
0
 71
3
 72
14
 73
10
 74
0
 42
0.0000001
 43
0.0000001
 44
0.0000000001
 40
0.0
 40
0.0
 40
0.0
 40
0.0
 40
0.0442059107
 40
0.1108765273
 40
0.2006297543
 40
0.3137051684
 40
0.4501788232
 40
0.6100636073
 40
1.0
 40
1.0
 40
1.0
 40
1.0
 10
0.8789635294
 20
4.4575088178
 30
0.0
 10
0.8790076694
 20
4.4574326828
 30
0.0
 10
0.8790828619
 20
4.4572228618
 30
0.0
 10
0.8791792143
 20
4.4568358019
 30
0.0
 10
0.8792765826
 20
4.4563076086
 30
0.0
 10
0.8793752645
 20
4.4556394353
 30
0.0
 10
0.8794744328
 20
4.4548302775
 30
0.0
 10
0.8796167985
 20
4.4534714196
 30
0.0
 10
0.8797085114
 20
4.4523805588
 30
0.0
 10
0.8797684062
 20
4.4516065887
 30
0.0
  0
SPLINE
  5
2B0
100
AcDbEntity
  8
0
100
AcDbSpline
 62
7
  6
CONTINUOUS
 70
0
 71
3
 72
58
 73
54
 74
0
 42
0.0000001
 43
0.0000001
 44
0.0000000001
 40
0.0
 40
0.0
 40
0.0
 40
0.0
 40
0.0035361692
 40
0.0081661698
 40
0.013882305
 40
0.0206741007
 40
0.0285242314
 40
0.0374141554
 40
0.0582381311
 40
0.0829641515
 40
0.1113692965
 40
0.1432066094
 40
0.1781882482
 40
0.2160095502
 40
0.2563297447
 40
0.3430270601
 40
0.4352102628
 40
0.4823432152
 40
0.5296151634
 40
0.5766057376
 40
0.622898966
 40
0.6680836857
 40
0.7117586628
 40
0.7535379041
 40
0.7930480129
 40
0.8299425448
 40
0.8638889941
 40
0.8796639489
 40
0.8945923588
 40
0.908639013
 40
0.9217738489
 40
0.9339695798
 40
0.9451989532
 40
0.9554348499
 40
0.9646543132
 40
0.972839454
 40
0.9799727249
 40
0.9831394455
 40
0.9860366535
 40
0.9886625789
 40
0.9910162657
 40
0.9930968779
 40
0.9949036149
 40
0.9964357387
 40
0.9976926276
 40
0.9986739095
 40
0.9990612653
 40
0.9993799452
 40
0.9996303592
 40
0.9998135548
 40
0.9998808233
 40
0.9999328767
 40
1.0
 40
1.0
 40
1.0
 40
1.0
 10
0.8797684062
 20
4.4516065887
 30
0.0
 10
0.8799052658
 20
4.4498380691
 30
0.0
 10
0.8801597284
 20
4.4457493221
 30
0.0
 10
0.8804977775
 20
4.4387938684
 30
0.0
 10
0.8808381698
 20
4.430203803
 30
0.0
 10
0.8811804321
 20
4.4199975318
 30
0.0
 10
0.8815238382
 20
4.408198489
 30
0.0
 10
0.8820087049
 20
4.3893618986
 30
0.0
 10
0.8826010126
 20
4.3620601659
 30
0.0
 10
0.883283941
 20
4.3249691665
 30
0.0
 10
0.8839692253
 20
4.2823529017
 30
0.0
 10
0.8846560982
 20
4.2345916759
 30
0.0
 10
0.8853442421
 20
4.1821067104
 30
0.0
 10
0.8860330451
 20
4.1253662502
 30
0.0
 10
0.8869752272
 20
4.0426854488
 30
0.0
 10
0.8881334789
 20
3.9327364453
 30
0.0
 10
0.8892597957
 20
3.8193695474
 30
0.0
 10
0.8901737484
 20
3.7257780036
 30
0.0
 10
0.8908642826
 20
3.6548548082
 30
0.0
 10
0.891554808
 20
3.5843528536
 30
0.0
 10
0.8922452244
 20
3.5148979406
 30
0.0
 10
0.8929354817
 20
3.4471062738
 30
0.0
 10
0.8936255338
 20
3.3815790239
 30
0.0
 10
0.8943151975
 20
3.3188984221
 30
0.0
 10
0.8950044975
 20
3.2596192271
 30
0.0
 10
0.8956930611
 20
3.2042693772
 30
0.0
 10
0.8962796807
 20
3.1608251867
 30
0.0
 10
0.8967525878
 20
3.1283991026
 30
0.0
 10
0.8970984139
 20
3.1059543355
 30
0.0
 10
0.8974441524
 20
3.0848340652
 30
0.0
 10
0.8977897525
 20
3.0650847494
 30
0.0
 10
0.8981351316
 20
3.0467488606
 30
0.0
 10
0.8984802141
 20
3.0298674045
 30
0.0
 10
0.8988249875
 20
3.014479231
 30
0.0
 10
0.8991693471
 20
3.000618509
 30
0.0
 10
0.8995130842
 20
2.988314641
 30
0.0
 10
0.8998091995
 20
2.9790468489
 30
0.0
 10
0.9000491474
 20
2.9724312323
 30
0.0
 10
0.90022176
 20
2.9680756518
 30
0.0
 10
0.9003942162
 20
2.9641282467
 30
0.0
 10
0.9005664509
 20
2.9605908823
 30
0.0
 10
0.9007383465
 20
2.9574649587
 30
0.0
 10
0.9009098089
 20
2.954751832
 30
0.0
 10
0.9010803992
 20
2.9524527583
 30
0.0
 10
0.9012501178
 20
2.950569079
 30
0.0
 10
0.9013985921
 20
2.9492601789
 30
0.0
 10
0.9015225328
 20
2.948422808
 30
0.0
 10
0.9016071766
 20
2.947950489
 30
0.0
 10
0.901691707
 20
2.9475823806
 30
0.0
 10
0.9017650272
 20
2.9473420223
 30
0.0
 10
0.9018293712
 20
2.9472031047
 30
0.0
 10
0.9018770228
 20
2.9471251899
 30
0.0
 10
0.9019306182
 20
2.9470803844
 30
0.0
 10
0.9019642877
 20
2.947080616
 30
0.0
  0
SPLINE
  5
2B1
100
AcDbEntity
  8
0
100
AcDbSpline
 62
7
  6
CONTINUOUS
 70
0
 71
3
 72
13
 73
9
 74
0
 42
0.0000001
 43
0.0000001
 44
0.0000000001
 40
0.0
 40
0.0
 40
0.0
 40
0.0
 40
0.3364401139
 40
0.6172340964
 40
0.7356724041
 40
0.83908471
 40
0.9272628407
 40
1.0
 40
1.0
 40
1.0
 40
1.0
 10
0.6513392857
 20
3.0550754392
 30
0.0
 10
0.6515623785
 20
3.0418163982
 30
0.0
 10
0.6519986504
 20
3.0174917639
 30
0.0
 10
0.6526162059
 20
2.9885014138
 30
0.0
 10
0.6531235761
 20
2.9686959496
 30
0.0
 10
0.6534811649
 20
2.9564812383
 30
0.0
 10
0.6538372306
 20
2.9460687099
 30
0.0
 10
0.6540978269
 20
2.9397314215
 30
0.0
 10
0.6542328335
 20
2.9368676386
 30
0.0
  0
SPLINE
  5
2B2
100
AcDbEntity
  8
0
100
AcDbSpline
 62
7
  6
CONTINUOUS
 70
0
 71
3
 72
19
 73
15
 74
0
 42
0.0000001
 43
0.0000001
 44
0.0000000001
 40
0.0
 40
0.0
 40
0.0
 40
0.0
 40
0.2318598974
 40
0.433168177
 40
0.603854729
 40
0.743860126
 40
0.8531477134
 40
0.9317394259
 40
0.9595870213
 40
0.9706796518
 40
0.9799111649
 40
0.9873225881
 40
0.992995969
 40
1.0
 40
1.0
 40
1.0
 40
1.0
 10
0.6542328335
 20
2.9368676386
 30
0.0
 10
0.6542907443
 20
2.9356392257
 30
0.0
 10
0.6544050732
 20
2.9333445473
 30
0.0
 10
0.6545881052
 20
2.9301469065
 30
0.0
 10
0.6547704783
 20
2.927437378
 30
0.0
 10
0.6549511686
 20
2.9252169643
 30
0.0
 10
0.6551303872
 20
2.9234871498
 30
0.0
 10
0.655287513
 20
2.9223529617
 30
0.0
 10
0.6554124841
 20
2.9217419899
 30
0.0
 10
0.6554787123
 20
2.9214949385
 30
0.0
 10
0.6555238537
 20
2.9213552755
 30
0.0
 10
0.6555701216
 20
2.9212448293
 30
0.0
 10
0.6556197649
 20
2.9211543235
 30
0.0
 10
0.655677137
 20
2.9210985751
 30
0.0
 10
0.6557142862
 20
2.9210985684
 30
0.0
  0
SPLINE
  5
2B3
100
AcDbEntity
  8
0
100
AcDbSpline
 62
7
  6
CONTINUOUS
 70
0
 71
3
 72
38
 73
34
 74
0
 42
0.0000001
 43
0.0000001
 44
0.0000000001
 40
0.0
 40
0.0
 40
0.0
 40
0.0
 40
0.0969483449
 40
0.193080048
 40
0.287354683
 40
0.3788964738
 40
0.4668731166
 40
0.5504582714
 40
0.6288438863
 40
0.7013008114
 40
0.7671392341
 40
0.7973845308
 40
0.8257498808
 40
0.8521640296
 40
0.8765676895
 40
0.8989066277
 40
0.9191266541
 40
0.9371753437
 40
0.953013319
 40
0.9666072082
 40
0.9725522557
 40
0.9779238703
 40
0.9827180359
 40
0.9869321605
 40
0.9905649892
 40
0.9936154543
 40
0.9960827621
 40
0.9970976663
 40
0.9979668207
 40
0.9986904882
 40
0.9992692687
 40
0.9997045459
 40
1.0
 40
1.0
 40
1.0
 40
1.0
 10
0.8754017857
 20
3.7023486025
 30
0.0
 10
0.8751639017
 20
3.7275963991
 30
0.0
 10
0.8746901351
 20
3.7778793181
 30
0.0
 10
0.8739784144
 20
3.8527136697
 30
0.0
 10
0.873266699
 20
3.9261398911
 30
0.0
 10
0.8725553617
 20
3.9974421364
 30
0.0
 10
0.8718442703
 20
4.0659603071
 30
0.0
 10
0.8711336893
 20
4.1310519384
 30
0.0
 10
0.8704235928
 20
4.1921014158
 30
0.0
 10
0.8697144631
 20
4.2485286673
 30
0.0
 10
0.8691085654
 20
4.2924186903
 30
0.0
 10
0.8686192886
 20
4.3248261194
 30
0.0
 10
0.8682629698
 20
4.3469668429
 30
0.0
 10
0.8679067923
 20
4.3675859814
 30
0.0
 10
0.867550845
 20
4.3866353731
 30
0.0
 10
0.8671952493
 20
4.4040712899
 30
0.0
 10
0.8668401227
 20
4.4198517723
 30
0.0
 10
0.8664855417
 20
4.4339387071
 30
0.0
 10
0.866131706
 20
4.4462993541
 30
0.0
 10
0.8658259703
 20
4.4555077854
 30
0.0
 10
0.8655775005
 20
4.4619906641
 30
0.0
 10
0.8653997793
 20
4.4661827649
 30
0.0
 10
0.8652223293
 20
4.4699236358
 30
0.0
 10
0.8650452094
 20
4.473211106
 30
0.0
 10
0.8648687158
 20
4.4760437557
 30
0.0
 10
0.8646929429
 20
4.4784204641
 30
0.0
 10
0.8645395921
 20
4.4801150611
 30
0.0
 10
0.8644132108
 20
4.4812412781
 30
0.0
 10
0.8643250225
 20
4.4819147651
 30
0.0
 10
0.8642372601
 20
4.4824734593
 30
0.0
 10
0.864150507
 20
4.48291807
 30
0.0
 10
0.8640646962
 20
4.4832478185
 30
0.0
 10
0.8639978187
 20
4.4834277365
 30
0.0
 10
0.863959401
 20
4.4834944069
 30
0.0
  0
SPLINE
  5
2B4
100
AcDbEntity
  8
0
100
AcDbSpline
 62
7
  6
CONTINUOUS
 70
0
 71
3
 72
14
 73
10
 74
0
 42
0.0000001
 43
0.0000001
 44
0.0000000001
 40
0.0
 40
0.0
 40
0.0
 40
0.0
 40
0.0463237702
 40
0.1144958587
 40
0.2051408419
 40
0.3184960809
 40
0.4546446975
 40
0.6136143876
 40
1.0
 40
1.0
 40
1.0
 40
1.0
 10
0.8327135296
 20
4.4575093068
 30
0.0
 10
0.8327528499
 20
4.4574414701
 30
0.0
 10
0.8328214362
 20
4.4572584299
 30
0.0
 10
0.8329094151
 20
4.4569228575
 30
0.0
 10
0.8329983494
 20
4.4564703939
 30
0.0
 10
0.8330882983
 20
4.4559017397
 30
0.0
 10
0.8331786875
 20
4.4552161912
 30
0.0
 10
0.8333082339
 20
4.4540699338
 30
0.0
 10
0.8333919301
 20
4.4531505382
 30
0.0
 10
0.8334465672
 20
4.4524988203
 30
0.0
  0
SPLINE
  5
2B5
100
AcDbEntity
  8
0
100
AcDbSpline
 62
7
  6
CONTINUOUS
 70
0
 71
3
 72
58
 73
54
 74
0
 42
0.0000001
 43
0.0000001
 44
0.0000000001
 40
0.0
 40
0.0
 40
0.0
 40
0.0
 40
0.0033188657
 40
0.007739585
 40
0.0132550181
 40
0.0198550872
 40
0.0275227817
 40
0.0362398869
 40
0.0567482706
 40
0.0811997825
 40
0.1093727985
 40
0.1410205753
 40
0.1758553191
 40
0.2135715744
 40
0.2538273243
 40
0.3405102895
 40
0.4328149668
 40
0.4800518637
 40
0.5274517287
 40
0.5745903555
 40
0.6210478897
 40
0.6664087243
 40
0.7102679369
 40
0.7522347694
 40
0.7919324281
 40
0.8290098709
 40
0.8631313582
 40
0.878989816
 40
0.8939981106
 40
0.9081207871
 40
0.9213279851
 40
0.9335917548
 40
0.9448841553
 40
0.9551776055
 40
0.9644497438
 40
0.9726822263
 40
0.9798568479
 40
0.9830417919
 40
0.9859555266
 40
0.9885965672
 40
0.9909639746
 40
0.9930568442
 40
0.9948743076
 40
0.9964155582
 40
0.9976799065
 40
0.9986669123
 40
0.9990564583
 40
0.9993768697
 40
0.9996285799
 40
0.9998127171
 40
0.9998803249
 40
0.999932629
 40
1.0
 40
1.0
 40
1.0
 40
1.0
 10
0.8334465672
 20
4.4524988203
 30
0.0
 10
0.8335857314
 20
4.4508388498
 30
0.0
 10
0.8338416694
 20
4.4469622129
 30
0.0
 10
0.8341800401
 20
4.4403178771
 30
0.0
 10
0.8345209475
 20
4.4320249478
 30
0.0
 10
0.8348640259
 20
4.4221013302
 30
0.0
 10
0.8352083374
 20
4.410569946
 30
0.0
 10
0.8356953542
 20
4.3920590248
 30
0.0
 10
0.8362896717
 20
4.3651240996
 30
0.0
 10
0.8369744786
 20
4.3284238323
 30
0.0
 10
0.8376617356
 20
4.2861317166
 30
0.0
 10
0.8383506808
 20
4.2386275135
 30
0.0
 10
0.8390409382
 20
4.1863329649
 30
0.0
 10
0.8397318894
 20
4.1297175973
 30
0.0
 10
0.8406775062
 20
4.047079943
 30
0.0
 10
0.8418397129
 20
3.9370441712
 30
0.0
 10
0.8429691474
 20
3.8235039419
 30
0.0
 10
0.8438857617
 20
3.7296794127
 30
0.0
 10
0.8445785112
 20
3.6585233676
 30
0.0
 10
0.8452712566
 20
3.5877585161
 30
0.0
 10
0.8459638887
 20
3.5180171361
 30
0.0
 10
0.846656373
 20
3.4499218295
 30
0.0
 10
0.8473486386
 20
3.3840805979
 30
0.0
 10
0.8480405329
 20
3.321081967
 30
0.0
 10
0.8487320449
 20
3.2614874292
 30
0.0
 10
0.8494228343
 20
3.2058308732
 30
0.0
 10
0.8500113235
 20
3.1621392779
 30
0.0
 10
0.8504857316
 20
3.1295240505
 30
0.0
 10
0.850832677
 20
3.1069457731
 30
0.0
 10
0.8511795428
 20
3.0856983717
 30
0.0
 10
0.8515262557
 20
3.0658286853
 30
0.0
 10
0.8518727474
 20
3.0473797886
 30
0.0
 10
0.8522189394
 20
3.0303936217
 30
0.0
 10
0.8525648465
 20
3.0149093371
 30
0.0
 10
0.8529103156
 20
3.0009612842
 30
0.0
 10
0.8532551556
 20
2.9885791428
 30
0.0
 10
0.8535522215
 20
2.9792521744
 30
0.0
 10
0.8537929457
 20
2.9725944257
 30
0.0
 10
0.8539661281
 20
2.9682112259
 30
0.0
 10
0.8541391443
 20
2.9642387037
 30
0.0
 10
0.8543119362
 20
2.9606786082
 30
0.0
 10
0.8544843872
 20
2.9575324005
 30
0.0
 10
0.8546564031
 20
2.9548015401
 30
0.0
 10
0.8548275418
 20
2.9524873863
 30
0.0
 10
0.8549978047
 20
2.9505913837
 30
0.0
 10
0.8551467528
 20
2.9492739837
 30
0.0
 10
0.8552710983
 20
2.9484312692
 30
0.0
 10
0.8553560103
 20
2.947956049
 30
0.0
 10
0.8554408275
 20
2.9475857274
 30
0.0
 10
0.8555143792
 20
2.947343941
 30
0.0
 10
0.8555789328
 20
2.9472041588
 30
0.0
 10
0.8556267106
 20
2.9471257966
 30
0.0
 10
0.8556804727
 20
2.9470806323
 30
0.0
 10
0.8557142867
 20
2.9470808376
 30
0.0
  0
SPLINE
  5
2B6
100
AcDbEntity
  8
0
100
AcDbSpline
 62
7
  6
CONTINUOUS
 70
0
 71
3
 72
38
 73
34
 74
0
 42
0.0000001
 43
0.0000001
 44
0.0000000001
 40
0.0
 40
0.0
 40
0.0
 40
0.0
 40
0.0969462267
 40
0.19307965
 40
0.2873604178
 40
0.3789075752
 40
0.4668854281
 40
0.5504703785
 40
0.6288549018
 40
0.7013087277
 40
0.767143562
 40
0.7973864754
 40
0.8257503985
 40
0.8521642306
 40
0.8765672948
 40
0.8989059073
 40
0.9191265371
 40
0.9371764221
 40
0.9530141949
 40
0.9666075187
 40
0.9725525372
 40
0.9779244995
 40
0.9827194755
 40
0.986934061
 40
0.9905667938
 40
0.9936168076
 40
0.9960835101
 40
0.9970981169
 40
0.9979670107
 40
0.9986904796
 40
0.9992691479
 40
0.9997044225
 40
1.0
 40
1.0
 40
1.0
 40
1.0
 10
0.9216517857
 20
3.7023486025
 30
0.0
 10
0.921413907
 20
3.7275958335
 30
0.0
 10
0.9209401419
 20
3.7778786211
 30
0.0
 10
0.9202284081
 20
3.8527144248
 30
0.0
 10
0.9195166555
 20
3.9261440483
 30
0.0
 10
0.9188052885
 20
3.9974495641
 30
0.0
 10
0.9180941734
 20
4.0659693564
 30
0.0
 10
0.9173835858
 20
4.1310609292
 30
0.0
 10
0.9166735004
 20
4.1921092283
 30
0.0
 10
0.9159643796
 20
4.2485344226
 30
0.0
 10
0.915358526
 20
4.2924220594
 30
0.0
 10
0.9148692636
 20
4.3248275437
 30
0.0
 10
0.9145129597
 20
4.3469671802
 30
0.0
 10
0.914156805
 20
4.3675856984
 30
0.0
 10
0.9138008566
 20
4.3866347571
 30
0.0
 10
0.913445254
 20
4.4040705812
 30
0.0
 10
0.9130901199
 20
4.4198514384
 30
0.0
 10
0.9127355571
 20
4.4339387818
 30
0.0
 10
0.9123817017
 20
4.4462995329
 30
0.0
 10
0.9120759471
 20
4.4555077508
 30
0.0
 10
0.9118274727
 20
4.4619905614
 30
0.0
 10
0.9116497432
 20
4.4661829537
 30
0.0
 10
0.9114723091
 20
4.4699242455
 30
0.0
 10
0.9112951964
 20
4.4732120208
 30
0.0
 10
0.9111187028
 20
4.4760446465
 30
0.0
 10
0.9109429307
 20
4.4784210528
 30
0.0
 10
0.9107895783
 20
4.4801152947
 30
0.0
 10
0.9106631969
 20
4.4812412063
 30
0.0
 10
0.9105750096
 20
4.4819144941
 30
0.0
 10
0.9104872481
 20
4.4824730382
 30
0.0
 10
0.9104004929
 20
4.4829175632
 30
0.0
 10
0.9103146794
 20
4.4832473166
 30
0.0
 10
0.9102478034
 20
4.4834272615
 30
0.0
 10
0.9102094016
 20
4.4834939781
 30
0.0
  0
SPLINE
  5
2B7
100
AcDbEntity
  8
0
100
AcDbSpline
 62
7
  6
CONTINUOUS
 70
0
 71
3
 72
18
 73
14
 74
0
 42
0.0000001
 43
0.0000001
 44
0.0000000001
 40
0.0
 40
0.0
 40
0.0
 40
0.0
 40
0.0095820439
 40
0.0240288628
 40
0.0450837329
 40
0.0732919991
 40
0.1088729852
 40
0.1519346647
 40
0.2607144594
 40
0.3998971735
 40
0.5695273729
 40
0.7695786766
 40
1.0
 40
1.0
 40
1.0
 40
1.0
 10
0.931339284
 20
4.4576151496
 30
0.0
 10
0.9313619854
 20
4.4576152695
 30
0.0
 10
0.9314166848
 20
4.4575849212
 30
0.0
 10
0.9314748734
 20
4.4574945509
 30
0.0
 10
0.9315360749
 20
4.4573561325
 30
0.0
 10
0.9315964691
 20
4.4571641473
 30
0.0
 10
0.9316579944
 20
4.4569185114
 30
0.0
 10
0.9317472555
 20
4.4564834261
 30
0.0
 10
0.9318545841
 20
4.4558020625
 30
0.0
 10
0.9319770276
 20
4.4548202419
 30
0.0
 10
0.9321001518
 20
4.4536208669
 30
0.0
 10
0.932223871
 20
4.4522044663
 30
0.0
 10
0.932301114
 20
4.4511875009
 30
0.0
 10
0.9323402453
 20
4.450642992
 30
0.0
  0
SPLINE
  5
2B8
100
AcDbEntity
  8
0
100
AcDbSpline
 62
7
  6
CONTINUOUS
 70
0
 71
3
 72
50
 73
46
 74
0
 42
0.0000001
 43
0.0000001
 44
0.0000000001
 40
0.0
 40
0.0
 40
0.0
 40
0.0
 40
0.0037127071
 40
0.0084911651
 40
0.0143273875
 40
0.0212109844
 40
0.0291249278
 40
0.0380508841
 40
0.058864728
 40
0.0834762039
 40
0.1116679347
 40
0.1432019662
 40
0.177799553
 40
0.2151673592
 40
0.2549771586
 40
0.3405363604
 40
0.4315233045
 40
0.5247968027
 40
0.5712848149
 40
0.6171368132
 40
0.6619569338
 40
0.7053556069
 40
0.7469605174
 40
0.786407812
 40
0.8233608814
 40
0.8574955676
 40
0.8885207505
 40
0.9161652156
 40
0.9286436639
 40
0.9401914594
 40
0.950782774
 40
0.9603923882
 40
0.9690007099
 40
0.9765912475
 40
0.9831475856
 40
0.9886534702
 40
0.9910083585
 40
0.9930967277
 40
0.9949178629
 40
0.9964711039
 40
0.9977558913
 40
0.9987718744
 40
0.9995192129
 40
0.9997926431
 40
1.0
 40
1.0
 40
1.0
 40
1.0
 10
0.9323402453
 20
4.450642992
 30
0.0
 10
0.9324736208
 20
4.4487870822
 30
0.0
 10
0.932724095
 20
4.4445386644
 30
0.0
 10
0.9330586549
 20
4.4373659593
 30
0.0
 10
0.9333953195
 20
4.4286027301
 30
0.0
 10
0.9337335641
 20
4.4182672162
 30
0.0
 10
0.9340728435
 20
4.4063825328
 30
0.0
 10
0.9345510011
 20
4.3875176547
 30
0.0
 10
0.9351357763
 20
4.3602846326
 30
0.0
 10
0.9358104408
 20
4.3233961366
 30
0.0
 10
0.9364873711
 20
4.2811342636
 30
0.0
 10
0.9371657484
 20
4.2338671157
 30
0.0
 10
0.9378453572
 20
4.1820007862
 30
0.0
 10
0.9385255798
 20
4.1259865748
 30
0.0
 10
0.9394558448
 20
4.0444331244
 30
0.0
 10
0.9405998502
 20
3.9360081081
 30
0.0
 10
0.9419451125
 20
3.8007893791
 30
0.0
 10
0.9430681228
 20
3.6851507074
 30
0.0
 10
0.9439782673
 20
3.5921313009
 30
0.0
 10
0.9446600759
 20
3.5233941858
 30
0.0
 10
0.9453417075
 20
3.4562054293
 30
0.0
 10
0.9460231948
 20
3.3911452952
 30
0.0
 10
0.9467042888
 20
3.3287780072
 30
0.0
 10
0.9473850904
 20
3.2696412582
 30
0.0
 10
0.9480651997
 20
3.214248613
 30
0.0
 10
0.9487446214
 20
3.1630772051
 30
0.0
 10
0.949422905
 20
3.1165714197
 30
0.0
 10
0.9500048249
 20
3.0809188715
 30
0.0
 10
0.9504759706
 20
3.055027359
 30
0.0
 10
0.9508169065
 20
3.0376814319
 30
0.0
 10
0.9511575063
 20
3.0217735706
 30
0.0
 10
0.9514977938
 20
3.0073392447
 30
0.0
 10
0.9518376066
 20
2.9944092667
 30
0.0
 10
0.9521765863
 20
2.9830100588
 30
0.0
 10
0.9525145268
 20
2.9731664543
 30
0.0
 10
0.9528077391
 20
2.9659468999
 30
0.0
 10
0.9530472257
 20
2.9609664214
 30
0.0
 10
0.9532170697
 20
2.9578314747
 30
0.0
 10
0.9533864239
 20
2.9550989087
 30
0.0
 10
0.9535552363
 20
2.9527699621
 30
0.0
 10
0.9537226383
 20
2.9508455358
 30
0.0
 10
0.9538889768
 20
2.9493270261
 30
0.0
 10
0.9540345089
 20
2.9483159463
 30
0.0
 10
0.9541589944
 20
2.9477130752
 30
0.0
 10
0.9542221125
 20
2.9474801016
 30
0.0
 10
0.9542559524
 20
2.9473818446
 30
0.0
  0
SPLINE
  5
2B9
100
AcDbEntity
  8
0
100
AcDbSpline
 62
7
  6
CONTINUOUS
 70
0
 71
3
 72
13
 73
9
 74
0
 42
0.0000001
 43
0.0000001
 44
0.0000000001
 40
0.0
 40
0.0
 40
0.0
 40
0.0
 40
0.0487797714
 40
0.1187028175
 40
0.2103870331
 40
0.3240665273
 40
0.6177361067
 40
1.0
 40
1.0
 40
1.0
 40
1.0
 10
0.78646353
 20
4.4575097438
 30
0.0
 10
0.7864982043
 20
4.4574498853
 30
0.0
 10
0.7865600567
 20
4.4572919705
 30
0.0
 10
0.7866396678
 20
4.4570045811
 30
0.0
 10
0.7867201447
 20
4.4566222393
 30
0.0
 10
0.7868387783
 20
4.4559245313
 30
0.0
 10
0.7869801758
 20
4.4548132885
 30
0.0
 10
0.7870753502
 20
4.4538594494
 30
0.0
 10
0.7871247281
 20
4.4533196018
 30
0.0
  0
SPLINE
  5
2BA
100
AcDbEntity
  8
0
100
AcDbSpline
 62
7
  6
CONTINUOUS
 70
0
 71
3
 72
58
 73
54
 74
0
 42
0.0000001
 43
0.0000001
 44
0.0000000001
 40
0.0
 40
0.0
 40
0.0
 40
0.0
 40
0.0031002711
 40
0.0073103574
 40
0.0126237159
 40
0.0190306816
 40
0.0265145718
 40
0.0350575089
 40
0.0552476902
 40
0.0794222452
 40
0.107360905
 40
0.1388171668
 40
0.173503342
 40
0.2111131766
 40
0.2513034638
 40
0.3379710498
 40
0.4303975244
 40
0.4777390049
 40
0.5252676919
 40
0.5725555437
 40
0.61917875
 40
0.6647172521
 40
0.7087623801
 40
0.7509185527
 40
0.7908055956
 40
0.8280676909
 40
0.8623660398
 40
0.8783088176
 40
0.8933977441
 40
0.9075973095
 40
0.9208776667
 40
0.9332101661
 40
0.9445661655
 40
0.9549177889
 40
0.9642432125
 40
0.9725235284
 40
0.9797398835
 40
0.9829432043
 40
0.9858737097
 40
0.9885301559
 40
0.9909115382
 40
0.9930168743
 40
0.9948452178
 40
0.9963956843
 40
0.9976675066
 40
0.9986601671
 40
0.9990518346
 40
0.9993739025
 40
0.9996268896
 40
0.9998119426
 40
0.999879872
 40
0.9999324076
 40
1.0
 40
1.0
 40
1.0
 40
1.0
 10
0.7871247281
 20
4.4533196018
 30
0.0
 10
0.7872665425
 20
4.4517691458
 30
0.0
 10
0.7875238589
 20
4.4481064
 30
0.0
 10
0.7878624811
 20
4.4417759264
 30
0.0
 10
0.788203805
 20
4.4337829416
 30
0.0
 10
0.7885476776
 20
4.4241448617
 30
0.0
 10
0.7888928719
 20
4.4128840607
 30
0.0
 10
0.7893820647
 20
4.3947027586
 30
0.0
 10
0.7899783786
 20
4.3681395821
 30
0.0
 10
0.7906650479
 20
4.331835927
 30
0.0
 10
0.7913542651
 20
4.289873716
 30
0.0
 10
0.7920452771
 20
4.2426320765
 30
0.0
 10
0.7927376429
 20
4.1905332121
 30
0.0
 10
0.7934307404
 20
4.1340478557
 30
0.0
 10
0.7943797975
 20
4.0514591064
 30
0.0
 10
0.7955459598
 20
3.9413426464
 30
0.0
 10
0.796678503
 20
3.8276344035
 30
0.0
 10
0.7975977744
 20
3.7335802155
 30
0.0
 10
0.7982927391
 20
3.6621931263
 30
0.0
 10
0.7989877036
 20
3.5911667649
 30
0.0
 10
0.7996825513
 20
3.5211399035
 30
0.0
 10
0.8003772622
 20
3.4527415889
 30
0.0
 10
0.8010717405
 20
3.3865866944
 30
0.0
 10
0.801765866
 20
3.3232700701
 30
0.0
 10
0.8024595878
 20
3.2633600329
 30
0.0
 10
0.8031526059
 20
3.2073963964
 30
0.0
 10
0.8037429615
 20
3.1634570226
 30
0.0
 10
0.8042188702
 20
3.1306523095
 30
0.0
 10
0.804566938
 20
3.1079402388
 30
0.0
 10
0.8049149279
 20
3.0865653764
 30
0.0
 10
0.8052627532
 20
3.0665749589
 30
0.0
 10
0.8056103566
 20
3.0480127817
 30
0.0
 10
0.8059576615
 20
3.0309216596
 30
0.0
 10
0.8063047018
 20
3.015340997
 30
0.0
 10
0.8066512786
 20
3.0013053223
 30
0.0
 10
0.8069972225
 20
2.9888446706
 30
0.0
 10
0.8072952375
 20
2.9794583927
 30
0.0
 10
0.8075367425
 20
2.9727583936
 30
0.0
 10
0.8077104928
 20
2.9683474093
 30
0.0
 10
0.8078840652
 20
2.9643495369
 30
0.0
 10
0.8080574127
 20
2.9607664777
 30
0.0
 10
0.8082304175
 20
2.9575998047
 30
0.0
 10
0.808402985
 20
2.9548510953
 30
0.0
 10
0.8085746707
 20
2.9525218268
 30
0.0
 10
0.8087454753
 20
2.9506135616
 30
0.0
 10
0.8088948984
 20
2.9492877787
 30
0.0
 10
0.8090196519
 20
2.9484398645
 30
0.0
 10
0.8091048468
 20
2.9479618492
 30
0.0
 10
0.8091899421
 20
2.9475893914
 30
0.0
 10
0.8092637226
 20
2.9473462188
 30
0.0
 10
0.8093284924
 20
2.9472056169
 30
0.0
 10
0.8093763923
 20
2.947126846
 30
0.0
 10
0.8094303441
 20
2.9470813766
 30
0.0
 10
0.8094642877
 20
2.9470815924
 30
0.0
  0
SPLINE
  5
2BB
100
AcDbEntity
  8
0
100
AcDbSpline
 62
7
  6
CONTINUOUS
 70
0
 71
3
 72
38
 73
34
 74
0
 42
0.0000001
 43
0.0000001
 44
0.0000000001
 40
0.0
 40
0.0
 40
0.0
 40
0.0
 40
0.0969465626
 40
0.1930783087
 40
0.2873560699
 40
0.3789004995
 40
0.4668760567
 40
0.5504577473
 40
0.6288389365
 40
0.701291705
 40
0.7671289217
 40
0.7973746752
 40
0.8257409704
 40
0.8521563749
 40
0.8765615
 40
0.8989021105
 40
0.9191240152
 40
0.9371743217
 40
0.9530128934
 40
0.9666070363
 40
0.9725523126
 40
0.9779243468
 40
0.9827191487
 40
0.9869335702
 40
0.9905663071
 40
0.9936164339
 40
0.9960833
 40
0.997097989
 40
0.9979669556
 40
0.9986904806
 40
0.9992691811
 40
0.999704457
 40
1.0
 40
1.0
 40
1.0
 40
1.0
 10
0.9679017857
 20
3.7023486025
 30
0.0
 10
0.9676639061
 20
3.7275959263
 30
0.0
 10
0.9671901443
 20
3.7778783752
 30
0.0
 10
0.9664784208
 20
3.8527130623
 30
0.0
 10
0.9657666886
 20
3.9261407711
 30
0.0
 10
0.9650553417
 20
3.9974442107
 30
0.0
 10
0.9643442535
 20
4.0659618603
 30
0.0
 10
0.9636336957
 20
4.1310511318
 30
0.0
 10
0.962923644
 20
4.1920974513
 30
0.0
 10
0.9622145471
 20
4.2485221345
 30
0.0
 10
0.9616086769
 20
4.2924108651
 30
0.0
 10
0.9611194105
 20
4.3248183343
 30
0.0
 10
0.9607630889
 20
4.3469597424
 30
0.0
 10
0.9604069013
 20
4.3675798286
 30
0.0
 10
0.9600509378
 20
4.3866303578
 30
0.0
 10
0.9596953218
 20
4.4040675748
 30
0.0
 10
0.9593401764
 20
4.4198493975
 30
0.0
 10
0.9589855844
 20
4.4339373931
 30
0.0
 10
0.9586317216
 20
4.4462986779
 30
0.0
 10
0.9583259638
 20
4.4555073865
 30
0.0
 10
0.9580774843
 20
4.4619904977
 30
0.0
 10
0.9578997544
 20
4.4661829315
 30
0.0
 10
0.9577223133
 20
4.4699241543
 30
0.0
 10
0.9575451945
 20
4.4732118429
 30
0.0
 10
0.9573687
 20
4.4760444568
 30
0.0
 10
0.9571929275
 20
4.4784209369
 30
0.0
 10
0.957039576
 20
4.4801152731
 30
0.0
 10
0.9569131954
 20
4.4812412684
 30
0.0
 10
0.9568250086
 20
4.4819146119
 30
0.0
 10
0.9567372477
 20
4.4824731985
 30
0.0
 10
0.9566504941
 20
4.4829177482
 30
0.0
 10
0.9565646824
 20
4.4832475009
 30
0.0
 10
0.956497807
 20
4.4834274388
 30
0.0
 10
0.9564594012
 20
4.4834941427
 30
0.0
  0
SPLINE
  5
2BC
100
AcDbEntity
  8
0
100
AcDbSpline
 62
7
  6
CONTINUOUS
 70
0
 71
3
 72
16
 73
12
 74
0
 42
0.0000001
 43
0.0000001
 44
0.0000000001
 40
0.0
 40
0.0
 40
0.0
 40
0.0
 40
0.0161947843
 40
0.038300525
 40
0.1008302083
 40
0.1881723866
 40
0.3004820213
 40
0.4378129372
 40
0.6001800095
 40
0.7875799763
 40
1.0
 40
1.0
 40
1.0
 40
1.0
 10
0.6477135333
 20
4.4575083493
 30
0.0
 10
0.6477409825
 20
4.4574606374
 30
0.0
 10
0.6477916719
 20
4.4573399456
 30
0.0
 10
0.6478914246
 20
4.4570120114
 30
0.0
 10
0.6480066262
 20
4.4564378086
 30
0.0
 10
0.6481384143
 20
4.4555566161
 30
0.0
 10
0.648271059
 20
4.4544186902
 30
0.0
 10
0.6484050443
 20
4.453024734
 30
0.0
 10
0.6485394939
 20
4.4513745469
 30
0.0
 10
0.6486743694
 20
4.4494684788
 30
0.0
 10
0.648759142
 20
4.448112164
 30
0.0
 10
0.6488019723
 20
4.4473914424
 30
0.0
  0
SPLINE
  5
2BD
100
AcDbEntity
  8
0
100
AcDbSpline
 62
7
  6
CONTINUOUS
 70
0
 71
3
 72
57
 73
53
 74
0
 42
0.0000001
 43
0.0000001
 44
0.0000000001
 40
0.0
 40
0.0
 40
0.0
 40
0.0
 40
0.0043818866
 40
0.0098270629
 40
0.0163226366
 40
0.0238555488
 40
0.0419730676
 40
0.0640174804
 40
0.0898033053
 40
0.1191045991
 40
0.151669714
 40
0.1872170718
 40
0.2254381692
 40
0.2660047114
 40
0.3527486226
 40
0.4444552156
 40
0.4911842414
 40
0.5379595782
 40
0.5843773185
 40
0.6300347347
 40
0.6745389478
 40
0.7175030325
 40
0.75855744
 40
0.7973458362
 40
0.8335333029
 40
0.8668077711
 40
0.8822601409
 40
0.8968793927
 40
0.9106338719
 40
0.9234919852
 40
0.9354253486
 40
0.9464104349
 40
0.9564241306
 40
0.9654433378
 40
0.973446738
 40
0.9804193284
 40
0.9835148397
 40
0.9863475807
 40
0.9889158786
 40
0.9912180757
 40
0.9932525581
 40
0.9950183187
 40
0.9965150367
 40
0.9977425403
 40
0.9987009065
 40
0.9990793705
 40
0.9993909428
 40
0.9996360852
 40
0.9998158386
 40
0.9998820298
 40
0.9999333969
 40
1.0
 40
1.0
 40
1.0
 40
1.0
 10
0.6488019723
 20
4.4473914424
 30
0.0
 10
0.6489319987
 20
4.4452034387
 30
0.0
 10
0.6491803952
 20
4.4402939576
 30
0.0
 10
0.6495164023
 20
4.4321360788
 30
0.0
 10
0.649854162
 20
4.4224009563
 30
0.0
 10
0.650336279
 20
4.4063283924
 30
0.0
 10
0.6509213261
 20
4.3824779771
 30
0.0
 10
0.6515938626
 20
4.34949706
 30
0.0
 10
0.6522688819
 20
4.3109209528
 30
0.0
 10
0.6529463245
 20
4.2670816376
 30
0.0
 10
0.6536250271
 20
4.2183590032
 30
0.0
 10
0.6543046922
 20
4.1651742151
 30
0.0
 10
0.6549850941
 20
4.1079867403
 30
0.0
 10
0.6559136841
 20
4.0251913946
 30
0.0
 10
0.6570563928
 20
3.9156428096
 30
0.0
 10
0.6581703151
 20
3.8030112494
 30
0.0
 10
0.6590737089
 20
3.7103712697
 30
0.0
 10
0.6597555136
 20
3.6403841463
 30
0.0
 10
0.6604372549
 20
3.5709330777
 30
0.0
 10
0.6611189346
 20
3.5026181027
 30
0.0
 10
0.6618004049
 20
3.4360307665
 30
0.0
 10
0.6624816891
 20
3.3717460237
 30
0.0
 10
0.663162608
 20
3.3103205528
 30
0.0
 10
0.6638430809
 20
3.2522850274
 30
0.0
 10
0.6645229841
 20
3.1981413837
 30
0.0
 10
0.6651021079
 20
3.1556703291
 30
0.0
 10
0.6655691214
 20
3.1239874161
 30
0.0
 10
0.6659105649
 20
3.1020678155
 30
0.0
 10
0.6662518522
 20
3.0814460521
 30
0.0
 10
0.666592999
 20
3.0621679902
 30
0.0
 10
0.666934004
 20
3.044275436
 30
0.0
 10
0.6672747319
 20
3.0278059607
 30
0.0
 10
0.6676151002
 20
3.0127945069
 30
0.0
 10
0.6679549588
 20
2.9992749287
 30
0.0
 10
0.6682943357
 20
2.9872770664
 30
0.0
 10
0.6685867319
 20
2.9782422084
 30
0.0
 10
0.6688236316
 20
2.971793417
 30
0.0
 10
0.6689940475
 20
2.9675467654
 30
0.0
 10
0.6691642796
 20
2.9636972782
 30
0.0
 10
0.6693342811
 20
2.9602475078
 30
0.0
 10
0.6695039597
 20
2.9571996968
 30
0.0
 10
0.6696732393
 20
2.9545554838
 30
0.0
 10
0.6698416641
 20
2.9523157913
 30
0.0
 10
0.6700092335
 20
2.9504812998
 30
0.0
 10
0.6701558446
 20
2.9492067162
 30
0.0
 10
0.6702781962
 20
2.9483911932
 30
0.0
 10
0.6703617925
 20
2.947930863
 30
0.0
 10
0.6704452531
 20
2.9475717292
 30
0.0
 10
0.6705176971
 20
2.9473369437
 30
0.0
 10
0.6705811193
 20
2.9472010025
 30
0.0
 10
0.6706283608
 20
2.9471243616
 30
0.0
 10
0.6706809693
 20
2.9470802372
 30
0.0
 10
0.6707142842
 20
2.947080042
 30
0.0
  0
SPLINE
  5
2BE
100
AcDbEntity
  8
0
100
AcDbSpline
 62
7
  6
CONTINUOUS
 70
0
 71
3
 72
18
 73
14
 74
0
 42
0.0000001
 43
0.0000001
 44
0.0000000001
 40
0.0
 40
0.0
 40
0.0
 40
0.0
 40
0.0104117395
 40
0.0275908098
 40
0.0516836994
 40
0.082737008
 40
0.1207699611
 40
0.1657913242
 40
0.2768114673
 40
0.4158055328
 40
0.5827508819
 40
0.77753333
 40
1.0
 40
1.0
 40
1.0
 40
1.0
 10
0.6395295813
 20
4.4716803043
 30
0.0
 10
0.6395562101
 20
4.4716340294
 30
0.0
 10
0.6395965753
 20
4.4714962723
 30
0.0
 10
0.6396494892
 20
4.4712375516
 30
0.0
 10
0.6397023175
 20
4.4708698247
 30
0.0
 10
0.639756563
 20
4.4703952803
 30
0.0
 10
0.6398109664
 20
4.469812583
 30
0.0
 10
0.6398895227
 20
4.4688205203
 30
0.0
 10
0.6399844232
 20
4.4673105037
 30
0.0
 10
0.6400930593
 20
4.4651751554
 30
0.0
 10
0.6402021374
 20
4.462609828
 30
0.0
 10
0.6403116491
 20
4.4596161703
 30
0.0
 10
0.64038027
 20
4.4574776809
 30
0.0
 10
0.6404149885
 20
4.4563374379
 30
0.0
  0
SPLINE
  5
2BF
100
AcDbEntity
  8
0
100
AcDbSpline
 62
7
  6
CONTINUOUS
 70
0
 71
3
 72
20
 73
16
 74
0
 42
0.0000001
 43
0.0000001
 44
0.0000000001
 40
0.0
 40
0.0
 40
0.0
 40
0.0
 40
0.034563587
 40
0.0779756004
 40
0.1294408136
 40
0.1880266831
 40
0.2526770978
 40
0.3222227949
 40
0.4709399987
 40
0.6235700786
 40
0.7692766938
 40
0.8362748869
 40
0.8977582419
 40
0.9526717183
 40
1.0
 40
1.0
 40
1.0
 40
1.0
 10
0.6413528962
 20
4.4105213086
 30
0.0
 10
0.6415947776
 20
4.3949063785
 30
0.0
 10
0.642049429
 20
4.3596776419
 30
0.0
 10
0.6426605052
 20
4.3011958087
 30
0.0
 10
0.6432750765
 20
4.2318595518
 30
0.0
 10
0.6438920743
 20
4.1529268923
 30
0.0
 10
0.6445101484
 20
4.065824743
 30
0.0
 10
0.6453539162
 20
3.9379993093
 30
0.0
 10
0.646377906
 20
3.7704225222
 30
0.0
 10
0.6475820703
 20
3.5684345547
 30
0.0
 10
0.6486068865
 20
3.4033691197
 30
0.0
 10
0.6494503083
 20
3.279486041
 30
0.0
 10
0.6500633619
 20
3.1966252564
 30
0.0
 10
0.6506741371
 20
3.122652145
 30
0.0
 10
0.6511131893
 20
3.0764584964
 30
0.0
 10
0.6513392857
 20
3.0550754392
 30
0.0
  0
SPLINE
  5
2C0
100
AcDbEntity
  8
0
100
AcDbSpline
 62
7
  6
CONTINUOUS
 70
0
 71
3
 72
16
 73
12
 74
0
 42
0.0000001
 43
0.0000001
 44
0.0000000001
 40
0.0
 40
0.0
 40
0.0
 40
0.0
 40
0.016786904
 40
0.0393859248
 40
0.1026266502
 40
0.1903583492
 40
0.3027830236
 40
0.4399874744
 40
0.6019612791
 40
0.7886528362
 40
1.0
 40
1.0
 40
1.0
 40
1.0
 10
0.6939635299
 20
4.4575075505
 30
0.0
 10
0.6939889796
 20
4.4574635914
 30
0.0
 10
0.6940363852
 20
4.4573535811
 30
0.0
 10
0.6941296799
 20
4.4570573024
 30
0.0
 10
0.6942378922
 20
4.4565423542
 30
0.0
 10
0.694361494
 20
4.4557550911
 30
0.0
 10
0.6944859128
 20
4.4547416631
 30
0.0
 10
0.6946114868
 20
4.4535025476
 30
0.0
 10
0.6947374988
 20
4.4520377361
 30
0.0
 10
0.6948639016
 20
4.4503479281
 30
0.0
 10
0.694943403
 20
4.4491461379
 30
0.0
 10
0.694983566
 20
4.4485078974
 30
0.0
  0
SPLINE
  5
2C1
100
AcDbEntity
  8
0
100
AcDbSpline
 62
7
  6
CONTINUOUS
 70
0
 71
3
 72
57
 73
53
 74
0
 42
0.0000001
 43
0.0000001
 44
0.0000000001
 40
0.0
 40
0.0
 40
0.0
 40
0.0
 40
0.0041792224
 40
0.0094280418
 40
0.0157372878
 40
0.0230952007
 40
0.0408830625
 40
0.0626372223
 40
0.0881707626
 40
0.1172584597
 40
0.1496516423
 40
0.1850636871
 40
0.2231915939
 40
0.2636988381
 40
0.3504332786
 40
0.4422548549
 40
0.4890804783
 40
0.5359747216
 40
0.5825286207
 40
0.6283381622
 40
0.6730039932
 40
0.7161376519
 40
0.7573646067
 40
0.7963242768
 40
0.8326808592
 40
0.8661136694
 40
0.881644105
 40
0.8963373926
 40
0.910159764
 40
0.9230828477
 40
0.9350799214
 40
0.9461242711
 40
0.9561895991
 40
0.965254794
 40
0.9733023285
 40
0.9803147824
 40
0.9834274304
 40
0.9862748796
 40
0.988855783
 40
0.991169238
 40
0.99321437
 40
0.9949903402
 40
0.9964963721
 40
0.9977318066
 40
0.9986962344
 40
0.9990768775
 40
0.9993899831
 40
0.9996360065
 40
0.9998160869
 40
0.9998822762
 40
0.9999335638
 40
1.0
 40
1.0
 40
1.0
 40
1.0
 10
0.694983566
 20
4.4485078974
 30
0.0
 10
0.6951149537
 20
4.4464199804
 30
0.0
 10
0.695364833
 20
4.4417068896
 30
0.0
 10
0.6957014858
 20
4.4338362195
 30
0.0
 10
0.6960399719
 20
4.4243731916
 30
0.0
 10
0.6965240549
 20
4.408634752
 30
0.0
 10
0.6971112049
 20
4.3851646341
 30
0.0
 10
0.6977852757
 20
4.3525958591
 30
0.0
 10
0.6984621355
 20
4.3143695952
 30
0.0
 10
0.6991415442
 20
4.2708169531
 30
0.0
 10
0.6998221601
 20
4.2223187832
 30
0.0
 10
0.7005039487
 20
4.169294854
 30
0.0
 10
0.7011863074
 20
4.112208863
 30
0.0
 10
0.7021182389
 20
4.0294329332
 30
0.0
 10
0.7032646512
 20
3.9197796143
 30
0.0
 10
0.7043815813
 20
3.8069629731
 30
0.0
 10
0.7052875353
 20
3.7140885392
 30
0.0
 10
0.7059714329
 20
3.6438732374
 30
0.0
 10
0.7066553154
 20
3.5741665926
 30
0.0
 10
0.7073390784
 20
3.5055755057
 30
0.0
 10
0.7080226902
 20
3.4386966174
 30
0.0
 10
0.7087060789
 20
3.374111814
 30
0.0
 10
0.7093891003
 20
3.3123835785
 30
0.0
 10
0.7100717362
 20
3.2540480438
 30
0.0
 10
0.7107536618
 20
3.1996143992
 30
0.0
 10
0.7113346828
 20
3.1569087015
 30
0.0
 10
0.7118030644
 20
3.1250467762
 30
0.0
 10
0.7121455434
 20
3.1030007164
 30
0.0
 10
0.7124879435
 20
3.0822600175
 30
0.0
 10
0.7128301897
 20
3.0628691896
 30
0.0
 10
0.7131722183
 20
3.0448692193
 30
0.0
 10
0.7135139521
 20
3.0283000643
 30
0.0
 10
0.7138554088
 20
3.0131988907
 30
0.0
 10
0.714196427
 20
2.9995982795
 30
0.0
 10
0.7145368244
 20
2.9875264047
 30
0.0
 10
0.7148300714
 20
2.9784341825
 30
0.0
 10
0.7150677019
 20
2.9719446861
 30
0.0
 10
0.7152386548
 20
2.9676726175
 30
0.0
 10
0.7154094405
 20
2.9638009536
 30
0.0
 10
0.7155800047
 20
2.9603313367
 30
0.0
 10
0.7157502325
 20
2.9572651763
 30
0.0
 10
0.7159200308
 20
2.9546038836
 30
0.0
 10
0.7160889644
 20
2.9523487692
 30
0.0
 10
0.7162570326
 20
2.950501231
 30
0.0
 10
0.7164040658
 20
2.9492175838
 30
0.0
 10
0.716526807
 20
2.9483965513
 30
0.0
 10
0.7166106367
 20
2.9479335691
 30
0.0
 10
0.7166943601
 20
2.947572808
 30
0.0
 10
0.7167670029
 20
2.9473372478
 30
0.0
 10
0.716830693
 20
2.9472011639
 30
0.0
 10
0.7168780068
 20
2.94712464
 30
0.0
 10
0.7169310315
 20
2.9470809117
 30
0.0
 10
0.7169642877
 20
2.9470811288
 30
0.0
  0
SPLINE
  5
2C2
100
AcDbEntity
  8
0
100
AcDbSpline
 62
7
  6
CONTINUOUS
 70
0
 71
3
 72
14
 73
10
 74
0
 42
0.0000001
 43
0.0000001
 44
0.0000000001
 40
0.0
 40
0.0
 40
0.0
 40
0.0
 40
0.0429044445
 40
0.1087120177
 40
0.1979812359
 40
0.3109021496
 40
0.4475488945
 40
0.6079480161
 40
1.0
 40
1.0
 40
1.0
 40
1.0
 10
0.6789594013
 20
4.4834942577
 30
0.0
 10
0.6790058361
 20
4.4834136292
 30
0.0
 10
0.6790834259
 20
4.4831883865
 30
0.0
 10
0.6791829833
 20
4.4827714934
 30
0.0
 10
0.6792835049
 20
4.4821983823
 30
0.0
 10
0.6793855911
 20
4.4814707968
 30
0.0
 10
0.6794881636
 20
4.4805875407
 30
0.0
 10
0.6796355765
 20
4.4791004174
 30
0.0
 10
0.6797303576
 20
4.4779059816
 30
0.0
 10
0.679792264
 20
4.4770580237
 30
0.0
  0
SPLINE
  5
2C3
100
AcDbEntity
  8
0
100
AcDbSpline
 62
7
  6
CONTINUOUS
 70
0
 71
3
 72
23
 73
19
 74
0
 42
0.0000001
 43
0.0000001
 44
0.0000000001
 40
0.0
 40
0.0
 40
0.0
 40
0.0
 40
0.0068862514
 40
0.0157863952
 40
0.0266831572
 40
0.0395507315
 40
0.0543627878
 40
0.0710928516
 40
0.1101719972
 40
0.1564585909
 40
0.2095907268
 40
0.2691263535
 40
0.3345907534
 40
0.4054493486
 40
0.4811322627
 40
0.6444600492
 40
0.8193156898
 40
1.0
 40
1.0
 40
1.0
 40
1.0
 10
0.679792264
 20
4.4770580237
 30
0.0
 10
0.6799217613
 20
4.4752842459
 30
0.0
 10
0.6801645444
 20
4.4712140732
 30
0.0
 10
0.6804882088
 20
4.464330222
 30
0.0
 10
0.6808139683
 20
4.455900235
 30
0.0
 10
0.681141502
 20
4.4459425412
 30
0.0
 10
0.6814700252
 20
4.4344776145
 30
0.0
 10
0.6819332103
 20
4.416244259
 30
0.0
 10
0.6824994222
 20
4.3898821692
 30
0.0
 10
0.683152888
 20
4.3541185336
 30
0.0
 10
0.6838080904
 20
4.3130709055
 30
0.0
 10
0.6844651407
 20
4.2670697411
 30
0.0
 10
0.6851230543
 20
4.2164899897
 30
0.0
 10
0.6857818316
 20
4.1617395989
 30
0.0
 10
0.6866838648
 20
4.0817153458
 30
0.0
 10
0.6877936438
 20
3.9748326472
 30
0.0
 10
0.6890970998
 20
3.8408320381
 30
0.0
 10
0.6899621291
 20
3.7490115112
 30
0.0
 10
0.6904017857
 20
3.7023486025
 30
0.0
  0
SPLINE
  5
2C4
100
AcDbEntity
  8
0
100
AcDbSpline
 62
7
  6
CONTINUOUS
 70
0
 71
3
 72
38
 73
34
 74
0
 42
0.0000001
 43
0.0000001
 44
0.0000000001
 40
0.0
 40
0.0
 40
0.0
 40
0.0
 40
0.0969458459
 40
0.1930800711
 40
0.2873617535
 40
0.3789090722
 40
0.4668866588
 40
0.5504714695
 40
0.6288559116
 40
0.7013093546
 40
0.7671440379
 40
0.7973867285
 40
0.8257506507
 40
0.8521647282
 40
0.8765676936
 40
0.8989061229
 40
0.9191268349
 40
0.9371771514
 40
0.9530148008
 40
0.966607763
 40
0.9725526681
 40
0.9779246454
 40
0.9827198274
 40
0.986934649
 40
0.990567406
 40
0.9936173003
 40
0.9960838111
 40
0.9970983171
 40
0.9979671189
 40
0.9986905133
 40
0.9992691335
 40
0.9997043947
 40
1.0
 40
1.0
 40
1.0
 40
1.0
 10
0.7366517857
 20
3.7023486025
 30
0.0
 10
0.736413908
 20
3.7275957271
 30
0.0
 10
0.7359401419
 20
3.7778786099
 30
0.0
 10
0.7352284053
 20
3.8527147399
 30
0.0
 10
0.7345166476
 20
3.9261448313
 30
0.0
 10
0.7338052789
 20
3.9974505375
 30
0.0
 10
0.7330941637
 20
4.0659702463
 30
0.0
 10
0.7323835763
 20
4.1310616735
 30
0.0
 10
0.7316734946
 20
4.1921097978
 30
0.0
 10
0.7309643723
 20
4.2485348156
 30
0.0
 10
0.7303585251
 20
4.2924222428
 30
0.0
 10
0.7298692606
 20
4.3248276202
 30
0.0
 10
0.7295129561
 20
4.346967256
 30
0.0
 10
0.7291568066
 20
4.3675858062
 30
0.0
 10
0.7288008552
 20
4.3866348499
 30
0.0
 10
0.7284452491
 20
4.4040706169
 30
0.0
 10
0.7280901106
 20
4.4198515555
 30
0.0
 10
0.7277355588
 20
4.4339389968
 30
0.0
 10
0.7273817003
 20
4.4462997303
 30
0.0
 10
0.7270759411
 20
4.4555077895
 30
0.0
 10
0.7268274661
 20
4.4619904783
 30
0.0
 10
0.7266497347
 20
4.4661828974
 30
0.0
 10
0.7264723028
 20
4.4699243074
 30
0.0
 10
0.7262951971
 20
4.4732122038
 30
0.0
 10
0.7261187031
 20
4.4760448654
 30
0.0
 10
0.725942931
 20
4.4784211961
 30
0.0
 10
0.7257895773
 20
4.4801153297
 30
0.0
 10
0.7256631951
 20
4.4812411401
 30
0.0
 10
0.7255750078
 20
4.4819143575
 30
0.0
 10
0.7254872462
 20
4.482472845
 30
0.0
 10
0.7254004899
 20
4.4829173331
 30
0.0
 10
0.725314675
 20
4.483247078
 30
0.0
 10
0.7252477989
 20
4.4834270247
 30
0.0
 10
0.7252094017
 20
4.4834937523
 30
0.0
  0
SPLINE
  5
2C5
100
AcDbEntity
  8
0
100
AcDbSpline
 62
7
  6
CONTINUOUS
 70
0
 71
3
 72
16
 73
12
 74
0
 42
0.0000001
 43
0.0000001
 44
0.0000000001
 40
0.0
 40
0.0
 40
0.0
 40
0.0
 40
0.0161457193
 40
0.0382199731
 40
0.1007449681
 40
0.188138308
 40
0.3005251294
 40
0.4379287405
 40
0.6003333409
 40
0.7877049501
 40
1.0
 40
1.0
 40
1.0
 40
1.0
 10
0.7402135306
 20
4.4575100822
 30
0.0
 10
0.7402409813
 20
4.4574626411
 30
0.0
 10
0.7402916477
 20
4.4573423965
 30
0.0
 10
0.7403913312
 20
4.457015184
 30
0.0
 10
0.7405063812
 20
4.4564416169
 30
0.0
 10
0.7406380276
 20
4.4555610848
 30
0.0
 10
0.7407705313
 20
4.4544238622
 30
0.0
 10
0.740904386
 20
4.4530309739
 30
0.0
 10
0.7410387062
 20
4.4513825265
 30
0.0
 10
0.7411734544
 20
4.449479184
 30
0.0
 10
0.741258169
 20
4.4481250505
 30
0.0
 10
0.7413009697
 20
4.4474056356
 30
0.0
  0
SPLINE
  5
2C6
100
AcDbEntity
  8
0
100
AcDbSpline
 62
7
  6
CONTINUOUS
 70
0
 71
3
 72
57
 73
53
 74
0
 42
0.0000001
 43
0.0000001
 44
0.0000000001
 40
0.0
 40
0.0
 40
0.0
 40
0.0
 40
0.0043764685
 40
0.0098178828
 40
0.0163126736
 40
0.0238445977
 40
0.0419538343
 40
0.0639971915
 40
0.0897767843
 40
0.1190769786
 40
0.1516385522
 40
0.1871844533
 40
0.2254045872
 40
0.2659696047
 40
0.3527135124
 40
0.4444223169
 40
0.4911531895
 40
0.5379305747
 40
0.5843497616
 40
0.6300105576
 40
0.6745160064
 40
0.7174838871
 40
0.7585399331
 40
0.7973314213
 40
0.8335215797
 40
0.8667975018
 40
0.8822530932
 40
0.8968731892
 40
0.9106264495
 40
0.9234851756
 40
0.9354218046
 40
0.9464087892
 40
0.9564210395
 40
0.9654393222
 40
0.9734452801
 40
0.9804205932
 40
0.9835161032
 40
0.9863478979
 40
0.988914942
 40
0.9912162254
 40
0.9932507607
 40
0.9950175964
 40
0.9965158436
 40
0.9977447309
 40
0.9987037383
 40
0.9990820734
 40
0.9993932384
 40
0.9996377844
 40
0.9998168487
 40
0.999882698
 40
0.9999337533
 40
1.0
 40
1.0
 40
1.0
 40
1.0
 10
0.7413009697
 20
4.4474056356
 30
0.0
 10
0.741430982
 20
4.4452203271
 30
0.0
 10
0.7416795316
 20
4.4403154089
 30
0.0
 10
0.7420155249
 20
4.4321624454
 30
0.0
 10
0.7423531971
 20
4.4224300048
 30
0.0
 10
0.7428352384
 20
4.4063623306
 30
0.0
 10
0.7434206362
 20
4.3825168839
 30
0.0
 10
0.7440928524
 20
4.3495434638
 30
0.0
 10
0.7447681584
 20
4.3109712239
 30
0.0
 10
0.7454454553
 20
4.2671369658
 30
0.0
 10
0.7461242863
 20
4.2184169615
 30
0.0
 10
0.7468039417
 20
4.1652346948
 30
0.0
 10
0.7474843707
 20
4.1080486984
 30
0.0
 10
0.7484130326
 20
4.0252538828
 30
0.0
 10
0.7495557819
 20
3.9157040074
 30
0.0
 10
0.7506697506
 20
3.8030694436
 30
0.0
 10
0.7515731808
 20
3.710425607
 30
0.0
 10
0.752255005
 20
3.6404352054
 30
0.0
 10
0.7529368092
 20
3.5709800968
 30
0.0
 10
0.7536184711
 20
3.5026614974
 30
0.0
 10
0.7543000311
 20
3.4360693776
 30
0.0
 10
0.7549812884
 20
3.3717807409
 30
0.0
 10
0.755662283
 20
3.3103504733
 30
0.0
 10
0.7563427709
 20
3.2523107325
 30
0.0
 10
0.7570226743
 20
3.1981629991
 30
0.0
 10
0.7576019152
 20
3.1556878927
 30
0.0
 10
0.7580688593
 20
3.1240019428
 30
0.0
 10
0.7584103183
 20
3.1020807283
 30
0.0
 10
0.7587516746
 20
3.0814586683
 30
0.0
 10
0.759092858
 20
3.0621791095
 30
0.0
 10
0.7594338181
 20
3.0442835093
 30
0.0
 10
0.7597745152
 20
3.0278120301
 30
0.0
 10
0.7601149632
 20
3.012800684
 30
0.0
 10
0.7604549159
 20
2.9992808972
 30
0.0
 10
0.76079425
 20
2.9872807502
 30
0.0
 10
0.7610865823
 20
2.9782431696
 30
0.0
 10
0.761323518
 20
2.9717934349
 30
0.0
 10
0.7614939581
 20
2.9675478494
 30
0.0
 10
0.7616642175
 20
2.963699889
 30
0.0
 10
0.7618342564
 20
2.9602511497
 30
0.0
 10
0.7620039587
 20
2.9572032063
 30
0.0
 10
0.7621732315
 20
2.9545576385
 30
0.0
 10
0.7623416379
 20
2.9523159243
 30
0.0
 10
0.7625091792
 20
2.9504796307
 30
0.0
 10
0.7626557499
 20
2.9492040733
 30
0.0
 10
0.7627781403
 20
2.9483884967
 30
0.0
 10
0.7628617306
 20
2.9479287322
 30
0.0
 10
0.7629451972
 20
2.9475704727
 30
0.0
 10
0.7630176306
 20
2.9473365113
 30
0.0
 10
0.7630811088
 20
2.9472013451
 30
0.0
 10
0.7631283273
 20
2.9471252511
 30
0.0
 10
0.7631811504
 20
2.9470818381
 30
0.0
 10
0.7632142875
 20
2.947082017
 30
0.0
  0
SPLINE
  5
2C7
100
AcDbEntity
  8
0
100
AcDbSpline
 62
7
  6
CONTINUOUS
 70
0
 71
3
 72
16
 73
12
 74
0
 42
0.0000001
 43
0.0000001
 44
0.0000000001
 40
0.0
 40
0.0
 40
0.0
 40
0.0
 40
0.0242657408
 40
0.0455632896
 40
0.0739287038
 40
0.1096099498
 40
0.1527303487
 40
0.2615345429
 40
0.4006332902
 40
0.5700870425
 40
1.0
 40
1.0
 40
1.0
 40
1.0
 10
0.8850892837
 20
4.4576155672
 30
0.0
 10
0.8851389257
 20
4.457615879
 30
0.0
 10
0.8852106643
 20
4.4575254995
 30
0.0
 10
0.8852703518
 20
4.457394464
 30
0.0
 10
0.8853284978
 20
4.4572267918
 30
0.0
 10
0.885384885
 20
4.4570158318
 30
0.0
 10
0.8854680792
 20
4.4566406011
 30
0.0
 10
0.8855674834
 20
4.4560535832
 30
0.0
 10
0.8856812784
 20
4.4552071855
 30
0.0
 10
0.8858471011
 20
4.4537055054
 30
0.0
 10
0.8859505463
 20
4.4524834844
 30
0.0
 10
0.8860184062
 20
4.4516065887
 30
0.0
  0
SPLINE
  5
2C8
100
AcDbEntity
  8
0
100
AcDbSpline
 62
7
  6
CONTINUOUS
 70
0
 71
3
 72
47
 73
43
 74
0
 42
0.0000001
 43
0.0000001
 44
0.0000000001
 40
0.0
 40
0.0
 40
0.0
 40
0.0
 40
0.0034861726
 40
0.0080392781
 40
0.0136519151
 40
0.0203142203
 40
0.0280096577
 40
0.0367203745
 40
0.0571154372
 40
0.0813267539
 40
0.1091404048
 40
0.1403217454
 40
0.174595039
 40
0.211669816
 40
0.2512203215
 40
0.3363709423
 40
0.4271071586
 40
0.5202964393
 40
0.6127216488
 40
0.657647187
 40
0.7011921145
 40
0.7429827708
 40
0.782653771
 40
0.8198665033
 40
0.8542946129
 40
0.8856444049
 40
0.9136418683
 40
0.9263065192
 40
0.9380464388
 40
0.9488353852
 40
0.9586477219
 40
0.9674634098
 40
0.975265492
 40
0.9820370833
 40
0.9877614498
 40
0.9924258836
 40
0.9943584534
 40
0.9960235741
 40
0.9974205749
 40
0.9985489364
 40
0.9994084814
 40
1.0
 40
1.0
 40
1.0
 40
1.0
 10
0.8860184062
 20
4.4516065887
 30
0.0
 10
0.8861532739
 20
4.4498638089
 30
0.0
 10
0.8864044237
 20
4.4458403466
 30
0.0
 10
0.8867383223
 20
4.4390032859
 30
0.0
 10
0.887074511
 20
4.4305721855
 30
0.0
 10
0.8874125009
 20
4.4205645764
 30
0.0
 10
0.8877516033
 20
4.4090028355
 30
0.0
 10
0.8882303016
 20
4.3905566432
 30
0.0
 10
0.8888151986
 20
4.3638293953
 30
0.0
 10
0.8894895617
 20
4.3275237328
 30
0.0
 10
0.8901662825
 20
4.2858089875
 30
0.0
 10
0.8908445241
 20
4.2390485444
 30
0.0
 10
0.8915240394
 20
4.1876440874
 30
0.0
 10
0.8922041943
 20
4.1320429479
 30
0.0
 10
0.8931349575
 20
4.0509327553
 30
0.0
 10
0.8942793674
 20
3.9429170666
 30
0.0
 10
0.895624505
 20
3.8080071934
 30
0.0
 10
0.896970734
 20
3.6694496286
 30
0.0
 10
0.898102686
 20
3.5538608473
 30
0.0
 10
0.8990202082
 20
3.4631631776
 30
0.0
 10
0.8997017276
 20
3.3978529284
 30
0.0
 10
0.9003828569
 20
3.3351774841
 30
0.0
 10
0.9010637073
 20
3.2756772377
 30
0.0
 10
0.9017438858
 20
3.219868869
 30
0.0
 10
0.9024234041
 20
3.1682331317
 30
0.0
 10
0.9031018229
 20
3.1212184126
 30
0.0
 10
0.9036835724
 20
3.0851158166
 30
0.0
 10
0.9041544178
 20
3.0588452962
 30
0.0
 10
0.9044954033
 20
3.0412023179
 30
0.0
 10
0.9048360678
 20
3.0249897904
 30
0.0
 10
0.9051764505
 20
3.0102438385
 30
0.0
 10
0.9055163655
 20
2.996995946
 30
0.0
 10
0.9058555906
 20
2.985273246
 30
0.0
 10
0.9061936181
 20
2.9751012374
 30
0.0
 10
0.9065303245
 20
2.9665034467
 30
0.0
 10
0.9068238818
 20
2.9603322488
 30
0.0
 10
0.9070654347
 20
2.9561965827
 30
0.0
 10
0.9072344443
 20
2.9536978441
 30
0.0
 10
0.9074027623
 20
2.9516034674
 30
0.0
 10
0.9075689943
 20
2.9499140579
 30
0.0
 10
0.907733867
 20
2.948631502
 30
0.0
 10
0.9078605252
 20
2.947913706
 30
0.0
 10
0.9079341133
 20
2.9476263886
 30
0.0
  0
LINE
  5
2C9
100
AcDbEntity
  8
0
100
AcDbLine
 62
7
  6
CONTINUOUS
 10
0.9079341133
 20
2.9476263886
 11
0.9080900414
 21
2.9471874223
  0
SPLINE
  5
2CA
100
AcDbEntity
  8
0
100
AcDbSpline
 62
7
  6
CONTINUOUS
 70
0
 71
3
 72
17
 73
13
 74
0
 42
0.0000001
 43
0.0000001
 44
0.0000000001
 40
0.0
 40
0.0
 40
0.0
 40
0.0
 40
0.0243378911
 40
0.0457016471
 40
0.0741306968
 40
0.1098648159
 40
0.1530213434
 40
0.2618279767
 40
0.4008385659
 40
0.5701701814
 40
0.7698807051
 40
1.0
 40
1.0
 40
1.0
 40
1.0
 10
0.6538392871
 20
4.4576150329
 30
0.0
 10
0.6538894668
 20
4.4576148182
 30
0.0
 10
0.6539610662
 20
4.4575229566
 30
0.0
 10
0.6540211446
 20
4.4573904234
 30
0.0
 10
0.654079488
 20
4.4572209476
 30
0.0
 10
0.6541361404
 20
4.4570079696
 30
0.0
 10
0.654219658
 20
4.4566295373
 30
0.0
 10
0.6543195047
 20
4.4560379786
 30
0.0
 10
0.6544337922
 20
4.4551853379
 30
0.0
 10
0.6545485656
 20
4.4541440981
 30
0.0
 10
0.6546639269
 20
4.4529140916
 30
0.0
 10
0.6547359159
 20
4.4520307754
 30
0.0
 10
0.6547723843
 20
4.4515577166
 30
0.0
  0
SPLINE
  5
2CB
100
AcDbEntity
  8
0
100
AcDbSpline
 62
7
  6
CONTINUOUS
 70
0
 71
3
 72
45
 73
41
 74
0
 42
0.0000001
 43
0.0000001
 44
0.0000000001
 40
0.0
 40
0.0
 40
0.0
 40
0.0
 40
0.0034738531
 40
0.0080023401
 40
0.0135749374
 40
0.0201808035
 40
0.0278085198
 40
0.0364412552
 40
0.0566398528
 40
0.0806090603
 40
0.1081420921
 40
0.1390048386
 40
0.1729350284
 40
0.2096408708
 40
0.2488124536
 40
0.3331903009
 40
0.4231948631
 40
0.5157607212
 40
0.6077351697
 40
0.6525181652
 40
0.6959855981
 40
0.7377668585
 40
0.777506199
 40
0.8148624511
 40
0.8495203938
 40
0.8811794623
 40
0.9095755418
 40
0.9344598771
 40
0.9455200567
 40
0.9556270207
 40
0.964757035
 40
0.972890631
 40
0.9800128998
 40
0.986109208
 40
0.9911650269
 40
0.9951683515
 40
0.9967736406
 40
0.9981141043
 40
0.9991895066
 40
1.0
 40
1.0
 40
1.0
 40
1.0
 10
0.6547723843
 20
4.4515577166
 30
0.0
 10
0.6549061961
 20
4.4498219467
 30
0.0
 10
0.6551555014
 20
4.445818996
 30
0.0
 10
0.6554871542
 20
4.4390239641
 30
0.0
 10
0.6558211382
 20
4.430657845
 30
0.0
 10
0.6561570407
 20
4.420737639
 30
0.0
 10
0.6564938651
 20
4.4092831122
 30
0.0
 10
0.6569691429
 20
4.3910178321
 30
0.0
 10
0.6575502196
 20
4.364563148
 30
0.0
 10
0.6582200995
 20
4.3286365121
 30
0.0
 10
0.6588922205
 20
4.2873647736
 30
0.0
 10
0.6595660422
 20
4.2411005422
 30
0.0
 10
0.6602408729
 20
4.1902389347
 30
0.0
 10
0.6609165917
 20
4.1352130337
 30
0.0
 10
0.6618411813
 20
4.0549064833
 30
0.0
 10
0.6629783221
 20
3.9478900083
 30
0.0
 10
0.6643146051
 20
3.8141156607
 30
0.0
 10
0.6656520493
 20
3.6765341083
 30
0.0
 10
0.6667760472
 20
3.561614321
 30
0.0
 10
0.6676869557
 20
3.4712992874
 30
0.0
 10
0.6683639129
 20
3.4061374726
 30
0.0
 10
0.669040606
 20
3.3435034217
 30
0.0
 10
0.6697168845
 20
3.2839321683
 30
0.0
 10
0.6703927415
 20
3.227931
 30
0.0
 10
0.6710677632
 20
3.1759795609
 30
0.0
 10
0.6717419384
 20
3.1285189047
 30
0.0
 10
0.672414564
 20
3.0859568104
 30
0.0
 10
0.6729938033
 20
3.0537177067
 30
0.0
 10
0.6734638944
 20
3.0306438034
 30
0.0
 10
0.6738021018
 20
3.0154641504
 30
0.0
 10
0.6741399043
 20
3.001751543
 30
0.0
 10
0.6744771731
 20
2.9895351994
 30
0.0
 10
0.6748136123
 20
2.9788398282
 30
0.0
 10
0.6751484991
 20
2.9696876762
 30
0.0
 10
0.6754816764
 20
2.9620997883
 30
0.0
 10
0.6757730709
 20
2.9567630127
 30
0.0
 10
0.6760150133
 20
2.9532888483
 30
0.0
 10
0.6761818254
 20
2.9512804383
 30
0.0
 10
0.6763473604
 20
2.9496720054
 30
0.0
 10
0.6764725265
 20
2.948734783
 30
0.0
 10
0.6765402504
 20
2.9483342903
 30
0.0
  0
LINE
  5
2CC
100
AcDbEntity
  8
0
100
AcDbLine
 62
7
  6
CONTINUOUS
 10
0.6765574816
 20
2.9482344562
 11
0.676840039
 21
2.9471872193
  0
SPLINE
  5
2CD
100
AcDbEntity
  8
0
100
AcDbSpline
 62
7
  6
CONTINUOUS
 70
0
 71
3
 72
15
 73
11
 74
0
 42
0.0000001
 43
0.0000001
 44
0.0000000001
 40
0.0
 40
0.0
 40
0.0
 40
0.0
 40
0.3101935573
 40
0.4573079993
 40
0.5950760465
 40
0.7206422265
 40
0.8314295701
 40
0.9252068046
 40
0.9650929793
 40
1.0
 40
1.0
 40
1.0
 40
1.0
 10
1.0041517857
 20
3.7023486025
 30
0.0
 10
1.0048453454
 20
3.6287377264
 30
0.0
 10
1.0058666203
 20
3.5202156544
 30
0.0
 10
1.0072815608
 20
3.379001191
 30
0.0
 10
1.0083224025
 20
3.2816003772
 30
0.0
 10
1.0093603824
 20
3.1928210833
 30
0.0
 10
1.0103944816
 20
3.1144823042
 30
0.0
 10
1.0112908355
 20
3.0564768498
 30
0.0
 10
1.012027677
 20
3.0164790143
 30
0.0
 10
1.0123998437
 20
2.9987332005
 30
0.0
 10
1.0125892857
 20
2.9904513444
 30
0.0
  0
SPLINE
  5
2CE
100
AcDbEntity
  8
0
100
AcDbSpline
 62
7
  6
CONTINUOUS
 70
0
 71
3
 72
19
 73
15
 74
0
 42
0.0000001
 43
0.0000001
 44
0.0000000001
 40
0.0
 40
0.0
 40
0.0
 40
0.0
 40
0.0094321192
 40
0.0237885142
 40
0.0447904469
 40
0.0729680679
 40
0.1085332996
 40
0.1515901404
 40
0.2021972943
 40
0.2603913784
 40
0.3996171904
 40
0.5693190394
 40
0.7694651728
 40
1.0
 40
1.0
 40
1.0
 40
1.0
 10
0.7000892842
 20
4.457615111
 30
0.0
 10
0.700112523
 20
4.4576152179
 30
0.0
 10
0.7001685991
 20
4.4575832496
 30
0.0
 10
0.7002276372
 20
4.457489328
 30
0.0
 10
0.7002901041
 20
4.4573453123
 30
0.0
 10
0.7003516616
 20
4.4571455474
 30
0.0
 10
0.700414418
 20
4.4568899284
 30
0.0
 10
0.7004772727
 20
4.4565777219
 30
0.0
 10
0.7005404506
 20
4.4562089104
 30
0.0
 10
0.7006303021
 20
4.4556044207
 30
0.0
 10
0.7007397996
 20
4.4547064225
 30
0.0
 10
0.7008655154
 20
4.4534584286
 30
0.0
 10
0.7009916855
 20
4.4519845444
 30
0.0
 10
0.7010704944
 20
4.4509263405
 30
0.0
 10
0.7011104141
 20
4.4503597505
 30
0.0
  0
SPLINE
  5
2CF
100
AcDbEntity
  8
0
100
AcDbSpline
 62
7
  6
CONTINUOUS
 70
0
 71
3
 72
45
 73
41
 74
0
 42
0.0000001
 43
0.0000001
 44
0.0000000001
 40
0.0
 40
0.0
 40
0.0
 40
0.0
 40
0.0037344448
 40
0.0085132823
 40
0.014328631
 40
0.0211703114
 40
0.0290217745
 40
0.0378652192
 40
0.0584561053
 40
0.0827720854
 40
0.1106028268
 40
0.1417181979
 40
0.1758488089
 40
0.2127111966
 40
0.2519881957
 40
0.3364461287
 40
0.426366326
 40
0.5187078241
 40
0.6103478535
 40
0.6549331529
 40
0.6981874473
 40
0.7397470824
 40
0.779256235
 40
0.8163844536
 40
0.85081291
 40
0.8822538
 40
0.9104380203
 40
0.9351282993
 40
0.9460978008
 40
0.9561160992
 40
0.9651630961
 40
0.9732216316
 40
0.9802746086
 40
0.9863050628
 40
0.9912998555
 40
0.9952513805
 40
0.9968338186
 40
0.998153033
 40
0.9992084731
 40
1.0
 40
1.0
 40
1.0
 40
1.0
 10
0.7011104141
 20
4.4503597505
 30
0.0
 10
0.7012418481
 20
4.4484942761
 30
0.0
 10
0.7014894596
 20
4.444238016
 30
0.0
 10
0.7018208388
 20
4.4370702678
 30
0.0
 10
0.7021542244
 20
4.4283451891
 30
0.0
 10
0.7024890941
 20
4.4180805766
 30
0.0
 10
0.702824955
 20
4.4062989126
 30
0.0
 10
0.7032980078
 20
4.3876332674
 30
0.0
 10
0.703876761
 20
4.3607228471
 30
0.0
 10
0.7045446304
 20
4.3243041085
 30
0.0
 10
0.705214701
 20
4.2826142861
 30
0.0
 10
0.7058861792
 20
4.2360090548
 30
0.0
 10
0.7065588569
 20
4.184880636
 30
0.0
 10
0.7072321363
 20
4.1296648006
 30
0.0
 10
0.7081530616
 20
4.0492477089
 30
0.0
 10
0.7092857952
 20
3.9422615577
 30
0.0
 10
0.7106175771
 20
3.8087029421
 30
0.0
 10
0.7119504168
 20
3.6715475844
 30
0.0
 10
0.7130708058
 20
3.557093601
 30
0.0
 10
0.7139786995
 20
3.4672201308
 30
0.0
 10
0.7146532861
 20
3.4024243575
 30
0.0
 10
0.7153275057
 20
3.3401707057
 30
0.0
 10
0.7160014688
 20
3.2809849953
 30
0.0
 10
0.7166747929
 20
3.2253706033
 30
0.0
 10
0.7173475458
 20
3.1737968659
 30
0.0
 10
0.7180191565
 20
3.1267024107
 30
0.0
 10
0.7186894988
 20
3.0844850738
 30
0.0
 10
0.7192666738
 20
3.0525190647
 30
0.0
 10
0.7197350762
 20
3.0296496272
 30
0.0
 10
0.7200721259
 20
3.0146128601
 30
0.0
 10
0.7204087632
 20
3.0010342099
 30
0.0
 10
0.720744764
 20
2.9889409893
 30
0.0
 10
0.7210799062
 20
2.9783589988
 30
0.0
 10
0.7214135355
 20
2.9693120392
 30
0.0
 10
0.7217456462
 20
2.9618194241
 30
0.0
 10
0.7220359347
 20
2.9565546795
 30
0.0
 10
0.722277064
 20
2.9531312428
 30
0.0
 10
0.7224431879
 20
2.9511564918
 30
0.0
 10
0.7226080063
 20
2.9495795174
 30
0.0
 10
0.7227327986
 20
2.9486626082
 30
0.0
 10
0.7228005533
 20
2.9482720689
 30
0.0
  0
LINE
  5
2D0
100
AcDbEntity
  8
0
100
AcDbLine
 62
7
  6
CONTINUOUS
 10
0.7228005533
 20
2.9482720689
 11
0.7230900419
 21
2.9471882335
  0
SPLINE
  5
2D1
100
AcDbEntity
  8
0
100
AcDbSpline
 62
7
  6
CONTINUOUS
 70
0
 71
3
 72
41
 73
37
 74
0
 42
0.0000001
 43
0.0000001
 44
0.0000000001
 40
0.0
 40
0.0
 40
0.0
 40
0.0
 40
0.0001381288
 40
0.0002487846
 40
0.0003929159
 40
0.0005721763
 40
0.0007874
 40
0.0013273616
 40
0.0028505333
 40
0.0049684376
 40
0.0076819252
 40
0.0109906545
 40
0.0148938204
 40
0.0193903958
 40
0.0244784049
 40
0.0301539924
 40
0.0364130227
 40
0.0432513324
 40
0.0586490389
 40
0.0763135306
 40
0.0962069517
 40
0.1182766995
 40
0.1424668775
 40
0.1687215608
 40
0.1969818103
 40
0.2271756841
 40
0.2592277095
 40
0.2930624067
 40
0.3657582316
 40
0.4445590639
 40
0.5287182542
 40
0.6174071581
 40
0.7097750705
 40
0.8049603606
 40
0.9020584854
 40
1.0
 40
1.0
 40
1.0
 40
1.0
 10
0.9925892859
 20
4.4835985729
 30
0.0
 10
0.9926252672
 20
4.4835985162
 30
0.0
 10
0.992681158
 20
4.4835459804
 30
0.0
 10
0.9927298954
 20
4.4834593929
 30
0.0
 10
0.9927750156
 20
4.4833543499
 30
0.0
 10
0.9928190817
 20
4.4832214477
 30
0.0
 10
0.9928836752
 20
4.4829864986
 30
0.0
 10
0.9930055906
 20
4.4824054049
 30
0.0
 10
0.9931588936
 20
4.4813263208
 30
0.0
 10
0.9933337434
 20
4.4796802845
 30
0.0
 10
0.9935100266
 20
4.4775670039
 30
0.0
 10
0.9936879546
 20
4.4749876344
 30
0.0
 10
0.9938665313
 20
4.4719428676
 30
0.0
 10
0.9940456339
 20
4.468433979
 30
0.0
 10
0.9942250347
 20
4.4644628758
 30
0.0
 10
0.9944046907
 20
4.4600322666
 30
0.0
 10
0.9945845403
 20
4.4551453901
 30
0.0
 10
0.9948345263
 20
4.4477268934
 30
0.0
 10
0.9951430771
 20
4.4373377188
 30
0.0
 10
0.9955012352
 20
4.4235478956
 30
0.0
 10
0.9958599004
 20
4.4080195616
 30
0.0
 10
0.9962191131
 20
4.3907909553
 30
0.0
 10
0.9965787038
 20
4.3719049799
 30
0.0
 10
0.9969385695
 20
4.3514061734
 30
0.0
 10
0.9972985646
 20
4.3293432391
 30
0.0
 10
0.997658732
 20
4.3057699659
 30
0.0
 10
0.998019055
 20
4.2807444437
 30
0.0
 10
0.9985114704
 20
4.2446483181
 30
0.0
 10
0.9991220595
 20
4.1963750513
 30
0.0
 10
0.9998394491
 20
4.1349930521
 30
0.0
 10
1.0005573263
 20
4.0694447433
 30
0.0
 10
1.0012757782
 20
4.0003621416
 30
0.0
 10
1.0019945009
 20
3.9284071969
 30
0.0
 10
1.0027136211
 20
3.8542616259
 30
0.0
 10
1.0034327413
 20
3.7786641161
 30
0.0
 10
1.0039114149
 20
3.7278603355
 30
0.0
 10
1.0041517857
 20
3.7023486025
 30
0.0
  0
SPLINE
  5
2D2
100
AcDbEntity
  8
0
100
AcDbSpline
 62
7
  6
CONTINUOUS
 70
0
 71
3
 72
38
 73
34
 74
0
 42
0.0000001
 43
0.0000001
 44
0.0000000001
 40
0.0
 40
0.0
 40
0.0
 40
0.0
 40
0.0969467514
 40
0.1930784422
 40
0.2873559637
 40
0.3789001379
 40
0.466875443
 40
0.5504568002
 40
0.6288378017
 40
0.7012906067
 40
0.7671280105
 40
0.7973739361
 40
0.8257403042
 40
0.8521557284
 40
0.8765609984
 40
0.8989017622
 40
0.9191237047
 40
0.9371739534
 40
0.9530126268
 40
0.9666069107
 40
0.9725522279
 40
0.9779242594
 40
0.9827190015
 40
0.9869333891
 40
0.9905661433
 40
0.993616319
 40
0.9960832454
 40
0.9970979627
 40
0.997966953
 40
0.9986904948
 40
0.9992692026
 40
0.9997044742
 40
1.0
 40
1.0
 40
1.0
 40
1.0
 10
0.7829017857
 20
3.7023486025
 30
0.0
 10
0.7826639056
 20
3.7275959773
 30
0.0
 10
0.7821901435
 20
3.7778784646
 30
0.0
 10
0.7814784201
 20
3.8527131295
 30
0.0
 10
0.7807666893
 20
3.9261407003
 30
0.0
 10
0.7800553441
 20
3.9974439504
 30
0.0
 10
0.7793442589
 20
4.065961386
 30
0.0
 10
0.7786337033
 20
4.1310504609
 30
0.0
 10
0.7779236536
 20
4.1920966586
 30
0.0
 10
0.7772145576
 20
4.2485213553
 30
0.0
 10
0.7766086858
 20
4.2924101921
 30
0.0
 10
0.7761194201
 20
4.3248177762
 30
0.0
 10
0.7757630975
 20
4.3469592548
 30
0.0
 10
0.7754069076
 20
4.3675794043
 30
0.0
 10
0.7750509443
 20
4.3866300178
 30
0.0
 10
0.7746953287
 20
4.4040673235
 30
0.0
 10
0.7743401831
 20
4.4198491821
 30
0.0
 10
0.773985587
 20
4.4339372
 30
0.0
 10
0.7736317246
 20
4.4462985339
 30
0.0
 10
0.7733259675
 20
4.455507317
 30
0.0
 10
0.7730774877
 20
4.4619904753
 30
0.0
 10
0.7728997583
 20
4.4661829038
 30
0.0
 10
0.7727223153
 20
4.4699241017
 30
0.0
 10
0.7725451955
 20
4.4732117705
 30
0.0
 10
0.7723687011
 20
4.4760443931
 30
0.0
 10
0.7721929285
 20
4.4784209063
 30
0.0
 10
0.7720395773
 20
4.4801152786
 30
0.0
 10
0.7719131968
 20
4.4812413035
 30
0.0
 10
0.7718250099
 20
4.4819146652
 30
0.0
 10
0.771737249
 20
4.4824732643
 30
0.0
 10
0.7716504957
 20
4.4829178196
 30
0.0
 10
0.7715646843
 20
4.4832475682
 30
0.0
 10
0.7714978088
 20
4.4834275009
 30
0.0
 10
0.7714594012
 20
4.4834941986
 30
0.0
  0
SPLINE
  5
2D3
100
AcDbEntity
  8
0
100
AcDbSpline
 62
7
  6
CONTINUOUS
 70
0
 71
3
 72
18
 73
14
 74
0
 42
0.0000001
 43
0.0000001
 44
0.0000000001
 40
0.0
 40
0.0
 40
0.0
 40
0.0
 40
0.0186070222
 40
0.0428162276
 40
0.0727971985
 40
0.1086363103
 40
0.1503824158
 40
0.1980651861
 40
0.3112973529
 40
0.4482943801
 40
0.6088800311
 40
0.7928531279
 40
1.0
 40
1.0
 40
1.0
 40
1.0
 10
0.6377411745
 20
2.934802695
 30
0.0
 10
0.6376242829
 20
2.9350051631
 30
0.0
 10
0.6374027155
 20
2.9354977697
 30
0.0
 10
0.6371092116
 20
2.9363644649
 30
0.0
 10
0.6368137589
 20
2.9374570493
 30
0.0
 10
0.6365168596
 20
2.9387757815
 30
0.0
 10
0.6362189024
 20
2.9403214658
 30
0.0
 10
0.6357960388
 20
2.942832618
 30
0.0
 10
0.6352795917
 20
2.9465406009
 30
0.0
 10
0.6346855185
 20
2.9516682316
 30
0.0
 10
0.6340889984
 20
2.9576895014
 30
0.0
 10
0.6334905239
 20
2.9645956551
 30
0.0
 10
0.6331130032
 20
2.969495439
 30
0.0
 10
0.6329223818
 20
2.9720911506
 30
0.0
  0
SPLINE
  5
2D4
100
AcDbEntity
  8
0
100
AcDbSpline
 62
7
  6
CONTINUOUS
 70
0
 71
3
 72
16
 73
12
 74
0
 42
0.0000001
 43
0.0000001
 44
0.0000000001
 40
0.0
 40
0.0
 40
0.0
 40
0.0
 40
0.0245104099
 40
0.0459382773
 40
0.0744260935
 40
0.1102148279
 40
0.1534207896
 40
0.2623018279
 40
0.401335917
 40
0.5706153056
 40
1.0
 40
1.0
 40
1.0
 40
1.0
 10
0.9463392862
 20
4.4835985049
 30
0.0
 10
0.9463869417
 20
4.4835983762
 30
0.0
 10
0.9464553744
 20
4.4835119902
 30
0.0
 10
0.9465127804
 20
4.4833866122
 30
0.0
 10
0.9465684519
 20
4.4832266959
 30
0.0
 10
0.9466225107
 20
4.483025679
 30
0.0
 10
0.9467021849
 20
4.4826686693
 30
0.0
 10
0.9467974431
 20
4.4821107109
 30
0.0
 10
0.9469065101
 20
4.4813067497
 30
0.0
 10
0.9470654189
 20
4.4798812189
 30
0.0
 10
0.9471645596
 20
4.4787212664
 30
0.0
 10
0.9472295805
 20
4.4778889485
 30
0.0
  0
LINE
  5
2D5
100
AcDbEntity
  8
0
100
AcDbLine
 62
7
  6
CONTINUOUS
 10
0.9472295805
 20
4.4778889485
 11
0.9481983663
 21
4.4588114208
  0
SPLINE
  5
2D6
100
AcDbEntity
  8
0
100
AcDbSpline
 62
7
  6
CONTINUOUS
 70
0
 71
3
 72
18
 73
14
 74
0
 42
0.0000001
 43
0.0000001
 44
0.0000000001
 40
0.0
 40
0.0
 40
0.0
 40
0.0
 40
0.0246409126
 40
0.0558951792
 40
0.0935558002
 40
0.1373571509
 40
0.1870140789
 40
0.2421796183
 40
0.3675285587
 40
0.5100221911
 40
0.6657744767
 40
0.8306191762
 40
1.0
 40
1.0
 40
1.0
 40
1.0
 10
0.9481983663
 20
4.4588114208
 30
0.0
 10
0.9484324515
 20
4.4526019335
 30
0.0
 10
0.9488741291
 20
4.4385130847
 30
0.0
 10
0.9494667171
 20
4.4149277589
 30
0.0
 10
0.950062772
 20
4.3865093736
 30
0.0
 10
0.9506618381
 20
4.3534494631
 30
0.0
 10
0.951262267
 20
4.3159745818
 30
0.0
 10
0.9521006095
 20
4.257936436
 30
0.0
 10
0.9531256811
 20
4.1764872613
 30
0.0
 10
0.9543160372
 20
4.0696725404
 30
0.0
 10
0.955509665
 20
3.9528973269
 30
0.0
 10
0.9567053157
 20
3.8293414474
 30
0.0
 10
0.9574993522
 20
3.7450608373
 30
0.0
 10
0.9579017857
 20
3.7023486025
 30
0.0
  0
SPLINE
  5
2D7
100
AcDbEntity
  8
0
100
AcDbSpline
 62
7
  6
CONTINUOUS
 70
0
 71
3
 72
38
 73
34
 74
0
 42
0.0000001
 43
0.0000001
 44
0.0000000001
 40
0.0
 40
0.0
 40
0.0
 40
0.0
 40
0.0969461728
 40
0.1930793473
 40
0.2873598892
 40
0.3789069974
 40
0.4668849188
 40
0.5504699659
 40
0.6288545954
 40
0.7013085652
 40
0.7671434868
 40
0.7973864372
 40
0.8257503706
 40
0.852164185
 40
0.8765672414
 40
0.898905844
 40
0.9191264455
 40
0.9371762904
 40
0.9530140801
 40
0.9666074463
 40
0.9725524822
 40
0.9779244522
 40
0.9827194208
 40
0.9869339984
 40
0.9905667365
 40
0.9936167639
 40
0.9960834838
 40
0.997098099
 40
0.9979670005
 40
0.9986904755
 40
0.9992691479
 40
0.999704424
 40
1.0
 40
1.0
 40
1.0
 40
1.0
 10
0.9579017857
 20
3.7023486025
 30
0.0
 10
0.9581396643
 20
3.6771013851
 30
0.0
 10
0.9586134286
 20
3.6268186755
 30
0.0
 10
0.9593251611
 20
3.5519830083
 30
0.0
 10
0.9600369123
 20
3.47855352
 30
0.0
 10
0.9607482787
 20
3.4072480568
 30
0.0
 10
0.961459394
 20
3.3387282331
 30
0.0
 10
0.962169982
 20
3.2736365886
 30
0.0
 10
0.9628800685
 20
3.2125881982
 30
0.0
 10
0.9635891898
 20
3.1561629151
 30
0.0
 10
0.9641950448
 20
3.1122752078
 30
0.0
 10
0.9646843074
 20
3.0798696878
 30
0.0
 10
0.9650406114
 20
3.0577300432
 30
0.0
 10
0.9653967662
 20
3.0371115287
 30
0.0
 10
0.965752714
 20
3.0180624789
 30
0.0
 10
0.966108316
 20
3.0006266664
 30
0.0
 10
0.9664634495
 20
2.9848458293
 30
0.0
 10
0.966818013
 20
2.9707584992
 30
0.0
 10
0.9671718681
 20
2.9583977429
 30
0.0
 10
0.9674776223
 20
2.9491895048
 30
0.0
 10
0.9677260968
 20
2.9427066766
 30
0.0
 10
0.9679038263
 20
2.9385142795
 30
0.0
 10
0.9680812607
 20
2.9347729897
 30
0.0
 10
0.9682583739
 20
2.9314852169
 30
0.0
 10
0.9684348677
 20
2.9286525884
 30
0.0
 10
0.9686106399
 20
2.9262761726
 30
0.0
 10
0.9687639924
 20
2.9245819203
 30
0.0
 10
0.9688903739
 20
2.9234559999
 30
0.0
 10
0.9689785612
 20
2.9227827063
 30
0.0
 10
0.9690663228
 20
2.9222241575
 30
0.0
 10
0.969153078
 20
2.9217796293
 30
0.0
 10
0.9692388916
 20
2.9214498749
 30
0.0
 10
0.9693057677
 20
2.9212699299
 30
0.0
 10
0.9693441699
 20
2.921203214
 30
0.0
  0
SPLINE
  5
2D8
100
AcDbEntity
  8
0
100
AcDbSpline
 62
7
  6
CONTINUOUS
 70
0
 71
3
 72
18
 73
14
 74
0
 42
0.0000001
 43
0.0000001
 44
0.0000000001
 40
0.0
 40
0.0
 40
0.0
 40
0.0
 40
0.0094475681
 40
0.0238584276
 40
0.0449388262
 40
0.0732069221
 40
0.1088647154
 40
0.1520070574
 40
0.260916186
 40
0.4001355602
 40
0.5697219198
 40
0.7696822389
 40
1.0
 40
1.0
 40
1.0
 40
1.0
 10
0.9000892855
 20
4.4835985893
 30
0.0
 10
0.9001117954
 20
4.4835986132
 30
0.0
 10
0.9001660187
 20
4.4835673059
 30
0.0
 10
0.900223014
 20
4.4834760583
 30
0.0
 10
0.9002834066
 20
4.4833361867
 30
0.0
 10
0.9003429037
 20
4.4831423539
 30
0.0
 10
0.9004035855
 20
4.4828944967
 30
0.0
 10
0.9004915778
 20
4.4824558984
 30
0.0
 10
0.9005974089
 20
4.4817697663
 30
0.0
 10
0.9007181854
 20
4.480781806
 30
0.0
 10
0.9008396261
 20
4.479575637
 30
0.0
 10
0.9009616469
 20
4.4781515814
 30
0.0
 10
0.9010378231
 20
4.4771292111
 30
0.0
 10
0.9010764116
 20
4.4765818124
 30
0.0
  0
LINE
  5
2D9
100
AcDbEntity
  8
0
100
AcDbLine
 62
7
  6
CONTINUOUS
 10
0.9010764116
 20
4.4765818124
 11
0.9015563888
 21
4.4681325532
  0
SPLINE
  5
2DA
100
AcDbEntity
  8
0
100
AcDbSpline
 62
7
  6
CONTINUOUS
 70
0
 71
3
 72
19
 73
15
 74
0
 42
0.0000001
 43
0.0000001
 44
0.0000000001
 40
0.0
 40
0.0
 40
0.0
 40
0.0
 40
0.0095823474
 40
0.0209822856
 40
0.0491421059
 40
0.0842857188
 40
0.1261491094
 40
0.1744274706
 40
0.2287693785
 40
0.3539947982
 40
0.4981655754
 40
0.6570346321
 40
0.8259820057
 40
1.0
 40
1.0
 40
1.0
 40
1.0
 10
0.9015563888
 20
4.4681325532
 30
0.0
 10
0.9016726693
 20
4.4656890613
 30
0.0
 10
0.9018987844
 20
4.4603372386
 30
0.0
 10
0.9023460661
 20
4.447799782
 30
0.0
 10
0.9028856374
 20
4.4287363385
 30
0.0
 10
0.9035034692
 20
4.4018955875
 30
0.0
 10
0.9041244652
 20
4.3699177234
 30
0.0
 10
0.9047481526
 20
4.3330380467
 30
0.0
 10
0.9056234201
 20
4.2748783644
 30
0.0
 10
0.9066903612
 20
4.1922387618
 30
0.0
 10
0.9079262077
 20
4.0829148004
 30
0.0
 10
0.9091660297
 20
3.9624285529
 30
0.0
 10
0.9104083978
 20
3.8343223301
 30
0.0
 10
0.9112332361
 20
3.7467713149
 30
0.0
 10
0.9116517857
 20
3.7023486025
 30
0.0
  0
SPLINE
  5
2DB
100
AcDbEntity
  8
0
100
AcDbSpline
 62
7
  6
CONTINUOUS
 70
0
 71
3
 72
15
 73
11
 74
0
 42
0.0000001
 43
0.0000001
 44
0.0000000001
 40
0.0
 40
0.0
 40
0.0
 40
0.0
 40
0.0349070207
 40
0.0747931954
 40
0.1685704299
 40
0.2793577735
 40
0.4049239535
 40
0.5426920007
 40
0.6898064427
 40
1.0
 40
1.0
 40
1.0
 40
1.0
 10
0.9763392857
 20
2.9904513444
 30
0.0
 10
0.9761498437
 20
2.9987332005
 30
0.0
 10
0.975777677
 20
3.0164790143
 30
0.0
 10
0.9750408355
 20
3.0564768498
 30
0.0
 10
0.9741444816
 20
3.1144823042
 30
0.0
 10
0.9731103824
 20
3.1928210833
 30
0.0
 10
0.9720724025
 20
3.2816003772
 30
0.0
 10
0.9710315608
 20
3.379001191
 30
0.0
 10
0.9696166203
 20
3.5202156544
 30
0.0
 10
0.9685953454
 20
3.6287377264
 30
0.0
 10
0.9679017857
 20
3.7023486025
 30
0.0
  0
SPLINE
  5
2DC
100
AcDbEntity
  8
0
100
AcDbSpline
 62
7
  6
CONTINUOUS
 70
0
 71
3
 72
18
 73
14
 74
0
 42
0.0000001
 43
0.0000001
 44
0.0000000001
 40
0.0
 40
0.0
 40
0.0
 40
0.0
 40
0.0091174144
 40
0.0233163964
 40
0.0442666004
 40
0.0724563397
 40
0.1080727175
 40
0.1512024222
 40
0.2601546719
 40
0.3994888023
 40
0.5692470651
 40
0.7694258668
 40
1.0
 40
1.0
 40
1.0
 40
1.0
 10
0.8538392851
 20
4.4835984496
 30
0.0
 10
0.8538629542
 20
4.4835985279
 30
0.0
 10
0.8539202449
 20
4.4835637162
 30
0.0
 10
0.8539790536
 20
4.4834646353
 30
0.0
 10
0.8540422295
 20
4.4833122554
 30
0.0
 10
0.8541042484
 20
4.4831009384
 30
0.0
 10
0.8541676528
 20
4.4828305797
 30
0.0
 10
0.8542595668
 20
4.4823519545
 30
0.0
 10
0.8543701193
 20
4.48160328
 30
0.0
 10
0.8544962722
 20
4.4805253108
 30
0.0
 10
0.8546231283
 20
4.4792092433
 30
0.0
 10
0.8547505921
 20
4.477655478
 30
0.0
 10
0.8548301676
 20
4.4765400393
 30
0.0
 10
0.8548704788
 20
4.4759428177
 30
0.0
  0
LINE
  5
2DD
100
AcDbEntity
  8
0
100
AcDbLine
 62
7
  6
CONTINUOUS
 10
0.8548704788
 20
4.4759428177
 11
0.8553457254
 21
4.4672950037
  0
SPLINE
  5
2DE
100
AcDbEntity
  8
0
100
AcDbSpline
 62
7
  6
CONTINUOUS
 70
0
 71
3
 72
19
 73
15
 74
0
 42
0.0000001
 43
0.0000001
 44
0.0000000001
 40
0.0
 40
0.0
 40
0.0
 40
0.0
 40
0.0097788176
 40
0.0213608112
 40
0.0498412912
 40
0.0852474719
 40
0.1273149776
 40
0.1757383065
 40
0.2301685031
 40
0.355408807
 40
0.4994006468
 40
0.657940751
 40
0.8264623227
 40
1.0
 40
1.0
 40
1.0
 40
1.0
 10
0.8553457254
 20
4.4672950037
 30
0.0
 10
0.8554612119
 20
4.4648039988
 30
0.0
 10
0.8556861206
 20
4.4593613899
 30
0.0
 10
0.8561311593
 20
4.4466591903
 30
0.0
 10
0.8566687132
 20
4.4274213592
 30
0.0
 10
0.8572844697
 20
4.40040913
 30
0.0
 10
0.8579032917
 20
4.3683102438
 30
0.0
 10
0.8585247087
 20
4.3313593672
 30
0.0
 10
0.8593962299
 20
4.2732000318
 30
0.0
 10
0.8604589738
 20
4.1906701879
 30
0.0
 10
0.8616902402
 20
4.0815916064
 30
0.0
 10
0.8629254053
 20
3.9614753451
 30
0.0
 10
0.8641630899
 20
3.8338243086
 30
0.0
 10
0.8649848484
 20
3.7466002016
 30
0.0
 10
0.8654017857
 20
3.7023486025
 30
0.0
  0
SPLINE
  5
2DF
100
AcDbEntity
  8
0
100
AcDbSpline
 62
7
  6
CONTINUOUS
 70
0
 71
3
 72
38
 73
34
 74
0
 42
0.0000001
 43
0.0000001
 44
0.0000000001
 40
0.0
 40
0.0
 40
0.0
 40
0.0
 40
0.096949114
 40
0.1930816492
 40
0.2873583353
 40
0.3789008988
 40
0.4668742692
 40
0.5504539638
 40
0.6288362345
 40
0.7012918601
 40
0.7671308923
 40
0.7973773367
 40
0.8257434485
 40
0.8521584325
 40
0.8765638938
 40
0.898904755
 40
0.9191259631
 40
0.9371751155
 40
0.9530137659
 40
0.9666081688
 40
0.9725532877
 40
0.9779247832
 40
0.9827186819
 40
0.9869326844
 40
0.9905655068
 40
0.9936160169
 40
0.9960833571
 40
0.9970982528
 40
0.9979673716
 40
0.9986909689
 40
0.9992696371
 40
0.999704754
 40
1.0
 40
1.0
 40
1.0
 40
1.0
 10
0.6804017857
 20
3.7023486025
 30
0.0
 10
0.6806396717
 20
3.6771005998
 30
0.0
 10
0.6811134418
 20
3.6268172523
 30
0.0
 10
0.681825172
 20
3.5519819326
 30
0.0
 10
0.6825368992
 20
3.4785547423
 30
0.0
 10
0.6832482359
 20
3.4072525976
 30
0.0
 10
0.6839593015
 20
3.3387364841
 30
0.0
 10
0.6846698537
 20
3.2736479831
 30
0.0
 10
0.6853799133
 20
3.212601123
 30
0.0
 10
0.6860890245
 20
3.1561749091
 30
0.0
 10
0.6866949192
 20
3.1122847568
 30
0.0
 10
0.6871841882
 20
3.0798766641
 30
0.0
 10
0.6875405181
 20
3.0577352208
 30
0.0
 10
0.687896718
 20
3.0371151928
 30
0.0
 10
0.688252677
 20
3.0180646093
 30
0.0
 10
0.6886082855
 20
3.0006274108
 30
0.0
 10
0.68896343
 20
2.9848459958
 30
0.0
 10
0.6893180415
 20
2.9707584543
 30
0.0
 10
0.6896718884
 20
2.9583973744
 30
0.0
 10
0.6899776307
 20
2.9491886128
 30
0.0
 10
0.6902261053
 20
2.9427056114
 30
0.0
 10
0.6904038267
 20
2.9385135917
 30
0.0
 10
0.6905812821
 20
2.9347728526
 30
0.0
 10
0.6907583986
 20
2.9314854846
 30
0.0
 10
0.6909348869
 20
2.9286528557
 30
0.0
 10
0.691110653
 20
2.9262761278
 30
0.0
 10
0.6912639969
 20
2.9245815116
 30
0.0
 10
0.6913903739
 20
2.9234552971
 30
0.0
 10
0.6914785582
 20
2.9227818392
 30
0.0
 10
0.6915663162
 20
2.9222232022
 30
0.0
 10
0.6916530631
 20
2.9217786796
 30
0.0
 10
0.6917388672
 20
2.9214490613
 30
0.0
 10
0.6918057436
 20
2.9212692392
 30
0.0
 10
0.6918441708
 20
2.9212026368
 30
0.0
  0
SPLINE
  5
2E0
100
AcDbEntity
  8
0
100
AcDbSpline
 62
7
  6
CONTINUOUS
 70
0
 71
3
 72
17
 73
13
 74
0
 42
0.0000001
 43
0.0000001
 44
0.0000000001
 40
0.0
 40
0.0
 40
0.0
 40
0.0
 40
0.0238389722
 40
0.0451022889
 40
0.0734906069
 40
0.1092260083
 40
0.1524143835
 40
0.2613449928
 40
0.4005178261
 40
0.5700085903
 40
0.7698378272
 40
1.0
 40
1.0
 40
1.0
 40
1.0
 10
0.8075892859
 20
4.4835985877
 30
0.0
 10
0.8076403001
 20
4.4835985301
 30
0.0
 10
0.807711797
 20
4.483501661
 30
0.0
 10
0.8077715414
 20
4.4833650525
 30
0.0
 10
0.8078300057
 20
4.4831885425
 30
0.0
 10
0.807886729
 20
4.4829670648
 30
0.0
 10
0.8079704178
 20
4.4825732605
 30
0.0
 10
0.8080704328
 20
4.4819580411
 30
0.0
 10
0.8081849355
 20
4.4810715745
 30
0.0
 10
0.8082999256
 20
4.479989487
 30
0.0
 10
0.8084155104
 20
4.4787117921
 30
0.0
 10
0.8084876569
 20
4.4777944471
 30
0.0
 10
0.808524205
 20
4.4773032685
 30
0.0
  0
LINE
  5
2E1
100
AcDbEntity
  8
0
100
AcDbLine
 62
7
  6
CONTINUOUS
 10
0.808524205
 20
4.4773032685
 11
0.8090063738
 21
4.46916588
  0
SPLINE
  5
2E2
100
AcDbEntity
  8
0
100
AcDbSpline
 62
7
  6
CONTINUOUS
 70
0
 71
3
 72
19
 73
15
 74
0
 42
0.0000001
 43
0.0000001
 44
0.0000000001
 40
0.0
 40
0.0
 40
0.0
 40
0.0
 40
0.0093310489
 40
0.0204983589
 40
0.0482494765
 40
0.0830612194
 40
0.1246695567
 40
0.1727656251
 40
0.2269975204
 40
0.3521990252
 40
0.4965836161
 40
0.6558659304
 40
0.8253660616
 40
1.0
 40
1.0
 40
1.0
 40
1.0
 10
0.8090063738
 20
4.46916588
 30
0.0
 10
0.8091236954
 20
4.4667834456
 30
0.0
 10
0.8093513649
 20
4.4615482596
 30
0.0
 10
0.8098015468
 20
4.4492222806
 30
0.0
 10
0.8103437128
 20
4.4303820052
 30
0.0
 10
0.8109642285
 20
4.4037596235
 30
0.0
 10
0.8115880019
 20
4.371935272
 30
0.0
 10
0.8122146465
 20
4.3351457567
 30
0.0
 10
0.813094624
 20
4.2769884101
 30
0.0
 10
0.8141668457
 20
4.1942168023
 30
0.0
 10
0.815408413
 20
4.0845910155
 30
0.0
 10
0.8166541012
 20
3.9636404396
 30
0.0
 10
0.8179024223
 20
3.8349567933
 30
0.0
 10
0.8187311873
 20
3.7469887694
 30
0.0
 10
0.8191517857
 20
3.7023486025
 30
0.0
  0
ENDSEC
  0
SECTION
  2
OBJECTS
  0
DICTIONARY
  5
C
100
AcDbDictionary
280
0
281
1
  3
ACAD_GROUP
350
D
  3
ACAD_MLINESTYLE
350
17
  3
ACAD_LAYOUT
350
1A
  3
ACAD_PLOTSETTINGS
350
19
  3
ACAD_PLOTSTYLENAME
350
E
  0
DICTIONARY
  5
D
102
{ACAD_REACTORS
330
C
102
}
100
AcDbDictionary
280
0
281
1
  0
ACDBDICTIONARYWDFLT
  5
E
102
{ACAD_REACTORS
330
C
102
}
100
AcDbDictionary
281
1
  3
Normal
350
F
100
AcDbDictionaryWithDefault
340
F
  0
DICTIONARY
  5
17
102
{ACAD_REACTORS
330
C
102
}
100
AcDbDictionary
280
0
281
1
  3
Standard
350
18
  0
DICTIONARY
  5
19
102
{ACAD_REACTORS
330
C
102
}
100
AcDbDictionary
281
1
  0
DICTIONARY
  5
1A
102
{ACAD_REACTORS
330
C
102
}
100
AcDbDictionary
281
1
  3
Model
350
2E3
  3
Layout1
350
2E4
  0
ACDBPLACEHOLDER
  5
F
102
{ACAD_REACTORS
330
E
102
}
  0
MLINESTYLE
  5
18
102
{ACAD_REACTORS
330
17
102
}
100
AcDbMlineStyle
  2
STANDARD
 70
0
  3

 62
256
 51
90.0
 52
90.0
 71
2
 49
0.5
 62
256
  6
BYLAYER
 49
-0.5
 62
256
  6
BYLAYER
  0
LAYOUT
  5
2E3
102
{ACAD_REACTORS
330
1A
102
}
100
AcDbPlotSettings
  1

  2
none_device
  4
ANSI_A_(11.00_x_8.50_Inches)
  6

 40
0.0
 41
0.0
 42
0.0
 43
0.0
 44
279.4
 45
215.9
 46
0.0
 47
0.0
 48
0.0
 49
0.0
140
0.0
141
0.0
142
1.0
143
1.0
 70
1024
 72
0
 73
0
 74
0
  7

 75
0
147
1.0
148
0.0
149
0.0
100
AcDbLayout
  1
Model
 70
0
 71
0
 10
0.0
 20
0.0
 11
11.0
 21
8.5
 12
0.0
 22
0.0
 32
0.0
 14
0.0
 24
0.0
 34
0.0
 15
0.0
 25
0.0
 35
0.0
146
0.0
 13
0.0
 23
0.0
 33
0.0
 16
1.0
 26
0.0
 36
0.0
 17
0.0
 27
1.0
 37
0.0
 76
0
330
207
345
0
346
0
  0
LAYOUT
  5
2E4
102
{ACAD_REACTORS
330
1A
102
}
100
AcDbPlotSettings
  1

  2
none_device
  4
ANSI_A_(11.00_x_8.50_Inches)
  6

 40
0.0
 41
0.0
 42
0.0
 43
0.0
 44
279.4
 45
215.9
 46
0.0
 47
0.0
 48
0.0
 49
0.0
140
0.0
141
0.0
142
1.0
143
1.0
 70
0
 72
0
 73
0
 74
0
  7

 75
0
147
1.0
148
0.0
149
0.0
100
AcDbLayout
  1
Layout1
 70
0
 71
1
 10
0.0
 20
0.0
 11
11.0
 21
8.5
 12
0.0
 22
0.0
 32
0.0
 14
0.0
 24
0.0
 34
0.0
 15
0.0
 25
0.0
 35
0.0
146
0.0
 13
0.0
 23
0.0
 33
0.0
 16
1.0
 26
0.0
 36
0.0
 17
0.0
 27
1.0
 37
0.0
 76
0
330
208
345
0
346
0
  0
ENDSEC
  0
EOF
