999
DXF file: 3280c_FRONT.dxf
999
Pro/ENGINEER 2023134 by Parametric Technology Corporation
  0
SECTION
  2
HEADER
  9
$ACADVER
  1
AC1032
  9
$DWGCODEPAGE
  3
ANSI_1252
  9
$EXTMAX
 10
11.0
 20
8.5
 30
0.0
  9
$EXTMIN
 10
0.0
 20
0.0
 30
0.0
  9
$LIMMIN
 10
0.0
 20
0.0
  9
$LIMMAX
 10
11.0
 20
8.5
  9
$VIEWCTR
 10
5.5
 20
4.25
  9
$VIEWSIZE
 40
8.5
  9
$CLAYER
  8
0
  9
$LTSCALE
 40
0.605
  9
$CELTYPE
  6
BYLAYER
  9
$DIMSCALE
 40
1.0
  9
$DIMASZ
 40
0.1
  9
$DIMEXO
 40
0.0625
  9
$DIMDLI
 40
0.418
  9
$DIMEXE
 40
0.125
  9
$DIMCEN
 40
0.099
  9
$DIMLFAC
 40
1.0
  9
$DIMBLK
  1
_FILLED
  9
$DIMALT
 70
1
  9
$DIMALTD
 70
2
  9
$DIMALTTD
 70
2
  9
$DIMALTF
 40
25.4
  9
$DIMTXT
 40
0.08
  9
$DIMTOL
 70
1
  9
$DIMLIM
 70
0
  9
$DIMTFAC
 40
1.0
  9
$DIMTP
 40
0.001
  9
$DIMTM
 40
0.001
  9
$DIMGAP
 40
0.09
  9
$DIMDSEP
 70
46
  9
$AUNITS
 70
0
  9
$PDMODE
 70
3
  9
$PDSIZE
 40
0.3125
  9
$HANDSEED
  5
35F
  9
$TILEMODE
 70
1
  9
$MEASUREMENT
 70
0
  9
$INSUNITS
 70
1
  0
ENDSEC
  0
SECTION
  2
CLASSES
  0
CLASS
  1
ACDBDICTIONARYWDFLT
  2
AcDbDictionaryWithDefault
  3
AutoCAD 2000
 90
0
 91
1
280
0
281
0
  0
CLASS
  1
ACDBPLACEHOLDER
  2
AcDbPlaceHolder
  3
AutoCAD 2000
 90
0
 91
1
280
0
281
0
  0
CLASS
  1
LAYOUT
  2
AcDbLayout
  3
AutoCAD 2000
 90
0
 91
0
280
0
281
0
  0
ENDSEC
  0
SECTION
  2
TABLES
  0
TABLE
  2
VPORT
  5
8
100
AcDbSymbolTable
 70
2
  0
VPORT
  5
1F4
100
AcDbSymbolTableRecord
100
AcDbViewportTableRecord
  2
*ACTIVE
 70
0
 10
0.0
 20
0.0
 11
1.0
 21
1.0
 12
5.5
 22
4.25
 13
0.0
 23
0.0
 14
1.0
 24
1.0
 15
0.0
 25
0.0
 16
0.0
 26
0.0
 36
1.0
 17
0.0
 27
0.0
 37
0.0
 40
8.5
 41
1.2941176471
 42
50.0
 43
0.0
 44
0.0
 50
0.0
 51
0.0
 71
0
 72
100
 73
1
 74
1
 75
0
 76
0
 77
0
 78
0
  0
ENDTAB
  0
TABLE
  2
LTYPE
  5
5
100
AcDbSymbolTable
 70
6
  0
LTYPE
  5
14
100
AcDbSymbolTableRecord
100
AcDbLinetypeTableRecord
  2
BYBLOCK
 70
0
  3

 72
65
 73
0
 40
0.0
  0
LTYPE
  5
15
100
AcDbSymbolTableRecord
100
AcDbLinetypeTableRecord
  2
BYLAYER
 70
0
  3

 72
65
 73
0
 40
0.0
  0
LTYPE
  5
16
100
AcDbSymbolTableRecord
100
AcDbLinetypeTableRecord
  2
CONTINUOUS
 70
64
  3
Solid line
 72
65
 73
0
 40
0.0
  0
LTYPE
  5
1F5
100
AcDbSymbolTableRecord
100
AcDbLinetypeTableRecord
  2
CENTER
 70
64
  3
____ _ ____ _ ____ _ ____ _ ____ _ ____ _ ____
 72
65
 73
4
 40
0.6
 49
0.375
 74
0
 49
-0.075
 74
0
 49
0.075
 74
0
 49
-0.075
 74
0
  0
LTYPE
  5
1F6
100
AcDbSymbolTableRecord
100
AcDbLinetypeTableRecord
  2
HIDDEN
 70
64
  3
- - - - - - - - - - - - - - - - - - - -
 72
65
 73
2
 40
0.2
 49
0.1
 74
0
 49
-0.1
 74
0
  0
LTYPE
  5
1F7
100
AcDbSymbolTableRecord
100
AcDbLinetypeTableRecord
  2
PHANTOM
 70
64
  3
_____ _ _ _____ _ _ _____ _ _ _____
 72
65
 73
6
 40
0.8
 49
0.45
 74
0
 49
-0.05
 74
0
 49
0.1
 74
0
 49
-0.05
 74
0
 49
0.1
 74
0
 49
-0.05
 74
0
  0
LTYPE
  5
1F8
100
AcDbSymbolTableRecord
100
AcDbLinetypeTableRecord
  2
DOT
 70
64
  3
. . . . . . . . . . . . . . . . . . . .
 72
65
 73
2
 40
0.2
 49
0.1
 74
0
 49
-0.1
 74
0
  0
LTYPE
  5
1F9
100
AcDbSymbolTableRecord
100
AcDbLinetypeTableRecord
  2
DASHED
 70
64
  3
- - - - - - - - - - - - - - - - - - - -
 72
65
 73
2
 40
0.2
 49
0.1
 74
0
 49
-0.1
 74
0
  0
ENDTAB
  0
TABLE
  2
LAYER
  5
2
100
AcDbSymbolTable
 70
36
  0
LAYER
  5
10
100
AcDbSymbolTableRecord
100
AcDbLayerTableRecord
  2
0
 70
0
 62
7
  6
CONTINUOUS
370
-3
390
F
  0
LAYER
  5
1FA
100
AcDbSymbolTableRecord
100
AcDbLayerTableRecord
  2
DEFAULT_1
 70
0
 62
7
  6
CENTER
370
-3
390
F
  0
LAYER
  5
1FB
100
AcDbSymbolTableRecord
100
AcDbLayerTableRecord
  2
DEFAULT_2
 70
0
 62
8
  6
HIDDEN
370
-3
390
F
  0
LAYER
  5
1FC
100
AcDbSymbolTableRecord
100
AcDbLayerTableRecord
  2
DEFAULT_3
 70
0
 62
7
  6
PHANTOM
370
-3
390
F
  0
LAYER
  5
1FD
100
AcDbSymbolTableRecord
100
AcDbLayerTableRecord
  2
DEFAULT_COORDINATE_SYSTEM
 70
0
 62
7
  6
CONTINUOUS
370
-3
390
F
  0
LAYER
  5
1FE
100
AcDbSymbolTableRecord
100
AcDbLayerTableRecord
  2
DEFAULT_DATUM_AXES
 70
0
 62
7
  6
CONTINUOUS
370
-3
390
F
  0
LAYER
  5
1FF
100
AcDbSymbolTableRecord
100
AcDbLayerTableRecord
  2
DEFAULT_DATUM_CURVES
 70
0
 62
7
  6
CONTINUOUS
370
-3
390
F
  0
LAYER
  5
200
100
AcDbSymbolTableRecord
100
AcDbLayerTableRecord
  2
DEFAULT_DATUM_PLANES
 70
0
 62
7
  6
CONTINUOUS
370
-3
390
F
  0
ENDTAB
  0
TABLE
  2
STYLE
  5
3
100
AcDbSymbolTable
 70
1
  0
STYLE
  5
11
100
AcDbSymbolTableRecord
100
AcDbTextStyleTableRecord
  2
STANDARD
 70
0
 40
0.0
 41
0.8
 50
0.0
 71
0
 42
0.2
  3
txt
  4

  0
STYLE
  5
201
100
AcDbSymbolTableRecord
100
AcDbTextStyleTableRecord
  2
TEXTSTYLE_1
 70
0
 40
0.0
 41
0.8
 50
0.0
 71
0
 42
0.2
  3
gdt
  4

  0
ENDTAB
  0
TABLE
  2
VIEW
  5
6
100
AcDbSymbolTable
 70
0
  0
ENDTAB
  0
TABLE
  2
UCS
  5
7
100
AcDbSymbolTable
 70
0
  0
ENDTAB
  0
TABLE
  2
APPID
  5
9
100
AcDbSymbolTable
 70
1
  0
APPID
  5
202
100
AcDbSymbolTableRecord
100
AcDbRegAppTableRecord
  2
ACAD
 70
0
  0
ENDTAB
  0
TABLE
  2
BLOCK_RECORD
  5
1
100
AcDbSymbolTable
 70
0
  0
BLOCK_RECORD
  5
203
100
AcDbSymbolTableRecord
100
AcDbBlockTableRecord
  2
*Model_Space
  0
BLOCK_RECORD
  5
204
100
AcDbSymbolTableRecord
100
AcDbBlockTableRecord
  2
*Paper_Space
  0
BLOCK_RECORD
  5
205
100
AcDbSymbolTableRecord
100
AcDbBlockTableRecord
  2
_FILLED
  0
ENDTAB
  0
TABLE
  2
DIMSTYLE
  5
A
100
AcDbSymbolTable
 70
1
100
AcDbDimStyleTable
 71
0
  0
DIMSTYLE
105
206
100
AcDbSymbolTableRecord
100
AcDbDimStyleTableRecord
  2
STANDARD
 70
0
  3

  4

 40
1.0
 41
0.1
 42
0.0625
 43
0.38
 44
0.125
 45
0.0
 46
0.0
 47
0.001
 48
0.001
140
0.08
141
0.09
142
0.0
143
25.4
144
1.0
145
0.0
146
1.0
147
0.09
 71
1
 72
0
 73
1
 74
1
 75
0
 76
0
 77
0
 78
4
 79
1
170
1
171
2
172
0
173
0
174
0
175
0
176
0
177
0
178
0
270
2
179
3
271
3
272
3
273
2
274
2
275
0
280
0
281
0
282
0
283
1
284
4
285
0
286
0
287
3
288
0
340
11
278
46
341
205
342
205
343
205
344
205
  0
ENDTAB
  0
ENDSEC
  0
SECTION
  2
BLOCKS
  0
BLOCK
  5
20
100
AcDbEntity
  8
0
100
AcDbBlockBegin
  2
*Model_Space
 70
0
 10
0.0
 20
0.0
 30
0.0
  3
*Model_Space
  1

  0
ENDBLK
  5
21
100
AcDbEntity
  8
0
100
AcDbBlockEnd
  0
BLOCK
  5
1C
100
AcDbEntity
  8
0
100
AcDbBlockBegin
  2
*Paper_Space
 70
0
 10
0.0
 20
0.0
 30
0.0
  3
*Paper_Space
  1

  0
ENDBLK
  5
1D
100
AcDbEntity
  8
0
100
AcDbBlockEnd
  0
BLOCK
  5
207
100
AcDbEntity
  8
0
100
AcDbBlockBegin
  2
_FILLED
 70
64
 10
0.0
 20
0.0
  3
_FILLED
  1

  0
SOLID
  5
208
100
AcDbEntity
  8
0
  6
BYBLOCK
 62
0
100
AcDbTrace
 10
0.0
 20
0.0
 11
-1.0
 21
0.2
 12
-1.0
 22
-0.2
 13
-1.0
 23
-0.2
  0
ENDBLK
  5
209
100
AcDbEntity
  8
0
  6
BYBLOCK
 62
0
100
AcDbBlockEnd
  0
ENDSEC
  0
SECTION
  2
ENTITIES
  0
MTEXT
  5
20A
100
AcDbEntity
  8
0
100
AcDbMText
 62
2
  6
CONTINUOUS
  7
STANDARD
 71
3
 72
1
 10
5.6258862515
 20
0.9052232962
 30
0.0
 11
1.0
 21
0.0
 31
0.0
 73
2
 44
0.9
  1
SCALE 0.500
 40
0.08
 41
0.704
  0
LINE
  5
20B
100
AcDbEntity
  8
0
100
AcDbLine
 62
7
  6
CONTINUOUS
 10
0.0
 20
0.0
 11
0.0
 21
8.5
  0
LINE
  5
20C
100
AcDbEntity
  8
0
100
AcDbLine
 62
7
  6
CONTINUOUS
 10
0.0
 20
0.0
 11
11.0
 21
0.0
  0
LINE
  5
20D
100
AcDbEntity
  8
0
100
AcDbLine
 62
7
  6
CONTINUOUS
 10
0.0
 20
8.5
 11
11.0
 21
8.5
  0
LINE
  5
20E
100
AcDbEntity
  8
0
100
AcDbLine
 62
7
  6
CONTINUOUS
 10
11.0
 20
0.0
 11
11.0
 21
8.5
  0
LINE
  5
20F
100
AcDbEntity
  8
0
100
AcDbLine
 62
7
  6
CONTINUOUS
 10
2.4682109599
 20
3.549231311
 11
2.4682109599
 21
3.769231311
  0
LINE
  5
210
100
AcDbEntity
  8
0
100
AcDbLine
 62
7
  6
CONTINUOUS
 10
2.4772954289
 20
3.549231311
 11
2.4772954289
 21
3.769231311
  0
LINE
  5
211
100
AcDbEntity
  8
0
100
AcDbLine
 62
7
  6
CONTINUOUS
 10
2.4921007618
 20
3.549231311
 11
2.4921007618
 21
3.769231311
  0
LINE
  5
212
100
AcDbEntity
  8
0
100
AcDbLine
 62
7
  6
CONTINUOUS
 10
2.5109729069
 20
3.549231311
 11
2.5109729069
 21
3.769231311
  0
LINE
  5
213
100
AcDbEntity
  8
0
100
AcDbLine
 62
7
  6
CONTINUOUS
 10
2.5224626983
 20
3.549231311
 11
2.5224626983
 21
3.769231311
  0
LINE
  5
214
100
AcDbEntity
  8
0
100
AcDbLine
 62
7
  6
CONTINUOUS
 10
2.5428110878
 20
3.834231311
 11
2.5428110878
 21
3.819231311
  0
LINE
  5
215
100
AcDbEntity
  8
0
100
AcDbLine
 62
7
  6
CONTINUOUS
 10
2.5428110878
 20
3.484231311
 11
2.5428110878
 21
3.499231311
  0
LINE
  5
216
100
AcDbEntity
  8
0
100
AcDbLine
 62
7
  6
CONTINUOUS
 10
2.5549654067
 20
3.799231311
 11
2.5549654067
 21
3.784231311
  0
LINE
  5
217
100
AcDbEntity
  8
0
100
AcDbLine
 62
7
  6
CONTINUOUS
 10
2.5549654067
 20
3.519231311
 11
2.5549654067
 21
3.534231311
  0
LINE
  5
218
100
AcDbEntity
  8
0
100
AcDbLine
 62
7
  6
CONTINUOUS
 10
2.6057109599
 20
2.208731311
 11
2.6057109599
 21
2.243731311
  0
LINE
  5
219
100
AcDbEntity
  8
0
100
AcDbLine
 62
7
  6
CONTINUOUS
 10
2.6182109599
 20
3.534231311
 11
2.6182109599
 21
3.784231311
  0
LINE
  5
21A
100
AcDbEntity
  8
0
100
AcDbLine
 62
7
  6
CONTINUOUS
 10
2.6457109599
 20
2.283731311
 11
2.6457109599
 21
2.368731311
  0
LINE
  5
21B
100
AcDbEntity
  8
0
100
AcDbLine
 62
7
  6
CONTINUOUS
 10
2.8807109599
 20
3.484231311
 11
2.8807109599
 21
3.834231311
  0
LINE
  5
21C
100
AcDbEntity
  8
0
100
AcDbLine
 62
7
  6
CONTINUOUS
 10
2.9244609599
 20
2.403731311
 11
2.9244609599
 21
3.453731311
  0
LINE
  5
21D
100
AcDbEntity
  8
0
100
AcDbLine
 62
7
  6
CONTINUOUS
 10
2.9557109599
 20
2.388731311
 11
2.9557109599
 21
2.383731311
  0
LINE
  5
21E
100
AcDbEntity
  8
0
100
AcDbLine
 62
7
  6
CONTINUOUS
 10
3.0432109599
 20
3.819231311
 11
3.0432109599
 21
3.499231311
  0
LINE
  5
21F
100
AcDbEntity
  8
0
100
AcDbLine
 62
7
  6
CONTINUOUS
 10
3.0558022007
 20
3.769231311
 11
3.0558022007
 21
3.549231311
  0
LINE
  5
220
100
AcDbEntity
  8
0
100
AcDbLine
 62
7
  6
CONTINUOUS
 10
5.7307109599
 20
2.208731311
 11
4.6057109599
 21
2.208731311
  0
LINE
  5
221
100
AcDbEntity
  8
0
100
AcDbLine
 62
7
  6
CONTINUOUS
 10
3.7307109599
 20
2.208731311
 11
2.6057109599
 21
2.208731311
  0
LINE
  5
222
100
AcDbEntity
  8
0
100
AcDbLine
 62
7
  6
CONTINUOUS
 10
6.6057109599
 20
2.208731311
 11
7.7307109599
 21
2.208731311
  0
LINE
  5
223
100
AcDbEntity
  8
0
100
AcDbLine
 62
7
  6
CONTINUOUS
 10
2.6057109599
 20
2.243731311
 11
3.7307109599
 21
2.243731311
  0
LINE
  5
224
100
AcDbEntity
  8
0
100
AcDbLine
 62
7
  6
CONTINUOUS
 10
6.6057109599
 20
2.243731311
 11
7.7307109599
 21
2.243731311
  0
LINE
  5
225
100
AcDbEntity
  8
0
100
AcDbLine
 62
7
  6
CONTINUOUS
 10
4.6057109599
 20
2.246231311
 11
5.7307109599
 21
2.246231311
  0
LINE
  5
226
100
AcDbEntity
  8
0
100
AcDbLine
 62
7
  6
CONTINUOUS
 10
7.7157109599
 20
2.258731311
 11
6.6207109599
 21
2.258731311
  0
LINE
  5
227
100
AcDbEntity
  8
0
100
AcDbLine
 62
7
  6
CONTINUOUS
 10
3.7157109599
 20
2.258731311
 11
2.6207109599
 21
2.258731311
  0
LINE
  5
228
100
AcDbEntity
  8
0
100
AcDbLine
 62
7
  6
CONTINUOUS
 10
4.6182109599
 20
2.258731311
 11
5.7182109599
 21
2.258731311
  0
LINE
  5
229
100
AcDbEntity
  8
0
100
AcDbLine
 62
7
  6
CONTINUOUS
 10
7.6907109599
 20
2.283731311
 11
6.6457109599
 21
2.283731311
  0
LINE
  5
22A
100
AcDbEntity
  8
0
100
AcDbLine
 62
7
  6
CONTINUOUS
 10
5.6907109599
 20
2.283731311
 11
4.6457109599
 21
2.283731311
  0
LINE
  5
22B
100
AcDbEntity
  8
0
100
AcDbLine
 62
7
  6
CONTINUOUS
 10
3.6907109599
 20
2.283731311
 11
2.6457109599
 21
2.283731311
  0
LINE
  5
22C
100
AcDbEntity
  8
0
100
AcDbLine
 62
7
  6
CONTINUOUS
 10
2.6457109599
 20
2.368731311
 11
3.6907109599
 21
2.368731311
  0
LINE
  5
22D
100
AcDbEntity
  8
0
100
AcDbLine
 62
7
  6
CONTINUOUS
 10
6.6457109599
 20
2.368731311
 11
7.6907109599
 21
2.368731311
  0
LINE
  5
22E
100
AcDbEntity
  8
0
100
AcDbLine
 62
7
  6
CONTINUOUS
 10
4.6457109599
 20
2.371231311
 11
5.6907109599
 21
2.371231311
  0
LINE
  5
22F
100
AcDbEntity
  8
0
100
AcDbLine
 62
7
  6
CONTINUOUS
 10
2.6607109599
 20
2.383731311
 11
3.6757109599
 21
2.383731311
  0
LINE
  5
230
100
AcDbEntity
  8
0
100
AcDbLine
 62
7
  6
CONTINUOUS
 10
4.6582109599
 20
2.383731311
 11
5.6782109599
 21
2.383731311
  0
LINE
  5
231
100
AcDbEntity
  8
0
100
AcDbLine
 62
7
  6
CONTINUOUS
 10
6.6607109599
 20
2.383731311
 11
7.6757109599
 21
2.383731311
  0
LINE
  5
232
100
AcDbEntity
  8
0
100
AcDbLine
 62
7
  6
CONTINUOUS
 10
2.9394609599
 20
2.388731311
 11
3.3969609599
 21
2.388731311
  0
LINE
  5
233
100
AcDbEntity
  8
0
100
AcDbLine
 62
7
  6
CONTINUOUS
 10
6.9394609599
 20
2.388731311
 11
7.3969609599
 21
2.388731311
  0
LINE
  5
234
100
AcDbEntity
  8
0
100
AcDbLine
 62
7
  6
CONTINUOUS
 10
3.280619719
 20
3.769231311
 11
3.280619719
 21
3.549231311
  0
LINE
  5
235
100
AcDbEntity
  8
0
100
AcDbLine
 62
7
  6
CONTINUOUS
 10
3.2932109599
 20
3.819231311
 11
3.2932109599
 21
3.499231311
  0
LINE
  5
236
100
AcDbEntity
  8
0
100
AcDbLine
 62
7
  6
CONTINUOUS
 10
2.9244609599
 20
2.403731311
 11
3.4119609599
 21
2.403731311
  0
LINE
  5
237
100
AcDbEntity
  8
0
100
AcDbLine
 62
7
  6
CONTINUOUS
 10
6.9244609599
 20
2.403731311
 11
7.4119609599
 21
2.403731311
  0
LINE
  5
238
100
AcDbEntity
  8
0
100
AcDbLine
 62
7
  6
CONTINUOUS
 10
3.3807109599
 20
2.388731311
 11
3.3807109599
 21
2.383731311
  0
LINE
  5
239
100
AcDbEntity
  8
0
100
AcDbLine
 62
7
  6
CONTINUOUS
 10
3.4119609599
 20
2.403731311
 11
3.4119609599
 21
3.453731311
  0
LINE
  5
23A
100
AcDbEntity
  8
0
100
AcDbLine
 62
7
  6
CONTINUOUS
 10
3.4557109599
 20
3.484231311
 11
3.4557109599
 21
3.834231311
  0
LINE
  5
23B
100
AcDbEntity
  8
0
100
AcDbLine
 62
7
  6
CONTINUOUS
 10
3.6907109599
 20
2.283731311
 11
3.6907109599
 21
2.368731311
  0
LINE
  5
23C
100
AcDbEntity
  8
0
100
AcDbLine
 62
7
  6
CONTINUOUS
 10
3.7182109599
 20
3.534231311
 11
3.7182109599
 21
3.784231311
  0
LINE
  5
23D
100
AcDbEntity
  8
0
100
AcDbLine
 62
7
  6
CONTINUOUS
 10
3.7307109599
 20
2.208731311
 11
3.7307109599
 21
2.243731311
  0
LINE
  5
23E
100
AcDbEntity
  8
0
100
AcDbLine
 62
7
  6
CONTINUOUS
 10
3.7814565131
 20
3.799231311
 11
3.7814565131
 21
3.784231311
  0
LINE
  5
23F
100
AcDbEntity
  8
0
100
AcDbLine
 62
7
  6
CONTINUOUS
 10
3.7814565131
 20
3.519231311
 11
3.7814565131
 21
3.534231311
  0
LINE
  5
240
100
AcDbEntity
  8
0
100
AcDbLine
 62
7
  6
CONTINUOUS
 10
3.793610832
 20
3.499231311
 11
3.7936108319
 21
3.484231311
  0
LINE
  5
241
100
AcDbEntity
  8
0
100
AcDbLine
 62
7
  6
CONTINUOUS
 10
3.793610832
 20
3.819231311
 11
3.793610832
 21
3.834231311
  0
LINE
  5
242
100
AcDbEntity
  8
0
100
AcDbLine
 62
7
  6
CONTINUOUS
 10
3.8139592214
 20
3.769231311
 11
3.8139592214
 21
3.549231311
  0
LINE
  5
243
100
AcDbEntity
  8
0
100
AcDbLine
 62
7
  6
CONTINUOUS
 10
3.8254490128
 20
3.769231311
 11
3.8254490128
 21
3.549231311
  0
LINE
  5
244
100
AcDbEntity
  8
0
100
AcDbLine
 62
7
  6
CONTINUOUS
 10
3.844321158
 20
3.549231311
 11
3.844321158
 21
3.769231311
  0
LINE
  5
245
100
AcDbEntity
  8
0
100
AcDbLine
 62
7
  6
CONTINUOUS
 10
3.8591264908
 20
3.549231311
 11
3.8591264908
 21
3.769231311
  0
LINE
  5
246
100
AcDbEntity
  8
0
100
AcDbLine
 62
7
  6
CONTINUOUS
 10
3.8682109599
 20
3.549231311
 11
3.8682109599
 21
3.769231311
  0
LINE
  5
247
100
AcDbEntity
  8
0
100
AcDbLine
 62
7
  6
CONTINUOUS
 10
2.9244609599
 20
3.453731311
 11
3.4119609599
 21
3.453731311
  0
LINE
  5
248
100
AcDbEntity
  8
0
100
AcDbLine
 62
7
  6
CONTINUOUS
 10
6.9244609599
 20
3.453731311
 11
7.4119609599
 21
3.453731311
  0
LINE
  5
249
100
AcDbEntity
  8
0
100
AcDbLine
 62
7
  6
CONTINUOUS
 10
2.9394609599
 20
3.468731311
 11
3.3969609599
 21
3.468731311
  0
LINE
  5
24A
100
AcDbEntity
  8
0
100
AcDbLine
 62
7
  6
CONTINUOUS
 10
6.9394609599
 20
3.468731311
 11
7.3969609599
 21
3.468731311
  0
LINE
  5
24B
100
AcDbEntity
  8
0
100
AcDbLine
 62
7
  6
CONTINUOUS
 10
5.5182109599
 20
3.4720891753
 11
4.8182109599
 21
3.4720891753
  0
LINE
  5
24C
100
AcDbEntity
  8
0
100
AcDbLine
 62
7
  6
CONTINUOUS
 10
5.5152820277
 20
3.4791602431
 11
4.8211398921
 21
3.4791602431
  0
LINE
  5
24D
100
AcDbEntity
  8
0
100
AcDbLine
 62
7
  6
CONTINUOUS
 10
4.8228825327
 20
3.4809028838
 11
5.513539387
 21
3.4809028838
  0
LINE
  5
24E
100
AcDbEntity
  8
0
100
AcDbLine
 62
7
  6
CONTINUOUS
 10
2.5332109599
 20
3.484231311
 11
3.8032109599
 21
3.484231311
  0
LINE
  5
24F
100
AcDbEntity
  8
0
100
AcDbLine
 62
7
  6
CONTINUOUS
 10
6.5332109599
 20
3.484231311
 11
7.8032109599
 21
3.484231311
  0
LINE
  5
250
100
AcDbEntity
  8
0
100
AcDbLine
 62
7
  6
CONTINUOUS
 10
4.8228825327
 20
3.4865597381
 11
5.513539387
 21
3.4865597381
  0
LINE
  5
251
100
AcDbEntity
  8
0
100
AcDbLine
 62
7
  6
CONTINUOUS
 10
4.8211398921
 20
3.4883023788
 11
5.5152820277
 21
3.4883023788
  0
LINE
  5
252
100
AcDbEntity
  8
0
100
AcDbLine
 62
7
  6
CONTINUOUS
 10
4.8182109599
 20
3.4953734466
 11
5.5182109599
 21
3.4953734466
  0
LINE
  5
253
100
AcDbEntity
  8
0
100
AcDbLine
 62
7
  6
CONTINUOUS
 10
3.0432109599
 20
3.499231311
 11
2.5428110878
 21
3.499231311
  0
LINE
  5
254
100
AcDbEntity
  8
0
100
AcDbLine
 62
7
  6
CONTINUOUS
 10
3.2932109599
 20
3.499231311
 11
3.793610832
 21
3.499231311
  0
LINE
  5
255
100
AcDbEntity
  8
0
100
AcDbLine
 62
7
  6
CONTINUOUS
 10
6.5428110878
 20
3.499231311
 11
7.0432109599
 21
3.499231311
  0
LINE
  5
256
100
AcDbEntity
  8
0
100
AcDbLine
 62
7
  6
CONTINUOUS
 10
7.2932109599
 20
3.499231311
 11
7.793610832
 21
3.499231311
  0
LINE
  5
257
100
AcDbEntity
  8
0
100
AcDbLine
 62
7
  6
CONTINUOUS
 10
7.7814565131
 20
3.519231311
 11
7.2932109599
 21
3.519231311
  0
LINE
  5
258
100
AcDbEntity
  8
0
100
AcDbLine
 62
7
  6
CONTINUOUS
 10
7.0432109599
 20
3.519231311
 11
6.5549654067
 21
3.519231311
  0
LINE
  5
259
100
AcDbEntity
  8
0
100
AcDbLine
 62
7
  6
CONTINUOUS
 10
3.7814565131
 20
3.519231311
 11
3.2932109599
 21
3.519231311
  0
LINE
  5
25A
100
AcDbEntity
  8
0
100
AcDbLine
 62
7
  6
CONTINUOUS
 10
3.0432109599
 20
3.519231311
 11
2.5549654067
 21
3.519231311
  0
LINE
  5
25B
100
AcDbEntity
  8
0
100
AcDbLine
 62
7
  6
CONTINUOUS
 10
4.8182109599
 20
3.523731311
 11
5.5182109599
 21
3.523731311
  0
LINE
  5
25C
100
AcDbEntity
  8
0
100
AcDbLine
 62
7
  6
CONTINUOUS
 10
4.8282109599
 20
3.533731311
 11
5.5082109599
 21
3.533731311
  0
LINE
  5
25D
100
AcDbEntity
  8
0
100
AcDbLine
 62
7
  6
CONTINUOUS
 10
7.7814565131
 20
3.534231311
 11
7.2932109599
 21
3.534231311
  0
LINE
  5
25E
100
AcDbEntity
  8
0
100
AcDbLine
 62
7
  6
CONTINUOUS
 10
7.0432109599
 20
3.534231311
 11
6.5549654064
 21
3.534231311
  0
LINE
  5
25F
100
AcDbEntity
  8
0
100
AcDbLine
 62
7
  6
CONTINUOUS
 10
3.7814565131
 20
3.534231311
 11
3.2932109599
 21
3.534231311
  0
LINE
  5
260
100
AcDbEntity
  8
0
100
AcDbLine
 62
7
  6
CONTINUOUS
 10
3.0432109599
 20
3.534231311
 11
2.5549654064
 21
3.534231311
  0
LINE
  5
261
100
AcDbEntity
  8
0
100
AcDbLine
 62
7
  6
CONTINUOUS
 10
5.4332109599
 20
3.543731311
 11
4.9032109599
 21
3.543731311
  0
LINE
  5
262
100
AcDbEntity
  8
0
100
AcDbLine
 62
7
  6
CONTINUOUS
 10
2.4682109599
 20
3.549231311
 11
2.4921007618
 21
3.549231311
  0
LINE
  5
263
100
AcDbEntity
  8
0
100
AcDbLine
 62
7
  6
CONTINUOUS
 10
2.5109729069
 20
3.549231311
 11
3.8254490128
 21
3.549231311
  0
LINE
  5
264
100
AcDbEntity
  8
0
100
AcDbLine
 62
7
  6
CONTINUOUS
 10
3.844321158
 20
3.549231311
 11
3.8682109599
 21
3.549231311
  0
LINE
  5
265
100
AcDbEntity
  8
0
100
AcDbLine
 62
7
  6
CONTINUOUS
 10
6.4682109599
 20
3.549231311
 11
6.4921007618
 21
3.549231311
  0
LINE
  5
266
100
AcDbEntity
  8
0
100
AcDbLine
 62
7
  6
CONTINUOUS
 10
6.5109729069
 20
3.549231311
 11
7.8254490128
 21
3.549231311
  0
LINE
  5
267
100
AcDbEntity
  8
0
100
AcDbLine
 62
7
  6
CONTINUOUS
 10
7.844321158
 20
3.549231311
 11
7.8682109599
 21
3.549231311
  0
LINE
  5
268
100
AcDbEntity
  8
0
100
AcDbLine
 62
7
  6
CONTINUOUS
 10
4.8211398921
 20
3.4883023788
 11
4.8228825327
 21
3.4865597381
  0
LINE
  5
269
100
AcDbEntity
  8
0
100
AcDbLine
 62
7
  6
CONTINUOUS
 10
6.4921007618
 20
3.769231311
 11
6.4682109599
 21
3.769231311
  0
LINE
  5
26A
100
AcDbEntity
  8
0
100
AcDbLine
 62
7
  6
CONTINUOUS
 10
2.4682109599
 20
3.769231311
 11
2.4921007618
 21
3.769231311
  0
LINE
  5
26B
100
AcDbEntity
  8
0
100
AcDbLine
 62
7
  6
CONTINUOUS
 10
2.5109729069
 20
3.769231311
 11
3.8254490128
 21
3.769231311
  0
LINE
  5
26C
100
AcDbEntity
  8
0
100
AcDbLine
 62
7
  6
CONTINUOUS
 10
3.844321158
 20
3.769231311
 11
3.8682109599
 21
3.769231311
  0
LINE
  5
26D
100
AcDbEntity
  8
0
100
AcDbLine
 62
7
  6
CONTINUOUS
 10
6.5109729069
 20
3.769231311
 11
7.8254490128
 21
3.769231311
  0
LINE
  5
26E
100
AcDbEntity
  8
0
100
AcDbLine
 62
7
  6
CONTINUOUS
 10
7.844321158
 20
3.769231311
 11
7.8682109599
 21
3.769231311
  0
LINE
  5
26F
100
AcDbEntity
  8
0
100
AcDbLine
 62
7
  6
CONTINUOUS
 10
5.4332109599
 20
3.773731311
 11
4.9032109599
 21
3.773731311
  0
LINE
  5
270
100
AcDbEntity
  8
0
100
AcDbLine
 62
7
  6
CONTINUOUS
 10
4.8932109599
 20
3.783731311
 11
5.4432109599
 21
3.783731311
  0
LINE
  5
271
100
AcDbEntity
  8
0
100
AcDbLine
 62
7
  6
CONTINUOUS
 10
2.5549653978
 20
3.784231311
 11
3.0432109599
 21
3.784231311
  0
LINE
  5
272
100
AcDbEntity
  8
0
100
AcDbLine
 62
7
  6
CONTINUOUS
 10
3.2932109599
 20
3.784231311
 11
3.781456513
 21
3.784231311
  0
LINE
  5
273
100
AcDbEntity
  8
0
100
AcDbLine
 62
7
  6
CONTINUOUS
 10
6.5549653978
 20
3.784231311
 11
7.0432109599
 21
3.784231311
  0
LINE
  5
274
100
AcDbEntity
  8
0
100
AcDbLine
 62
7
  6
CONTINUOUS
 10
7.2932109599
 20
3.784231311
 11
7.781456513
 21
3.784231311
  0
LINE
  5
275
100
AcDbEntity
  8
0
100
AcDbLine
 62
7
  6
CONTINUOUS
 10
4.8832109599
 20
3.793731311
 11
5.4532109599
 21
3.793731311
  0
LINE
  5
276
100
AcDbEntity
  8
0
100
AcDbLine
 62
7
  6
CONTINUOUS
 10
2.5549654067
 20
3.799231311
 11
3.0432109599
 21
3.799231311
  0
LINE
  5
277
100
AcDbEntity
  8
0
100
AcDbLine
 62
7
  6
CONTINUOUS
 10
3.2932109599
 20
3.799231311
 11
3.7814565131
 21
3.799231311
  0
LINE
  5
278
100
AcDbEntity
  8
0
100
AcDbLine
 62
7
  6
CONTINUOUS
 10
6.5549654067
 20
3.799231311
 11
7.0432109599
 21
3.799231311
  0
LINE
  5
279
100
AcDbEntity
  8
0
100
AcDbLine
 62
7
  6
CONTINUOUS
 10
7.2932109599
 20
3.799231311
 11
7.7814565131
 21
3.799231311
  0
LINE
  5
27A
100
AcDbEntity
  8
0
100
AcDbLine
 62
7
  6
CONTINUOUS
 10
4.6057109599
 20
2.208731311
 11
4.6057109599
 21
2.246231311
  0
LINE
  5
27B
100
AcDbEntity
  8
0
100
AcDbLine
 62
7
  6
CONTINUOUS
 10
4.6457109599
 20
2.283731311
 11
4.6457109599
 21
2.371231311
  0
LINE
  5
27C
100
AcDbEntity
  8
0
100
AcDbLine
 62
7
  6
CONTINUOUS
 10
7.793610832
 20
3.819231311
 11
7.2932109599
 21
3.819231311
  0
LINE
  5
27D
100
AcDbEntity
  8
0
100
AcDbLine
 62
7
  6
CONTINUOUS
 10
7.0432109599
 20
3.819231311
 11
6.5428110878
 21
3.819231311
  0
LINE
  5
27E
100
AcDbEntity
  8
0
100
AcDbLine
 62
7
  6
CONTINUOUS
 10
3.793610832
 20
3.819231311
 11
3.2932109599
 21
3.819231311
  0
LINE
  5
27F
100
AcDbEntity
  8
0
100
AcDbLine
 62
7
  6
CONTINUOUS
 10
2.5428110878
 20
3.819231311
 11
3.0432109599
 21
3.819231311
  0
LINE
  5
280
100
AcDbEntity
  8
0
100
AcDbLine
 62
7
  6
CONTINUOUS
 10
4.8832109599
 20
3.823731311
 11
5.4532109599
 21
3.823731311
  0
LINE
  5
281
100
AcDbEntity
  8
0
100
AcDbLine
 62
7
  6
CONTINUOUS
 10
4.8932109599
 20
3.833731311
 11
5.4432109599
 21
3.833731311
  0
LINE
  5
282
100
AcDbEntity
  8
0
100
AcDbLine
 62
7
  6
CONTINUOUS
 10
2.5332109599
 20
3.834231311
 11
3.8032109599
 21
3.834231311
  0
LINE
  5
283
100
AcDbEntity
  8
0
100
AcDbLine
 62
7
  6
CONTINUOUS
 10
6.5332109599
 20
3.834231311
 11
7.8032109599
 21
3.834231311
  0
LINE
  5
284
100
AcDbEntity
  8
0
100
AcDbLine
 62
7
  6
CONTINUOUS
 10
5.513539387
 20
3.4809028838
 11
5.5152820277
 21
3.4791602431
  0
LINE
  5
285
100
AcDbEntity
  8
0
100
AcDbLine
 62
7
  6
CONTINUOUS
 10
4.8182109599
 20
2.383731311
 11
4.8182109599
 21
3.4720891753
  0
LINE
  5
286
100
AcDbEntity
  8
0
100
AcDbLine
 62
7
  6
CONTINUOUS
 10
4.8182109599
 20
3.4953734466
 11
4.8182109599
 21
3.523731311
  0
LINE
  5
287
100
AcDbEntity
  8
0
100
AcDbLine
 62
7
  6
CONTINUOUS
 10
4.8832109599
 20
3.793731311
 11
4.8832109599
 21
3.823731311
  0
LINE
  5
288
100
AcDbEntity
  8
0
100
AcDbLine
 62
7
  6
CONTINUOUS
 10
4.8982109599
 20
5.1947000934
 11
4.8982109599
 21
5.1748947321
  0
LINE
  5
289
100
AcDbEntity
  8
0
100
AcDbLine
 62
7
  6
CONTINUOUS
 10
4.8982109599
 20
4.843154929
 11
4.8982109599
 21
4.8233495677
  0
LINE
  5
28A
100
AcDbEntity
  8
0
100
AcDbLine
 62
7
  6
CONTINUOUS
 10
4.9032109599
 20
3.543731311
 11
4.9032109599
 21
3.773731311
  0
LINE
  5
28B
100
AcDbEntity
  8
0
100
AcDbLine
 62
7
  6
CONTINUOUS
 10
4.9282109599
 20
5.14518669
 11
4.9282109599
 21
4.8728629711
  0
LINE
  5
28C
100
AcDbEntity
  8
0
100
AcDbLine
 62
7
  6
CONTINUOUS
 10
4.9494609599
 20
6.541717059
 11
4.9494609599
 21
5.2283120959
  0
LINE
  5
28D
100
AcDbEntity
  8
0
100
AcDbLine
 62
7
  6
CONTINUOUS
 10
4.9494609599
 20
3.833731311
 11
4.9494609599
 21
4.789733907
  0
LINE
  5
28E
100
AcDbEntity
  8
0
100
AcDbLine
 62
7
  6
CONTINUOUS
 10
5.3869609599
 20
6.541717059
 11
5.3869609599
 21
5.2283157541
  0
LINE
  5
28F
100
AcDbEntity
  8
0
100
AcDbLine
 62
7
  6
CONTINUOUS
 10
5.3869609599
 20
3.833731311
 11
5.3869609599
 21
4.7897375652
  0
LINE
  5
290
100
AcDbEntity
  8
0
100
AcDbLine
 62
7
  6
CONTINUOUS
 10
5.4082109599
 20
5.14518669
 11
5.4082109599
 21
4.8728629711
  0
LINE
  5
291
100
AcDbEntity
  8
0
100
AcDbLine
 62
7
  6
CONTINUOUS
 10
5.4332109599
 20
3.543731311
 11
5.4332109599
 21
3.773731311
  0
LINE
  5
292
100
AcDbEntity
  8
0
100
AcDbLine
 62
7
  6
CONTINUOUS
 10
5.4382109599
 20
5.1947000934
 11
5.4382109599
 21
5.1748947321
  0
LINE
  5
293
100
AcDbEntity
  8
0
100
AcDbLine
 62
7
  6
CONTINUOUS
 10
5.4382109599
 20
4.843154929
 11
5.4382109599
 21
4.8233495677
  0
LINE
  5
294
100
AcDbEntity
  8
0
100
AcDbLine
 62
7
  6
CONTINUOUS
 10
5.4532109599
 20
3.793731311
 11
5.4532109599
 21
3.823731311
  0
LINE
  5
295
100
AcDbEntity
  8
0
100
AcDbLine
 62
7
  6
CONTINUOUS
 10
5.5182109599
 20
2.383731311
 11
5.5182109599
 21
3.4720891753
  0
LINE
  5
296
100
AcDbEntity
  8
0
100
AcDbLine
 62
7
  6
CONTINUOUS
 10
5.5182109599
 20
3.4953734466
 11
5.5182109599
 21
3.523731311
  0
LINE
  5
297
100
AcDbEntity
  8
0
100
AcDbLine
 62
7
  6
CONTINUOUS
 10
4.8228825327
 20
3.4809028838
 11
4.8211398921
 21
3.4791602431
  0
LINE
  5
298
100
AcDbEntity
  8
0
100
AcDbLine
 62
7
  6
CONTINUOUS
 10
5.6907109599
 20
2.283731311
 11
5.6907109599
 21
2.371231311
  0
LINE
  5
299
100
AcDbEntity
  8
0
100
AcDbLine
 62
7
  6
CONTINUOUS
 10
5.7307109599
 20
2.208731311
 11
5.7307109599
 21
2.246231311
  0
LINE
  5
29A
100
AcDbEntity
  8
0
100
AcDbLine
 62
7
  6
CONTINUOUS
 10
5.5152820277
 20
3.4883023788
 11
5.513539387
 21
3.4865597381
  0
LINE
  5
29B
100
AcDbEntity
  8
0
100
AcDbLine
 62
7
  6
CONTINUOUS
 10
6.4682109599
 20
3.549231311
 11
6.4682109599
 21
3.769231311
  0
LINE
  5
29C
100
AcDbEntity
  8
0
100
AcDbLine
 62
7
  6
CONTINUOUS
 10
6.4772954289
 20
3.769231311
 11
6.4772954289
 21
3.549231311
  0
LINE
  5
29D
100
AcDbEntity
  8
0
100
AcDbLine
 62
7
  6
CONTINUOUS
 10
6.4921007618
 20
3.769231311
 11
6.4921007618
 21
3.549231311
  0
LINE
  5
29E
100
AcDbEntity
  8
0
100
AcDbLine
 62
7
  6
CONTINUOUS
 10
6.5109729069
 20
3.549231311
 11
6.5109729069
 21
3.769231311
  0
LINE
  5
29F
100
AcDbEntity
  8
0
100
AcDbLine
 62
7
  6
CONTINUOUS
 10
6.5224626983
 20
3.549231311
 11
6.5224626983
 21
3.769231311
  0
LINE
  5
2A0
100
AcDbEntity
  8
0
100
AcDbLine
 62
7
  6
CONTINUOUS
 10
6.5428110878
 20
3.499231311
 11
6.5428110878
 21
3.484231311
  0
LINE
  5
2A1
100
AcDbEntity
  8
0
100
AcDbLine
 62
7
  6
CONTINUOUS
 10
6.5428110878
 20
3.819231311
 11
6.5428110879
 21
3.834231311
  0
LINE
  5
2A2
100
AcDbEntity
  8
0
100
AcDbLine
 62
7
  6
CONTINUOUS
 10
6.5549654067
 20
3.799231311
 11
6.5549654067
 21
3.784231311
  0
LINE
  5
2A3
100
AcDbEntity
  8
0
100
AcDbLine
 62
7
  6
CONTINUOUS
 10
6.5549654067
 20
3.519231311
 11
6.5549654067
 21
3.534231311
  0
LINE
  5
2A4
100
AcDbEntity
  8
0
100
AcDbLine
 62
7
  6
CONTINUOUS
 10
6.6057109599
 20
2.208731311
 11
6.6057109599
 21
2.243731311
  0
LINE
  5
2A5
100
AcDbEntity
  8
0
100
AcDbLine
 62
7
  6
CONTINUOUS
 10
6.6182109599
 20
3.534231311
 11
6.6182109599
 21
3.784231311
  0
LINE
  5
2A6
100
AcDbEntity
  8
0
100
AcDbLine
 62
7
  6
CONTINUOUS
 10
6.6457109599
 20
2.283731311
 11
6.6457109599
 21
2.368731311
  0
LINE
  5
2A7
100
AcDbEntity
  8
0
100
AcDbLine
 62
7
  6
CONTINUOUS
 10
6.8807109599
 20
3.484231311
 11
6.8807109599
 21
3.834231311
  0
LINE
  5
2A8
100
AcDbEntity
  8
0
100
AcDbLine
 62
7
  6
CONTINUOUS
 10
6.9244609599
 20
2.403731311
 11
6.9244609599
 21
3.453731311
  0
LINE
  5
2A9
100
AcDbEntity
  8
0
100
AcDbLine
 62
7
  6
CONTINUOUS
 10
6.9557109599
 20
2.388731311
 11
6.9557109599
 21
2.383731311
  0
LINE
  5
2AA
100
AcDbEntity
  8
0
100
AcDbLine
 62
7
  6
CONTINUOUS
 10
7.0432109599
 20
3.499231311
 11
7.0432109599
 21
3.819231311
  0
LINE
  5
2AB
100
AcDbEntity
  8
0
100
AcDbLine
 62
7
  6
CONTINUOUS
 10
7.0558022007
 20
3.549231311
 11
7.0558022007
 21
3.769231311
  0
LINE
  5
2AC
100
AcDbEntity
  8
0
100
AcDbLine
 62
7
  6
CONTINUOUS
 10
7.280619719
 20
3.769231311
 11
7.280619719
 21
3.549231311
  0
LINE
  5
2AD
100
AcDbEntity
  8
0
100
AcDbLine
 62
7
  6
CONTINUOUS
 10
7.2932109599
 20
3.819231311
 11
7.2932109599
 21
3.499231311
  0
LINE
  5
2AE
100
AcDbEntity
  8
0
100
AcDbLine
 62
7
  6
CONTINUOUS
 10
7.3807109599
 20
2.388731311
 11
7.3807109599
 21
2.383731311
  0
LINE
  5
2AF
100
AcDbEntity
  8
0
100
AcDbLine
 62
7
  6
CONTINUOUS
 10
7.4119609599
 20
2.403731311
 11
7.4119609599
 21
3.453731311
  0
LINE
  5
2B0
100
AcDbEntity
  8
0
100
AcDbLine
 62
7
  6
CONTINUOUS
 10
7.4557109599
 20
3.484231311
 11
7.4557109599
 21
3.834231311
  0
LINE
  5
2B1
100
AcDbEntity
  8
0
100
AcDbLine
 62
7
  6
CONTINUOUS
 10
7.6907109599
 20
2.283731311
 11
7.6907109599
 21
2.368731311
  0
LINE
  5
2B2
100
AcDbEntity
  8
0
100
AcDbLine
 62
7
  6
CONTINUOUS
 10
7.7182109599
 20
3.534231311
 11
7.7182109599
 21
3.784231311
  0
LINE
  5
2B3
100
AcDbEntity
  8
0
100
AcDbLine
 62
7
  6
CONTINUOUS
 10
7.7307109599
 20
2.208731311
 11
7.7307109599
 21
2.243731311
  0
LINE
  5
2B4
100
AcDbEntity
  8
0
100
AcDbLine
 62
7
  6
CONTINUOUS
 10
7.7814565131
 20
3.799231311
 11
7.7814565131
 21
3.784231311
  0
LINE
  5
2B5
100
AcDbEntity
  8
0
100
AcDbLine
 62
7
  6
CONTINUOUS
 10
7.7814565131
 20
3.519231311
 11
7.7814565131
 21
3.534231311
  0
LINE
  5
2B6
100
AcDbEntity
  8
0
100
AcDbLine
 62
7
  6
CONTINUOUS
 10
7.793610832
 20
3.499231311
 11
7.7936108319
 21
3.484231311
  0
LINE
  5
2B7
100
AcDbEntity
  8
0
100
AcDbLine
 62
7
  6
CONTINUOUS
 10
7.793610832
 20
3.819231311
 11
7.793610832
 21
3.834231311
  0
LINE
  5
2B8
100
AcDbEntity
  8
0
100
AcDbLine
 62
7
  6
CONTINUOUS
 10
7.8139592214
 20
3.769231311
 11
7.8139592214
 21
3.549231311
  0
LINE
  5
2B9
100
AcDbEntity
  8
0
100
AcDbLine
 62
7
  6
CONTINUOUS
 10
7.8254490128
 20
3.769231311
 11
7.8254490128
 21
3.549231311
  0
LINE
  5
2BA
100
AcDbEntity
  8
0
100
AcDbLine
 62
7
  6
CONTINUOUS
 10
7.844321158
 20
3.549231311
 11
7.844321158
 21
3.769231311
  0
LINE
  5
2BB
100
AcDbEntity
  8
0
100
AcDbLine
 62
7
  6
CONTINUOUS
 10
7.8591264908
 20
3.549231311
 11
7.8591264908
 21
3.769231311
  0
LINE
  5
2BC
100
AcDbEntity
  8
0
100
AcDbLine
 62
7
  6
CONTINUOUS
 10
7.8682109599
 20
3.549231311
 11
7.8682109599
 21
3.769231311
  0
ARC
  5
2BD
100
AcDbEntity
  8
0
100
AcDbCircle
 62
7
  6
CONTINUOUS
 10
3.7936112465
 20
3.5503008224
 40
0.0660695115
100
AcDbArc
 50
269.9996404971
 51
277.4742399881
  0
ARC
  5
2BE
100
AcDbEntity
  8
0
100
AcDbCircle
 62
7
  6
CONTINUOUS
 10
2.5428106592
 20
3.5503005601
 40
0.0660692492
100
AcDbArc
 50
262.5248566798
 51
270.000371687
  0
ARC
  5
2BF
100
AcDbEntity
  8
0
100
AcDbCircle
 62
7
  6
CONTINUOUS
 10
2.5428106326
 20
3.7681626324
 40
0.0660686786
100
AcDbArc
 50
89.9996052506
 51
97.4729180534
  0
ARC
  5
2C0
100
AcDbEntity
  8
0
100
AcDbCircle
 62
7
  6
CONTINUOUS
 10
3.793611312
 20
3.7681631217
 40
0.0660681893
100
AcDbArc
 50
82.5263723303
 51
90.0004163236
  0
ARC
  5
2C1
100
AcDbEntity
  8
0
100
AcDbCircle
 62
7
  6
CONTINUOUS
 10
2.5332109599
 20
3.549231311
 40
0.065
100
AcDbArc
 50
180.0
 51
270.0
  0
ARC
  5
2C2
100
AcDbEntity
  8
0
100
AcDbCircle
 62
7
  6
CONTINUOUS
 10
2.5332109599
 20
3.769231311
 40
0.065
100
AcDbArc
 50
90.0
 51
180.0
  0
ARC
  5
2C3
100
AcDbEntity
  8
0
100
AcDbCircle
 62
7
  6
CONTINUOUS
 10
3.8032109599
 20
3.549231311
 40
0.065
100
AcDbArc
 50
270.0
 51
360.0
  0
ARC
  5
2C4
100
AcDbEntity
  8
0
100
AcDbCircle
 62
7
  6
CONTINUOUS
 10
3.8032109599
 20
3.769231311
 40
0.065
100
AcDbArc
 50
0.0
 51
90.0
  0
ARC
  5
2C5
100
AcDbEntity
  8
0
100
AcDbCircle
 62
7
  6
CONTINUOUS
 10
4.6207109599
 20
2.283731311
 40
0.025
100
AcDbArc
 50
270.0
 51
360.0
  0
ARC
  5
2C6
100
AcDbEntity
  8
0
100
AcDbCircle
 62
7
  6
CONTINUOUS
 10
3.7157109599
 20
2.283731311
 40
0.025
100
AcDbArc
 50
180.0
 51
270.0
  0
ARC
  5
2C7
100
AcDbEntity
  8
0
100
AcDbCircle
 62
7
  6
CONTINUOUS
 10
2.6207109599
 20
2.283731311
 40
0.025
100
AcDbArc
 50
270.0
 51
360.0
  0
ARC
  5
2C8
100
AcDbEntity
  8
0
100
AcDbCircle
 62
7
  6
CONTINUOUS
 10
2.6207109599
 20
2.243731311
 40
0.015
100
AcDbArc
 50
90.0
 51
180.0
  0
ARC
  5
2C9
100
AcDbEntity
  8
0
100
AcDbCircle
 62
7
  6
CONTINUOUS
 10
3.7157109599
 20
2.243731311
 40
0.015
100
AcDbArc
 50
0.0
 51
90.0
  0
ARC
  5
2CA
100
AcDbEntity
  8
0
100
AcDbCircle
 62
7
  6
CONTINUOUS
 10
2.6607109599
 20
2.368731311
 40
0.015
100
AcDbArc
 50
90.0
 51
180.0
  0
ARC
  5
2CB
100
AcDbEntity
  8
0
100
AcDbCircle
 62
7
  6
CONTINUOUS
 10
3.6757109599
 20
2.368731311
 40
0.015
100
AcDbArc
 50
0.0
 51
90.0
  0
ARC
  5
2CC
100
AcDbEntity
  8
0
100
AcDbCircle
 62
7
  6
CONTINUOUS
 10
2.9394609599
 20
3.453731311
 40
0.015
100
AcDbArc
 50
90.0
 51
180.0
  0
ARC
  5
2CD
100
AcDbEntity
  8
0
100
AcDbCircle
 62
7
  6
CONTINUOUS
 10
3.3969609599
 20
3.453731311
 40
0.015
100
AcDbArc
 50
0.0
 51
90.0
  0
ARC
  5
2CE
100
AcDbEntity
  8
0
100
AcDbCircle
 62
7
  6
CONTINUOUS
 10
2.9394609599
 20
2.403731311
 40
0.015
100
AcDbArc
 50
180.0
 51
270.0
  0
ARC
  5
2CF
100
AcDbEntity
  8
0
100
AcDbCircle
 62
7
  6
CONTINUOUS
 10
3.3969609599
 20
2.403731311
 40
0.015
100
AcDbArc
 50
270.0
 51
360.0
  0
ARC
  5
2D0
100
AcDbEntity
  8
0
100
AcDbCircle
 62
7
  6
CONTINUOUS
 10
3.0582109599
 20
3.499231311
 40
0.015
100
AcDbArc
 50
180.0
 51
270.0
  0
ARC
  5
2D1
100
AcDbEntity
  8
0
100
AcDbCircle
 62
7
  6
CONTINUOUS
 10
3.2782109599
 20
3.499231311
 40
0.015
100
AcDbArc
 50
270.0
 51
360.0
  0
ARC
  5
2D2
100
AcDbEntity
  8
0
100
AcDbCircle
 62
7
  6
CONTINUOUS
 10
3.2782109599
 20
3.819231311
 40
0.015
100
AcDbArc
 50
0.0
 51
90.0
  0
ARC
  5
2D3
100
AcDbEntity
  8
0
100
AcDbCircle
 62
7
  6
CONTINUOUS
 10
3.0582109599
 20
3.819231311
 40
0.015
100
AcDbArc
 50
90.0
 51
179.9999999996
  0
ARC
  5
2D4
100
AcDbEntity
  8
0
100
AcDbCircle
 62
7
  6
CONTINUOUS
 10
4.6182109599
 20
2.246231311
 40
0.0125
100
AcDbArc
 50
90.0
 51
180.0
  0
ARC
  5
2D5
100
AcDbEntity
  8
0
100
AcDbCircle
 62
7
  6
CONTINUOUS
 10
4.6582109599
 20
2.371231311
 40
0.0125
100
AcDbArc
 50
90.0
 51
180.0
  0
ARC
  5
2D6
100
AcDbEntity
  8
0
100
AcDbCircle
 62
7
  6
CONTINUOUS
 10
4.8282109599
 20
3.523731311
 40
0.01
100
AcDbArc
 50
90.0
 51
180.0
  0
ARC
  5
2D7
100
AcDbEntity
  8
0
100
AcDbCircle
 62
7
  6
CONTINUOUS
 10
4.8932109599
 20
3.543731311
 40
0.01
100
AcDbArc
 50
270.0000000001
 51
360.0
  0
ARC
  5
2D8
100
AcDbEntity
  8
0
100
AcDbCircle
 62
7
  6
CONTINUOUS
 10
4.8932109599
 20
3.793731311
 40
0.01
100
AcDbArc
 50
180.0
 51
270.0
  0
ARC
  5
2D9
100
AcDbEntity
  8
0
100
AcDbCircle
 62
7
  6
CONTINUOUS
 10
4.8932109599
 20
3.773731311
 40
0.01
100
AcDbArc
 50
0.0
 51
90.0
  0
ARC
  5
2DA
100
AcDbEntity
  8
0
100
AcDbCircle
 62
7
  6
CONTINUOUS
 10
4.8932109599
 20
3.823731311
 40
0.01
100
AcDbArc
 50
90.0
 51
180.0
  0
ARC
  5
2DB
100
AcDbEntity
  8
0
100
AcDbCircle
 62
7
  6
CONTINUOUS
 10
4.8282109599
 20
3.4953734466
 40
0.01
100
AcDbArc
 50
180.0
 51
225.0000000005
  0
ARC
  5
2DC
100
AcDbEntity
  8
0
100
AcDbCircle
 62
7
  6
CONTINUOUS
 10
4.8282109599
 20
3.4720891753
 40
0.01
100
AcDbArc
 50
134.9999999995
 51
180.0
  0
ARC
  5
2DD
100
AcDbEntity
  8
0
100
AcDbCircle
 62
7
  6
CONTINUOUS
 10
4.8200541056
 20
3.483731311
 40
0.004
100
AcDbArc
 50
314.999999982
 51
45.0000000179
  0
ARC
  5
2DE
100
AcDbEntity
  8
0
100
AcDbCircle
 62
7
  6
CONTINUOUS
 10
5.159910278
 20
5.675279047
 40
0.8782944078
100
AcDbArc
 50
265.4742116622
 51
267.9316364585
  0
ARC
  5
2DF
100
AcDbEntity
  8
0
100
AcDbCircle
 62
7
  6
CONTINUOUS
 10
4.9182102138
 20
4.8728610845
 40
0.0100007463
100
AcDbArc
 50
349.3522735974
 51
0.0108086622
  0
ARC
  5
2E0
100
AcDbEntity
  8
0
100
AcDbCircle
 62
7
  6
CONTINUOUS
 10
7.7936105172
 20
3.5503091982
 40
0.0660778872
100
AcDbArc
 50
270.0002729156
 51
278.270375227
  0
ARC
  5
2E1
100
AcDbEntity
  8
0
100
AcDbCircle
 62
7
  6
CONTINUOUS
 10
6.5428113685
 20
3.7681539326
 40
0.0660773784
100
AcDbArc
 50
90.0002433899
 51
98.2703918301
  0
ARC
  5
2E2
100
AcDbEntity
  8
0
100
AcDbCircle
 62
7
  6
CONTINUOUS
 10
6.5428113443
 20
3.5503083037
 40
0.0660769927
100
AcDbArc
 50
261.7295521426
 51
269.99977756
  0
ARC
  5
2E3
100
AcDbEntity
  8
0
100
AcDbCircle
 62
7
  6
CONTINUOUS
 10
7.7936106489
 20
3.7681554471
 40
0.0660758639
100
AcDbArc
 50
81.7294796598
 51
89.9998413055
  0
ARC
  5
2E4
100
AcDbEntity
  8
0
100
AcDbCircle
 62
7
  6
CONTINUOUS
 10
7.8032109599
 20
3.549231311
 40
0.065
100
AcDbArc
 50
270.0
 51
360.0
  0
ARC
  5
2E5
100
AcDbEntity
  8
0
100
AcDbCircle
 62
7
  6
CONTINUOUS
 10
7.8032109599
 20
3.769231311
 40
0.065
100
AcDbArc
 50
0.0
 51
90.0
  0
ARC
  5
2E6
100
AcDbEntity
  8
0
100
AcDbCircle
 62
7
  6
CONTINUOUS
 10
6.5332109599
 20
3.549231311
 40
0.065
100
AcDbArc
 50
180.0
 51
270.0
  0
ARC
  5
2E7
100
AcDbEntity
  8
0
100
AcDbCircle
 62
7
  6
CONTINUOUS
 10
6.5332109599
 20
3.769231311
 40
0.065
100
AcDbArc
 50
90.0
 51
180.0
  0
ARC
  5
2E8
100
AcDbEntity
  8
0
100
AcDbCircle
 62
7
  6
CONTINUOUS
 10
5.7157109599
 20
2.283731311
 40
0.025
100
AcDbArc
 50
180.0
 51
270.0
  0
ARC
  5
2E9
100
AcDbEntity
  8
0
100
AcDbCircle
 62
7
  6
CONTINUOUS
 10
6.6207109599
 20
2.283731311
 40
0.025
100
AcDbArc
 50
270.0
 51
360.0
  0
ARC
  5
2EA
100
AcDbEntity
  8
0
100
AcDbCircle
 62
7
  6
CONTINUOUS
 10
7.7157109599
 20
2.283731311
 40
0.025
100
AcDbArc
 50
180.0
 51
270.0
  0
ARC
  5
2EB
100
AcDbEntity
  8
0
100
AcDbCircle
 62
7
  6
CONTINUOUS
 10
7.7157109599
 20
2.243731311
 40
0.015
100
AcDbArc
 50
0.0
 51
90.0
  0
ARC
  5
2EC
100
AcDbEntity
  8
0
100
AcDbCircle
 62
7
  6
CONTINUOUS
 10
6.6207109599
 20
2.243731311
 40
0.015
100
AcDbArc
 50
90.0
 51
180.0
  0
ARC
  5
2ED
100
AcDbEntity
  8
0
100
AcDbCircle
 62
7
  6
CONTINUOUS
 10
7.6757109599
 20
2.368731311
 40
0.015
100
AcDbArc
 50
0.0
 51
90.0
  0
ARC
  5
2EE
100
AcDbEntity
  8
0
100
AcDbCircle
 62
7
  6
CONTINUOUS
 10
6.6607109599
 20
2.368731311
 40
0.015
100
AcDbArc
 50
90.0
 51
180.0
  0
ARC
  5
2EF
100
AcDbEntity
  8
0
100
AcDbCircle
 62
7
  6
CONTINUOUS
 10
7.3969609599
 20
3.453731311
 40
0.015
100
AcDbArc
 50
0.0
 51
90.0
  0
ARC
  5
2F0
100
AcDbEntity
  8
0
100
AcDbCircle
 62
7
  6
CONTINUOUS
 10
6.9394609599
 20
3.453731311
 40
0.015
100
AcDbArc
 50
90.0
 51
180.0
  0
ARC
  5
2F1
100
AcDbEntity
  8
0
100
AcDbCircle
 62
7
  6
CONTINUOUS
 10
7.3969609599
 20
2.403731311
 40
0.015
100
AcDbArc
 50
270.0
 51
360.0
  0
ARC
  5
2F2
100
AcDbEntity
  8
0
100
AcDbCircle
 62
7
  6
CONTINUOUS
 10
6.9394609599
 20
2.403731311
 40
0.015
100
AcDbArc
 50
180.0
 51
270.0
  0
ARC
  5
2F3
100
AcDbEntity
  8
0
100
AcDbCircle
 62
7
  6
CONTINUOUS
 10
7.0582109599
 20
3.819231311
 40
0.015
100
AcDbArc
 50
90.0000000001
 51
180.0
  0
ARC
  5
2F4
100
AcDbEntity
  8
0
100
AcDbCircle
 62
7
  6
CONTINUOUS
 10
7.0582109599
 20
3.499231311
 40
0.015
100
AcDbArc
 50
180.0000000004
 51
270.0
  0
ARC
  5
2F5
100
AcDbEntity
  8
0
100
AcDbCircle
 62
7
  6
CONTINUOUS
 10
7.2782109599
 20
3.499231311
 40
0.015
100
AcDbArc
 50
270.0000000002
 51
360.0
  0
ARC
  5
2F6
100
AcDbEntity
  8
0
100
AcDbCircle
 62
7
  6
CONTINUOUS
 10
7.2782109599
 20
3.819231311
 40
0.015
100
AcDbArc
 50
0.0000000004
 51
90.0
  0
ARC
  5
2F7
100
AcDbEntity
  8
0
100
AcDbCircle
 62
7
  6
CONTINUOUS
 10
5.7182109599
 20
2.246231311
 40
0.0125
100
AcDbArc
 50
0.0
 51
90.0
  0
ARC
  5
2F8
100
AcDbEntity
  8
0
100
AcDbCircle
 62
7
  6
CONTINUOUS
 10
5.6782109599
 20
2.371231311
 40
0.0125
100
AcDbArc
 50
0.0
 51
90.0
  0
ARC
  5
2F9
100
AcDbEntity
  8
0
100
AcDbCircle
 62
7
  6
CONTINUOUS
 10
5.5082109599
 20
3.523731311
 40
0.01
100
AcDbArc
 50
0.0
 51
90.0
  0
ARC
  5
2FA
100
AcDbEntity
  8
0
100
AcDbCircle
 62
7
  6
CONTINUOUS
 10
5.4432109599
 20
3.543731311
 40
0.01
100
AcDbArc
 50
180.0
 51
269.9999999999
  0
ARC
  5
2FB
100
AcDbEntity
  8
0
100
AcDbCircle
 62
7
  6
CONTINUOUS
 10
5.4432109599
 20
3.793731311
 40
0.01
100
AcDbArc
 50
270.0
 51
360.0
  0
ARC
  5
2FC
100
AcDbEntity
  8
0
100
AcDbCircle
 62
7
  6
CONTINUOUS
 10
5.4432109599
 20
3.773731311
 40
0.01
100
AcDbArc
 50
90.0
 51
180.0
  0
ARC
  5
2FD
100
AcDbEntity
  8
0
100
AcDbCircle
 62
7
  6
CONTINUOUS
 10
5.4432109599
 20
3.823731311
 40
0.01
100
AcDbArc
 50
0.0
 51
90.0
  0
ARC
  5
2FE
100
AcDbEntity
  8
0
100
AcDbCircle
 62
7
  6
CONTINUOUS
 10
5.5082109599
 20
3.4953734466
 40
0.01
100
AcDbArc
 50
314.9999999995
 51
360.0
  0
ARC
  5
2FF
100
AcDbEntity
  8
0
100
AcDbCircle
 62
7
  6
CONTINUOUS
 10
5.5082109599
 20
3.4720891753
 40
0.01
100
AcDbArc
 50
0.0
 51
45.0000000005
  0
ARC
  5
300
100
AcDbEntity
  8
0
100
AcDbCircle
 62
7
  6
CONTINUOUS
 10
5.5163678141
 20
3.483731311
 40
0.004
100
AcDbArc
 50
134.9999999821
 51
225.000000018
  0
ARC
  5
301
100
AcDbEntity
  8
0
100
AcDbCircle
 62
7
  6
CONTINUOUS
 10
5.1682109599
 20
5.8920513346
 40
1.0952258663
100
AcDbArc
 50
267.9069678666
 51
272.0930321334
  0
ARC
  5
302
100
AcDbEntity
  8
0
100
AcDbCircle
 62
7
  6
CONTINUOUS
 10
5.1682109599
 20
6.541731311
 40
0.21875
100
AcDbArc
 50
0.0
 51
180.0
  0
ARC
  5
303
100
AcDbEntity
  8
0
100
AcDbCircle
 62
7
  6
CONTINUOUS
 10
5.4182374661
 20
4.8728632265
 40
0.0100265063
100
AcDbArc
 50
180.0014594138
 51
190.5976097344
  0
SPLINE
  5
304
100
AcDbEntity
  8
0
100
AcDbSpline
 62
7
  6
CONTINUOUS
 70
0
 71
3
 72
16
 73
12
 74
0
 42
0.0000001
 43
0.0000001
 44
0.0000000001
 40
0.0
 40
0.0
 40
0.0
 40
0.0
 40
0.1753480903
 40
0.3338309635
 40
0.4760792122
 40
0.6030953327
 40
0.7163767776
 40
0.8180904125
 40
0.9112658451
 40
0.9559268195
 40
1.0
 40
1.0
 40
1.0
 40
1.0
 10
5.3179607512
 20
4.8128313033
 30
0.0
 10
5.3183753373
 20
4.8130473145
 30
0.0
 10
5.3191544965
 20
4.8134786683
 30
0.0
 10
5.3202239168
 20
4.8141642028
 30
0.0
 10
5.3211333074
 20
4.8148547754
 30
0.0
 10
5.3218820228
 20
4.8155503274
 30
0.0
 10
5.3224694258
 20
4.8162516431
 30
0.0
 10
5.3228940581
 20
4.8169596652
 30
0.0
 10
5.3231123545
 20
4.81756545
 30
0.0
 10
5.3231969712
 20
4.8180439164
 30
0.0
 10
5.3232109517
 20
4.8182807264
 30
0.0
 10
5.3232109517
 20
4.8183982273
 30
0.0
  0
SPLINE
  5
305
100
AcDbEntity
  8
0
100
AcDbSpline
 62
7
  6
CONTINUOUS
 70
0
 71
3
 72
15
 73
11
 74
0
 42
0.0000001
 43
0.0000001
 44
0.0000000001
 40
0.0
 40
0.0
 40
0.0
 40
0.0
 40
0.1507264387
 40
0.2951905501
 40
0.4327964512
 40
0.5629949392
 40
0.6852666489
 40
0.799134961
 40
0.9041732392
 40
1.0
 40
1.0
 40
1.0
 40
1.0
 10
5.2458157815
 20
4.7997249042
 30
0.0
 10
5.2486785674
 20
4.7999553488
 30
0.0
 10
5.2542826122
 20
4.8004396913
 30
0.0
 10
5.2624891176
 20
4.8012564135
 30
0.0
 10
5.270294598
 20
4.8021454082
 30
0.0
 10
5.2776658148
 20
4.8031027479
 30
0.0
 10
5.2845715467
 20
4.8041242549
 30
0.0
 10
5.2909826053
 20
4.8052053744
 30
0.0
 10
5.2968717816
 20
4.8063413019
 30
0.0
 10
5.3006090443
 20
4.8071705547
 30
0.0
 10
5.302384324
 20
4.8075977236
 30
0.0
  0
SPLINE
  5
306
100
AcDbEntity
  8
0
100
AcDbSpline
 62
7
  6
CONTINUOUS
 70
0
 71
3
 72
15
 73
11
 74
0
 42
0.0000001
 43
0.0000001
 44
0.0000000001
 40
0.0
 40
0.0
 40
0.0
 40
0.0
 40
0.0958267608
 40
0.200865039
 40
0.3147333511
 40
0.4370050608
 40
0.5672035488
 40
0.7048094499
 40
0.8492735613
 40
1.0
 40
1.0
 40
1.0
 40
1.0
 10
5.0340375957
 20
4.8075977236
 30
0.0
 10
5.0358128754
 20
4.8071705547
 30
0.0
 10
5.0395501382
 20
4.8063413019
 30
0.0
 10
5.0454393144
 20
4.8052053744
 30
0.0
 10
5.0518503731
 20
4.8041242549
 30
0.0
 10
5.058756105
 20
4.8031027479
 30
0.0
 10
5.0661273218
 20
4.8021454082
 30
0.0
 10
5.0739328021
 20
4.8012564135
 30
0.0
 10
5.0821393076
 20
4.8004396913
 30
0.0
 10
5.0877433523
 20
4.7999553488
 30
0.0
 10
5.0906061382
 20
4.7997249042
 30
0.0
  0
SPLINE
  5
307
100
AcDbEntity
  8
0
100
AcDbSpline
 62
7
  6
CONTINUOUS
 70
0
 71
3
 72
16
 73
12
 74
0
 42
0.0000001
 43
0.0000001
 44
0.0000000001
 40
0.0
 40
0.0
 40
0.0
 40
0.0
 40
0.0440731805
 40
0.0887341549
 40
0.1819095875
 40
0.2836232224
 40
0.3969046673
 40
0.5239207878
 40
0.6661690365
 40
0.8246519097
 40
1.0
 40
1.0
 40
1.0
 40
1.0
 10
5.0132109681
 20
4.8183982273
 30
0.0
 10
5.0132109681
 20
4.8182807264
 30
0.0
 10
5.0132249486
 20
4.8180439164
 30
0.0
 10
5.0133095653
 20
4.81756545
 30
0.0
 10
5.0135278617
 20
4.8169596652
 30
0.0
 10
5.013952494
 20
4.8162516431
 30
0.0
 10
5.0145398969
 20
4.8155503274
 30
0.0
 10
5.0152886124
 20
4.8148547754
 30
0.0
 10
5.016198003
 20
4.8141642028
 30
0.0
 10
5.0172674233
 20
4.8134786683
 30
0.0
 10
5.0180465824
 20
4.8130473145
 30
0.0
 10
5.0184611686
 20
4.8128313033
 30
0.0
  0
SPLINE
  5
308
100
AcDbEntity
  8
0
100
AcDbSpline
 62
7
  6
CONTINUOUS
 70
0
 71
3
 72
15
 73
11
 74
0
 42
0.0000001
 43
0.0000001
 44
0.0000000001
 40
0.0
 40
0.0
 40
0.0
 40
0.0
 40
0.0883100116
 40
0.1812574151
 40
0.2828274107
 40
0.3960660022
 40
0.5231459098
 40
0.6655485679
 40
0.8242794367
 40
1.0
 40
1.0
 40
1.0
 40
1.0
 10
5.0282109789
 20
4.8183982273
 30
0.0
 10
5.0282109789
 20
4.8186130915
 30
0.0
 10
5.028264615
 20
4.819055674
 30
0.0
 10
5.0285014737
 20
4.8197069839
 30
0.0
 10
5.0288905836
 20
4.8203512883
 30
0.0
 10
5.029428766
 20
4.8209890806
 30
0.0
 10
5.0301146974
 20
4.8216216472
 30
0.0
 10
5.0309477244
 20
4.8222496334
 30
0.0
 10
5.0319273606
 20
4.8228730192
 30
0.0
 10
5.0326410009
 20
4.8232651406
 30
0.0
 10
5.0330207619
 20
4.8234615379
 30
0.0
  0
SPLINE
  5
309
100
AcDbEntity
  8
0
100
AcDbSpline
 62
7
  6
CONTINUOUS
 70
0
 71
3
 72
15
 73
11
 74
0
 42
0.0000001
 43
0.0000001
 44
0.0000000001
 40
0.0
 40
0.0
 40
0.0
 40
0.0
 40
0.0883100116
 40
0.1812574151
 40
0.2828274107
 40
0.3960660022
 40
0.5231459098
 40
0.6655485679
 40
0.8242794367
 40
1.0
 40
1.0
 40
1.0
 40
1.0
 10
5.3082109408
 20
4.8183982273
 30
0.0
 10
5.3082109408
 20
4.8186130915
 30
0.0
 10
5.3081573048
 20
4.819055674
 30
0.0
 10
5.307920446
 20
4.8197069839
 30
0.0
 10
5.3075313361
 20
4.8203512883
 30
0.0
 10
5.3069931538
 20
4.8209890806
 30
0.0
 10
5.3063072223
 20
4.8216216472
 30
0.0
 10
5.3054741954
 20
4.8222496334
 30
0.0
 10
5.3044945591
 20
4.8228730192
 30
0.0
 10
5.3037809188
 20
4.8232651406
 30
0.0
 10
5.3034011579
 20
4.8234615379
 30
0.0
  0
SPLINE
  5
30A
100
AcDbEntity
  8
0
100
AcDbSpline
 62
7
  6
CONTINUOUS
 70
0
 71
3
 72
29
 73
25
 74
0
 42
0.0000001
 43
0.0000001
 44
0.0000000001
 40
0.0
 40
0.0
 40
0.0
 40
0.0
 40
0.0377309111
 40
0.0748830626
 40
0.111642599
 40
0.1479014286
 40
0.1833883218
 40
0.2179517058
 40
0.2515821223
 40
0.2842558015
 40
0.3469475642
 40
0.4066038159
 40
0.4355738523
 40
0.4641137116
 40
0.4923307721
 40
0.5203365029
 40
0.5482345601
 40
0.5761196254
 40
0.63216598
 40
0.689068477
 40
0.7473116505
 40
0.8072548687
 40
0.8692127375
 40
1.0
 40
1.0
 40
1.0
 40
1.0
 10
4.8982109599
 20
5.1748947321
 30
0.0
 10
4.8982109599
 20
5.1743448915
 30
0.0
 10
4.8982556707
 20
5.1732530938
 30
0.0
 10
4.8984560681
 20
5.1716367935
 30
0.0
 10
4.8987826143
 20
5.1700631288
 30
0.0
 10
4.8992226318
 20
5.1685428055
 30
0.0
 10
4.8997641652
 20
5.1670897926
 30
0.0
 10
4.9003943997
 20
5.1657152214
 30
0.0
 10
4.9010971785
 20
5.164422961
 30
0.0
 10
4.9020992395
 20
5.1628312385
 30
0.0
 10
4.9034712504
 20
5.1610300879
 30
0.0
 10
4.9049824364
 20
5.1594195373
 30
0.0
 10
4.9062325147
 20
5.1582559287
 30
0.0
 10
4.9071804086
 20
5.1574416938
 30
0.0
 10
4.9081466561
 20
5.1566717766
 30
0.0
 10
4.9091315497
 20
5.1559415055
 30
0.0
 10
4.9101352896
 20
5.1552458907
 30
0.0
 10
4.9115009627
 20
5.1543563351
 30
0.0
 10
4.9132654595
 20
5.1533062887
 30
0.0
 10
4.9154673262
 20
5.1521319497
 30
0.0
 10
4.9177649306
 20
5.1510209748
 30
0.0
 10
4.9201677193
 20
5.1499623181
 30
0.0
 10
4.9235814702
 20
5.1485806417
 30
0.0
 10
4.9262279039
 20
5.147634988
 30
0.0
 10
4.9280354807
 20
5.1470306694
 30
0.0
  0
SPLINE
  5
30B
100
AcDbEntity
  8
0
100
AcDbSpline
 62
7
  6
CONTINUOUS
 70
0
 71
3
 72
28
 73
24
 74
0
 42
0.0000001
 43
0.0000001
 44
0.0000000001
 40
0.0
 40
0.0
 40
0.0
 40
0.0
 40
0.0666092207
 40
0.1307945397
 40
0.192746288
 40
0.2526957258
 40
0.3678174249
 40
0.4238615737
 40
0.4796425907
 40
0.5076532818
 40
0.5358719807
 40
0.5644089216
 40
0.5933827103
 40
0.6228989767
 40
0.6530637175
 40
0.715763183
 40
0.7820379177
 40
0.8166036109
 40
0.8520779269
 40
0.8883439901
 40
0.9251315668
 40
0.9622975544
 40
1.0
 40
1.0
 40
1.0
 40
1.0
 10
5.4083954491
 20
5.1470335864
 30
0.0
 10
5.4093157711
 20
5.1473413848
 30
0.0
 10
5.4111165585
 20
5.1479650924
 30
0.0
 10
5.4137475
 20
5.1489475369
 30
0.0
 10
5.4162609247
 20
5.1499649792
 30
0.0
 10
5.4194207893
 20
5.1513583411
 30
0.0
 10
5.4224314482
 20
5.1528759112
 30
0.0
 10
5.4252745063
 20
5.1545662252
 30
0.0
 10
5.4269670767
 20
5.1557024607
 30
0.0
 10
5.4282783187
 20
5.1566743089
 30
0.0
 10
5.4292446384
 20
5.1574437516
 30
0.0
 10
5.4301919271
 20
5.1582582469
 30
0.0
 10
5.4311198096
 20
5.1591228243
 30
0.0
 10
5.4320257666
 20
5.1600441066
 30
0.0
 10
5.4332134926
 20
5.161374634
 30
0.0
 10
5.4346209398
 20
5.1632232257
 30
0.0
 10
5.4358300421
 20
5.1652845425
 30
0.0
 10
5.4366581825
 20
5.1670911655
 30
0.0
 10
5.4372
 20
5.16854366
 30
0.0
 10
5.437639598
 20
5.1700640339
 30
0.0
 10
5.4379659389
 20
5.1716380507
 30
0.0
 10
5.4381662388
 20
5.1732541401
 30
0.0
 10
5.4382109599
 20
5.1743454456
 30
0.0
 10
5.4382109599
 20
5.1748947321
 30
0.0
  0
SPLINE
  5
30C
100
AcDbEntity
  8
0
100
AcDbSpline
 62
7
  6
CONTINUOUS
 70
0
 71
3
 72
17
 73
13
 74
0
 42
0.0000001
 43
0.0000001
 44
0.0000000001
 40
0.0
 40
0.0
 40
0.0
 40
0.0
 40
0.1984231384
 40
0.3836704336
 40
0.4705155416
 40
0.5528065421
 40
0.6297970472
 40
0.7006524099
 40
0.8207418993
 40
0.9106933941
 40
0.9702079406
 40
1.0
 40
1.0
 40
1.0
 40
1.0
 10
4.9282109599
 20
5.14518669
 30
0.0
 10
4.9282109599
 20
5.1455946432
 30
0.0
 10
4.9281626393
 20
5.1463842357
 30
0.0
 10
4.9279902652
 20
5.1473384293
 30
0.0
 10
4.9277975791
 20
5.1480414677
 30
0.0
 10
4.9276362807
 20
5.1485213738
 30
0.0
 10
4.9274621206
 20
5.1489615468
 30
0.0
 10
4.9272339606
 20
5.1494631199
 30
0.0
 10
4.9269582673
 20
5.1499717522
 30
0.0
 10
4.9266484366
 20
5.1504321233
 30
0.0
 10
4.9264193555
 20
5.1507211832
 30
0.0
 10
4.9262959466
 20
5.1508573821
 30
0.0
 10
4.9262525533
 20
5.1509006117
 30
0.0
  0
SPLINE
  5
30D
100
AcDbEntity
  8
0
100
AcDbSpline
 62
7
  6
CONTINUOUS
 70
0
 71
3
 72
38
 73
34
 74
0
 42
0.0000001
 43
0.0000001
 44
0.0000000001
 40
0.0
 40
0.0
 40
0.0
 40
0.0
 40
0.0106513642
 40
0.0150720582
 40
0.0188803936
 40
0.0220694518
 40
0.0246321866
 40
0.0265614274
 40
0.0278498877
 40
0.0282515218
 40
0.0284901995
 40
0.0285651346
 40
0.0286556116
 40
0.0293347456
 40
0.0306848908
 40
0.0316134227
 40
0.0327114353
 40
0.0339793005
 40
0.0354174087
 40
0.0388059983
 40
0.0428807192
 40
0.0531039534
 40
0.0661214344
 40
0.1006976579
 40
0.1468932078
 40
0.2046163678
 40
0.2737644386
 40
0.3542227792
 40
0.4447549493
 40
0.5437090025
 40
0.6496306208
 40
0.7614858439
 40
1.0
 40
1.0
 40
1.0
 40
1.0
 10
5.4100478412
 20
5.1508019154
 30
0.0
 10
5.4100655629
 20
5.1508159994
 30
0.0
 10
5.4100904936
 20
5.1508361122
 30
0.0
 10
5.4101214079
 20
5.1508616975
 30
0.0
 10
5.4101399773
 20
5.1508773085
 30
0.0
 10
5.4101554483
 20
5.1508905088
 30
0.0
 10
5.4101677495
 20
5.15090116
 30
0.0
 10
5.4101770909
 20
5.1509093342
 30
0.0
 10
5.410182653
 20
5.1509142849
 30
0.0
 10
5.4101859559
 20
5.1509171803
 30
0.0
 10
5.4101868167
 20
5.1509179706
 30
0.0
 10
5.4101878375
 20
5.1509188026
 30
0.0
 10
5.4101858159
 20
5.1509167453
 30
0.0
 10
5.4101836054
 20
5.1509146587
 30
0.0
 10
5.4101785308
 20
5.1509096569
 30
0.0
 10
5.4101735561
 20
5.1509047591
 30
0.0
 10
5.4101685529
 20
5.1508997825
 30
0.0
 10
5.4101628591
 20
5.1508940691
 30
0.0
 10
5.4101537576
 20
5.1508848428
 30
0.0
 10
5.4101405872
 20
5.1508712685
 30
0.0
 10
5.4101147125
 20
5.1508439996
 30
0.0
 10
5.4100755292
 20
5.1508011607
 30
0.0
 10
5.4099947232
 20
5.1507085793
 30
0.0
 10
5.4098694085
 20
5.1505534743
 30
0.0
 10
5.4096949951
 20
5.1503162395
 30
0.0
 10
5.4094934194
 20
5.1500083418
 30
0.0
 10
5.4092741791
 20
5.1496258161
 30
0.0
 10
5.4090483249
 20
5.1491677909
 30
0.0
 10
5.4088267619
 20
5.148638198
 30
0.0
 10
5.4086222337
 20
5.1480441384
 30
0.0
 10
5.4084486098
 20
5.1473931147
 30
0.0
 10
5.4082676634
 20
5.1464398535
 30
0.0
 10
5.4082109599
 20
5.1456935884
 30
0.0
 10
5.4082109599
 20
5.14518669
 30
0.0
  0
SPLINE
  5
30E
100
AcDbEntity
  8
0
100
AcDbSpline
 62
7
  6
CONTINUOUS
 70
0
 71
3
 72
47
 73
43
 74
0
 42
0.0000001
 43
0.0000001
 44
0.0000000001
 40
0.0
 40
0.0
 40
0.0
 40
0.0
 40
0.0895336568
 40
0.1782100966
 40
0.265184781
 40
0.3496328823
 40
0.4307622756
 40
0.5078254229
 40
0.5446144039
 40
0.5801335955
 40
0.614308635
 40
0.6470711248
 40
0.6783595194
 40
0.7081205279
 40
0.736310732
 40
0.7628985921
 40
0.7878673795
 40
0.8112204848
 40
0.8329882191
 40
0.8532369156
 40
0.8628277748
 40
0.8720894542
 40
0.8810520453
 40
0.889749179
 40
0.8982276065
 40
0.9065437617
 40
0.9147673362
 40
0.918871862
 40
0.9229870672
 40
0.9313018475
 40
0.9355329123
 40
0.9398336374
 40
0.9442176759
 40
0.9487006561
 40
0.9580154716
 40
0.9678444567
 40
0.9729602926
 40
0.9782039934
 40
0.9835546266
 40
0.9889748603
 40
0.9944488904
 40
1.0
 40
1.0
 40
1.0
 40
1.0
 10
5.1682109599
 20
4.8936440698
 30
0.0
 10
5.159685813
 20
4.8936440698
 30
0.0
 10
5.1427169022
 20
4.893526881
 30
0.0
 10
5.1174714307
 20
4.8930004097
 30
0.0
 10
5.0927199551
 20
4.892128638
 30
0.0
 10
5.0687020435
 20
4.8909200204
 30
0.0
 10
5.0456484123
 20
4.8893859751
 30
0.0
 10
5.0271472825
 20
4.8878254401
 30
0.0
 10
5.0129944666
 20
4.8864147302
 30
0.0
 10
5.0029165904
 20
4.8853008067
 30
0.0
 10
4.9932328156
 20
4.8841168744
 30
0.0
 10
4.9839638918
 20
4.8828650843
 30
0.0
 10
4.9751287753
 20
4.8815475105
 30
0.0
 10
4.9667443167
 20
4.8801659825
 30
0.0
 10
4.9588248904
 20
4.8787218856
 30
0.0
 10
4.9513819192
 20
4.8772158529
 30
0.0
 10
4.9444231506
 20
4.8756473173
 30
0.0
 10
4.9379515397
 20
4.8740137095
 30
0.0
 10
4.9319641835
 20
4.8723088804
 30
0.0
 10
4.9272882908
 20
4.8707932401
 30
0.0
 10
4.9237871522
 20
4.8695259988
 30
0.0
 10
4.9213195273
 20
4.8685632294
 30
0.0
 10
4.9189582397
 20
4.8675646631
 30
0.0
 10
4.9166968402
 20
4.8665242308
 30
0.0
 10
4.9145292416
 20
4.8654306184
 30
0.0
 10
4.91244738
 20
4.8642713258
 30
0.0
 10
4.9107761876
 20
4.8632346049
 30
0.0
 10
4.9094810312
 20
4.8623544936
 30
0.0
 10
4.9082049396
 20
4.8614321538
 30
0.0
 10
4.906964474
 20
4.8604407535
 30
0.0
 10
4.905769415
 20
4.8593702449
 30
0.0
 10
4.9048864682
 20
4.8585136649
 30
0.0
 10
4.9040257006
 20
4.8576013779
 30
0.0
 10
4.9028987764
 20
4.8562864389
 30
0.0
 10
4.9015679859
 20
4.8544668297
 30
0.0
 10
4.9004306148
 20
4.8524486891
 30
0.0
 10
4.8996549996
 20
4.8506883916
 30
0.0
 10
4.899149849
 20
4.8492789556
 30
0.0
 10
4.8987407071
 20
4.8478086046
 30
0.0
 10
4.8984378849
 20
4.8462901784
 30
0.0
 10
4.8982523739
 20
4.8447337611
 30
0.0
 10
4.8982109599
 20
4.8436834903
 30
0.0
 10
4.8982109599
 20
4.843154929
 30
0.0
  0
SPLINE
  5
30F
100
AcDbEntity
  8
0
100
AcDbSpline
 62
7
  6
CONTINUOUS
 70
0
 71
3
 72
45
 73
41
 74
0
 42
0.0000001
 43
0.0000001
 44
0.0000000001
 40
0.0
 40
0.0
 40
0.0
 40
0.0
 40
0.00555573
 40
0.0110283037
 40
0.0164445846
 40
0.0217939918
 40
0.0270398833
 40
0.0321561652
 40
0.037140922
 40
0.0419905424
 40
0.0467091453
 40
0.0513072727
 40
0.0601730444
 40
0.0687028382
 40
0.0770179591
 40
0.0852360365
 40
0.0934605769
 40
0.1017756996
 40
0.11025463
 40
0.1279113193
 40
0.1467630312
 40
0.1567038978
 40
0.167013095
 40
0.1887801105
 40
0.2121335043
 40
0.237102434
 40
0.2636900581
 40
0.2918802279
 40
0.3216413362
 40
0.352929691
 40
0.3856920682
 40
0.4198671054
 40
0.4553863071
 40
0.4921752287
 40
0.5692382778
 40
0.6503675766
 40
0.7348155749
 40
0.8217901643
 40
0.9104663941
 40
1.0
 40
1.0
 40
1.0
 40
1.0
 10
5.4382109599
 20
4.843154929
 30
0.0
 10
5.4382109599
 20
4.8436839306
 30
0.0
 10
5.4381695716
 20
4.8447345056
 30
0.0
 10
5.4379840358
 20
4.8462908477
 30
0.0
 10
5.4376811774
 20
4.8478086277
 30
0.0
 10
5.4372717604
 20
4.849278609
 30
0.0
 10
5.4367669944
 20
4.850688269
 30
0.0
 10
5.4361774438
 20
4.8520266316
 30
0.0
 10
5.4355176617
 20
4.853289176
 30
0.0
 10
5.4348000362
 20
4.8544755557
 30
0.0
 10
5.434034788
 20
4.8555872768
 30
0.0
 10
5.4329755478
 20
4.8569575883
 30
0.0
 10
5.4315719675
 20
4.8585165301
 30
0.0
 10
5.429776608
 20
4.8601845904
 30
0.0
 10
5.4279117953
 20
4.8616767792
 30
0.0
 10
5.4259780651
 20
4.8630274619
 30
0.0
 10
5.4239747082
 20
4.8642718109
 30
0.0
 10
5.4218924238
 20
4.8654305741
 30
0.0
 10
5.4189631065
 20
4.8669085168
 30
0.0
 10
5.4150364417
 20
4.8686283504
 30
0.0
 10
5.4108921224
 20
4.8701777254
 30
0.0
 10
5.4073636827
 20
4.8713666819
 30
0.0
 10
5.4035474015
 20
4.8725683233
 30
0.0
 10
5.3984701676
 20
4.874013623
 30
0.0
 10
5.3919986972
 20
4.8756473829
 30
0.0
 10
5.3850398723
 20
4.8772158815
 30
0.0
 10
5.3775969136
 20
4.8787219009
 30
0.0
 10
5.3696774976
 20
4.8801660019
 30
0.0
 10
5.3612930319
 20
4.88154753
 30
0.0
 10
5.352457914
 20
4.882865098
 30
0.0
 10
5.3431889995
 20
4.8841168889
 30
0.0
 10
5.3335052286
 20
4.8853008198
 30
0.0
 10
5.3234273508
 20
4.886414739
 30
0.0
 10
5.3092745403
 20
4.8878254485
 30
0.0
 10
5.2907734233
 20
4.8893859819
 30
0.0
 10
5.2677198061
 20
4.8909200236
 30
0.0
 10
5.2437019078
 20
4.8921286405
 30
0.0
 10
5.2189504561
 20
4.89300041
 30
0.0
 10
5.1937050032
 20
4.8935268814
 30
0.0
 10
5.1767361071
 20
4.8936440698
 30
0.0
 10
5.1682109599
 20
4.8936440698
 30
0.0
  0
SPLINE
  5
310
100
AcDbEntity
  8
0
100
AcDbSpline
 62
7
  6
CONTINUOUS
 70
0
 71
3
 72
45
 73
41
 74
0
 42
0.0000001
 43
0.0000001
 44
0.0000000001
 40
0.0
 40
0.0
 40
0.0
 40
0.0
 40
0.00555573
 40
0.0110283037
 40
0.0164445846
 40
0.0217939918
 40
0.0270398833
 40
0.0321561652
 40
0.037140922
 40
0.0419905424
 40
0.0467091453
 40
0.0513072727
 40
0.0601730444
 40
0.0687028382
 40
0.0770179591
 40
0.0852360365
 40
0.0934605769
 40
0.1017756996
 40
0.11025463
 40
0.1279113193
 40
0.1467630312
 40
0.1567038978
 40
0.167013095
 40
0.1887801105
 40
0.2121335043
 40
0.237102434
 40
0.2636900581
 40
0.2918802279
 40
0.3216413362
 40
0.352929691
 40
0.3856920682
 40
0.4198671054
 40
0.4553863071
 40
0.4921752287
 40
0.5692382778
 40
0.6503675766
 40
0.7348155749
 40
0.8217901643
 40
0.9104663941
 40
1.0
 40
1.0
 40
1.0
 40
1.0
 10
4.8982109599
 20
4.8233495677
 30
0.0
 10
4.8982109599
 20
4.8228205661
 30
0.0
 10
4.8982523481
 20
4.8217699911
 30
0.0
 10
4.898437884
 20
4.820213649
 30
0.0
 10
4.8987407424
 20
4.818695869
 30
0.0
 10
4.8991501594
 20
4.8172258877
 30
0.0
 10
4.8996549253
 20
4.8158162277
 30
0.0
 10
4.9002444759
 20
4.8144778651
 30
0.0
 10
4.900904258
 20
4.8132153207
 30
0.0
 10
4.9016218835
 20
4.812028941
 30
0.0
 10
4.9023871317
 20
4.8109172199
 30
0.0
 10
4.9034463719
 20
4.8095469084
 30
0.0
 10
4.9048499523
 20
4.8079879666
 30
0.0
 10
4.9066453117
 20
4.8063199063
 30
0.0
 10
4.9085101244
 20
4.8048277175
 30
0.0
 10
4.9104438546
 20
4.8034770348
 30
0.0
 10
4.9124472115
 20
4.8022326858
 30
0.0
 10
4.9145294959
 20
4.8010739226
 30
0.0
 10
4.9174588132
 20
4.7995959799
 30
0.0
 10
4.921385478
 20
4.7978761463
 30
0.0
 10
4.9255297973
 20
4.7963267713
 30
0.0
 10
4.9290582371
 20
4.7951378148
 30
0.0
 10
4.9328745183
 20
4.7939361734
 30
0.0
 10
4.9379517522
 20
4.7924908737
 30
0.0
 10
4.9444232226
 20
4.7908571138
 30
0.0
 10
4.9513820474
 20
4.7892886152
 30
0.0
 10
4.9588250061
 20
4.7877825958
 30
0.0
 10
4.9667444221
 20
4.7863384948
 30
0.0
 10
4.9751288879
 20
4.7849569667
 30
0.0
 10
4.9839640058
 20
4.7836393987
 30
0.0
 10
4.9932329202
 20
4.7823876078
 30
0.0
 10
5.0029166911
 20
4.7812036769
 30
0.0
 10
5.012994569
 20
4.7800897577
 30
0.0
 10
5.0271473794
 20
4.7786790482
 30
0.0
 10
5.0456484965
 20
4.7771185148
 30
0.0
 10
5.0687021137
 20
4.7755844731
 30
0.0
 10
5.0927200119
 20
4.7743758562
 30
0.0
 10
5.1174714637
 20
4.7735040867
 30
0.0
 10
5.1427169165
 20
4.7729776153
 30
0.0
 10
5.1596858127
 20
4.7728604269
 30
0.0
 10
5.1682109599
 20
4.7728604269
 30
0.0
  0
SPLINE
  5
311
100
AcDbEntity
  8
0
100
AcDbSpline
 62
7
  6
CONTINUOUS
 70
0
 71
3
 72
47
 73
43
 74
0
 42
0.0000001
 43
0.0000001
 44
0.0000000001
 40
0.0
 40
0.0
 40
0.0
 40
0.0
 40
0.0895336568
 40
0.1782100966
 40
0.265184781
 40
0.3496328823
 40
0.4307622756
 40
0.5078254229
 40
0.5446144039
 40
0.5801335955
 40
0.614308635
 40
0.6470711248
 40
0.6783595194
 40
0.7081205279
 40
0.736310732
 40
0.7628985921
 40
0.7878673795
 40
0.8112204848
 40
0.8329882191
 40
0.8532369156
 40
0.8628277748
 40
0.8720894542
 40
0.8810520453
 40
0.889749179
 40
0.8982276065
 40
0.9065437617
 40
0.9147673362
 40
0.918871862
 40
0.9229870672
 40
0.9313018475
 40
0.9355329123
 40
0.9398336374
 40
0.9442176759
 40
0.9487006561
 40
0.9580154716
 40
0.9678444567
 40
0.9729602926
 40
0.9782039934
 40
0.9835546266
 40
0.9889748603
 40
0.9944488904
 40
1.0
 40
1.0
 40
1.0
 40
1.0
 10
5.1682109599
 20
4.7728604269
 30
0.0
 10
5.1767361068
 20
4.7728604269
 30
0.0
 10
5.1937050175
 20
4.7729776157
 30
0.0
 10
5.2189504891
 20
4.773504087
 30
0.0
 10
5.2437019646
 20
4.7743758587
 30
0.0
 10
5.2677198762
 20
4.7755844763
 30
0.0
 10
5.2907735074
 20
4.7771185216
 30
0.0
 10
5.3092746372
 20
4.7786790566
 30
0.0
 10
5.3234274531
 20
4.7800897665
 30
0.0
 10
5.3335053293
 20
4.78120369
 30
0.0
 10
5.3431891041
 20
4.7823876223
 30
0.0
 10
5.3524580279
 20
4.7836394124
 30
0.0
 10
5.3612931444
 20
4.7849569862
 30
0.0
 10
5.3696776031
 20
4.7863385142
 30
0.0
 10
5.3775970293
 20
4.7877826111
 30
0.0
 10
5.3850400006
 20
4.7892886438
 30
0.0
 10
5.3919987691
 20
4.7908571794
 30
0.0
 10
5.3984703801
 20
4.7924907872
 30
0.0
 10
5.4044577362
 20
4.7941956163
 30
0.0
 10
5.409133629
 20
4.7957112566
 30
0.0
 10
5.4126347676
 20
4.7969784979
 30
0.0
 10
5.4151023925
 20
4.7979412673
 30
0.0
 10
5.41746368
 20
4.7989398336
 30
0.0
 10
5.4197250796
 20
4.7999802659
 30
0.0
 10
5.4218926782
 20
4.8010738783
 30
0.0
 10
5.4239745398
 20
4.8022331709
 30
0.0
 10
5.4256457322
 20
4.8032698918
 30
0.0
 10
5.4269408886
 20
4.8041500031
 30
0.0
 10
5.4282169801
 20
4.8050723429
 30
0.0
 10
5.4294574457
 20
4.8060637432
 30
0.0
 10
5.4306525047
 20
4.8071342518
 30
0.0
 10
5.4315354516
 20
4.8079908318
 30
0.0
 10
5.4323962192
 20
4.8089031188
 30
0.0
 10
5.4335231434
 20
4.8102180578
 30
0.0
 10
5.4348539338
 20
4.812037667
 30
0.0
 10
5.435991305
 20
4.8140558076
 30
0.0
 10
5.4367669202
 20
4.8158161051
 30
0.0
 10
5.4372720707
 20
4.8172255411
 30
0.0
 10
5.4376812126
 20
4.8186958921
 30
0.0
 10
5.4379840348
 20
4.8202143183
 30
0.0
 10
5.4381695459
 20
4.8217707356
 30
0.0
 10
5.4382109599
 20
4.8228210064
 30
0.0
 10
5.4382109599
 20
4.8233495677
 30
0.0
  0
SPLINE
  5
312
100
AcDbEntity
  8
0
100
AcDbSpline
 62
7
  6
CONTINUOUS
 70
0
 71
3
 72
47
 73
43
 74
0
 42
0.0000001
 43
0.0000001
 44
0.0000000001
 40
0.0
 40
0.0
 40
0.0
 40
0.0
 40
0.0895336568
 40
0.1782100966
 40
0.265184781
 40
0.3496328823
 40
0.4307622756
 40
0.5078254229
 40
0.5446144039
 40
0.5801335955
 40
0.614308635
 40
0.6470711248
 40
0.6783595194
 40
0.7081205279
 40
0.736310732
 40
0.7628985921
 40
0.7878673795
 40
0.8112204848
 40
0.8329882191
 40
0.8532369156
 40
0.8628277748
 40
0.8720894542
 40
0.8810520453
 40
0.889749179
 40
0.8982276065
 40
0.9065437617
 40
0.9147673362
 40
0.918871862
 40
0.9229870672
 40
0.9313018475
 40
0.9355329123
 40
0.9398336374
 40
0.9442176759
 40
0.9487006561
 40
0.9580154716
 40
0.9678444567
 40
0.9729602926
 40
0.9782039934
 40
0.9835546266
 40
0.9889748603
 40
0.9944488904
 40
1.0
 40
1.0
 40
1.0
 40
1.0
 10
5.1682109599
 20
5.2451892342
 30
0.0
 10
5.159685813
 20
5.2451892342
 30
0.0
 10
5.1427169022
 20
5.2450720454
 30
0.0
 10
5.1174714307
 20
5.2445455741
 30
0.0
 10
5.0927199551
 20
5.2436738024
 30
0.0
 10
5.0687020435
 20
5.2424651848
 30
0.0
 10
5.0456484123
 20
5.2409311395
 30
0.0
 10
5.0271472825
 20
5.2393706045
 30
0.0
 10
5.0129944666
 20
5.2379598946
 30
0.0
 10
5.0029165904
 20
5.2368459711
 30
0.0
 10
4.9932328156
 20
5.2356620388
 30
0.0
 10
4.9839638918
 20
5.2344102487
 30
0.0
 10
4.9751287753
 20
5.2330926749
 30
0.0
 10
4.9667443167
 20
5.2317111469
 30
0.0
 10
4.9588248904
 20
5.23026705
 30
0.0
 10
4.9513819192
 20
5.2287610173
 30
0.0
 10
4.9444231506
 20
5.2271924817
 30
0.0
 10
4.9379515397
 20
5.2255588739
 30
0.0
 10
4.9319641835
 20
5.2238540448
 30
0.0
 10
4.9272882908
 20
5.2223384045
 30
0.0
 10
4.9237871522
 20
5.2210711632
 30
0.0
 10
4.9213195273
 20
5.2201083938
 30
0.0
 10
4.9189582397
 20
5.2191098275
 30
0.0
 10
4.9166968402
 20
5.2180693952
 30
0.0
 10
4.9145292416
 20
5.2169757828
 30
0.0
 10
4.91244738
 20
5.2158164902
 30
0.0
 10
4.9107761876
 20
5.2147797693
 30
0.0
 10
4.9094810312
 20
5.213899658
 30
0.0
 10
4.9082049396
 20
5.2129773182
 30
0.0
 10
4.906964474
 20
5.2119859179
 30
0.0
 10
4.905769415
 20
5.2109154093
 30
0.0
 10
4.9048864682
 20
5.2100588293
 30
0.0
 10
4.9040257006
 20
5.2091465423
 30
0.0
 10
4.9028987764
 20
5.2078316033
 30
0.0
 10
4.9015679859
 20
5.2060119941
 30
0.0
 10
4.9004306148
 20
5.2039938535
 30
0.0
 10
4.8996549996
 20
5.202233556
 30
0.0
 10
4.899149849
 20
5.20082412
 30
0.0
 10
4.8987407071
 20
5.199353769
 30
0.0
 10
4.8984378849
 20
5.1978353428
 30
0.0
 10
4.8982523739
 20
5.1962789255
 30
0.0
 10
4.8982109599
 20
5.1952286547
 30
0.0
 10
4.8982109599
 20
5.1947000934
 30
0.0
  0
SPLINE
  5
313
100
AcDbEntity
  8
0
100
AcDbSpline
 62
7
  6
CONTINUOUS
 70
0
 71
3
 72
45
 73
41
 74
0
 42
0.0000001
 43
0.0000001
 44
0.0000000001
 40
0.0
 40
0.0
 40
0.0
 40
0.0
 40
0.00555573
 40
0.0110283037
 40
0.0164445846
 40
0.0217939918
 40
0.0270398833
 40
0.0321561652
 40
0.037140922
 40
0.0419905424
 40
0.0467091453
 40
0.0513072727
 40
0.0601730444
 40
0.0687028382
 40
0.0770179591
 40
0.0852360365
 40
0.0934605769
 40
0.1017756996
 40
0.11025463
 40
0.1279113193
 40
0.1467630312
 40
0.1567038978
 40
0.167013095
 40
0.1887801105
 40
0.2121335043
 40
0.237102434
 40
0.2636900581
 40
0.2918802279
 40
0.3216413362
 40
0.352929691
 40
0.3856920682
 40
0.4198671054
 40
0.4553863071
 40
0.4921752287
 40
0.5692382778
 40
0.6503675766
 40
0.7348155749
 40
0.8217901643
 40
0.9104663941
 40
1.0
 40
1.0
 40
1.0
 40
1.0
 10
5.4382109599
 20
5.1947000934
 30
0.0
 10
5.4382109599
 20
5.195229095
 30
0.0
 10
5.4381695716
 20
5.19627967
 30
0.0
 10
5.4379840358
 20
5.1978360121
 30
0.0
 10
5.4376811774
 20
5.1993537921
 30
0.0
 10
5.4372717604
 20
5.2008237734
 30
0.0
 10
5.4367669944
 20
5.2022334334
 30
0.0
 10
5.4361774438
 20
5.203571796
 30
0.0
 10
5.4355176617
 20
5.2048343404
 30
0.0
 10
5.4348000362
 20
5.2060207201
 30
0.0
 10
5.434034788
 20
5.2071324412
 30
0.0
 10
5.4329755478
 20
5.2085027527
 30
0.0
 10
5.4315719675
 20
5.2100616945
 30
0.0
 10
5.429776608
 20
5.2117297548
 30
0.0
 10
5.4279117953
 20
5.2132219436
 30
0.0
 10
5.4259780651
 20
5.2145726263
 30
0.0
 10
5.4239747082
 20
5.2158169753
 30
0.0
 10
5.4218924238
 20
5.2169757385
 30
0.0
 10
5.4189631065
 20
5.2184536812
 30
0.0
 10
5.4150364417
 20
5.2201735148
 30
0.0
 10
5.4108921224
 20
5.2217228898
 30
0.0
 10
5.4073636827
 20
5.2229118463
 30
0.0
 10
5.4035474015
 20
5.2241134877
 30
0.0
 10
5.3984701676
 20
5.2255587874
 30
0.0
 10
5.3919986972
 20
5.2271925473
 30
0.0
 10
5.3850398723
 20
5.2287610459
 30
0.0
 10
5.3775969136
 20
5.2302670653
 30
0.0
 10
5.3696774976
 20
5.2317111663
 30
0.0
 10
5.3612930319
 20
5.2330926944
 30
0.0
 10
5.352457914
 20
5.2344102624
 30
0.0
 10
5.3431889995
 20
5.2356620533
 30
0.0
 10
5.3335052286
 20
5.2368459842
 30
0.0
 10
5.3234273508
 20
5.2379599034
 30
0.0
 10
5.3092745403
 20
5.2393706129
 30
0.0
 10
5.2907734233
 20
5.2409311463
 30
0.0
 10
5.2677198061
 20
5.242465188
 30
0.0
 10
5.2437019078
 20
5.2436738049
 30
0.0
 10
5.2189504561
 20
5.2445455744
 30
0.0
 10
5.1937050032
 20
5.2450720458
 30
0.0
 10
5.1767361071
 20
5.2451892342
 30
0.0
 10
5.1682109599
 20
5.2451892342
 30
0.0
  0
SPLINE
  5
314
100
AcDbEntity
  8
0
100
AcDbSpline
 62
7
  6
CONTINUOUS
 70
0
 71
3
 72
22
 73
18
 74
0
 42
0.0000001
 43
0.0000001
 44
0.0000000001
 40
0.0
 40
0.0
 40
0.0
 40
0.0
 40
0.0313644942
 40
0.0640548997
 40
0.0992432845
 40
0.1378667565
 40
0.1806289797
 40
0.2280351648
 40
0.2804435442
 40
0.3381058351
 40
0.4011919442
 40
0.4698176956
 40
0.5440557445
 40
0.6239438677
 40
0.7094982042
 40
0.8007118522
 40
1.0
 40
1.0
 40
1.0
 40
1.0
 10
4.9954609787
 20
4.8084955466
 30
0.0
 10
4.9954609787
 20
4.8087321744
 30
0.0
 10
4.9955131883
 20
4.8092168504
 30
0.0
 10
4.9957449517
 20
4.8099334972
 30
0.0
 10
4.9961272705
 20
4.8106444536
 30
0.0
 10
4.9966574147
 20
4.8113495845
 30
0.0
 10
4.9973340098
 20
4.8120497448
 30
0.0
 10
4.998156276
 20
4.8127454803
 30
0.0
 10
4.9991237421
 20
4.8134369206
 30
0.0
 10
5.0002358867
 20
4.8141238366
 30
0.0
 10
5.001491984
 20
4.8148059182
 30
0.0
 10
5.002891185
 20
4.8154826462
 30
0.0
 10
5.0044324439
 20
4.8161534806
 30
0.0
 10
5.0061145408
 20
4.8168178927
 30
0.0
 10
5.0079361332
 20
4.8174752903
 30
0.0
 10
5.0106293277
 20
4.818368257
 30
0.0
 10
5.012733601
 20
4.818984073
 30
0.0
 10
5.0141836513
 20
4.8193814683
 30
0.0
  0
SPLINE
  5
315
100
AcDbEntity
  8
0
100
AcDbSpline
 62
7
  6
CONTINUOUS
 70
0
 71
3
 72
23
 73
19
 74
0
 42
0.0000001
 43
0.0000001
 44
0.0000000001
 40
0.0
 40
0.0
 40
0.0
 40
0.0
 40
0.0185647516
 40
0.0382281012
 40
0.0589733984
 40
0.0807814586
 40
0.1274996046
 40
0.178194086
 40
0.2326495107
 40
0.2906279127
 40
0.3518712645
 40
0.4161036339
 40
0.4830330718
 40
0.552353442
 40
0.6237462761
 40
0.6968822429
 40
0.8470227039
 40
1.0
 40
1.0
 40
1.0
 40
1.0
 10
5.0141836513
 20
4.8193814683
 30
0.0
 10
5.0151082328
 20
4.8196348556
 30
0.0
 10
5.0170179628
 20
4.8201354265
 30
0.0
 10
5.019978232
 20
4.820850921
 30
0.0
 10
5.0231138023
 20
4.8215519784
 30
0.0
 10
5.0276278799
 20
4.822487926
 30
0.0
 10
5.0336823982
 20
4.8236080656
 30
0.0
 10
5.0414258395
 20
4.8248535249
 30
0.0
 10
5.0497686448
 20
4.8260229746
 30
0.0
 10
5.0586714499
 20
4.8271107176
 30
0.0
 10
5.0680922798
 20
4.8281114104
 30
0.0
 10
5.0779866402
 20
4.8290201879
 30
0.0
 10
5.0883077785
 20
4.829832645
 30
0.0
 10
5.0990069004
 20
4.8305448484
 30
0.0
 10
5.1100334103
 20
4.8311533936
 30
0.0
 10
5.1252352452
 20
4.83182843
 30
0.0
 10
5.1446580645
 20
4.8323889087
 30
0.0
 10
5.1603112921
 20
4.8325376998
 30
0.0
 10
5.1682109599
 20
4.8325376998
 30
0.0
  0
SPLINE
  5
316
100
AcDbEntity
  8
0
100
AcDbSpline
 62
7
  6
CONTINUOUS
 70
0
 71
3
 72
22
 73
18
 74
0
 42
0.0000001
 43
0.0000001
 44
0.0000000001
 40
0.0
 40
0.0
 40
0.0
 40
0.0
 40
0.0313644942
 40
0.0640548997
 40
0.0992432845
 40
0.1378667565
 40
0.1806289797
 40
0.2280351648
 40
0.2804435442
 40
0.3381058351
 40
0.4011919442
 40
0.4698176956
 40
0.5440557445
 40
0.6239438677
 40
0.7094982042
 40
0.8007118522
 40
1.0
 40
1.0
 40
1.0
 40
1.0
 10
5.340960941
 20
4.8084955466
 30
0.0
 10
5.340960941
 20
4.8087321744
 30
0.0
 10
5.3409087315
 20
4.8092168504
 30
0.0
 10
5.340676968
 20
4.8099334972
 30
0.0
 10
5.3402946493
 20
4.8106444536
 30
0.0
 10
5.3397645051
 20
4.8113495845
 30
0.0
 10
5.3390879099
 20
4.8120497448
 30
0.0
 10
5.3382656438
 20
4.8127454803
 30
0.0
 10
5.3372981776
 20
4.8134369206
 30
0.0
 10
5.336186033
 20
4.8141238366
 30
0.0
 10
5.3349299357
 20
4.8148059182
 30
0.0
 10
5.3335307348
 20
4.8154826462
 30
0.0
 10
5.3319894759
 20
4.8161534806
 30
0.0
 10
5.330307379
 20
4.8168178927
 30
0.0
 10
5.3284857866
 20
4.8174752903
 30
0.0
 10
5.3257925921
 20
4.818368257
 30
0.0
 10
5.3236883187
 20
4.818984073
 30
0.0
 10
5.3222382684
 20
4.8193814683
 30
0.0
  0
SPLINE
  5
317
100
AcDbEntity
  8
0
100
AcDbSpline
 62
7
  6
CONTINUOUS
 70
0
 71
3
 72
23
 73
19
 74
0
 42
0.0000001
 43
0.0000001
 44
0.0000000001
 40
0.0
 40
0.0
 40
0.0
 40
0.0
 40
0.0185647516
 40
0.0382281012
 40
0.0589733984
 40
0.0807814586
 40
0.1274996046
 40
0.178194086
 40
0.2326495107
 40
0.2906279127
 40
0.3518712645
 40
0.4161036339
 40
0.4830330718
 40
0.552353442
 40
0.6237462761
 40
0.6968822429
 40
0.8470227039
 40
1.0
 40
1.0
 40
1.0
 40
1.0
 10
5.3222382684
 20
4.8193814683
 30
0.0
 10
5.3213136869
 20
4.8196348556
 30
0.0
 10
5.319403957
 20
4.8201354265
 30
0.0
 10
5.3164436878
 20
4.820850921
 30
0.0
 10
5.3133081174
 20
4.8215519784
 30
0.0
 10
5.3087940399
 20
4.822487926
 30
0.0
 10
5.3027395215
 20
4.8236080656
 30
0.0
 10
5.2949960802
 20
4.8248535249
 30
0.0
 10
5.2866532749
 20
4.8260229746
 30
0.0
 10
5.2777504699
 20
4.8271107176
 30
0.0
 10
5.2683296399
 20
4.8281114104
 30
0.0
 10
5.2584352796
 20
4.8290201879
 30
0.0
 10
5.2481141412
 20
4.829832645
 30
0.0
 10
5.2374150194
 20
4.8305448484
 30
0.0
 10
5.2263885095
 20
4.8311533936
 30
0.0
 10
5.2111866746
 20
4.83182843
 30
0.0
 10
5.1917638552
 20
4.8323889087
 30
0.0
 10
5.1761106277
 20
4.8325376998
 30
0.0
 10
5.1682109599
 20
4.8325376998
 30
0.0
  0
SPLINE
  5
318
100
AcDbEntity
  8
0
100
AcDbSpline
 62
7
  6
CONTINUOUS
 70
0
 71
3
 72
15
 73
11
 74
0
 42
0.0000001
 43
0.0000001
 44
0.0000000001
 40
0.0
 40
0.0
 40
0.0
 40
0.0
 40
0.1553222344
 40
0.3021296616
 40
0.4402982242
 40
0.569754215
 40
0.6904517195
 40
0.8023753489
 40
0.9055403051
 40
1.0
 40
1.0
 40
1.0
 40
1.0
 10
5.302384324
 20
4.8075977236
 30
0.0
 10
5.3032132775
 20
4.807797187
 30
0.0
 10
5.3048225356
 20
4.8081987057
 30
0.0
 10
5.3071560842
 20
4.8088287139
 30
0.0
 10
5.3093392926
 20
4.8094689507
 30
0.0
 10
5.3113697475
 20
4.8101186448
 30
0.0
 10
5.3132453735
 20
4.810777106
 30
0.0
 10
5.3149643017
 20
4.811443609
 30
0.0
 10
5.3165246681
 20
4.8121174191
 30
0.0
 10
5.3175009058
 20
4.8125917107
 30
0.0
 10
5.3179607512
 20
4.8128313033
 30
0.0
  0
SPLINE
  5
319
100
AcDbEntity
  8
0
100
AcDbSpline
 62
7
  6
CONTINUOUS
 70
0
 71
3
 72
10
 73
6
 74
0
 42
0.0000001
 43
0.0000001
 44
0.0000000001
 40
0.0
 40
0.0
 40
0.0
 40
0.0
 40
0.5133413177
 40
0.7605313302
 40
1.0
 40
1.0
 40
1.0
 40
1.0
 10
5.2082109599
 20
4.7975570845
 30
0.0
 10
5.2146523173
 20
4.7977965409
 30
0.0
 10
5.2241924671
 20
4.7982423132
 30
0.0
 10
5.2367244252
 20
4.7990308776
 30
0.0
 10
5.242818571
 20
4.7994836388
 30
0.0
 10
5.2458157815
 20
4.7997249042
 30
0.0
  0
SPLINE
  5
31A
100
AcDbEntity
  8
0
100
AcDbSpline
 62
7
  6
CONTINUOUS
 70
0
 71
3
 72
15
 73
11
 74
0
 42
0.0000001
 43
0.0000001
 44
0.0000000001
 40
0.0
 40
0.0
 40
0.0
 40
0.0
 40
0.0944596949
 40
0.1976246511
 40
0.3095482804
 40
0.4302457848
 40
0.5597017757
 40
0.6978703384
 40
0.8446777656
 40
1.0
 40
1.0
 40
1.0
 40
1.0
 10
5.0184611686
 20
4.8128313033
 30
0.0
 10
5.0189210139
 20
4.8125917107
 30
0.0
 10
5.0198972516
 20
4.8121174191
 30
0.0
 10
5.0214576181
 20
4.811443609
 30
0.0
 10
5.0231765462
 20
4.810777106
 30
0.0
 10
5.0250521722
 20
4.8101186448
 30
0.0
 10
5.0270826271
 20
4.8094689507
 30
0.0
 10
5.0292658356
 20
4.8088287139
 30
0.0
 10
5.0315993842
 20
4.8081987057
 30
0.0
 10
5.0332086423
 20
4.807797187
 30
0.0
 10
5.0340375957
 20
4.8075977236
 30
0.0
  0
SPLINE
  5
31B
100
AcDbEntity
  8
0
100
AcDbSpline
 62
7
  6
CONTINUOUS
 70
0
 71
3
 72
23
 73
19
 74
0
 42
0.0000001
 43
0.0000001
 44
0.0000000001
 40
0.0
 40
0.0
 40
0.0
 40
0.0
 40
0.0625183647
 40
0.1250377096
 40
0.1875544674
 40
0.2500701827
 40
0.3125834243
 40
0.3750940652
 40
0.4376015736
 40
0.5001055886
 40
0.5626059128
 40
0.6251023211
 40
0.6875947633
 40
0.7500832753
 40
0.8125678645
 40
0.8750487576
 40
0.9375266911
 40
1.0
 40
1.0
 40
1.0
 40
1.0
 10
2.4772954289
 20
3.769231311
 30
0.0
 10
2.4772954806
 20
3.7711873177
 30
0.0
 10
2.4774736449
 20
3.775101693
 30
0.0
 10
2.4782730673
 20
3.7809227628
 30
0.0
 10
2.479597811
 20
3.7866475934
 30
0.0
 10
2.4814363915
 20
3.7922282986
 30
0.0
 10
2.4837730282
 20
3.7976192794
 30
0.0
 10
2.4865877351
 20
3.8027764625
 30
0.0
 10
2.4898565687
 20
3.8076580719
 30
0.0
 10
2.4935519347
 20
3.812224853
 30
0.0
 10
2.497642931
 20
3.8164403586
 30
0.0
 10
2.5020955328
 20
3.8202713385
 30
0.0
 10
2.5068730858
 20
3.8236878137
 30
0.0
 10
2.5119365872
 20
3.8266633186
 30
0.0
 10
2.5172449554
 20
3.8291750732
 30
0.0
 10
2.5227557013
 20
3.8312040235
 30
0.0
 10
2.5284241813
 20
3.8327348051
 30
0.0
 10
2.5322799095
 20
3.8334159193
 30
0.0
 10
2.534217902
 20
3.8336701531
 30
0.0
  0
SPLINE
  5
31C
100
AcDbEntity
  8
0
100
AcDbSpline
 62
7
  6
CONTINUOUS
 70
0
 71
3
 72
23
 73
19
 74
0
 42
0.0000001
 43
0.0000001
 44
0.0000000001
 40
0.0
 40
0.0
 40
0.0
 40
0.0
 40
0.0624733035
 40
0.1249512274
 40
0.1874321133
 40
0.2499166785
 40
0.3124051581
 40
0.3748976157
 40
0.4373940061
 40
0.4998943356
 40
0.5623983695
 40
0.6249058895
 40
0.6874165569
 40
0.7499298247
 40
0.8124455536
 40
0.8749623173
 40
0.9374816541
 40
1.0
 40
1.0
 40
1.0
 40
1.0
 10
2.5342153101
 20
3.4847928075
 30
0.0
 10
2.5322773818
 20
3.4850471108
 30
0.0
 10
2.5284217883
 20
3.485728357
 30
0.0
 10
2.5227535218
 20
3.487259298
 30
0.0
 10
2.5172429984
 20
3.4892883749
 30
0.0
 10
2.5119348574
 20
3.4918002226
 30
0.0
 10
2.5068715884
 20
3.4947757963
 30
0.0
 10
2.502094249
 20
3.4981922867
 30
0.0
 10
2.4976418689
 20
3.5020232741
 30
0.0
 10
2.4935510761
 20
3.5062387482
 30
0.0
 10
2.4898558897
 20
3.5108054657
 30
0.0
 10
2.4865872328
 20
3.5156869987
 30
0.0
 10
2.4837726773
 20
3.5208440794
 30
0.0
 10
2.4814361565
 20
3.5262349343
 30
0.0
 10
2.479597681
 20
3.5318155034
 30
0.0
 10
2.4782730175
 20
3.5375401847
 30
0.0
 10
2.4774736403
 20
3.5433610937
 30
0.0
 10
2.4772954711
 20
3.5472753592
 30
0.0
 10
2.4772954289
 20
3.549231311
 30
0.0
  0
SPLINE
  5
31D
100
AcDbEntity
  8
0
100
AcDbSpline
 62
7
  6
CONTINUOUS
 70
0
 71
3
 72
35
 73
31
 74
0
 42
0.0000001
 43
0.0000001
 44
0.0000000001
 40
0.0
 40
0.0
 40
0.0
 40
0.0
 40
0.0981358546
 40
0.1953042053
 40
0.2905494187
 40
0.3829373354
 40
0.4715673977
 40
0.5555812678
 40
0.634172856
 40
0.7065946908
 40
0.7721667529
 40
0.8302810592
 40
0.8563725607
 40
0.8804076586
 40
0.9023323737
 40
0.9220997872
 40
0.9396671779
 40
0.9550001552
 40
0.9680698832
 40
0.9788580398
 40
0.9833938821
 40
0.9873586506
 40
0.9907558191
 40
0.9935921877
 40
0.9958813418
 40
0.9976519972
 40
0.9983621875
 40
0.9989729576
 40
0.9995075115
 40
1.0
 40
1.0
 40
1.0
 40
1.0
 10
3.280619719
 20
3.549231311
 30
0.0
 10
3.2806197235
 20
3.5470984496
 30
0.0
 10
3.2806128829
 20
3.5428537501
 30
0.0
 10
3.2805804452
 20
3.5365390886
 30
0.0
 10
3.2805268988
 20
3.5303494991
 30
0.0
 10
3.2804526893
 20
3.5243457037
 30
0.0
 10
3.2803578817
 20
3.5185863275
 30
0.0
 10
3.280243677
 20
3.5131272071
 30
0.0
 10
3.2801099522
 20
3.5080209046
 30
0.0
 10
3.2799586753
 20
3.5033160831
 30
0.0
 10
3.2797903077
 20
3.4990571984
 30
0.0
 10
3.279631968
 20
3.4958057444
 30
0.0
 10
3.2794955218
 20
3.4934572064
 30
0.0
 10
3.2793934187
 20
3.4918945761
 30
0.0
 10
3.2792879824
 20
3.4904699517
 30
0.0
 10
3.279179551
 20
3.4891865625
 30
0.0
 10
3.2790684426
 20
3.4880472614
 30
0.0
 10
3.2789549472
 20
3.4870545568
 30
0.0
 10
3.2788392399
 20
3.4862106153
 30
0.0
 10
3.2787366322
 20
3.4856019105
 30
0.0
 10
3.278651405
 20
3.4851913977
 30
0.0
 10
3.2785909004
 20
3.4849399309
 30
0.0
 10
3.2785301441
 20
3.4847267014
 30
0.0
 10
3.2784692047
 20
3.4845515873
 30
0.0
 10
3.2784081274
 20
3.4844145612
 30
0.0
 10
3.2783536573
 20
3.4843255297
 30
0.0
 10
3.2783083723
 20
3.4842755982
 30
0.0
 10
3.2782765372
 20
3.4842504417
 30
0.0
 10
3.2782441012
 20
3.4842349118
 30
0.0
 10
3.2782216635
 20
3.4842313174
 30
0.0
 10
3.2782109599
 20
3.484231311
 30
0.0
  0
SPLINE
  5
31E
100
AcDbEntity
  8
0
100
AcDbSpline
 62
7
  6
CONTINUOUS
 70
0
 71
3
 72
35
 73
31
 74
0
 42
0.0000001
 43
0.0000001
 44
0.0000000001
 40
0.0
 40
0.0
 40
0.0
 40
0.0
 40
0.0981358438
 40
0.1953041852
 40
0.2905494017
 40
0.3829373117
 40
0.4715673738
 40
0.555581237
 40
0.6341728197
 40
0.706594661
 40
0.772166708
 40
0.8302810333
 40
0.8563725307
 40
0.8804076201
 40
0.9023323344
 40
0.9220997535
 40
0.9396671519
 40
0.9550001354
 40
0.9680698631
 40
0.978858011
 40
0.9833938464
 40
0.987358609
 40
0.9907557751
 40
0.993592147
 40
0.9958813096
 40
0.9976519729
 40
0.998362166
 40
0.9989729391
 40
0.9995074986
 40
1.0
 40
1.0
 40
1.0
 40
1.0
 10
3.0558022007
 20
3.549231311
 30
0.0
 10
3.0558021962
 20
3.5470984497
 30
0.0
 10
3.0558090289
 20
3.5428537506
 30
0.0
 10
3.0558414602
 20
3.5365390892
 30
0.0
 10
3.0558950308
 20
3.5303495
 30
0.0
 10
3.0559692274
 20
3.5243457043
 30
0.0
 10
3.0560640441
 20
3.5185863284
 30
0.0
 10
3.0561782426
 20
3.513127208
 30
0.0
 10
3.0563119588
 20
3.5080209051
 30
0.0
 10
3.0564632534
 20
3.5033160844
 30
0.0
 10
3.0566315972
 20
3.4990571984
 30
0.0
 10
3.0567899601
 20
3.4958057455
 30
0.0
 10
3.0569264011
 20
3.493457207
 30
0.0
 10
3.0570284979
 20
3.4918945764
 30
0.0
 10
3.0571339333
 20
3.490469952
 30
0.0
 10
3.057242367
 20
3.4891865627
 30
0.0
 10
3.0573534792
 20
3.4880472615
 30
0.0
 10
3.0574669774
 20
3.4870545569
 30
0.0
 10
3.0575826837
 20
3.4862106153
 30
0.0
 10
3.0576852892
 20
3.4856019105
 30
0.0
 10
3.0577705152
 20
3.4851913979
 30
0.0
 10
3.0578310191
 20
3.4849399312
 30
0.0
 10
3.0578917749
 20
3.4847267017
 30
0.0
 10
3.0579527138
 20
3.4845515872
 30
0.0
 10
3.0580137904
 20
3.4844145604
 30
0.0
 10
3.0580682601
 20
3.4843255281
 30
0.0
 10
3.0581135453
 20
3.4842755964
 30
0.0
 10
3.0581453809
 20
3.48425044
 30
0.0
 10
3.0581778177
 20
3.4842349106
 30
0.0
 10
3.058200256
 20
3.484231317
 30
0.0
 10
3.0582109599
 20
3.484231311
 30
0.0
  0
SPLINE
  5
31F
100
AcDbEntity
  8
0
100
AcDbSpline
 62
7
  6
CONTINUOUS
 70
0
 71
3
 72
35
 73
31
 74
0
 42
0.0000001
 43
0.0000001
 44
0.0000000001
 40
0.0
 40
0.0
 40
0.0
 40
0.0
 40
0.0004924219
 40
0.0010269303
 40
0.0016376709
 40
0.0023478421
 40
0.0041184783
 40
0.00640763
 40
0.009244013
 40
0.0126412063
 40
0.0166060018
 40
0.0211418666
 40
0.0319300442
 40
0.044999768
 40
0.0603327261
 40
0.0779001027
 40
0.0976675196
 40
0.1195922554
 40
0.1436273803
 40
0.1697188792
 40
0.2278330832
 40
0.2934052172
 40
0.3658270211
 40
0.4444186072
 40
0.5284325528
 40
0.6170626313
 40
0.7094505706
 40
0.8046958309
 40
0.9018641722
 40
1.0
 40
1.0
 40
1.0
 40
1.0
 10
3.2782109599
 20
3.834231311
 30
0.0
 10
3.2782216621
 20
3.834231304
 30
0.0
 10
3.2782440971
 20
3.8342277085
 30
0.0
 10
3.2782765292
 20
3.8342121779
 30
0.0
 10
3.2783083616
 20
3.8341870212
 30
0.0
 10
3.2783536443
 20
3.8341370898
 30
0.0
 10
3.2784081138
 20
3.8340480592
 30
0.0
 10
3.2784691931
 20
3.8339110342
 30
0.0
 10
3.2785301367
 20
3.8337359208
 30
0.0
 10
3.2785908983
 20
3.8335226913
 30
0.0
 10
3.2786514084
 20
3.8332712242
 30
0.0
 10
3.2787366425
 20
3.8328607113
 30
0.0
 10
3.2788392538
 20
3.8322520062
 30
0.0
 10
3.2789549583
 20
3.8314080644
 30
0.0
 10
3.2790684437
 20
3.8304153595
 30
0.0
 10
3.2791795439
 20
3.8292760585
 30
0.0
 10
3.2792879788
 20
3.8279926696
 30
0.0
 10
3.2793934279
 20
3.8265680452
 30
0.0
 10
3.2794955507
 20
3.8250054154
 30
0.0
 10
3.2796320016
 20
3.8226568794
 30
0.0
 10
3.2797902387
 20
3.8194054217
 30
0.0
 10
3.2799587242
 20
3.8151465438
 30
0.0
 10
3.2801099311
 20
3.8104417193
 30
0.0
 10
3.2802436343
 20
3.8053354162
 30
0.0
 10
3.2803579048
 20
3.7998762958
 30
0.0
 10
3.2804526684
 20
3.794116917
 30
0.0
 10
3.2805268648
 20
3.7881131203
 30
0.0
 10
3.2805804908
 20
3.781923531
 30
0.0
 10
3.2806129111
 20
3.7756088697
 30
0.0
 10
3.2806197226
 20
3.7713641715
 30
0.0
 10
3.280619719
 20
3.769231311
 30
0.0
  0
SPLINE
  5
320
100
AcDbEntity
  8
0
100
AcDbSpline
 62
7
  6
CONTINUOUS
 70
0
 71
3
 72
35
 73
31
 74
0
 42
0.0000001
 43
0.0000001
 44
0.0000000001
 40
0.0
 40
0.0
 40
0.0
 40
0.0
 40
0.0004924393
 40
0.0010269625
 40
0.0016377137
 40
0.0023478914
 40
0.0041185305
 40
0.0064076768
 40
0.0092440511
 40
0.0126412357
 40
0.0166060241
 40
0.0211418843
 40
0.0319300588
 40
0.044999784
 40
0.0603327453
 40
0.0779001221
 40
0.0976675339
 40
0.1195922668
 40
0.1436273973
 40
0.1697188994
 40
0.2278330854
 40
0.2934052295
 40
0.3658270229
 40
0.4444186041
 40
0.5284325584
 40
0.6170626264
 40
0.7094505712
 40
0.8046958379
 40
0.9018641787
 40
1.0
 40
1.0
 40
1.0
 40
1.0
 10
3.0582109599
 20
3.834231311
 30
0.0
 10
3.0582002573
 20
3.8342313039
 30
0.0
 10
3.0581778216
 20
3.8342277081
 30
0.0
 10
3.0581453885
 20
3.8342121774
 30
0.0
 10
3.0581135553
 20
3.8341870207
 30
0.0
 10
3.0580682717
 20
3.8341370895
 30
0.0
 10
3.0580138016
 20
3.8340480592
 30
0.0
 10
3.0579527224
 20
3.8339110343
 30
0.0
 10
3.0578917802
 20
3.8337359209
 30
0.0
 10
3.0578310205
 20
3.8335226915
 30
0.0
 10
3.0577705123
 20
3.8332712243
 30
0.0
 10
3.0576852805
 20
3.8328607112
 30
0.0
 10
3.0575826694
 20
3.8322520063
 30
0.0
 10
3.0574669632
 20
3.8314080647
 30
0.0
 10
3.0573534756
 20
3.83041536
 30
0.0
 10
3.0572423745
 20
3.829276059
 30
0.0
 10
3.0571339422
 20
3.82799267
 30
0.0
 10
3.0570284946
 20
3.8265680456
 30
0.0
 10
3.0569263669
 20
3.8250054159
 30
0.0
 10
3.0567899111
 20
3.8226568803
 30
0.0
 10
3.0566316934
 20
3.8194054217
 30
0.0
 10
3.0564631856
 20
3.815146545
 30
0.0
 10
3.0563119907
 20
3.81044172
 30
0.0
 10
3.0561782892
 20
3.805335417
 30
0.0
 10
3.0560640013
 20
3.7998762969
 30
0.0
 10
3.0559692647
 20
3.7941169174
 30
0.0
 10
3.055895059
 20
3.7881131207
 30
0.0
 10
3.0558414266
 20
3.781923531
 30
0.0
 10
3.0558090071
 20
3.7756088696
 30
0.0
 10
3.0558021977
 20
3.7713641714
 30
0.0
 10
3.0558022007
 20
3.769231311
 30
0.0
  0
SPLINE
  5
321
100
AcDbEntity
  8
0
100
AcDbSpline
 62
7
  6
CONTINUOUS
 70
0
 71
3
 72
42
 73
38
 74
0
 42
0.0000001
 43
0.0000001
 44
0.0000000001
 40
0.0
 40
0.0
 40
0.0
 40
0.0
 40
0.0033359677
 40
0.0067713684
 40
0.0103972327
 40
0.0142909168
 40
0.0185143768
 40
0.0231156535
 40
0.0281312164
 40
0.0335881604
 40
0.039506737
 40
0.0459018585
 40
0.0527841096
 40
0.0601611228
 40
0.0680379955
 40
0.0764176343
 40
0.0853015703
 40
0.0946898988
 40
0.1149733618
 40
0.1372498762
 40
0.1491263644
 40
0.1614884664
 40
0.1876467189
 40
0.2156758489
 40
0.2455194734
 40
0.277114747
 40
0.3103933016
 40
0.3452816614
 40
0.3817014094
 40
0.419569837
 40
0.458800282
 40
0.54098077
 40
0.6274806148
 40
0.7174907768
 40
0.8101658611
 40
0.9046319561
 40
1.0
 40
1.0
 40
1.0
 40
1.0
 10
4.8982109599
 20
5.1947000934
 30
0.0
 10
4.8982109599
 20
5.1950086798
 30
0.0
 10
4.8982671473
 20
5.1956363722
 30
0.0
 10
4.8985177249
 20
5.1965692882
 30
0.0
 10
4.8989329262
 20
5.1974978322
 30
0.0
 10
4.8995107232
 20
5.1984211568
 30
0.0
 10
4.9002495691
 20
5.1993396674
 30
0.0
 10
4.9011486039
 20
5.2002536448
 30
0.0
 10
4.9022072589
 20
5.2011632138
 30
0.0
 10
4.9034249825
 20
5.2020683568
 30
0.0
 10
4.9048012512
 20
5.202968805
 30
0.0
 10
4.9063354235
 20
5.2038641771
 30
0.0
 10
4.9080267066
 20
5.2047540826
 30
0.0
 10
4.9098742252
 20
5.2056380102
 30
0.0
 10
4.911876968
 20
5.2065154479
 30
0.0
 10
4.9140337946
 20
5.2073859076
 30
0.0
 10
4.916343476
 20
5.2082488608
 30
0.0
 10
4.9197128193
 20
5.2094190958
 30
0.0
 10
4.924301452
 20
5.2108502882
 30
0.0
 10
4.9291574637
 20
5.2121858186
 30
0.0
 10
4.9333293303
 20
5.2132395304
 30
0.0
 10
4.937864094
 20
5.21432115
 30
0.0
 10
4.9438782797
 20
5.2156377132
 30
0.0
 10
4.9515053554
 20
5.2171397954
 30
0.0
 10
4.959654028
 20
5.2185885963
 30
0.0
 10
4.9683047331
 20
5.2199805591
 30
0.0
 10
4.9774367317
 20
5.2213122282
 30
0.0
 10
4.9870280876
 20
5.2225803136
 30
0.0
 10
4.9970557392
 20
5.2237817069
 30
0.0
 10
5.0074955694
 20
5.224913495
 30
0.0
 10
5.02215956
 20
5.2263482
 30
0.0
 10
5.0413273788
 20
5.2279368563
 30
0.0
 10
5.0652069197
 20
5.2294997835
 30
0.0
 10
5.0900777814
 20
5.2307317298
 30
0.0
 10
5.1157005412
 20
5.231620515
 30
0.0
 10
5.1418287218
 20
5.2321573341
 30
0.0
 10
5.1593891495
 20
5.2322768307
 30
0.0
 10
5.1682109599
 20
5.2322768307
 30
0.0
  0
SPLINE
  5
322
100
AcDbEntity
  8
0
100
AcDbSpline
 62
7
  6
CONTINUOUS
 70
0
 71
3
 72
42
 73
38
 74
0
 42
0.0000001
 43
0.0000001
 44
0.0000000001
 40
0.0
 40
0.0
 40
0.0
 40
0.0
 40
0.0953681247
 40
0.1898340685
 40
0.2825092427
 40
0.3725193943
 40
0.4590192023
 40
0.541199736
 40
0.5804301229
 40
0.6182986101
 40
0.6547183625
 40
0.6896066484
 40
0.7228852748
 40
0.7544805547
 40
0.7843240982
 40
0.8123533021
 40
0.8385115622
 40
0.8508736554
 40
0.8627500758
 40
0.8850266557
 40
0.9053101261
 40
0.9146984451
 40
0.9235823293
 40
0.9319620256
 40
0.9398388898
 40
0.9472158616
 40
0.9540981575
 40
0.9604932727
 40
0.9664118194
 40
0.9718687935
 40
0.9768843533
 40
0.9814856121
 40
0.9857090865
 40
0.9896027711
 40
0.993228629
 40
0.9966640317
 40
1.0
 40
1.0
 40
1.0
 40
1.0
 10
5.1682109599
 20
5.3885384406
 30
0.0
 10
5.1610636538
 20
5.3885384406
 30
0.0
 10
5.1468364608
 20
5.3884416274
 30
0.0
 10
5.1256677947
 20
5.3880067007
 30
0.0
 10
5.1049086198
 20
5.3872866235
 30
0.0
 10
5.0847586128
 20
5.3862885207
 30
0.0
 10
5.0654117635
 20
5.3850222517
 30
0.0
 10
5.0498822834
 20
5.3837351576
 30
0.0
 10
5.0380017331
 20
5.3825727697
 30
0.0
 10
5.0295435361
 20
5.3816558195
 30
0.0
 10
5.021419282
 20
5.3806824692
 30
0.0
 10
5.0136485087
 20
5.3796550758
 30
0.0
 10
5.0062498972
 20
5.3785761861
 30
0.0
 10
4.9992412241
 20
5.3774484396
 30
0.0
 10
4.9926392924
 20
5.3762746316
 30
0.0
 10
4.9864599465
 20
5.375057678
 30
0.0
 10
4.9815873377
 20
5.3739910137
 30
0.0
 10
4.9779133437
 20
5.3731147052
 30
0.0
 10
4.9745333631
 20
5.3722609922
 30
0.0
 10
4.9705990905
 20
5.371178978
 30
0.0
 10
4.9668814449
 20
5.3700194418
 30
0.0
 10
4.9641516556
 20
5.3690713388
 30
0.0
 10
4.9622803904
 20
5.3683721764
 30
0.0
 10
4.9605329573
 20
5.3676669538
 30
0.0
 10
4.9589103644
 20
5.3669560656
 30
0.0
 10
4.9574135372
 20
5.3662399113
 30
0.0
 10
4.9560432798
 20
5.3655189332
 30
0.0
 10
4.9548003157
 20
5.3647935148
 30
0.0
 10
4.9536852893
 20
5.364063977
 30
0.0
 10
4.9526987018
 20
5.3633306521
 30
0.0
 10
4.9518409946
 20
5.3625937316
 30
0.0
 10
4.9511126168
 20
5.3618532351
 30
0.0
 10
4.9505140088
 20
5.3611090768
 30
0.0
 10
4.9500458853
 20
5.3603610122
 30
0.0
 10
4.9497095012
 20
5.3596087174
 30
0.0
 10
4.9495064839
 20
5.3588528842
 30
0.0
 10
4.9494609599
 20
5.3583443369
 30
0.0
 10
4.9494609599
 20
5.3580943248
 30
0.0
  0
SPLINE
  5
323
100
AcDbEntity
  8
0
100
AcDbSpline
 62
7
  6
CONTINUOUS
 70
0
 71
3
 72
42
 73
38
 74
0
 42
0.0000001
 43
0.0000001
 44
0.0000000001
 40
0.0
 40
0.0
 40
0.0
 40
0.0
 40
0.0033359683
 40
0.006771371
 40
0.0103972289
 40
0.0142909135
 40
0.0185143879
 40
0.0231156467
 40
0.0281312065
 40
0.0335881806
 40
0.0395067273
 40
0.0459018425
 40
0.0527841384
 40
0.0601611102
 40
0.0680379744
 40
0.0764176707
 40
0.0853015549
 40
0.0946898739
 40
0.1149733443
 40
0.1372499242
 40
0.1491263446
 40
0.1614884378
 40
0.1876466979
 40
0.2156759018
 40
0.2455194453
 40
0.2771147252
 40
0.3103933516
 40
0.3452816375
 40
0.3817013899
 40
0.4195698771
 40
0.458800264
 40
0.5409807977
 40
0.6274806057
 40
0.7174907573
 40
0.8101659315
 40
0.9046318753
 40
1.0
 40
1.0
 40
1.0
 40
1.0
 10
5.3869609599
 20
5.3580943248
 30
0.0
 10
5.3869609599
 20
5.3583443369
 30
0.0
 10
5.3869154358
 20
5.3588528842
 30
0.0
 10
5.3867124185
 20
5.3596087174
 30
0.0
 10
5.3863760345
 20
5.3603610122
 30
0.0
 10
5.385907911
 20
5.3611090768
 30
0.0
 10
5.385309303
 20
5.3618532351
 30
0.0
 10
5.3845809251
 20
5.3625937316
 30
0.0
 10
5.383723218
 20
5.3633306521
 30
0.0
 10
5.3827366305
 20
5.364063977
 30
0.0
 10
5.381621604
 20
5.3647935148
 30
0.0
 10
5.3803786399
 20
5.3655189332
 30
0.0
 10
5.3790083825
 20
5.3662399113
 30
0.0
 10
5.3775115553
 20
5.3669560656
 30
0.0
 10
5.3758889624
 20
5.3676669538
 30
0.0
 10
5.3741415293
 20
5.3683721764
 30
0.0
 10
5.3722702641
 20
5.3690713388
 30
0.0
 10
5.3695404748
 20
5.3700194418
 30
0.0
 10
5.3658228293
 20
5.371178978
 30
0.0
 10
5.3618885567
 20
5.3722609922
 30
0.0
 10
5.358508576
 20
5.3731147052
 30
0.0
 10
5.354834582
 20
5.3739910137
 30
0.0
 10
5.3499619733
 20
5.375057678
 30
0.0
 10
5.3437826273
 20
5.3762746316
 30
0.0
 10
5.3371806957
 20
5.3774484396
 30
0.0
 10
5.3301720225
 20
5.3785761861
 30
0.0
 10
5.3227734111
 20
5.3796550758
 30
0.0
 10
5.3150026377
 20
5.3806824692
 30
0.0
 10
5.3068783836
 20
5.3816558195
 30
0.0
 10
5.2984201866
 20
5.3825727697
 30
0.0
 10
5.2865396363
 20
5.3837351576
 30
0.0
 10
5.2710101563
 20
5.3850222517
 30
0.0
 10
5.2516633069
 20
5.3862885207
 30
0.0
 10
5.2315133
 20
5.3872866235
 30
0.0
 10
5.2107541251
 20
5.3880067007
 30
0.0
 10
5.1895854589
 20
5.3884416274
 30
0.0
 10
5.1753582659
 20
5.3885384406
 30
0.0
 10
5.1682109599
 20
5.3885384406
 30
0.0
  0
SPLINE
  5
324
100
AcDbEntity
  8
0
100
AcDbSpline
 62
7
  6
CONTINUOUS
 70
0
 71
3
 72
29
 73
25
 74
0
 42
0.0000001
 43
0.0000001
 44
0.0000000001
 40
0.0
 40
0.0
 40
0.0
 40
0.0
 40
0.086571984
 40
0.1725135192
 40
0.2571998952
 40
0.340015421
 40
0.4203597523
 40
0.4976520585
 40
0.5713361387
 40
0.6408853553
 40
0.7058075997
 40
0.7656507439
 40
0.7935394496
 40
0.8200103061
 40
0.8450208226
 40
0.8685328881
 40
0.8905124777
 40
0.9109309463
 40
0.9297652298
 40
0.9469996044
 40
0.9626269582
 40
0.9766519531
 40
0.9890950436
 40
1.0
 40
1.0
 40
1.0
 40
1.0
 10
5.1682109599
 20
4.8063410037
 30
0.0
 10
5.1641937269
 20
4.8063410037
 30
0.0
 10
5.1561884318
 20
4.8063888707
 30
0.0
 10
5.1442551453
 20
4.8066039927
 30
0.0
 10
5.1324996127
 20
4.8069607153
 30
0.0
 10
5.1210090655
 20
4.8074563358
 30
0.0
 10
5.1098687549
 20
4.8080870859
 30
0.0
 10
5.099161302
 20
4.8088481589
 30
0.0
 10
5.0889660991
 20
4.809733741
 30
0.0
 10
5.0793586574
 20
4.8107369966
 30
0.0
 10
5.0704101572
 20
4.8118502437
 30
0.0
 10
5.0634016315
 20
4.8128850384
 30
0.0
 10
5.058176295
 20
4.813768894
 30
0.0
 10
5.0545544343
 20
4.8144382868
 30
0.0
 10
5.0511434428
 20
4.8151285549
 30
0.0
 10
5.0479496075
 20
4.8158383756
 30
0.0
 10
5.0449787876
 20
4.8165664039
 30
0.0
 10
5.0422364027
 20
4.81731121
 30
0.0
 10
5.0397274079
 20
4.8180713695
 30
0.0
 10
5.0374562456
 20
4.8188453877
 30
0.0
 10
5.0354268558
 20
4.819631776
 30
0.0
 10
5.03364243
 20
4.820429101
 30
0.0
 10
5.0321058654
 20
4.8212358696
 30
0.0
 10
5.0311889155
 20
4.8218166282
 30
0.0
 10
5.0307776331
 20
4.8221114333
 30
0.0
  0
SPLINE
  5
325
100
AcDbEntity
  8
0
100
AcDbSpline
 62
7
  6
CONTINUOUS
 70
0
 71
3
 72
23
 73
19
 74
0
 42
0.0000001
 43
0.0000001
 44
0.0000000001
 40
0.0
 40
0.0
 40
0.0
 40
0.0
 40
0.1240662595
 40
0.2478963243
 40
0.3716253099
 40
0.4335275664
 40
0.4954848072
 40
0.5575346984
 40
0.6197286307
 40
0.6821247993
 40
0.744802652
 40
0.8078463589
 40
0.8395742373
 40
0.8714317483
 40
0.9034188164
 40
0.9355323845
 40
0.9677397412
 40
1.0
 40
1.0
 40
1.0
 40
1.0
 10
2.5549654063
 20
3.534231311
 30
0.0
 10
2.5533490246
 20
3.5342313111
 30
0.0
 10
2.5501186875
 20
3.5342928222
 30
0.0
 10
2.5452864457
 20
3.5346311728
 30
0.0
 10
2.5412879679
 20
3.5351845183
 30
0.0
 10
2.5381293672
 20
3.535844918
 30
0.0
 10
2.5357872661
 20
3.5364676588
 30
0.0
 10
2.5334853232
 20
3.5372393109
 30
0.0
 10
2.5312425688
 20
3.53818596
 30
0.0
 10
2.5290872897
 20
3.5393385079
 30
0.0
 10
2.5270658104
 20
3.540734776
 30
0.0
 10
2.525550832
 20
3.5421324278
 30
0.0
 10
2.5244986695
 20
3.5434060887
 30
0.0
 10
2.5238039798
 20
3.5444423077
 30
0.0
 10
2.5232286134
 20
3.5455556008
 30
0.0
 10
2.5227959794
 20
3.5467372306
 30
0.0
 10
2.5225244483
 20
3.5479698346
 30
0.0
 10
2.5224627648
 20
3.5488110122
 30
0.0
 10
2.5224626983
 20
3.549231311
 30
0.0
  0
SPLINE
  5
326
100
AcDbEntity
  8
0
100
AcDbSpline
 62
7
  6
CONTINUOUS
 70
0
 71
3
 72
24
 73
20
 74
0
 42
0.0000001
 43
0.0000001
 44
0.0000000001
 40
0.0
 40
0.0
 40
0.0
 40
0.0
 40
0.0322586855
 40
0.0644636263
 40
0.0965759724
 40
0.1285618012
 40
0.1604155603
 40
0.1921393688
 40
0.2237420038
 40
0.2552362343
 40
0.3179065202
 40
0.3803025116
 40
0.4424917251
 40
0.5045389078
 40
0.5664934091
 40
0.6283920296
 40
0.7521153668
 40
0.875939648
 40
1.0
 40
1.0
 40
1.0
 40
1.0
 10
3.8139592214
 20
3.549231311
 30
0.0
 10
3.8139591406
 20
3.5488110122
 30
0.0
 10
3.8138974888
 20
3.5479698311
 30
0.0
 10
3.8136255967
 20
3.5467373212
 30
0.0
 10
3.8131932912
 20
3.5455555998
 30
0.0
 10
3.8126181216
 20
3.5444421977
 30
0.0
 10
3.8119232709
 20
3.543406172
 30
0.0
 10
3.8111318059
 20
3.5424491007
 30
0.0
 10
3.8102614997
 20
3.5415701615
 30
0.0
 10
3.8090181653
 20
3.5405006476
 30
0.0
 10
3.8073340259
 20
3.5393388649
 30
0.0
 10
3.80517961
 20
3.538185697
 30
0.0
 10
3.8029365356
 20
3.5372393985
 30
0.0
 10
3.8006346665
 20
3.536467724
 30
0.0
 10
3.798292587
 20
3.535844845
 30
0.0
 10
3.795133954
 20
3.5351846084
 30
0.0
 10
3.791135496
 20
3.5346311497
 30
0.0
 10
3.7863032376
 20
3.5342928319
 30
0.0
 10
3.7830728967
 20
3.534231311
 30
0.0
 10
3.7814565131
 20
3.534231311
 30
0.0
  0
SPLINE
  5
327
100
AcDbEntity
  8
0
100
AcDbSpline
 62
7
  6
CONTINUOUS
 70
0
 71
3
 72
42
 73
38
 74
0
 42
0.0000001
 43
0.0000001
 44
0.0000000001
 40
0.0
 40
0.0
 40
0.0
 40
0.0
 40
0.0953680439
 40
0.1898341389
 40
0.2825092232
 40
0.3725193852
 40
0.45901923
 40
0.541199718
 40
0.580430163
 40
0.6182985906
 40
0.6547183386
 40
0.6896066984
 40
0.722885253
 40
0.7544805266
 40
0.7843241511
 40
0.8123532811
 40
0.8385115336
 40
0.8508736356
 40
0.8627501238
 40
0.8850266382
 40
0.9053101012
 40
0.9146984297
 40
0.9235823657
 40
0.9319620045
 40
0.9398388772
 40
0.9472158904
 40
0.9540981415
 40
0.960493263
 40
0.9664118396
 40
0.9718687836
 40
0.9768843465
 40
0.9814856232
 40
0.9857090832
 40
0.9896027673
 40
0.9932286316
 40
0.9966640323
 40
1.0
 40
1.0
 40
1.0
 40
1.0
 10
5.1682109599
 20
5.2322768307
 30
0.0
 10
5.1770327702
 20
5.2322768307
 30
0.0
 10
5.1945931979
 20
5.2321573341
 30
0.0
 10
5.2207213786
 20
5.231620515
 30
0.0
 10
5.2463441383
 20
5.2307317298
 30
0.0
 10
5.271215
 20
5.2294997835
 30
0.0
 10
5.295094541
 20
5.2279368563
 30
0.0
 10
5.3142623598
 20
5.2263482
 30
0.0
 10
5.3289263503
 20
5.224913495
 30
0.0
 10
5.3393661806
 20
5.2237817069
 30
0.0
 10
5.3493938322
 20
5.2225803136
 30
0.0
 10
5.3589851881
 20
5.2213122282
 30
0.0
 10
5.3681171867
 20
5.2199805591
 30
0.0
 10
5.3767678918
 20
5.2185885963
 30
0.0
 10
5.3849165644
 20
5.2171397954
 30
0.0
 10
5.3925436401
 20
5.2156377132
 30
0.0
 10
5.3985578257
 20
5.21432115
 30
0.0
 10
5.4030925895
 20
5.2132395304
 30
0.0
 10
5.407264456
 20
5.2121858186
 30
0.0
 10
5.4121204678
 20
5.2108502882
 30
0.0
 10
5.4167091005
 20
5.2094190958
 30
0.0
 10
5.4200784438
 20
5.2082488608
 30
0.0
 10
5.4223881251
 20
5.2073859076
 30
0.0
 10
5.4245449517
 20
5.2065154479
 30
0.0
 10
5.4265476946
 20
5.2056380102
 30
0.0
 10
5.4283952132
 20
5.2047540826
 30
0.0
 10
5.4300864962
 20
5.2038641771
 30
0.0
 10
5.4316206685
 20
5.202968805
 30
0.0
 10
5.4329969372
 20
5.2020683568
 30
0.0
 10
5.4342146609
 20
5.2011632138
 30
0.0
 10
5.4352733159
 20
5.2002536448
 30
0.0
 10
5.4361723506
 20
5.1993396674
 30
0.0
 10
5.4369111966
 20
5.1984211568
 30
0.0
 10
5.4374889935
 20
5.1974978322
 30
0.0
 10
5.4379041948
 20
5.1965692882
 30
0.0
 10
5.4381547724
 20
5.1956363722
 30
0.0
 10
5.4382109599
 20
5.1950086798
 30
0.0
 10
5.4382109599
 20
5.1947000934
 30
0.0
  0
SPLINE
  5
328
100
AcDbEntity
  8
0
100
AcDbSpline
 62
7
  6
CONTINUOUS
 70
0
 71
3
 72
42
 73
38
 74
0
 42
0.0000001
 43
0.0000001
 44
0.0000000001
 40
0.0
 40
0.0
 40
0.0
 40
0.0
 40
0.0953680439
 40
0.1898341389
 40
0.2825092232
 40
0.3725193852
 40
0.45901923
 40
0.541199718
 40
0.580430163
 40
0.6182985906
 40
0.6547183386
 40
0.6896066984
 40
0.722885253
 40
0.7544805266
 40
0.7843241511
 40
0.8123532811
 40
0.8385115336
 40
0.8508736356
 40
0.8627501238
 40
0.8850266382
 40
0.9053101012
 40
0.9146984297
 40
0.9235823657
 40
0.9319620045
 40
0.9398388772
 40
0.9472158904
 40
0.9540981415
 40
0.960493263
 40
0.9664118396
 40
0.9718687836
 40
0.9768843465
 40
0.9814856232
 40
0.9857090832
 40
0.9896027673
 40
0.9932286316
 40
0.9966640323
 40
1.0
 40
1.0
 40
1.0
 40
1.0
 10
5.1682109599
 20
5.2124714693
 30
0.0
 10
5.1770327702
 20
5.2124714693
 30
0.0
 10
5.1945931979
 20
5.2123519728
 30
0.0
 10
5.2207213786
 20
5.2118151537
 30
0.0
 10
5.2463441383
 20
5.2109263684
 30
0.0
 10
5.271215
 20
5.2096944222
 30
0.0
 10
5.295094541
 20
5.2081314949
 30
0.0
 10
5.3142623598
 20
5.2065428386
 30
0.0
 10
5.3289263503
 20
5.2051081336
 30
0.0
 10
5.3393661806
 20
5.2039763455
 30
0.0
 10
5.3493938322
 20
5.2027749523
 30
0.0
 10
5.3589851881
 20
5.2015068668
 30
0.0
 10
5.3681171867
 20
5.2001751978
 30
0.0
 10
5.3767678918
 20
5.1987832349
 30
0.0
 10
5.3849165644
 20
5.197334434
 30
0.0
 10
5.3925436401
 20
5.1958323519
 30
0.0
 10
5.3985578257
 20
5.1945157886
 30
0.0
 10
5.4030925895
 20
5.1934341691
 30
0.0
 10
5.407264456
 20
5.1923804572
 30
0.0
 10
5.4121204678
 20
5.1910449269
 30
0.0
 10
5.4167091005
 20
5.1896137344
 30
0.0
 10
5.4200784438
 20
5.1884434994
 30
0.0
 10
5.4223881251
 20
5.1875805462
 30
0.0
 10
5.4245449517
 20
5.1867100865
 30
0.0
 10
5.4265476946
 20
5.1858326489
 30
0.0
 10
5.4283952132
 20
5.1849487212
 30
0.0
 10
5.4300864962
 20
5.1840588157
 30
0.0
 10
5.4316206685
 20
5.1831634436
 30
0.0
 10
5.4329969372
 20
5.1822629954
 30
0.0
 10
5.4342146609
 20
5.1813578524
 30
0.0
 10
5.4352733159
 20
5.1804482834
 30
0.0
 10
5.4361723506
 20
5.1795343061
 30
0.0
 10
5.4369111966
 20
5.1786157954
 30
0.0
 10
5.4374889935
 20
5.1776924709
 30
0.0
 10
5.4379041948
 20
5.1767639268
 30
0.0
 10
5.4381547724
 20
5.1758310108
 30
0.0
 10
5.4382109599
 20
5.1752033184
 30
0.0
 10
5.4382109599
 20
5.1748947321
 30
0.0
  0
SPLINE
  5
329
100
AcDbEntity
  8
0
100
AcDbSpline
 62
7
  6
CONTINUOUS
 70
0
 71
3
 72
24
 73
20
 74
0
 42
0.0000001
 43
0.0000001
 44
0.0000000001
 40
0.0
 40
0.0
 40
0.0
 40
0.0
 40
0.0322590341
 40
0.0644651055
 40
0.0965778111
 40
0.1285636183
 40
0.1604192643
 40
0.1921454695
 40
0.2237465736
 40
0.2552390764
 40
0.3179097468
 40
0.3803075459
 40
0.4424952048
 40
0.5045429081
 40
0.5664974927
 40
0.6283938401
 40
0.7521181732
 40
0.8759399789
 40
1.0
 40
1.0
 40
1.0
 40
1.0
 10
2.5224626983
 20
3.769231311
 30
0.0
 10
2.5224627688
 20
3.7696516146
 30
0.0
 10
2.5225244449
 20
3.7704928061
 30
0.0
 10
2.5227961124
 20
3.7717253973
 30
0.0
 10
2.5232286403
 20
3.7729070719
 30
0.0
 10
2.523803939
 20
3.7740204348
 30
0.0
 10
2.5244987998
 20
3.7750565005
 30
0.0
 10
2.5252898504
 20
3.7760139667
 30
0.0
 10
2.5261603506
 20
3.7768927353
 30
0.0
 10
2.5274041112
 20
3.7779616777
 30
0.0
 10
2.5290880056
 20
3.7791237615
 30
0.0
 10
2.531242385
 20
3.7802770768
 30
0.0
 10
2.5334855137
 20
3.7812232716
 30
0.0
 10
2.5357873709
 20
3.7819949392
 30
0.0
 10
2.5381294179
 20
3.7826178723
 30
0.0
 10
2.5412880695
 20
3.7832779555
 30
0.0
 10
2.5452864582
 20
3.783831554
 30
0.0
 10
2.5501187101
 20
3.78416975
 30
0.0
 10
2.5533490139
 20
3.7842313059
 30
0.0
 10
2.5549653945
 20
3.784231311
 30
0.0
  0
SPLINE
  5
32A
100
AcDbEntity
  8
0
100
AcDbSpline
 62
7
  6
CONTINUOUS
 70
0
 71
3
 72
22
 73
18
 74
0
 42
0.0000001
 43
0.0000001
 44
0.0000000001
 40
0.0
 40
0.0
 40
0.0
 40
0.0
 40
0.1240762569
 40
0.2479169678
 40
0.3716555985
 40
0.433561609
 40
0.4955248451
 40
0.5575812535
 40
0.6197787415
 40
0.6821817018
 40
0.7448626548
 40
0.8079148128
 40
0.8714205226
 40
0.9034121355
 40
0.9355271123
 40
0.9677372564
 40
1.0
 40
1.0
 40
1.0
 40
1.0
 10
3.7814565131
 20
3.784231311
 30
0.0
 10
3.783072896
 20
3.7842313114
 30
0.0
 10
3.7863032432
 20
3.7841697997
 30
0.0
 10
3.7911354964
 20
3.7838314438
 30
0.0
 10
3.7951339485
 20
3.7832780259
 30
0.0
 10
3.7982925843
 20
3.7826178209
 30
0.0
 10
3.8006346773
 20
3.7819949373
 30
0.0
 10
3.8029365725
 20
3.7812231791
 30
0.0
 10
3.8051795384
 20
3.7802768009
 30
0.0
 10
3.8073343803
 20
3.7791238778
 30
0.0
 10
3.8093568859
 20
3.7777279024
 30
0.0
 10
3.8111751315
 20
3.7760488959
 30
0.0
 10
3.8124286083
 20
3.7743873076
 30
0.0
 10
3.813193127
 20
3.77290699
 30
0.0
 10
3.8136261307
 20
3.7717254117
 30
0.0
 10
3.813897454
 20
3.7704927819
 30
0.0
 10
3.8139591898
 20
3.7696516085
 30
0.0
 10
3.8139592214
 20
3.769231311
 30
0.0
  0
SPLINE
  5
32B
100
AcDbEntity
  8
0
100
AcDbSpline
 62
7
  6
CONTINUOUS
 70
0
 71
3
 72
77
 73
73
 74
0
 42
0.0000001
 43
0.0000001
 44
0.0000000001
 40
0.0
 40
0.0
 40
0.0
 40
0.0
 40
0.0476839206
 40
0.0949169685
 40
0.1412545278
 40
0.1862596136
 40
0.2295095434
 40
0.2705997992
 40
0.290215027
 40
0.3091492452
 40
0.3273591232
 40
0.344803308
 40
0.36144259
 40
0.3772402308
 40
0.3921620471
 40
0.4061766163
 40
0.4192557458
 40
0.4254367988
 40
0.4313750442
 40
0.4425133048
 40
0.452655039
 40
0.4573492047
 40
0.4617911736
 40
0.4659809943
 40
0.4699194318
 40
0.4736079392
 40
0.4770490658
 40
0.4802466274
 40
0.4832059163
 40
0.4859343891
 40
0.4884421711
 40
0.4907428099
 40
0.4928545404
 40
0.4948013828
 40
0.4966143153
 40
0.4983320159
 40
0.5
 40
0.5016679841
 40
0.5033856847
 40
0.5051986172
 40
0.5071454596
 40
0.5092571901
 40
0.5115578289
 40
0.5140656109
 40
0.5167940837
 40
0.5197533726
 40
0.5229509342
 40
0.5263920608
 40
0.5300805682
 40
0.5340190057
 40
0.5382088264
 40
0.5426507953
 40
0.547344961
 40
0.5574866952
 40
0.5686249558
 40
0.5745632012
 40
0.5807442542
 40
0.5938233837
 40
0.6078379529
 40
0.6227597692
 40
0.63855741
 40
0.655196692
 40
0.6726408768
 40
0.6908507548
 40
0.709784973
 40
0.7294002008
 40
0.7704904566
 40
0.8137403864
 40
0.8587454722
 40
0.9050830315
 40
0.9523160794
 40
1.0
 40
1.0
 40
1.0
 40
1.0
 10
5.1682109599
 20
4.7730064059
 30
0.0
 10
5.1598792678
 20
4.7730064059
 30
0.0
 10
5.1432944371
 20
4.7731192636
 30
0.0
 10
5.1186178366
 20
4.773626258
 30
0.0
 10
5.0944185596
 20
4.774465666
 30
0.0
 10
5.0709294073
 20
4.7756291703
 30
0.0
 10
5.0483765033
 20
4.7771052677
 30
0.0
 10
5.030273559
 20
4.7786056654
 30
0.0
 10
5.0164242308
 20
4.7799606644
 30
0.0
 10
5.0065643887
 20
4.7810295753
 30
0.0
 10
4.9970938265
 20
4.7821642246
 30
0.0
 10
4.9880353213
 20
4.7833618608
 30
0.0
 10
4.9794106536
 20
4.7846195483
 30
0.0
 10
4.971240541
 20
4.78593418
 30
0.0
 10
4.9635445703
 20
4.7873024921
 30
0.0
 10
4.956341219
 20
4.7887211252
 30
0.0
 10
4.9506611531
 20
4.7899645464
 30
0.0
 10
4.9463783194
 20
4.7909860759
 30
0.0
 10
4.9424382222
 20
4.7919812485
 30
0.0
 10
4.9378519875
 20
4.7932425826
 30
0.0
 10
4.9335182776
 20
4.7945942647
 30
0.0
 10
4.9303361191
 20
4.7956994867
 30
0.0
 10
4.9281547528
 20
4.7965144982
 30
0.0
 10
4.9261177492
 20
4.7973365991
 30
0.0
 10
4.9242262693
 20
4.7981652903
 30
0.0
 10
4.9224813901
 20
4.7990001111
 30
0.0
 10
4.9208840668
 20
4.7998405775
 30
0.0
 10
4.9194351258
 20
4.8006862067
 30
0.0
 10
4.9181353161
 20
4.8015366302
 30
0.0
 10
4.9169852434
 20
4.8023914877
 30
0.0
 10
4.9159854022
 20
4.8032505247
 30
0.0
 10
4.9151363137
 20
4.8041137274
 30
0.0
 10
4.9144385145
 20
4.8049812041
 30
0.0
 10
4.9138928172
 20
4.8058532518
 30
0.0
 10
4.9135006826
 20
4.806730147
 30
0.0
 10
4.9132640258
 20
4.8076114532
 30
0.0
 10
4.9131848165
 20
4.8084955466
 30
0.0
 10
4.9132640258
 20
4.8093796401
 30
0.0
 10
4.9135006826
 20
4.8102609463
 30
0.0
 10
4.9138928172
 20
4.8111378415
 30
0.0
 10
4.9144385145
 20
4.8120098891
 30
0.0
 10
4.9151363137
 20
4.8128773658
 30
0.0
 10
4.9159854022
 20
4.8137405685
 30
0.0
 10
4.9169852434
 20
4.8145996055
 30
0.0
 10
4.9181353161
 20
4.815454463
 30
0.0
 10
4.9194351258
 20
4.8163048865
 30
0.0
 10
4.9208840668
 20
4.8171505158
 30
0.0
 10
4.9224813901
 20
4.8179909822
 30
0.0
 10
4.9242262693
 20
4.818825803
 30
0.0
 10
4.9261177492
 20
4.8196544942
 30
0.0
 10
4.9281547528
 20
4.820476595
 30
0.0
 10
4.9303361191
 20
4.8212916066
 30
0.0
 10
4.9335182776
 20
4.8223968286
 30
0.0
 10
4.9378519875
 20
4.8237485106
 30
0.0
 10
4.9424382222
 20
4.8250098448
 30
0.0
 10
4.9463783194
 20
4.8260050174
 30
0.0
 10
4.9506611531
 20
4.8270265469
 30
0.0
 10
4.956341219
 20
4.8282699681
 30
0.0
 10
4.9635445703
 20
4.8296886012
 30
0.0
 10
4.971240541
 20
4.8310569132
 30
0.0
 10
4.9794106536
 20
4.832371545
 30
0.0
 10
4.9880353213
 20
4.8336292324
 30
0.0
 10
4.9970938265
 20
4.8348268687
 30
0.0
 10
5.0065643887
 20
4.8359615179
 30
0.0
 10
5.0164242308
 20
4.8370304289
 30
0.0
 10
5.030273559
 20
4.8383854279
 30
0.0
 10
5.0483765033
 20
4.8398858255
 30
0.0
 10
5.0709294073
 20
4.841361923
 30
0.0
 10
5.0944185596
 20
4.8425254273
 30
0.0
 10
5.1186178366
 20
4.8433648353
 30
0.0
 10
5.1432944371
 20
4.8438718297
 30
0.0
 10
5.1598792678
 20
4.8439846874
 30
0.0
 10
5.1682109599
 20
4.8439846874
 30
0.0
  0
SPLINE
  5
32C
100
AcDbEntity
  8
0
100
AcDbSpline
 62
7
  6
CONTINUOUS
 70
0
 71
3
 72
77
 73
73
 74
0
 42
0.0000001
 43
0.0000001
 44
0.0000000001
 40
0.0
 40
0.0
 40
0.0
 40
0.0
 40
0.0476839206
 40
0.0949169685
 40
0.1412545278
 40
0.1862596136
 40
0.2295095434
 40
0.2705997992
 40
0.290215027
 40
0.3091492452
 40
0.3273591232
 40
0.344803308
 40
0.36144259
 40
0.3772402308
 40
0.3921620471
 40
0.4061766163
 40
0.4192557458
 40
0.4254367988
 40
0.4313750442
 40
0.4425133048
 40
0.452655039
 40
0.4573492047
 40
0.4617911736
 40
0.4659809943
 40
0.4699194318
 40
0.4736079392
 40
0.4770490658
 40
0.4802466274
 40
0.4832059163
 40
0.4859343891
 40
0.4884421711
 40
0.4907428099
 40
0.4928545404
 40
0.4948013828
 40
0.4966143153
 40
0.4983320159
 40
0.5
 40
0.5016679841
 40
0.5033856847
 40
0.5051986172
 40
0.5071454596
 40
0.5092571901
 40
0.5115578289
 40
0.5140656109
 40
0.5167940837
 40
0.5197533726
 40
0.5229509342
 40
0.5263920608
 40
0.5300805682
 40
0.5340190057
 40
0.5382088264
 40
0.5426507953
 40
0.547344961
 40
0.5574866952
 40
0.5686249558
 40
0.5745632012
 40
0.5807442542
 40
0.5938233837
 40
0.6078379529
 40
0.6227597692
 40
0.63855741
 40
0.655196692
 40
0.6726408768
 40
0.6908507548
 40
0.709784973
 40
0.7294002008
 40
0.7704904566
 40
0.8137403864
 40
0.8587454722
 40
0.9050830315
 40
0.9523160794
 40
1.0
 40
1.0
 40
1.0
 40
1.0
 10
5.1682109599
 20
4.8439846874
 30
0.0
 10
5.1765426519
 20
4.8439846874
 30
0.0
 10
5.1931274827
 20
4.8438718297
 30
0.0
 10
5.2178040831
 20
4.8433648353
 30
0.0
 10
5.2420033601
 20
4.8425254273
 30
0.0
 10
5.2654925125
 20
4.841361923
 30
0.0
 10
5.2880454165
 20
4.8398858255
 30
0.0
 10
5.3061483607
 20
4.8383854279
 30
0.0
 10
5.319997689
 20
4.8370304289
 30
0.0
 10
5.3298575311
 20
4.8359615179
 30
0.0
 10
5.3393280932
 20
4.8348268687
 30
0.0
 10
5.3483865984
 20
4.8336292324
 30
0.0
 10
5.3570112661
 20
4.832371545
 30
0.0
 10
5.3651813788
 20
4.8310569132
 30
0.0
 10
5.3728773495
 20
4.8296886012
 30
0.0
 10
5.3800807008
 20
4.8282699681
 30
0.0
 10
5.3857607666
 20
4.8270265469
 30
0.0
 10
5.3900436003
 20
4.8260050174
 30
0.0
 10
5.3939836976
 20
4.8250098448
 30
0.0
 10
5.3985699323
 20
4.8237485106
 30
0.0
 10
5.4029036422
 20
4.8223968286
 30
0.0
 10
5.4060858007
 20
4.8212916066
 30
0.0
 10
5.408267167
 20
4.820476595
 30
0.0
 10
5.4103041705
 20
4.8196544942
 30
0.0
 10
5.4121956505
 20
4.818825803
 30
0.0
 10
5.4139405296
 20
4.8179909822
 30
0.0
 10
5.415537853
 20
4.8171505158
 30
0.0
 10
5.416986794
 20
4.8163048865
 30
0.0
 10
5.4182866036
 20
4.815454463
 30
0.0
 10
5.4194366763
 20
4.8145996055
 30
0.0
 10
5.4204365175
 20
4.8137405685
 30
0.0
 10
5.4212856061
 20
4.8128773658
 30
0.0
 10
5.4219834053
 20
4.8120098891
 30
0.0
 10
5.4225291026
 20
4.8111378415
 30
0.0
 10
5.4229212372
 20
4.8102609463
 30
0.0
 10
5.4231578939
 20
4.8093796401
 30
0.0
 10
5.4232371032
 20
4.8084955466
 30
0.0
 10
5.4231578939
 20
4.8076114532
 30
0.0
 10
5.4229212372
 20
4.806730147
 30
0.0
 10
5.4225291026
 20
4.8058532518
 30
0.0
 10
5.4219834053
 20
4.8049812041
 30
0.0
 10
5.4212856061
 20
4.8041137274
 30
0.0
 10
5.4204365175
 20
4.8032505247
 30
0.0
 10
5.4194366763
 20
4.8023914877
 30
0.0
 10
5.4182866036
 20
4.8015366302
 30
0.0
 10
5.416986794
 20
4.8006862067
 30
0.0
 10
5.415537853
 20
4.7998405775
 30
0.0
 10
5.4139405296
 20
4.7990001111
 30
0.0
 10
5.4121956505
 20
4.7981652903
 30
0.0
 10
5.4103041705
 20
4.7973365991
 30
0.0
 10
5.408267167
 20
4.7965144982
 30
0.0
 10
5.4060858007
 20
4.7956994867
 30
0.0
 10
5.4029036422
 20
4.7945942647
 30
0.0
 10
5.3985699323
 20
4.7932425826
 30
0.0
 10
5.3939836976
 20
4.7919812485
 30
0.0
 10
5.3900436003
 20
4.7909860759
 30
0.0
 10
5.3857607666
 20
4.7899645464
 30
0.0
 10
5.3800807008
 20
4.7887211252
 30
0.0
 10
5.3728773495
 20
4.7873024921
 30
0.0
 10
5.3651813788
 20
4.78593418
 30
0.0
 10
5.3570112661
 20
4.7846195483
 30
0.0
 10
5.3483865984
 20
4.7833618608
 30
0.0
 10
5.3393280932
 20
4.7821642246
 30
0.0
 10
5.3298575311
 20
4.7810295753
 30
0.0
 10
5.319997689
 20
4.7799606644
 30
0.0
 10
5.3061483607
 20
4.7786056654
 30
0.0
 10
5.2880454165
 20
4.7771052677
 30
0.0
 10
5.2654925125
 20
4.7756291703
 30
0.0
 10
5.2420033601
 20
4.774465666
 30
0.0
 10
5.2178040831
 20
4.773626258
 30
0.0
 10
5.1931274827
 20
4.7731192636
 30
0.0
 10
5.1765426519
 20
4.7730064059
 30
0.0
 10
5.1682109599
 20
4.7730064059
 30
0.0
  0
SPLINE
  5
32D
100
AcDbEntity
  8
0
100
AcDbSpline
 62
7
  6
CONTINUOUS
 70
0
 71
3
 72
40
 73
36
 74
0
 42
0.0000001
 43
0.0000001
 44
0.0000000001
 40
0.0
 40
0.0
 40
0.0
 40
0.0
 40
0.0953684074
 40
0.1898344001
 40
0.2825099147
 40
0.3725202677
 40
0.4590202916
 40
0.5412009568
 40
0.6182989369
 40
0.6547188151
 40
0.6896072064
 40
0.7228858436
 40
0.7544812616
 40
0.7843248416
 40
0.8123541102
 40
0.8385124405
 40
0.8508745649
 40
0.8627509966
 40
0.8850276588
 40
0.905311125
 40
0.9235821811
 40
0.9319618314
 40
0.9398387425
 40
0.9472157901
 40
0.9540980201
 40
0.96049315
 40
0.9664118051
 40
0.9718687127
 40
0.9768842516
 40
0.9814856211
 40
0.9857090573
 40
0.9896027066
 40
0.9932286325
 40
0.996664035
 40
1.0
 40
1.0
 40
1.0
 40
1.0
 10
5.1682109599
 20
4.7844533934
 30
0.0
 10
5.1625666265
 20
4.7844533934
 30
0.0
 10
5.1513312152
 20
4.7845298469
 30
0.0
 10
5.1346140172
 20
4.7848733186
 30
0.0
 10
5.1182201995
 20
4.7854419702
 30
0.0
 10
5.1023074569
 20
4.7862301985
 30
0.0
 10
5.0870289281
 20
4.7872301343
 30
0.0
 10
5.072531593
 20
4.7884318831
 30
0.0
 10
5.0610086538
 20
4.7896125764
 30
0.0
 10
5.0522874783
 20
4.7906573534
 30
0.0
 10
5.0461507857
 20
4.7914687141
 30
0.0
 10
5.0403079967
 20
4.7923207323
 30
0.0
 10
5.0347731479
 20
4.793211322
 30
0.0
 10
5.0295595074
 20
4.7941383004
 30
0.0
 10
5.0246795903
 20
4.7950993445
 30
0.0
 10
5.0208316223
 20
4.795941705
 30
0.0
 10
5.017930214
 20
4.796633736
 30
0.0
 10
5.0152610047
 20
4.7973079328
 30
0.0
 10
5.0121539851
 20
4.7981623788
 30
0.0
 10
5.0087163549
 20
4.7992347753
 30
0.0
 10
5.0060999223
 20
4.8001710888
 30
0.0
 10
5.0042046779
 20
4.8009358983
 30
0.0
 10
5.0029232936
 20
4.8014973084
 30
0.0
 10
5.0017412216
 20
4.8020628519
 30
0.0
 10
5.0006591175
 20
4.8026322315
 30
0.0
 10
4.9996775328
 20
4.8032051081
 30
0.0
 10
4.9987969666
 20
4.8037812152
 30
0.0
 10
4.9980178547
 20
4.8043603462
 30
0.0
 10
4.9973405223
 20
4.8049423127
 30
0.0
 10
4.9967652852
 20
4.8055270686
 30
0.0
 10
4.9962925665
 20
4.8061147532
 30
0.0
 10
4.9959229102
 20
4.8067055225
 30
0.0
 10
4.995657222
 20
4.8072996015
 30
0.0
 10
4.9954969008
 20
4.8078965018
 30
0.0
 10
4.9954609787
 20
4.8082981091
 30
0.0
 10
4.9954609787
 20
4.8084955466
 30
0.0
  0
SPLINE
  5
32E
100
AcDbEntity
  8
0
100
AcDbSpline
 62
7
  6
CONTINUOUS
 70
0
 71
3
 72
40
 73
36
 74
0
 42
0.0000001
 43
0.0000001
 44
0.0000000001
 40
0.0
 40
0.0
 40
0.0
 40
0.0
 40
0.0953684074
 40
0.1898344001
 40
0.2825099147
 40
0.3725202677
 40
0.4590202916
 40
0.5412009568
 40
0.6182989369
 40
0.6547188151
 40
0.6896072064
 40
0.7228858436
 40
0.7544812616
 40
0.7843248416
 40
0.8123541102
 40
0.8385124405
 40
0.8508745649
 40
0.8627509966
 40
0.8850276588
 40
0.905311125
 40
0.9235821811
 40
0.9319618314
 40
0.9398387425
 40
0.9472157901
 40
0.9540980201
 40
0.96049315
 40
0.9664118051
 40
0.9718687127
 40
0.9768842516
 40
0.9814856211
 40
0.9857090573
 40
0.9896027066
 40
0.9932286325
 40
0.996664035
 40
1.0
 40
1.0
 40
1.0
 40
1.0
 10
5.1682109599
 20
4.7844533934
 30
0.0
 10
5.1738552932
 20
4.7844533934
 30
0.0
 10
5.1850907046
 20
4.7845298469
 30
0.0
 10
5.2018079025
 20
4.7848733186
 30
0.0
 10
5.2182017202
 20
4.7854419702
 30
0.0
 10
5.2341144628
 20
4.7862301985
 30
0.0
 10
5.2493929917
 20
4.7872301343
 30
0.0
 10
5.2638903267
 20
4.7884318831
 30
0.0
 10
5.2754132659
 20
4.7896125764
 30
0.0
 10
5.2841344415
 20
4.7906573534
 30
0.0
 10
5.290271134
 20
4.7914687141
 30
0.0
 10
5.296113923
 20
4.7923207323
 30
0.0
 10
5.3016487718
 20
4.793211322
 30
0.0
 10
5.3068624124
 20
4.7941383004
 30
0.0
 10
5.3117423294
 20
4.7950993445
 30
0.0
 10
5.3155902975
 20
4.795941705
 30
0.0
 10
5.3184917058
 20
4.796633736
 30
0.0
 10
5.321160915
 20
4.7973079328
 30
0.0
 10
5.3242679347
 20
4.7981623788
 30
0.0
 10
5.3277055648
 20
4.7992347753
 30
0.0
 10
5.3303219974
 20
4.8001710888
 30
0.0
 10
5.3322172419
 20
4.8009358983
 30
0.0
 10
5.3334986262
 20
4.8014973084
 30
0.0
 10
5.3346806981
 20
4.8020628519
 30
0.0
 10
5.3357628022
 20
4.8026322315
 30
0.0
 10
5.3367443869
 20
4.8032051081
 30
0.0
 10
5.3376249532
 20
4.8037812152
 30
0.0
 10
5.338404065
 20
4.8043603462
 30
0.0
 10
5.3390813974
 20
4.8049423127
 30
0.0
 10
5.3396566345
 20
4.8055270686
 30
0.0
 10
5.3401293532
 20
4.8061147532
 30
0.0
 10
5.3404990095
 20
4.8067055225
 30
0.0
 10
5.3407646977
 20
4.8072996015
 30
0.0
 10
5.340925019
 20
4.8078965018
 30
0.0
 10
5.340960941
 20
4.8082981091
 30
0.0
 10
5.340960941
 20
4.8084955466
 30
0.0
  0
SPLINE
  5
32F
100
AcDbEntity
  8
0
100
AcDbSpline
 62
7
  6
CONTINUOUS
 70
0
 71
3
 72
42
 73
38
 74
0
 42
0.0000001
 43
0.0000001
 44
0.0000000001
 40
0.0
 40
0.0
 40
0.0
 40
0.0
 40
0.0953680439
 40
0.1898341389
 40
0.2825092232
 40
0.3725193852
 40
0.45901923
 40
0.541199718
 40
0.580430163
 40
0.6182985906
 40
0.6547183386
 40
0.6896066984
 40
0.722885253
 40
0.7544805266
 40
0.7843241511
 40
0.8123532811
 40
0.8385115336
 40
0.8508736356
 40
0.8627501238
 40
0.8850266382
 40
0.9053101012
 40
0.9146984297
 40
0.9235823657
 40
0.9319620045
 40
0.9398388772
 40
0.9472158904
 40
0.9540981415
 40
0.960493263
 40
0.9664118396
 40
0.9718687836
 40
0.9768843465
 40
0.9814856232
 40
0.9857090832
 40
0.9896027673
 40
0.9932286316
 40
0.9966640323
 40
1.0
 40
1.0
 40
1.0
 40
1.0
 10
5.1682109599
 20
4.8609263049
 30
0.0
 10
5.1770327702
 20
4.8609263049
 30
0.0
 10
5.1945931979
 20
4.8608068083
 30
0.0
 10
5.2207213786
 20
4.8602699892
 30
0.0
 10
5.2463441383
 20
4.859381204
 30
0.0
 10
5.271215
 20
4.8581492577
 30
0.0
 10
5.295094541
 20
4.8565863305
 30
0.0
 10
5.3142623598
 20
4.8549976742
 30
0.0
 10
5.3289263503
 20
4.8535629692
 30
0.0
 10
5.3393661806
 20
4.8524311811
 30
0.0
 10
5.3493938322
 20
4.8512297879
 30
0.0
 10
5.3589851881
 20
4.8499617024
 30
0.0
 10
5.3681171867
 20
4.8486300334
 30
0.0
 10
5.3767678918
 20
4.8472380705
 30
0.0
 10
5.3849165644
 20
4.8457892696
 30
0.0
 10
5.3925436401
 20
4.8442871875
 30
0.0
 10
5.3985578257
 20
4.8429706242
 30
0.0
 10
5.4030925895
 20
4.8418890047
 30
0.0
 10
5.407264456
 20
4.8408352928
 30
0.0
 10
5.4121204678
 20
4.8394997624
 30
0.0
 10
5.4167091005
 20
4.83806857
 30
0.0
 10
5.4200784438
 20
4.836898335
 30
0.0
 10
5.4223881251
 20
4.8360353818
 30
0.0
 10
5.4245449517
 20
4.8351649221
 30
0.0
 10
5.4265476946
 20
4.8342874845
 30
0.0
 10
5.4283952132
 20
4.8334035568
 30
0.0
 10
5.4300864962
 20
4.8325136513
 30
0.0
 10
5.4316206685
 20
4.8316182792
 30
0.0
 10
5.4329969372
 20
4.830717831
 30
0.0
 10
5.4342146609
 20
4.829812688
 30
0.0
 10
5.4352733159
 20
4.828903119
 30
0.0
 10
5.4361723506
 20
4.8279891417
 30
0.0
 10
5.4369111966
 20
4.827070631
 30
0.0
 10
5.4374889935
 20
4.8261473065
 30
0.0
 10
5.4379041948
 20
4.8252187624
 30
0.0
 10
5.4381547724
 20
4.8242858464
 30
0.0
 10
5.4382109599
 20
4.823658154
 30
0.0
 10
5.4382109599
 20
4.8233495677
 30
0.0
  0
SPLINE
  5
330
100
AcDbEntity
  8
0
100
AcDbSpline
 62
7
  6
CONTINUOUS
 70
0
 71
3
 72
42
 73
38
 74
0
 42
0.0000001
 43
0.0000001
 44
0.0000000001
 40
0.0
 40
0.0
 40
0.0
 40
0.0
 40
0.0953680439
 40
0.1898341389
 40
0.2825092232
 40
0.3725193852
 40
0.45901923
 40
0.541199718
 40
0.580430163
 40
0.6182985906
 40
0.6547183386
 40
0.6896066984
 40
0.722885253
 40
0.7544805266
 40
0.7843241511
 40
0.8123532811
 40
0.8385115336
 40
0.8508736356
 40
0.8627501238
 40
0.8850266382
 40
0.9053101012
 40
0.9146984297
 40
0.9235823657
 40
0.9319620045
 40
0.9398388772
 40
0.9472158904
 40
0.9540981415
 40
0.960493263
 40
0.9664118396
 40
0.9718687836
 40
0.9768843465
 40
0.9814856232
 40
0.9857090832
 40
0.9896027673
 40
0.9932286316
 40
0.9966640323
 40
1.0
 40
1.0
 40
1.0
 40
1.0
 10
5.1682109599
 20
4.8807316663
 30
0.0
 10
5.1770327702
 20
4.8807316663
 30
0.0
 10
5.1945931979
 20
4.8806121697
 30
0.0
 10
5.2207213786
 20
4.8800753506
 30
0.0
 10
5.2463441383
 20
4.8791865654
 30
0.0
 10
5.271215
 20
4.8779546191
 30
0.0
 10
5.295094541
 20
4.8763916919
 30
0.0
 10
5.3142623598
 20
4.8748030356
 30
0.0
 10
5.3289263503
 20
4.8733683306
 30
0.0
 10
5.3393661806
 20
4.8722365425
 30
0.0
 10
5.3493938322
 20
4.8710351492
 30
0.0
 10
5.3589851881
 20
4.8697670638
 30
0.0
 10
5.3681171867
 20
4.8684353947
 30
0.0
 10
5.3767678918
 20
4.8670434319
 30
0.0
 10
5.3849165644
 20
4.865594631
 30
0.0
 10
5.3925436401
 20
4.8640925488
 30
0.0
 10
5.3985578257
 20
4.8627759856
 30
0.0
 10
5.4030925895
 20
4.861694366
 30
0.0
 10
5.407264456
 20
4.8606406542
 30
0.0
 10
5.4121204678
 20
4.8593051238
 30
0.0
 10
5.4167091005
 20
4.8578739314
 30
0.0
 10
5.4200784438
 20
4.8567036964
 30
0.0
 10
5.4223881251
 20
4.8558407432
 30
0.0
 10
5.4245449517
 20
4.8549702835
 30
0.0
 10
5.4265476946
 20
4.8540928458
 30
0.0
 10
5.4283952132
 20
4.8532089182
 30
0.0
 10
5.4300864962
 20
4.8523190127
 30
0.0
 10
5.4316206685
 20
4.8514236406
 30
0.0
 10
5.4329969372
 20
4.8505231924
 30
0.0
 10
5.4342146609
 20
4.8496180494
 30
0.0
 10
5.4352733159
 20
4.8487084804
 30
0.0
 10
5.4361723506
 20
4.847794503
 30
0.0
 10
5.4369111966
 20
4.8468759924
 30
0.0
 10
5.4374889935
 20
4.8459526678
 30
0.0
 10
5.4379041948
 20
4.8450241238
 30
0.0
 10
5.4381547724
 20
4.8440912078
 30
0.0
 10
5.4382109599
 20
4.8434635154
 30
0.0
 10
5.4382109599
 20
4.843154929
 30
0.0
  0
SPLINE
  5
331
100
AcDbEntity
  8
0
100
AcDbSpline
 62
7
  6
CONTINUOUS
 70
0
 71
3
 72
24
 73
20
 74
0
 42
0.0000001
 43
0.0000001
 44
0.0000000001
 40
0.0
 40
0.0
 40
0.0
 40
0.0
 40
0.062496922
 40
0.1249952116
 40
0.1874930328
 40
0.2499916264
 40
0.3124900916
 40
0.3749886621
 40
0.437487597
 40
0.499986197
 40
0.5624857065
 40
0.5937445083
 40
0.6250032321
 40
0.6875029798
 40
0.7500021745
 40
0.8125021869
 40
0.8750011062
 40
0.9375016087
 40
1.0
 40
1.0
 40
1.0
 40
1.0
 10
3.844321158
 20
3.769231311
 30
0.0
 10
3.8443210229
 20
3.7708786135
 30
0.0
 10
3.8441544198
 20
3.7741755432
 30
0.0
 10
3.8434148062
 20
3.7790697448
 30
0.0
 10
3.8421888668
 20
3.7838659473
 30
0.0
 10
3.8404907469
 20
3.7885157595
 30
0.0
 10
3.8383381957
 20
3.7929734782
 30
0.0
 10
3.835754145
 20
3.7971955976
 30
0.0
 10
3.8327661782
 20
3.8011422429
 30
0.0
 10
3.8294035616
 20
3.8047746509
 30
0.0
 10
3.8263174329
 20
3.8075128853
 30
0.0
 10
3.8236981727
 20
3.8095142355
 30
0.0
 10
3.8209839868
 20
3.8113848503
 30
0.0
 10
3.8174251609
 20
3.8134719851
 30
0.0
 10
3.8129332531
 20
3.815550986
 30
0.0
 10
3.808261179
 20
3.8171857665
 30
0.0
 10
3.8034532682
 20
3.8183628479
 30
0.0
 10
3.7985550226
 20
3.8190718246
 30
0.0
 10
3.7952581732
 20
3.8192312179
 30
0.0
 10
3.793610832
 20
3.819231311
 30
0.0
  0
SPLINE
  5
332
100
AcDbEntity
  8
0
100
AcDbSpline
 62
7
  6
CONTINUOUS
 70
0
 71
3
 72
24
 73
20
 74
0
 42
0.0000001
 43
0.0000001
 44
0.0000000001
 40
0.0
 40
0.0
 40
0.0
 40
0.0
 40
0.0624983165
 40
0.0937590352
 40
0.1250166317
 40
0.1875155489
 40
0.2500154911
 40
0.3125148793
 40
0.3750142763
 40
0.4375136426
 40
0.5000124926
 40
0.562511839
 40
0.6250103354
 40
0.6875093409
 40
0.750007716
 40
0.8125064693
 40
0.87500439
 40
0.9375029014
 40
1.0
 40
1.0
 40
1.0
 40
1.0
 10
3.793610832
 20
3.499231311
 30
0.0
 10
3.79525817
 20
3.4992314435
 30
0.0
 10
3.7977315822
 20
3.4993510448
 30
0.0
 10
3.8010039976
 20
3.4997453812
 30
0.0
 10
3.8042540637
 20
3.5002958991
 30
0.0
 10
3.8082612566
 20
3.5012769762
 30
0.0
 10
3.8129331401
 20
3.5029117003
 30
0.0
 10
3.8174253704
 20
3.5049905266
 30
0.0
 10
3.821694877
 20
3.5074950167
 30
0.0
 10
3.8257009716
 20
3.5104024444
 30
0.0
 10
3.8294035427
 20
3.5136878291
 30
0.0
 10
3.8327659585
 20
3.5173205899
 30
0.0
 10
3.8357546828
 20
3.5212666494
 30
0.0
 10
3.8383379055
 20
3.5254892989
 30
0.0
 10
3.840490901
 20
3.5299467744
 30
0.0
 10
3.8421889641
 20
3.5345966342
 30
0.0
 10
3.8434148484
 20
3.5393928529
 30
0.0
 10
3.8441544394
 20
3.5442870659
 30
0.0
 10
3.8443210622
 20
3.547584005
 30
0.0
 10
3.844321158
 20
3.549231311
 30
0.0
  0
SPLINE
  5
333
100
AcDbEntity
  8
0
100
AcDbSpline
 62
7
  6
CONTINUOUS
 70
0
 71
3
 72
24
 73
20
 74
0
 42
0.0000001
 43
0.0000001
 44
0.0000000001
 40
0.0
 40
0.0
 40
0.0
 40
0.0
 40
0.0312546404
 40
0.0625195423
 40
0.0937767189
 40
0.1250365223
 40
0.1562964266
 40
0.1875570293
 40
0.2188186069
 40
0.2500789902
 40
0.3125683993
 40
0.3750638143
 40
0.4375638498
 40
0.50006773
 40
0.5625742772
 40
0.6250825059
 40
0.7500313056
 40
0.875007111
 40
1.0
 40
1.0
 40
1.0
 40
1.0
 10
3.8254490128
 20
3.549231311
 30
0.0
 10
3.8254490011
 20
3.5486153048
 30
0.0
 10
3.825396675
 20
3.5473825649
 30
0.0
 10
3.8251724977
 20
3.5455461918
 30
0.0
 10
3.8248073242
 20
3.5437323163
 30
0.0
 10
3.8243010116
 20
3.5419527811
 30
0.0
 10
3.8236579827
 20
3.5402179309
 30
0.0
 10
3.8228853169
 20
3.5385369855
 30
0.0
 10
3.8219955051
 20
3.5369151172
 30
0.0
 10
3.8206633205
 20
3.5348404528
 30
0.0
 10
3.8187378617
 20
3.5324247487
 30
0.0
 10
3.8160880539
 20
3.52983748
 30
0.0
 10
3.8131660652
 20
3.5275633126
 30
0.0
 10
3.8100260638
 20
3.5256032001
 30
0.0
 10
3.8067187542
 20
3.5239427107
 30
0.0
 10
3.8021410645
 20
3.5221088299
 30
0.0
 10
3.7961795482
 20
3.5204800739
 30
0.0
 10
3.7888506232
 20
3.5194317933
 30
0.0
 10
3.7839200317
 20
3.5192313112
 30
0.0
 10
3.7814565131
 20
3.519231311
 30
0.0
  0
SPLINE
  5
334
100
AcDbEntity
  8
0
100
AcDbSpline
 62
7
  6
CONTINUOUS
 70
0
 71
3
 72
25
 73
21
 74
0
 42
0.0000001
 43
0.0000001
 44
0.0000000001
 40
0.0
 40
0.0
 40
0.0
 40
0.0
 40
0.1249830474
 40
0.2499491946
 40
0.3124562049
 40
0.3749629117
 40
0.4374663276
 40
0.4999679852
 40
0.5624667794
 40
0.6249619442
 40
0.6874526718
 40
0.7499377162
 40
0.7811969901
 40
0.812454638
 40
0.8437129025
 40
0.8749724302
 40
0.9062289178
 40
0.9374841119
 40
0.9687476011
 40
1.0
 40
1.0
 40
1.0
 40
1.0
 10
3.7814565131
 20
3.799231311
 30
0.0
 10
3.7839200426
 20
3.7992313124
 30
0.0
 10
3.7888499879
 20
3.7990310625
 30
0.0
 10
3.7949609445
 20
3.7981565888
 30
0.0
 10
3.799755321
 20
3.7970057585
 30
0.0
 10
3.8032844248
 20
3.7958961345
 30
0.0
 10
3.8067190092
 20
3.7945200868
 30
0.0
 10
3.8100261254
 20
3.792859382
 30
0.0
 10
3.813165986
 20
3.7908990055
 30
0.0
 10
3.8160882997
 20
3.7886252452
 30
0.0
 10
3.8187376289
 20
3.7860372852
 30
0.0
 10
3.8206621917
 20
3.7836210237
 30
0.0
 10
3.821997046
 20
3.7815480931
 30
0.0
 10
3.8228876026
 20
3.7799265247
 30
0.0
 10
3.8236581723
 20
3.7782445814
 30
0.0
 10
3.8243012615
 20
3.7765098026
 30
0.0
 10
3.8248090983
 20
3.7747306392
 30
0.0
 10
3.8251739311
 20
3.7729166288
 30
0.0
 10
3.8253972032
 20
3.7710800999
 30
0.0
 10
3.8254490306
 20
3.7698473242
 30
0.0
 10
3.8254490128
 20
3.769231311
 30
0.0
  0
SPLINE
  5
335
100
AcDbEntity
  8
0
100
AcDbSpline
 62
7
  6
CONTINUOUS
 70
0
 71
3
 72
42
 73
38
 74
0
 42
0.0000001
 43
0.0000001
 44
0.0000000001
 40
0.0
 40
0.0
 40
0.0
 40
0.0
 40
0.0953680867
 40
0.1898341051
 40
0.2825092336
 40
0.3725193872
 40
0.4590192161
 40
0.541199739
 40
0.5804301429
 40
0.618298586
 40
0.6547183697
 40
0.6896066747
 40
0.7228852402
 40
0.754480567
 40
0.7843241299
 40
0.812353257
 40
0.8385115802
 40
0.8508736052
 40
0.8627501109
 40
0.8850266011
 40
0.9053101489
 40
0.9146983869
 40
0.9235823651
 40
0.9319620506
 40
0.9398388299
 40
0.9472158963
 40
0.9540981838
 40
0.9604932138
 40
0.9664118511
 40
0.9718688193
 40
0.9768843008
 40
0.9814856369
 40
0.9857091081
 40
0.9896027364
 40
0.9932286393
 40
0.996664041
 40
1.0
 40
1.0
 40
1.0
 40
1.0
 10
5.1682109599
 20
4.9062645153
 30
0.0
 10
5.1603693472
 20
4.9062645153
 30
0.0
 10
5.144760081
 20
4.9061582968
 30
0.0
 10
5.1215350308
 20
4.905681122
 30
0.0
 10
5.0987592477
 20
4.9048910933
 30
0.0
 10
5.0766518135
 20
4.9037960299
 30
0.0
 10
5.0554255545
 20
4.9024067565
 30
0.0
 10
5.0383874945
 20
4.900994626
 30
0.0
 10
5.0253528362
 20
4.8997193252
 30
0.0
 10
5.0160729862
 20
4.8987132932
 30
0.0
 10
5.0071595178
 20
4.8976453931
 30
0.0
 10
4.9986338698
 20
4.8965181989
 30
0.0
 10
4.9905165368
 20
4.8953344942
 30
0.0
 10
4.9828270198
 20
4.8940972009
 30
0.0
 10
4.9755837575
 20
4.8928093707
 30
0.0
 10
4.9688041351
 20
4.8914741831
 30
0.0
 10
4.9634581895
 20
4.8903039201
 30
0.0
 10
4.959427291
 20
4.8893424655
 30
0.0
 10
4.95571897
 20
4.8884058415
 30
0.0
 10
4.9514025128
 20
4.8872186889
 30
0.0
 10
4.9473237226
 20
4.8859465431
 30
0.0
 10
4.9443287553
 20
4.884906312
 30
0.0
 10
4.9422757033
 20
4.8841392489
 30
0.0
 10
4.9403585192
 20
4.8833655192
 30
0.0
 10
4.9385783122
 20
4.882585553
 30
0.0
 10
4.9369360692
 20
4.8817998503
 30
0.0
 10
4.9354326996
 20
4.8810088353
 30
0.0
 10
4.9340690055
 20
4.8802129232
 30
0.0
 10
4.932845647
 20
4.8794125405
 30
0.0
 10
4.9317632159
 20
4.8786079797
 30
0.0
 10
4.9308222145
 20
4.8777994448
 30
0.0
 10
4.9300230547
 20
4.8769870417
 30
0.0
 10
4.9293662892
 20
4.8761705932
 30
0.0
 10
4.9288527349
 20
4.8753498356
 30
0.0
 10
4.9284836303
 20
4.8745244839
 30
0.0
 10
4.9282608861
 20
4.8736952199
 30
0.0
 10
4.9282109777
 20
4.8731372693
 30
0.0
 10
4.9282109777
 20
4.8728629711
 30
0.0
  0
SPLINE
  5
336
100
AcDbEntity
  8
0
100
AcDbSpline
 62
7
  6
CONTINUOUS
 70
0
 71
3
 72
42
 73
38
 74
0
 42
0.0000001
 43
0.0000001
 44
0.0000000001
 40
0.0
 40
0.0
 40
0.0
 40
0.0
 40
0.0953680867
 40
0.1898341051
 40
0.2825092336
 40
0.3725193872
 40
0.4590192161
 40
0.541199739
 40
0.5804301429
 40
0.618298586
 40
0.6547183697
 40
0.6896066747
 40
0.7228852402
 40
0.754480567
 40
0.7843241299
 40
0.812353257
 40
0.8385115802
 40
0.8508736052
 40
0.8627501109
 40
0.8850266011
 40
0.9053101489
 40
0.9146983869
 40
0.9235823651
 40
0.9319620506
 40
0.9398388299
 40
0.9472158963
 40
0.9540981838
 40
0.9604932138
 40
0.9664118511
 40
0.9718688193
 40
0.9768843008
 40
0.9814856369
 40
0.9857091081
 40
0.9896027364
 40
0.9932286393
 40
0.996664041
 40
1.0
 40
1.0
 40
1.0
 40
1.0
 10
5.1682109599
 20
5.1785882342
 30
0.0
 10
5.1603693472
 20
5.1785882342
 30
0.0
 10
5.144760081
 20
5.1784820157
 30
0.0
 10
5.1215350308
 20
5.1780048409
 30
0.0
 10
5.0987592477
 20
5.1772148122
 30
0.0
 10
5.0766518135
 20
5.1761197489
 30
0.0
 10
5.0554255545
 20
5.1747304754
 30
0.0
 10
5.0383874945
 20
5.1733183449
 30
0.0
 10
5.0253528362
 20
5.1720430441
 30
0.0
 10
5.0160729862
 20
5.1710370121
 30
0.0
 10
5.0071595178
 20
5.1699691121
 30
0.0
 10
4.9986338698
 20
5.1688419178
 30
0.0
 10
4.9905165368
 20
5.1676582131
 30
0.0
 10
4.9828270198
 20
5.1664209198
 30
0.0
 10
4.9755837575
 20
5.1651330896
 30
0.0
 10
4.9688041351
 20
5.163797902
 30
0.0
 10
4.9634581895
 20
5.162627639
 30
0.0
 10
4.959427291
 20
5.1616661844
 30
0.0
 10
4.95571897
 20
5.1607295604
 30
0.0
 10
4.9514025128
 20
5.1595424078
 30
0.0
 10
4.9473237226
 20
5.158270262
 30
0.0
 10
4.9443287553
 20
5.1572300309
 30
0.0
 10
4.9422757033
 20
5.1564629678
 30
0.0
 10
4.9403585192
 20
5.1556892381
 30
0.0
 10
4.9385783122
 20
5.1549092719
 30
0.0
 10
4.9369360692
 20
5.1541235692
 30
0.0
 10
4.9354326996
 20
5.1533325542
 30
0.0
 10
4.9340690055
 20
5.1525366421
 30
0.0
 10
4.932845647
 20
5.1517362594
 30
0.0
 10
4.9317632159
 20
5.1509316986
 30
0.0
 10
4.9308222145
 20
5.1501231637
 30
0.0
 10
4.9300230547
 20
5.1493107606
 30
0.0
 10
4.9293662892
 20
5.1484943122
 30
0.0
 10
4.9288527349
 20
5.1476735545
 30
0.0
 10
4.9284836303
 20
5.1468482028
 30
0.0
 10
4.9282608861
 20
5.1460189388
 30
0.0
 10
4.9282109777
 20
5.1454609882
 30
0.0
 10
4.9282109777
 20
5.14518669
 30
0.0
  0
SPLINE
  5
337
100
AcDbEntity
  8
0
100
AcDbSpline
 62
7
  6
CONTINUOUS
 70
0
 71
3
 72
24
 73
20
 74
0
 42
0.0000001
 43
0.0000001
 44
0.0000000001
 40
0.0
 40
0.0
 40
0.0
 40
0.0
 40
0.0624983552
 40
0.0937591167
 40
0.1250167379
 40
0.1875156546
 40
0.2500156661
 40
0.3125149743
 40
0.3750145201
 40
0.4375137181
 40
0.5000127814
 40
0.5625119507
 40
0.6250105735
 40
0.687509488
 40
0.7500078974
 40
0.8125066155
 40
0.8750045186
 40
0.9375029574
 40
1.0
 40
1.0
 40
1.0
 40
1.0
 10
2.5428110878
 20
3.499231311
 30
0.0
 10
2.5411637487
 20
3.499231436
 30
0.0
 10
2.5386903327
 20
3.4993509999
 30
0.0
 10
2.5354179117
 20
3.4997453159
 30
0.0
 10
2.5321678424
 20
3.5002958341
 30
0.0
 10
2.528160673
 20
3.5012770061
 30
0.0
 10
2.5234887616
 20
3.502911657
 30
0.0
 10
2.5189965903
 20
3.5049906111
 30
0.0
 10
2.5147269763
 20
3.5074949087
 30
0.0
 10
2.510720936
 20
3.5104024375
 30
0.0
 10
2.507018421
 20
3.5136878639
 30
0.0
 10
2.5036558849
 20
3.5173205299
 30
0.0
 10
2.50066736
 20
3.5212667327
 30
0.0
 10
2.4980839473
 20
3.5254892624
 30
0.0
 10
2.4959310356
 20
3.5299467841
 30
0.0
 10
2.4942329688
 20
3.5345966387
 30
0.0
 10
2.4930071355
 20
3.5393928684
 30
0.0
 10
2.4922675295
 20
3.5442870724
 30
0.0
 10
2.4921008713
 20
3.5475840065
 30
0.0
 10
2.4921007618
 20
3.549231311
 30
0.0
  0
SPLINE
  5
338
100
AcDbEntity
  8
0
100
AcDbSpline
 62
7
  6
CONTINUOUS
 70
0
 71
3
 72
24
 73
20
 74
0
 42
0.0000001
 43
0.0000001
 44
0.0000000001
 40
0.0
 40
0.0
 40
0.0
 40
0.0
 40
0.0624969154
 40
0.0937572712
 40
0.1250146975
 40
0.1875124765
 40
0.2500110788
 40
0.3125094339
 40
0.3750080799
 40
0.4375068327
 40
0.5000055699
 40
0.5625048766
 40
0.6250037444
 40
0.687503367
 40
0.7500025403
 40
0.8125024749
 40
0.8750013272
 40
0.937501709
 40
1.0
 40
1.0
 40
1.0
 40
1.0
 10
2.4921007618
 20
3.769231311
 30
0.0
 10
2.4921008893
 20
3.7708786146
 30
0.0
 10
2.4922258719
 20
3.7733521644
 30
0.0
 10
2.4926372603
 20
3.7766225071
 30
0.0
 10
2.4932112403
 20
3.7798685761
 30
0.0
 10
2.4942331193
 20
3.7838660484
 30
0.0
 10
2.4959311008
 20
3.7885157581
 30
0.0
 10
2.4980838294
 20
3.7929734292
 30
0.0
 10
2.5006676473
 20
3.7971956903
 30
0.0
 10
2.503655755
 20
3.8011421924
 30
0.0
 10
2.5070184729
 20
3.804774723
 30
0.0
 10
2.5107209467
 20
3.808060157
 30
0.0
 10
2.5147268357
 20
3.8109679263
 30
0.0
 10
2.5189966404
 20
3.8134719173
 30
0.0
 10
2.5234886942
 20
3.8155510172
 30
0.0
 10
2.5281607426
 20
3.8171857327
 30
0.0
 10
2.5329686668
 20
3.8183627927
 30
0.0
 10
2.5378669031
 20
3.8190717754
 30
0.0
 10
2.5411637479
 20
3.8192312039
 30
0.0
 10
2.5428110878
 20
3.819231311
 30
0.0
  0
SPLINE
  5
339
100
AcDbEntity
  8
0
100
AcDbSpline
 62
7
  6
CONTINUOUS
 70
0
 71
3
 72
27
 73
23
 74
0
 42
0.0000001
 43
0.0000001
 44
0.0000000001
 40
0.0
 40
0.0
 40
0.0
 40
0.0
 40
0.031250434
 40
0.0625115484
 40
0.0937646531
 40
0.1250199101
 40
0.1562763692
 40
0.1875326079
 40
0.2187899138
 40
0.2500463874
 40
0.312527533
 40
0.3750145589
 40
0.4375060928
 40
0.5000013194
 40
0.5625000478
 40
0.6249989684
 40
0.6562563441
 40
0.6875132045
 40
0.7500165747
 40
0.8125179421
 40
0.8750249627
 40
1.0
 40
1.0
 40
1.0
 40
1.0
 10
2.5109729069
 20
3.769231311
 30
0.0
 10
2.5109729274
 20
3.7698473211
 30
0.0
 10
2.5110250473
 20
3.7710800766
 30
0.0
 10
2.5112487282
 20
3.772916532
 30
0.0
 10
2.5116136963
 20
3.7747304918
 30
0.0
 10
2.5121209777
 20
3.7765097901
 30
0.0
 10
2.5127643752
 20
3.7782444839
 30
0.0
 10
2.5135363187
 20
3.7799257763
 30
0.0
 10
2.5144258564
 20
3.7815478269
 30
0.0
 10
2.5157583036
 20
3.7836223836
 30
0.0
 10
2.5176851224
 20
3.7860370035
 30
0.0
 10
2.5203339702
 20
3.7886251059
 30
0.0
 10
2.5232549977
 20
3.7909006904
 30
0.0
 10
2.5263959941
 20
3.7928593824
 30
0.0
 10
2.5297027457
 20
3.7945204852
 30
0.0
 10
2.5325652978
 20
3.7956672029
 30
0.0
 10
2.5349021523
 20
3.7964507342
 30
0.0
 10
2.5372659003
 20
3.7971493569
 30
0.0
 10
2.5402632449
 20
3.7978695465
 30
0.0
 10
2.5439063361
 20
3.7985070025
 30
0.0
 10
2.5488024393
 20
3.7990808029
 30
0.0
 10
2.5525018925
 20
3.7992312852
 30
0.0
 10
2.5549654067
 20
3.799231311
 30
0.0
  0
SPLINE
  5
33A
100
AcDbEntity
  8
0
100
AcDbSpline
 62
7
  6
CONTINUOUS
 70
0
 71
3
 72
26
 73
22
 74
0
 42
0.0000001
 43
0.0000001
 44
0.0000000001
 40
0.0
 40
0.0
 40
0.0
 40
0.0
 40
0.0625005301
 40
0.125010271
 40
0.1875181028
 40
0.2500209439
 40
0.3125253789
 40
0.3750288761
 40
0.4375303651
 40
0.5000287274
 40
0.5625250145
 40
0.625017866
 40
0.6875054271
 40
0.7499877161
 40
0.812464222
 40
0.8437209171
 40
0.8749783854
 40
0.9062337675
 40
0.9374873674
 40
0.9687490951
 40
1.0
 40
1.0
 40
1.0
 40
1.0
 10
2.5549654067
 20
3.519231311
 30
0.0
 10
2.5537334129
 20
3.5192313114
 30
0.0
 10
2.5512688654
 20
3.5192814251
 30
0.0
 10
2.5475792287
 20
3.5195252241
 30
0.0
 10
2.5439062839
 20
3.5199560857
 30
0.0
 10
2.5402632112
 20
3.5205934448
 30
0.0
 10
2.536666552
 20
3.5214567587
 30
0.0
 10
2.5331376782
 20
3.5225669357
 30
0.0
 10
2.5297030121
 20
3.5239426534
 30
0.0
 10
2.526395374
 20
3.5256024722
 30
0.0
 10
2.5232564526
 20
3.5275642604
 30
0.0
 10
2.5203328351
 20
3.5298362962
 30
0.0
 10
2.517685275
 20
3.5324264888
 30
0.0
 10
2.5153742422
 20
3.5353222624
 30
0.0
 10
2.513791968
 20
3.5379768927
 30
0.0
 10
2.5127642759
 20
3.5402181421
 30
0.0
 10
2.5121209544
 20
3.5419529087
 30
0.0
 10
2.5116132496
 20
3.5437320732
 30
0.0
 10
2.5112483352
 20
3.5455460559
 30
0.0
 10
2.5110248983
 20
3.5473825425
 30
0.0
 10
2.510972918
 20
3.5486153015
 30
0.0
 10
2.5109729069
 20
3.549231311
 30
0.0
  0
LINE
  5
33B
100
AcDbEntity
  8
0
100
AcDbLine
 62
7
  6
CONTINUOUS
 10
5.3232109517
 20
4.8183982273
 11
5.3231210706
 21
4.8191327883
  0
SPLINE
  5
33C
100
AcDbEntity
  8
0
100
AcDbSpline
 62
7
  6
CONTINUOUS
 70
0
 71
3
 72
23
 73
19
 74
0
 42
0.0000001
 43
0.0000001
 44
0.0000000001
 40
0.0
 40
0.0
 40
0.0
 40
0.0
 40
0.1240763644
 40
0.2479160145
 40
0.3716535052
 40
0.4335582736
 40
0.4955198179
 40
0.5575745163
 40
0.6197707661
 40
0.6821697269
 40
0.7448470351
 40
0.7763399439
 40
0.8079423621
 40
0.8714394301
 40
0.9034258805
 40
0.9355373124
 40
0.9677415738
 40
1.0
 40
1.0
 40
1.0
 40
1.0
 10
7.7814565131
 20
3.784231311
 30
0.0
 10
7.7830729791
 20
3.7842313114
 30
0.0
 10
7.7863034791
 20
3.7841697964
 30
0.0
 10
7.7911359388
 20
3.7838313632
 30
0.0
 10
7.7951345743
 20
3.7832780452
 30
0.0
 10
7.7982932611
 20
3.7826175451
 30
0.0
 10
7.800635418
 20
3.7819946764
 30
0.0
 10
7.8029374121
 20
3.7812230302
 30
0.0
 10
7.8051803249
 20
3.7802763211
 30
0.0
 10
7.807335074
 20
3.7791236176
 30
0.0
 10
7.8090186991
 20
3.7779612988
 30
0.0
 10
7.810261996
 20
3.7768915413
 30
0.0
 10
7.8114240439
 20
3.775719698
 30
0.0
 10
7.8124285311
 20
3.7743865251
 30
0.0
 10
7.8131935813
 20
3.7729068059
 30
0.0
 10
7.8136260685
 20
3.7717251241
 30
0.0
 10
7.8138975242
 20
3.7704926731
 30
0.0
 10
7.8139591898
 20
3.7696515735
 30
0.0
 10
7.8139592214
 20
3.769231311
 30
0.0
  0
SPLINE
  5
33D
100
AcDbEntity
  8
0
100
AcDbSpline
 62
7
  6
CONTINUOUS
 70
0
 71
3
 72
24
 73
20
 74
0
 42
0.0000001
 43
0.0000001
 44
0.0000000001
 40
0.0
 40
0.0
 40
0.0
 40
0.0
 40
0.0322560274
 40
0.0644573475
 40
0.0965666033
 40
0.1285514423
 40
0.1603994801
 40
0.1921220081
 40
0.2237262102
 40
0.2552148295
 40
0.3178854209
 40
0.3802798079
 40
0.4424706892
 40
0.5045196313
 40
0.5664758658
 40
0.6283754051
 40
0.7521040503
 40
0.8759334685
 40
1.0
 40
1.0
 40
1.0
 40
1.0
 10
7.8139592214
 20
3.549231311
 30
0.0
 10
7.8139591406
 20
3.5488110466
 30
0.0
 10
7.8138975087
 20
3.5479699456
 30
0.0
 10
7.813625677
 20
3.546737553
 30
0.0
 10
7.8131935377
 20
3.5455558706
 30
0.0
 10
7.8126183138
 20
3.5444426389
 30
0.0
 10
7.8119235884
 20
3.5434066527
 30
0.0
 10
7.8111321062
 20
3.5424497016
 30
0.0
 10
7.8102622215
 20
3.5415704346
 30
0.0
 10
7.8090186518
 20
3.5405012557
 30
0.0
 10
7.8073348811
 20
3.5393391343
 30
0.0
 10
7.8051803327
 20
3.5381861611
 30
0.0
 10
7.8029373662
 20
3.537239573
 30
0.0
 10
7.8006354001
 20
3.5364679371
 30
0.0
 10
7.7982932592
 20
3.535845083
 30
0.0
 10
7.7951345636
 20
3.5351846253
 30
0.0
 10
7.7911359395
 20
3.5346312243
 30
0.0
 10
7.7863034699
 20
3.5342928359
 30
0.0
 10
7.7830729782
 20
3.534231311
 30
0.0
 10
7.7814565131
 20
3.534231311
 30
0.0
  0
SPLINE
  5
33E
100
AcDbEntity
  8
0
100
AcDbSpline
 62
7
  6
CONTINUOUS
 70
0
 71
3
 72
26
 73
22
 74
0
 42
0.0000001
 43
0.0000001
 44
0.0000000001
 40
0.0
 40
0.0
 40
0.0
 40
0.0
 40
0.032254588
 40
0.0644549501
 40
0.096563134
 40
0.1285454617
 40
0.1603940097
 40
0.1921157525
 40
0.2237174966
 40
0.2552028541
 40
0.2865936737
 40
0.3179013936
 40
0.3802945209
 40
0.4424804908
 40
0.5045256277
 40
0.5664800126
 40
0.6283736928
 40
0.6902451665
 40
0.7521202845
 40
0.8759407035
 40
1.0
 40
1.0
 40
1.0
 40
1.0
 10
6.5224626983
 20
3.769231311
 30
0.0
 10
6.5224627688
 20
3.7696515802
 30
0.0
 10
6.5225243955
 20
3.7704926954
 30
0.0
 10
6.5227961094
 20
3.7717251357
 30
0.0
 10
6.5232282535
 20
3.7729068495
 30
0.0
 10
6.5238038411
 20
3.7740199186
 30
0.0
 10
6.524498314
 20
3.7750560878
 30
0.0
 10
6.5252896524
 20
3.7760132358
 30
0.0
 10
6.5261597404
 20
3.7768922463
 30
0.0
 10
6.5270941409
 20
3.7776954918
 30
0.0
 10
6.5280800025
 20
3.7784278481
 30
0.0
 10
6.5294474728
 20
3.7793163649
 30
0.0
 10
6.5312417841
 20
3.7802767462
 30
0.0
 10
6.5334846236
 20
3.781223052
 30
0.0
 10
6.5357866769
 20
3.7819946078
 30
0.0
 10
6.5381287089
 20
3.7826176837
 30
0.0
 10
6.5404983503
 20
3.7831130777
 30
0.0
 10
6.5428869358
 20
3.7834990949
 30
0.0
 10
6.5460898368
 20
3.7838878673
 30
0.0
 10
6.5501186434
 20
3.7841697227
 30
0.0
 10
6.553348933
 20
3.7842313059
 30
0.0
 10
6.5549653945
 20
3.784231311
 30
0.0
  0
SPLINE
  5
33F
100
AcDbEntity
  8
0
100
AcDbSpline
 62
7
  6
CONTINUOUS
 70
0
 71
3
 72
24
 73
20
 74
0
 42
0.0000001
 43
0.0000001
 44
0.0000000001
 40
0.0
 40
0.0
 40
0.0
 40
0.0
 40
0.1240685473
 40
0.2478999549
 40
0.3716308469
 40
0.4335318318
 40
0.4954879935
 40
0.5575392727
 40
0.6197320625
 40
0.6821257124
 40
0.7134367654
 40
0.7448316474
 40
0.8078713676
 40
0.839594438
 40
0.8714470532
 40
0.9034310355
 40
0.9355410332
 40
0.9677434227
 40
1.0
 40
1.0
 40
1.0
 40
1.0
 10
6.5549654063
 20
3.534231311
 30
0.0
 10
6.5533489428
 20
3.5342313111
 30
0.0
 10
6.550118454
 20
3.5342928314
 30
0.0
 10
6.5452859895
 20
3.5346312264
 30
0.0
 10
6.5412873499
 20
3.5351845787
 30
0.0
 10
6.5381286885
 20
3.5358451598
 30
0.0
 10
6.5357864968
 20
3.5364677941
 30
0.0
 10
6.5334845308
 20
3.5372396781
 30
0.0
 10
6.5312417956
 20
3.5381862158
 30
0.0
 10
6.5294472818
 20
3.5391460448
 30
0.0
 10
6.5280797175
 20
3.5400346746
 30
0.0
 10
6.5267643641
 20
3.5410124442
 30
0.0
 10
6.5255505144
 20
3.5421332222
 30
0.0
 10
6.524498092
 20
3.5434064009
 30
0.0
 10
6.523803959
 20
3.5444428549
 30
0.0
 10
6.5232281927
 20
3.5455558048
 30
0.0
 10
6.5227959994
 20
3.5467374984
 30
0.0
 10
6.522524393
 20
3.5479699434
 30
0.0
 10
6.5224627648
 20
3.5488110467
 30
0.0
 10
6.5224626983
 20
3.549231311
 30
0.0
  0
SPLINE
  5
340
100
AcDbEntity
  8
0
100
AcDbSpline
 62
7
  6
CONTINUOUS
 70
0
 71
3
 72
54
 73
50
 74
0
 42
0.0000001
 43
0.0000001
 44
0.0000000001
 40
0.0
 40
0.0
 40
0.0
 40
0.0
 40
0.1077935136
 40
0.214082539
 40
0.317387568
 40
0.3674705205
 40
0.4162738369
 40
0.4636288634
 40
0.5093725541
 40
0.5533481934
 40
0.595406126
 40
0.6354045644
 40
0.6732103476
 40
0.7086998079
 40
0.7417597911
 40
0.7722889162
 40
0.7865767338
 40
0.8002001424
 40
0.813150652
 40
0.8254208654
 40
0.8370050219
 40
0.847898538
 40
0.8580989965
 40
0.8676059521
 40
0.8764216178
 40
0.8845517725
 40
0.8920061745
 40
0.898800686
 40
0.9049586661
 40
0.9105142742
 40
0.9155166433
 40
0.9200350373
 40
0.9241654498
 40
0.9261258353
 40
0.9280391383
 40
0.9299253795
 40
0.9318054505
 40
0.9337004468
 40
0.9356309748
 40
0.9396705526
 40
0.9440644151
 40
0.9489172195
 40
0.9543054264
 40
0.9602833779
 40
0.9668892096
 40
0.9741489729
 40
0.9820805599
 40
0.9906953022
 40
1.0
 40
1.0
 40
1.0
 40
1.0
 10
5.1682109599
 20
5.1955298518
 30
0.0
 10
5.178331853
 20
5.1955298518
 30
0.0
 10
5.1984328022
 20
5.1953638894
 30
0.0
 10
5.2282247973
 20
5.1946188829
 30
0.0
 10
5.2525857878
 20
5.1935842085
 30
0.0
 10
5.2715395926
 20
5.1925087096
 30
0.0
 10
5.2852402354
 20
5.1915953156
 30
0.0
 10
5.298524391
 20
5.1905702232
 30
0.0
 10
5.311344815
 20
5.1894371079
 30
0.0
 10
5.3236559062
 20
5.1882000802
 30
0.0
 10
5.3354138956
 20
5.1868636271
 30
0.0
 10
5.3465770106
 20
5.1854326221
 30
0.0
 10
5.3571056196
 20
5.1839122951
 30
0.0
 10
5.3669624256
 20
5.1823082571
 30
0.0
 10
5.3761124704
 20
5.1806263808
 30
0.0
 10
5.3832715179
 20
5.179134189
 30
0.0
 10
5.3886178952
 20
5.1778988786
 30
0.0
 10
5.3923422909
 20
5.1769772173
 30
0.0
 10
5.3958673294
 20
5.1760406754
 30
0.0
 10
5.3991899075
 20
5.1750900498
 30
0.0
 10
5.4023071188
 20
5.1741262628
 30
0.0
 10
5.405216248
 20
5.1731501355
 30
0.0
 10
5.4079147932
 20
5.1721625953
 30
0.0
 10
5.4104004668
 20
5.1711645232
 30
0.0
 10
5.412671199
 20
5.1701567769
 30
0.0
 10
5.4147251917
 20
5.1691402817
 30
0.0
 10
5.4165608667
 20
5.1681157724
 30
0.0
 10
5.4181769736
 20
5.167084029
 30
0.0
 10
5.4195725092
 20
5.1660455116
 30
0.0
 10
5.4207466675
 20
5.1650004035
 30
0.0
 10
5.4216987273
 20
5.1639482343
 30
0.0
 10
5.4224272063
 20
5.1628882915
 30
0.0
 10
5.4228529001
 20
5.1619812038
 30
0.0
 10
5.4230698123
 20
5.1612605007
 30
0.0
 10
5.4231725824
 20
5.1607285381
 30
0.0
 10
5.4232180206
 20
5.1601961939
 30
0.0
 10
5.4232060908
 20
5.1596637567
 30
0.0
 10
5.423136776
 20
5.1591315226
 30
0.0
 10
5.4229655738
 20
5.1584119797
 30
0.0
 10
5.4225974408
 20
5.1575044234
 30
0.0
 10
5.4219346487
 20
5.1564418796
 30
0.0
 10
5.4210476829
 20
5.1553874811
 30
0.0
 10
5.4199382869
 20
5.1543404169
 30
0.0
 10
5.4186073276
 20
5.1532999581
 30
0.0
 10
5.4170555307
 20
5.1522662134
 30
0.0
 10
5.4152838593
 20
5.1512395131
 30
0.0
 10
5.4132934609
 20
5.150220602
 30
0.0
 10
5.4110858637
 20
5.1492102206
 30
0.0
 10
5.4095304769
 20
5.1485676887
 30
0.0
 10
5.408717931
 20
5.1482467497
 30
0.0
  0
SPLINE
  5
341
100
AcDbEntity
  8
0
100
AcDbSpline
 62
7
  6
CONTINUOUS
 70
0
 71
3
 72
54
 73
50
 74
0
 42
0.0000001
 43
0.0000001
 44
0.0000000001
 40
0.0
 40
0.0
 40
0.0
 40
0.0
 40
0.009304591
 40
0.0179192293
 40
0.0258507157
 40
0.0331103825
 40
0.0397161225
 40
0.0456939885
 40
0.0510821176
 40
0.0559348541
 40
0.0603286615
 40
0.0643682001
 40
0.0662987154
 40
0.068193704
 40
0.0700737723
 40
0.0719600159
 40
0.0738733259
 40
0.0758337228
 40
0.0799641692
 40
0.0844826083
 40
0.0894850301
 40
0.0950406955
 40
0.1011987353
 40
0.1079933074
 40
0.1154477699
 40
0.1235779842
 40
0.1323937082
 40
0.1419007203
 40
0.1521012331
 40
0.1629948014
 40
0.1745790075
 40
0.186849268
 40
0.199799822
 40
0.2134232723
 40
0.2277111288
 40
0.2582403232
 40
0.2913003645
 40
0.3267898718
 40
0.364595691
 40
0.4045941548
 40
0.4466521027
 40
0.4906277478
 40
0.5363714353
 40
0.5837264504
 40
0.6325297478
 40
0.6826126748
 40
0.785917636
 40
0.8922065779
 40
1.0
 40
1.0
 40
1.0
 40
1.0
 10
4.9277036249
 20
5.1482468934
 30
0.0
 10
4.926891091
 20
5.1485678321
 30
0.0
 10
4.9253357278
 20
5.1492103633
 30
0.0
 10
4.923128166
 20
5.1502207436
 30
0.0
 10
4.9211378023
 20
5.1512396536
 30
0.0
 10
4.9193661647
 20
5.1522663526
 30
0.0
 10
4.9178144008
 20
5.153300096
 30
0.0
 10
4.9164834736
 20
5.1543405532
 30
0.0
 10
4.9153741088
 20
5.1553876159
 30
0.0
 10
4.9144871735
 20
5.1564420131
 30
0.0
 10
4.913824411
 20
5.1575045556
 30
0.0
 10
4.9134563031
 20
5.1584121099
 30
0.0
 10
4.9132851202
 20
5.1591316506
 30
0.0
 10
4.9132158193
 20
5.1596638836
 30
0.0
 10
4.9132039031
 20
5.1601963196
 30
0.0
 10
4.9132493547
 20
5.1607286625
 30
0.0
 10
4.9133521379
 20
5.1612606237
 30
0.0
 10
4.9135690677
 20
5.1619813256
 30
0.0
 10
4.9139947828
 20
5.162888411
 30
0.0
 10
4.9147232851
 20
5.1639483504
 30
0.0
 10
4.9156753669
 20
5.1650005163
 30
0.0
 10
4.9168495462
 20
5.1660456215
 30
0.0
 10
4.9182451017
 20
5.1670841358
 30
0.0
 10
4.9198612275
 20
5.1681158762
 30
0.0
 10
4.9216969202
 20
5.1691403825
 30
0.0
 10
4.9237509296
 20
5.1701568745
 30
0.0
 10
4.9260216773
 20
5.1711646177
 30
0.0
 10
4.9285073653
 20
5.1721626867
 30
0.0
 10
4.9312059236
 20
5.1731502236
 30
0.0
 10
4.934115065
 20
5.1741263477
 30
0.0
 10
4.9372322871
 20
5.1750901315
 30
0.0
 10
4.9405548749
 20
5.1760407537
 30
0.0
 10
4.944079922
 20
5.1769772924
 30
0.0
 10
4.9478043251
 20
5.1778989504
 30
0.0
 10
4.9531507101
 20
5.1791342562
 30
0.0
 10
4.9603097644
 20
5.1806264422
 30
0.0
 10
4.9694598138
 20
5.1823083123
 30
0.0
 10
4.9793166202
 20
5.183912344
 30
0.0
 10
4.9898452254
 20
5.185432665
 30
0.0
 10
5.0010083327
 20
5.1868636642
 30
0.0
 10
5.0127663106
 20
5.1882001119
 30
0.0
 10
5.0250773867
 20
5.1894371343
 30
0.0
 10
5.0378977924
 20
5.1905702449
 30
0.0
 10
5.0511819265
 20
5.1915953329
 30
0.0
 10
5.0648825453
 20
5.192508723
 30
0.0
 10
5.0838363134
 20
5.1935842171
 30
0.0
 10
5.1081972536
 20
5.1946188869
 30
0.0
 10
5.1379891846
 20
5.1953638902
 30
0.0
 10
5.1580900894
 20
5.1955298518
 30
0.0
 10
5.1682109599
 20
5.1955298518
 30
0.0
  0
SPLINE
  5
342
100
AcDbEntity
  8
0
100
AcDbSpline
 62
7
  6
CONTINUOUS
 70
0
 71
3
 72
29
 73
25
 74
0
 42
0.0000001
 43
0.0000001
 44
0.0000000001
 40
0.0
 40
0.0
 40
0.0
 40
0.0
 40
0.086571984
 40
0.1725135192
 40
0.2571998952
 40
0.340015421
 40
0.4203597523
 40
0.4976520585
 40
0.5713361387
 40
0.6408853553
 40
0.7058075997
 40
0.7656507439
 40
0.7935394496
 40
0.8200103061
 40
0.8450208226
 40
0.8685328881
 40
0.8905124777
 40
0.9109309463
 40
0.9297652298
 40
0.9469996044
 40
0.9626269582
 40
0.9766519531
 40
0.9890950436
 40
1.0
 40
1.0
 40
1.0
 40
1.0
 10
5.1682109599
 20
4.8063410037
 30
0.0
 10
5.1722281929
 20
4.8063410037
 30
0.0
 10
5.1802334879
 20
4.8063888707
 30
0.0
 10
5.1921667744
 20
4.8066039927
 30
0.0
 10
5.2039223071
 20
4.8069607153
 30
0.0
 10
5.2154128542
 20
4.8074563358
 30
0.0
 10
5.2265531648
 20
4.8080870859
 30
0.0
 10
5.2372606177
 20
4.8088481589
 30
0.0
 10
5.2474558206
 20
4.809733741
 30
0.0
 10
5.2570632623
 20
4.8107369966
 30
0.0
 10
5.2660117625
 20
4.8118502437
 30
0.0
 10
5.2730202882
 20
4.8128850384
 30
0.0
 10
5.2782456248
 20
4.813768894
 30
0.0
 10
5.2818674855
 20
4.8144382868
 30
0.0
 10
5.285278477
 20
4.8151285549
 30
0.0
 10
5.2884723123
 20
4.8158383756
 30
0.0
 10
5.2914431321
 20
4.8165664039
 30
0.0
 10
5.294185517
 20
4.81731121
 30
0.0
 10
5.2966945118
 20
4.8180713695
 30
0.0
 10
5.2989656742
 20
4.8188453877
 30
0.0
 10
5.300995064
 20
4.819631776
 30
0.0
 10
5.3027794898
 20
4.820429101
 30
0.0
 10
5.3043160544
 20
4.8212358696
 30
0.0
 10
5.3052330043
 20
4.8218166282
 30
0.0
 10
5.3056442866
 20
4.8221114333
 30
0.0
  0
LINE
  5
343
100
AcDbEntity
  8
0
100
AcDbLine
 62
7
  6
CONTINUOUS
 10
5.0133008491
 20
4.8191327883
 11
5.0132109681
 21
4.8183982273
  0
SPLINE
  5
344
100
AcDbEntity
  8
0
100
AcDbSpline
 62
7
  6
CONTINUOUS
 70
0
 71
3
 72
42
 73
38
 74
0
 42
0.0000001
 43
0.0000001
 44
0.0000000001
 40
0.0
 40
0.0
 40
0.0
 40
0.0
 40
0.0033359677
 40
0.0067713684
 40
0.0103972327
 40
0.0142909168
 40
0.0185143768
 40
0.0231156535
 40
0.0281312164
 40
0.0335881604
 40
0.039506737
 40
0.0459018585
 40
0.0527841096
 40
0.0601611228
 40
0.0680379955
 40
0.0764176343
 40
0.0853015703
 40
0.0946898988
 40
0.1149733618
 40
0.1372498762
 40
0.1491263644
 40
0.1614884664
 40
0.1876467189
 40
0.2156758489
 40
0.2455194734
 40
0.277114747
 40
0.3103933016
 40
0.3452816614
 40
0.3817014094
 40
0.419569837
 40
0.458800282
 40
0.54098077
 40
0.6274806148
 40
0.7174907768
 40
0.8101658611
 40
0.9046319561
 40
1.0
 40
1.0
 40
1.0
 40
1.0
 10
4.8982109599
 20
4.8233495677
 30
0.0
 10
4.8982109599
 20
4.823658154
 30
0.0
 10
4.8982671473
 20
4.8242858464
 30
0.0
 10
4.8985177249
 20
4.8252187624
 30
0.0
 10
4.8989329262
 20
4.8261473065
 30
0.0
 10
4.8995107232
 20
4.827070631
 30
0.0
 10
4.9002495691
 20
4.8279891417
 30
0.0
 10
4.9011486039
 20
4.828903119
 30
0.0
 10
4.9022072589
 20
4.829812688
 30
0.0
 10
4.9034249825
 20
4.830717831
 30
0.0
 10
4.9048012512
 20
4.8316182792
 30
0.0
 10
4.9063354235
 20
4.8325136513
 30
0.0
 10
4.9080267066
 20
4.8334035568
 30
0.0
 10
4.9098742252
 20
4.8342874845
 30
0.0
 10
4.911876968
 20
4.8351649221
 30
0.0
 10
4.9140337946
 20
4.8360353818
 30
0.0
 10
4.916343476
 20
4.836898335
 30
0.0
 10
4.9197128193
 20
4.83806857
 30
0.0
 10
4.924301452
 20
4.8394997624
 30
0.0
 10
4.9291574637
 20
4.8408352928
 30
0.0
 10
4.9333293303
 20
4.8418890047
 30
0.0
 10
4.937864094
 20
4.8429706242
 30
0.0
 10
4.9438782797
 20
4.8442871875
 30
0.0
 10
4.9515053554
 20
4.8457892696
 30
0.0
 10
4.959654028
 20
4.8472380705
 30
0.0
 10
4.9683047331
 20
4.8486300334
 30
0.0
 10
4.9774367317
 20
4.8499617024
 30
0.0
 10
4.9870280876
 20
4.8512297879
 30
0.0
 10
4.9970557392
 20
4.8524311811
 30
0.0
 10
5.0074955694
 20
4.8535629692
 30
0.0
 10
5.02215956
 20
4.8549976742
 30
0.0
 10
5.0413273788
 20
4.8565863305
 30
0.0
 10
5.0652069197
 20
4.8581492577
 30
0.0
 10
5.0900777814
 20
4.859381204
 30
0.0
 10
5.1157005412
 20
4.8602699892
 30
0.0
 10
5.1418287218
 20
4.8608068083
 30
0.0
 10
5.1593891495
 20
4.8609263049
 30
0.0
 10
5.1682109599
 20
4.8609263049
 30
0.0
  0
SPLINE
  5
345
100
AcDbEntity
  8
0
100
AcDbSpline
 62
7
  6
CONTINUOUS
 70
0
 71
3
 72
42
 73
38
 74
0
 42
0.0000001
 43
0.0000001
 44
0.0000000001
 40
0.0
 40
0.0
 40
0.0
 40
0.0
 40
0.0033359677
 40
0.0067713684
 40
0.0103972327
 40
0.0142909168
 40
0.0185143768
 40
0.0231156535
 40
0.0281312164
 40
0.0335881604
 40
0.039506737
 40
0.0459018585
 40
0.0527841096
 40
0.0601611228
 40
0.0680379955
 40
0.0764176343
 40
0.0853015703
 40
0.0946898988
 40
0.1149733618
 40
0.1372498762
 40
0.1491263644
 40
0.1614884664
 40
0.1876467189
 40
0.2156758489
 40
0.2455194734
 40
0.277114747
 40
0.3103933016
 40
0.3452816614
 40
0.3817014094
 40
0.419569837
 40
0.458800282
 40
0.54098077
 40
0.6274806148
 40
0.7174907768
 40
0.8101658611
 40
0.9046319561
 40
1.0
 40
1.0
 40
1.0
 40
1.0
 10
4.8982109599
 20
4.843154929
 30
0.0
 10
4.8982109599
 20
4.8434635154
 30
0.0
 10
4.8982671473
 20
4.8440912078
 30
0.0
 10
4.8985177249
 20
4.8450241238
 30
0.0
 10
4.8989329262
 20
4.8459526678
 30
0.0
 10
4.8995107232
 20
4.8468759924
 30
0.0
 10
4.9002495691
 20
4.847794503
 30
0.0
 10
4.9011486039
 20
4.8487084804
 30
0.0
 10
4.9022072589
 20
4.8496180494
 30
0.0
 10
4.9034249825
 20
4.8505231924
 30
0.0
 10
4.9048012512
 20
4.8514236406
 30
0.0
 10
4.9063354235
 20
4.8523190127
 30
0.0
 10
4.9080267066
 20
4.8532089182
 30
0.0
 10
4.9098742252
 20
4.8540928458
 30
0.0
 10
4.911876968
 20
4.8549702835
 30
0.0
 10
4.9140337946
 20
4.8558407432
 30
0.0
 10
4.916343476
 20
4.8567036964
 30
0.0
 10
4.9197128193
 20
4.8578739314
 30
0.0
 10
4.924301452
 20
4.8593051238
 30
0.0
 10
4.9291574637
 20
4.8606406542
 30
0.0
 10
4.9333293303
 20
4.861694366
 30
0.0
 10
4.937864094
 20
4.8627759856
 30
0.0
 10
4.9438782797
 20
4.8640925488
 30
0.0
 10
4.9515053554
 20
4.865594631
 30
0.0
 10
4.959654028
 20
4.8670434319
 30
0.0
 10
4.9683047331
 20
4.8684353947
 30
0.0
 10
4.9774367317
 20
4.8697670638
 30
0.0
 10
4.9870280876
 20
4.8710351492
 30
0.0
 10
4.9970557392
 20
4.8722365425
 30
0.0
 10
5.0074955694
 20
4.8733683306
 30
0.0
 10
5.02215956
 20
4.8748030356
 30
0.0
 10
5.0413273788
 20
4.8763916919
 30
0.0
 10
5.0652069197
 20
4.8779546191
 30
0.0
 10
5.0900777814
 20
4.8791865654
 30
0.0
 10
5.1157005412
 20
4.8800753506
 30
0.0
 10
5.1418287218
 20
4.8806121697
 30
0.0
 10
5.1593891495
 20
4.8807316663
 30
0.0
 10
5.1682109599
 20
4.8807316663
 30
0.0
  0
SPLINE
  5
346
100
AcDbEntity
  8
0
100
AcDbSpline
 62
7
  6
CONTINUOUS
 70
0
 71
3
 72
29
 73
25
 74
0
 42
0.0000001
 43
0.0000001
 44
0.0000000001
 40
0.0
 40
0.0
 40
0.0
 40
0.0
 40
0.0312493119
 40
0.0625059632
 40
0.0937568575
 40
0.1250105831
 40
0.1562631979
 40
0.18751811
 40
0.2187721636
 40
0.2500257595
 40
0.2812809057
 40
0.3125349671
 40
0.3437903406
 40
0.3750448449
 40
0.4375318574
 40
0.500022378
 40
0.5312782499
 40
0.5625329308
 40
0.6250289348
 40
0.6875283003
 40
0.7500280705
 40
0.8125272727
 40
0.875029677
 40
1.0
 40
1.0
 40
1.0
 40
1.0
 10
6.5109729069
 20
3.769231311
 30
0.0
 10
6.5109729274
 20
3.7698473389
 30
0.0
 10
6.5110250498
 20
3.7710800593
 30
0.0
 10
6.5112486602
 20
3.772916506
 30
0.0
 10
6.5116141016
 20
3.7747303054
 30
0.0
 10
6.5121204458
 20
3.7765098402
 30
0.0
 10
6.5127644002
 20
3.778244343
 30
0.0
 10
6.5135364665
 20
3.7799255058
 30
0.0
 10
6.514425373
 20
3.7815478289
 30
0.0
 10
6.5154256329
 20
3.7831039285
 30
0.0
 10
6.5165291222
 20
3.7845884721
 30
0.0
 10
6.5177268697
 20
3.7859979389
 30
0.0
 10
6.5190093383
 20
3.7873306407
 30
0.0
 10
6.5208197309
 20
3.7890039766
 30
0.0
 10
6.5232550651
 20
3.7909000726
 30
0.0
 10
6.5258722045
 20
3.7925334382
 30
0.0
 10
6.5280491912
 20
3.7936894178
 30
0.0
 10
6.5302747367
 20
3.7947491785
 30
0.0
 10
6.5331371494
 20
3.7958967971
 30
0.0
 10
6.5366664949
 20
3.7970051827
 30
0.0
 10
6.5402629846
 20
3.7978692641
 30
0.0
 10
6.5439061365
 20
3.7985069916
 30
0.0
 10
6.5488023027
 20
3.7990808982
 30
0.0
 10
6.5525018256
 20
3.7992312852
 30
0.0
 10
6.5549654067
 20
3.799231311
 30
0.0
  0
SPLINE
  5
347
100
AcDbEntity
  8
0
100
AcDbSpline
 62
7
  6
CONTINUOUS
 70
0
 71
3
 72
28
 73
24
 74
0
 42
0.0000001
 43
0.0000001
 44
0.0000000001
 40
0.0
 40
0.0
 40
0.0
 40
0.0
 40
0.0624993805
 40
0.1250065202
 40
0.1875103714
 40
0.2500116372
 40
0.312512388
 40
0.3750125539
 40
0.4375114619
 40
0.5000064042
 40
0.5312616897
 40
0.5625181695
 40
0.6250062551
 40
0.6874899731
 40
0.749968504
 40
0.7812225595
 40
0.8124774925
 40
0.8437328841
 40
0.874986556
 40
0.9062409162
 40
0.9374924262
 40
0.9687499767
 40
1.0
 40
1.0
 40
1.0
 40
1.0
 10
6.5549654067
 20
3.519231311
 30
0.0
 10
6.553733366
 20
3.5192313114
 30
0.0
 10
6.5512687536
 20
3.5192814443
 30
0.0
 10
6.5475790591
 20
3.5195252337
 30
0.0
 10
6.5439060709
 20
3.5199561268
 30
0.0
 10
6.5402629627
 20
3.5205934606
 30
0.0
 10
6.5366663151
 20
3.5214569821
 30
0.0
 10
6.533137431
 20
3.5225672306
 30
0.0
 10
6.5297025814
 20
3.5239422568
 30
0.0
 10
6.5269459877
 20
3.5253264309
 30
0.0
 10
6.5248257344
 20
3.5265839075
 30
0.0
 10
6.5227691161
 20
3.5279425986
 30
0.0
 10
6.5203326305
 20
3.5298368683
 30
0.0
 10
6.5176850806
 20
3.532426299
 30
0.0
 10
6.5157587162
 20
3.5348410307
 30
0.0
 10
6.5144246641
 20
3.5369145188
 30
0.0
 10
6.5135356439
 20
3.5385368547
 30
0.0
 10
6.5127641851
 20
3.5402182923
 30
0.0
 10
6.5121205479
 20
3.5419528877
 30
0.0
 10
6.5116136466
 20
3.543732259
 30
0.0
 10
6.5112482345
 20
3.5455460803
 30
0.0
 10
6.51102492
 20
3.5473825618
 30
0.0
 10
6.510972918
 20
3.548615284
 30
0.0
 10
6.5109729069
 20
3.549231311
 30
0.0
  0
SPLINE
  5
348
100
AcDbEntity
  8
0
100
AcDbSpline
 62
7
  6
CONTINUOUS
 70
0
 71
3
 72
23
 73
19
 74
0
 42
0.0000001
 43
0.0000001
 44
0.0000000001
 40
0.0
 40
0.0
 40
0.0
 40
0.0
 40
0.0624987159
 40
0.1249974159
 40
0.187496863
 40
0.2499963947
 40
0.3124960311
 40
0.3749958754
 40
0.4374956801
 40
0.4999958913
 40
0.5624960598
 40
0.6249965048
 40
0.6874970018
 40
0.7499976816
 40
0.8124984718
 40
0.8749991636
 40
0.9374997975
 40
1.0
 40
1.0
 40
1.0
 40
1.0
 10
6.4921007618
 20
3.549231311
 30
0.0
 10
6.492100886
 20
3.5475839916
 30
0.0
 10
6.4922673483
 20
3.5442870535
 30
0.0
 10
6.493007116
 20
3.539392865
 30
0.0
 10
6.4942329614
 20
3.5345966486
 30
0.0
 10
6.495931296
 20
3.5299469125
 30
0.0
 10
6.4980836114
 20
3.5254890822
 30
0.0
 10
6.5006678532
 20
3.5212670798
 30
0.0
 10
6.5036554705
 20
3.5173201998
 30
0.0
 10
6.5070186531
 20
3.5136881058
 30
0.0
 10
6.5107207411
 20
3.5104022303
 30
0.0
 10
6.5147269603
 20
3.5074949212
 30
0.0
 10
6.5189965144
 20
3.5049904984
 30
0.0
 10
6.5234887471
 20
3.5029117882
 30
0.0
 10
6.5281606988
 20
3.5012767772
 30
0.0
 10
6.532968667
 20
3.5000999377
 30
0.0
 10
6.5378668837
 20
3.4993907985
 30
0.0
 10
6.5411637292
 20
3.4992314256
 30
0.0
 10
6.5428110878
 20
3.499231311
 30
0.0
  0
SPLINE
  5
349
100
AcDbEntity
  8
0
100
AcDbSpline
 62
7
  6
CONTINUOUS
 70
0
 71
3
 72
22
 73
18
 74
0
 42
0.0000001
 43
0.0000001
 44
0.0000000001
 40
0.0
 40
0.0
 40
0.0
 40
0.0
 40
0.1248754366
 40
0.1873850801
 40
0.2498948224
 40
0.3124044625
 40
0.3749138813
 40
0.4374232929
 40
0.4999323974
 40
0.5624415685
 40
0.6249503744
 40
0.6874591659
 40
0.7499677836
 40
0.8124762772
 40
0.8749846764
 40
0.9374923352
 40
1.0
 40
1.0
 40
1.0
 40
1.0
 10
6.5428110878
 20
3.819231311
 30
0.0
 10
6.5395201363
 20
3.8192310679
 30
0.0
 10
6.5345646643
 20
3.8187539077
 30
0.0
 10
6.5281612886
 20
3.8171858171
 30
0.0
 10
6.5234886299
 20
3.8155507752
 30
0.0
 10
6.5189965169
 20
3.8134722039
 30
0.0
 10
6.5147270899
 20
3.810967488
 30
0.0
 10
6.510720677
 20
3.8080604826
 30
0.0
 10
6.5070186444
 20
3.8047745125
 30
0.0
 10
6.5036555671
 20
3.8011423462
 30
0.0
 10
6.5006676461
 20
3.7971956862
 30
0.0
 10
6.4980836628
 20
3.7929735131
 30
0.0
 10
6.4959312694
 20
3.788515738
 30
0.0
 10
6.4942328208
 20
3.7838660287
 30
0.0
 10
6.493007272
 20
3.7790697342
 30
0.0
 10
6.4922674719
 20
3.7741755659
 30
0.0
 10
6.4921008795
 20
3.7708786301
 30
0.0
 10
6.4921007618
 20
3.769231311
 30
0.0
  0
SPLINE
  5
34A
100
AcDbEntity
  8
0
100
AcDbSpline
 62
7
  6
CONTINUOUS
 70
0
 71
3
 72
42
 73
38
 74
0
 42
0.0000001
 43
0.0000001
 44
0.0000000001
 40
0.0
 40
0.0
 40
0.0
 40
0.0
 40
0.003335959
 40
0.0067713607
 40
0.0103972636
 40
0.0142908919
 40
0.0185143631
 40
0.0231156992
 40
0.0281311807
 40
0.0335881489
 40
0.0395067862
 40
0.0459018162
 40
0.0527841037
 40
0.0601611701
 40
0.0680379494
 40
0.0764176349
 40
0.0853016131
 40
0.0946898511
 40
0.1149733989
 40
0.1372498891
 40
0.1491263948
 40
0.1614884198
 40
0.187646743
 40
0.2156758701
 40
0.245519433
 40
0.2771147598
 40
0.3103933253
 40
0.3452816303
 40
0.381701414
 40
0.4195698571
 40
0.458800261
 40
0.5409807839
 40
0.6274806128
 40
0.7174907664
 40
0.8101658949
 40
0.9046319133
 40
1.0
 40
1.0
 40
1.0
 40
1.0
 10
5.408210942
 20
4.8728629711
 30
0.0
 10
5.408210942
 20
4.8731372693
 30
0.0
 10
5.4081610337
 20
4.8736952199
 30
0.0
 10
5.4079382895
 20
4.8745244839
 30
0.0
 10
5.4075691848
 20
4.8753498356
 30
0.0
 10
5.4070556306
 20
4.8761705932
 30
0.0
 10
5.406398865
 20
4.8769870417
 30
0.0
 10
5.4055997053
 20
4.8777994448
 30
0.0
 10
5.4046587038
 20
4.8786079797
 30
0.0
 10
5.4035762728
 20
4.8794125405
 30
0.0
 10
5.4023529143
 20
4.8802129232
 30
0.0
 10
5.4009892201
 20
4.8810088353
 30
0.0
 10
5.3994858506
 20
4.8817998503
 30
0.0
 10
5.3978436076
 20
4.882585553
 30
0.0
 10
5.3960634006
 20
4.8833655192
 30
0.0
 10
5.3941462165
 20
4.8841392489
 30
0.0
 10
5.3920931645
 20
4.884906312
 30
0.0
 10
5.3890981971
 20
4.8859465431
 30
0.0
 10
5.3850194069
 20
4.8872186889
 30
0.0
 10
5.3807029497
 20
4.8884058415
 30
0.0
 10
5.3769946288
 20
4.8893424655
 30
0.0
 10
5.3729637303
 20
4.8903039201
 30
0.0
 10
5.3676177847
 20
4.8914741831
 30
0.0
 10
5.3608381622
 20
4.8928093707
 30
0.0
 10
5.3535948999
 20
4.8940972009
 30
0.0
 10
5.3459053829
 20
4.8953344942
 30
0.0
 10
5.33778805
 20
4.8965181989
 30
0.0
 10
5.329262402
 20
4.8976453931
 30
0.0
 10
5.3203489336
 20
4.8987132932
 30
0.0
 10
5.3110690835
 20
4.8997193252
 30
0.0
 10
5.2980344252
 20
4.900994626
 30
0.0
 10
5.2809963652
 20
4.9024067565
 30
0.0
 10
5.2597701062
 20
4.9037960299
 30
0.0
 10
5.237662672
 20
4.9048910933
 30
0.0
 10
5.214886889
 20
4.905681122
 30
0.0
 10
5.1916618388
 20
4.9061582968
 30
0.0
 10
5.1760525726
 20
4.9062645153
 30
0.0
 10
5.1682109599
 20
4.9062645153
 30
0.0
  0
SPLINE
  5
34B
100
AcDbEntity
  8
0
100
AcDbSpline
 62
7
  6
CONTINUOUS
 70
0
 71
3
 72
23
 73
19
 74
0
 42
0.0000001
 43
0.0000001
 44
0.0000000001
 40
0.0
 40
0.0
 40
0.0
 40
0.0
 40
0.0624737875
 40
0.1249518514
 40
0.1874328852
 40
0.2499176354
 40
0.312406244
 40
0.3748988181
 40
0.4373952881
 40
0.499895644
 40
0.5623996783
 40
0.624907127
 40
0.6874176763
 40
0.7499308314
 40
0.8124462273
 40
0.874963103
 40
0.9374814974
 40
1.0
 40
1.0
 40
1.0
 40
1.0
 10
7.803115461
 20
3.4849185014
 30
0.0
 10
7.8050307948
 20
3.4851969622
 30
0.0
 10
7.8088392106
 20
3.4859228905
 30
0.0
 10
7.8144324444
 20
3.4875095222
 30
0.0
 10
7.8198650192
 20
3.4895827757
 30
0.0
 10
7.8250937618
 20
3.4921272182
 30
0.0
 10
7.8300775882
 20
3.4951239299
 30
0.0
 10
7.8347768436
 20
3.498550344
 30
0.0
 10
7.8391538428
 20
3.5023804659
 30
0.0
 10
7.8431732474
 20
3.5065848495
 30
0.0
 10
7.8468022814
 20
3.5111309389
 30
0.0
 10
7.850011103
 20
3.5159831858
 30
0.0
 10
7.8527732128
 20
3.5211032623
 30
0.0
 10
7.8550655165
 20
3.5264505084
 30
0.0
 10
7.8568688259
 20
3.531982047
 30
0.0
 10
7.8581678799
 20
3.5376535416
 30
0.0
 10
7.8589517627
 20
3.5434184836
 30
0.0
 10
7.8591264555
 20
3.5472944557
 30
0.0
 10
7.8591264908
 20
3.549231311
 30
0.0
  0
SPLINE
  5
34C
100
AcDbEntity
  8
0
100
AcDbSpline
 62
7
  6
CONTINUOUS
 70
0
 71
3
 72
23
 73
19
 74
0
 42
0.0000001
 43
0.0000001
 44
0.0000000001
 40
0.0
 40
0.0
 40
0.0
 40
0.0
 40
0.0625185142
 40
0.1250369017
 40
0.1875537582
 40
0.2500691275
 40
0.3125822392
 40
0.3750927504
 40
0.4376001967
 40
0.5001041972
 40
0.5626045512
 40
0.625101044
 40
0.6875935991
 40
0.7500822515
 40
0.8125670552
 40
0.8750481008
 40
0.9375261982
 40
1.0
 40
1.0
 40
1.0
 40
1.0
 10
7.8591264908
 20
3.769231311
 30
0.0
 10
7.8591264364
 20
3.7711681664
 30
0.0
 10
7.8589517703
 20
3.7750441383
 30
0.0
 10
7.858167876
 20
3.7808090791
 30
0.0
 10
7.8568688269
 20
3.7864805723
 30
0.0
 10
7.8550655088
 20
3.7920121047
 30
0.0
 10
7.8527732189
 20
3.7973593517
 30
0.0
 10
7.8500111172
 20
3.8024794307
 30
0.0
 10
7.8468022693
 20
3.8073316559
 30
0.0
 10
7.843173267
 20
3.8118777674
 30
0.0
 10
7.8391538572
 20
3.8160821469
 30
0.0
 10
7.834776851
 20
3.8199122586
 30
0.0
 10
7.8300776081
 20
3.8233386916
 30
0.0
 10
7.8250937746
 20
3.8263353964
 30
0.0
 10
7.8198650289
 20
3.8288798379
 30
0.0
 10
7.814432454
 20
3.8309530985
 30
0.0
 10
7.8088392188
 20
3.8325397308
 30
0.0
 10
7.8050308016
 20
3.8332656578
 30
0.0
 10
7.8031154673
 20
3.8335441175
 30
0.0
  0
SPLINE
  5
34D
100
AcDbEntity
  8
0
100
AcDbSpline
 62
7
  6
CONTINUOUS
 70
0
 71
3
 72
35
 73
31
 74
0
 42
0.0000001
 43
0.0000001
 44
0.0000000001
 40
0.0
 40
0.0
 40
0.0
 40
0.0
 40
0.0981362626
 40
0.1953038873
 40
0.290549342
 40
0.3829371014
 40
0.4715671292
 40
0.5555809421
 40
0.6341724611
 40
0.7065943698
 40
0.7721663905
 40
0.8302807482
 40
0.85637253
 40
0.8804073888
 40
0.9023322725
 40
0.9220995176
 40
0.9396671411
 40
0.9549999987
 40
0.9680698118
 40
0.9788578791
 40
0.9833938492
 40
0.987358601
 40
0.9907557151
 40
0.993592109
 40
0.9958813377
 40
0.9976519944
 40
0.9983621715
 40
0.9989729299
 40
0.9995074849
 40
1.0
 40
1.0
 40
1.0
 40
1.0
 10
7.0558022007
 20
3.769231311
 30
0.0
 10
7.0558021958
 20
3.7713641815
 30
0.0
 10
7.0558090209
 20
3.7756088744
 30
0.0
 10
7.0558414226
 20
3.7819235352
 30
0.0
 10
7.0558950558
 20
3.7881131106
 30
0.0
 10
7.0559692208
 20
3.7941169082
 30
0.0
 10
7.0560640392
 20
3.7998762796
 30
0.0
 10
7.0561782596
 20
3.8053353964
 30
0.0
 10
7.0563118943
 20
3.810441701
 30
0.0
 10
7.0564632984
 20
3.815146518
 30
0.0
 10
7.0566315826
 20
3.8194054081
 30
0.0
 10
7.0567899551
 20
3.8226568674
 30
0.0
 10
7.0569264167
 20
3.8250054068
 30
0.0
 10
7.0570285172
 20
3.8265680419
 30
0.0
 10
7.0571339052
 20
3.8279926648
 30
0.0
 10
7.0572423466
 20
3.8292760586
 30
0.0
 10
7.0573534909
 20
3.8304153551
 30
0.0
 10
7.0574669867
 20
3.8314080637
 30
0.0
 10
7.0575826596
 20
3.8322520075
 30
0.0
 10
7.0576852806
 20
3.8328607132
 30
0.0
 10
7.0577705204
 20
3.8332712239
 30
0.0
 10
7.0578310287
 20
3.8335226911
 30
0.0
 10
7.0578917847
 20
3.8337359195
 30
0.0
 10
7.0579527194
 20
3.8339110362
 30
0.0
 10
7.0580137888
 20
3.8340480682
 30
0.0
 10
7.0580682572
 20
3.8341371027
 30
0.0
 10
7.0581135426
 20
3.8341870333
 30
0.0
 10
7.0581453788
 20
3.8342121878
 30
0.0
 10
7.0581778168
 20
3.8342277146
 30
0.0
 10
7.0582002557
 20
3.8342313059
 30
0.0
 10
7.0582109599
 20
3.834231311
 30
0.0
  0
SPLINE
  5
34E
100
AcDbEntity
  8
0
100
AcDbSpline
 62
7
  6
CONTINUOUS
 70
0
 71
3
 72
35
 73
31
 74
0
 42
0.0000001
 43
0.0000001
 44
0.0000000001
 40
0.0
 40
0.0
 40
0.0
 40
0.0
 40
0.0004924434
 40
0.0010269635
 40
0.0016377027
 40
0.0023478643
 40
0.0041184858
 40
0.0064076851
 40
0.0092440786
 40
0.0126412155
 40
0.016606
 40
0.0211419995
 40
0.0319300949
 40
0.0449999054
 40
0.0603327386
 40
0.0779003118
 40
0.0976675158
 40
0.1195924492
 40
0.1436273864
 40
0.1697191324
 40
0.2278333498
 40
0.2934054908
 40
0.3658273357
 40
0.4444188459
 40
0.5284327633
 40
0.6170628061
 40
0.7094506079
 40
0.8046961019
 40
0.9018637415
 40
1.0
 40
1.0
 40
1.0
 40
1.0
 10
7.2782109599
 20
3.834231311
 30
0.0
 10
7.2782216625
 20
3.834231304
 30
0.0
 10
7.2782440983
 20
3.8342277091
 30
0.0
 10
7.278276532
 20
3.8342121803
 30
0.0
 10
7.2783083659
 20
3.8341870255
 30
0.0
 10
7.2783536503
 20
3.8341370963
 30
0.0
 10
7.2784081208
 20
3.8340480652
 30
0.0
 10
7.2784691938
 20
3.8339110363
 30
0.0
 10
7.2785301317
 20
3.833735921
 30
0.0
 10
7.2785908915
 20
3.8335226923
 30
0.0
 10
7.2786514037
 20
3.8332712242
 30
0.0
 10
7.2787366497
 20
3.8328607129
 30
0.0
 10
7.2788392788
 20
3.8322520074
 30
0.0
 10
7.2789549532
 20
3.8314080638
 30
0.0
 10
7.2790684391
 20
3.8304153559
 30
0.0
 10
7.2791795597
 20
3.8292760597
 30
0.0
 10
7.2792879786
 20
3.8279926653
 30
0.0
 10
7.2793934018
 20
3.8265680434
 30
0.0
 10
7.2794955696
 20
3.8250054108
 30
0.0
 10
7.2796319901
 20
3.8226568712
 30
0.0
 10
7.27979024
 20
3.8194054082
 30
0.0
 10
7.279958705
 20
3.8151465279
 30
0.0
 10
7.280109983
 20
3.8104417059
 30
0.0
 10
7.2802435997
 20
3.8053354014
 30
0.0
 10
7.28035792
 20
3.7998762849
 30
0.0
 10
7.2804526619
 20
3.7941169095
 30
0.0
 10
7.2805268522
 20
3.7881131111
 30
0.0
 10
7.2805805037
 20
3.7819235346
 30
0.0
 10
7.2806129062
 20
3.7756088736
 30
0.0
 10
7.2806197226
 20
3.7713641811
 30
0.0
 10
7.280619719
 20
3.769231311
 30
0.0
  0
SPLINE
  5
34F
100
AcDbEntity
  8
0
100
AcDbSpline
 62
7
  6
CONTINUOUS
 70
0
 71
3
 72
38
 73
34
 74
0
 42
0.0000001
 43
0.0000001
 44
0.0000000001
 40
0.0
 40
0.0
 40
0.0
 40
0.0
 40
0.0953685923
 40
0.1898347947
 40
0.2825105909
 40
0.3725210726
 40
0.4590213457
 40
0.5412022443
 40
0.6183004263
 40
0.6547202887
 40
0.689608786
 40
0.7228875499
 40
0.7544829175
 40
0.7843267374
 40
0.8123559206
 40
0.8385143891
 40
0.8627524723
 40
0.8850290912
 40
0.9053127461
 40
0.9235837227
 40
0.9398386376
 40
0.9472156172
 40
0.9540979129
 40
0.9604931025
 40
0.9664117048
 40
0.9718686292
 40
0.9768842196
 40
0.9814855858
 40
0.9857090115
 40
0.9896026812
 40
0.9932286217
 40
0.9966640268
 40
1.0
 40
1.0
 40
1.0
 40
1.0
 10
5.1682109599
 20
4.7989139932
 30
0.0
 10
5.172785237
 20
4.7989139932
 30
0.0
 10
5.1818906334
 20
4.7989759522
 30
0.0
 10
5.1954385806
 20
4.7992543087
 30
0.0
 10
5.2087244522
 20
4.7997151555
 30
0.0
 10
5.2216204536
 20
4.8003539537
 30
0.0
 10
5.2340024748
 20
4.8011643197
 30
0.0
 10
5.2457514061
 20
4.8021382389
 30
0.0
 10
5.2550898218
 20
4.8030950908
 30
0.0
 10
5.2621576305
 20
4.8039418081
 30
0.0
 10
5.2671309261
 20
4.8045993479
 30
0.0
 10
5.2718660356
 20
4.8052898343
 30
0.0
 10
5.2763515895
 20
4.8060115998
 30
0.0
 10
5.2805768206
 20
4.8067628242
 30
0.0
 10
5.2845316172
 20
4.8075416834
 30
0.0
 10
5.2882065325
 20
4.8083461856
 30
0.0
 10
5.2915928479
 20
4.8091743406
 30
0.0
 10
5.2946825727
 20
4.8100240361
 30
0.0
 10
5.2974686014
 20
4.810893079
 30
0.0
 10
5.2999444835
 20
4.811779341
 30
0.0
 10
5.3018007519
 20
4.8125533172
 30
0.0
 10
5.3031213097
 20
4.8131850388
 30
0.0
 10
5.3039982672
 20
4.8136464845
 30
0.0
 10
5.3047937693
 20
4.8141107451
 30
0.0
 10
5.30550739
 20
4.8145776443
 30
0.0
 10
5.3061387968
 20
4.8150469819
 30
0.0
 10
5.3066877271
 20
4.8155186136
 30
0.0
 10
5.3071539088
 20
4.8159925138
 30
0.0
 10
5.3075370037
 20
4.8164687879
 30
0.0
 10
5.3078365842
 20
4.816947556
 30
0.0
 10
5.3080519073
 20
4.8174290086
 30
0.0
 10
5.3081818296
 20
4.81791275
 30
0.0
 10
5.3082109408
 20
4.8182382201
 30
0.0
 10
5.3082109408
 20
4.8183982273
 30
0.0
  0
SPLINE
  5
350
100
AcDbEntity
  8
0
100
AcDbSpline
 62
7
  6
CONTINUOUS
 70
0
 71
3
 72
42
 73
38
 74
0
 42
0.0000001
 43
0.0000001
 44
0.0000000001
 40
0.0
 40
0.0
 40
0.0
 40
0.0
 40
0.003335959
 40
0.0067713607
 40
0.0103972636
 40
0.0142908919
 40
0.0185143631
 40
0.0231156992
 40
0.0281311807
 40
0.0335881489
 40
0.0395067862
 40
0.0459018162
 40
0.0527841037
 40
0.0601611701
 40
0.0680379494
 40
0.0764176349
 40
0.0853016131
 40
0.0946898511
 40
0.1149733989
 40
0.1372498891
 40
0.1491263948
 40
0.1614884198
 40
0.187646743
 40
0.2156758701
 40
0.245519433
 40
0.2771147598
 40
0.3103933253
 40
0.3452816303
 40
0.381701414
 40
0.4195698571
 40
0.458800261
 40
0.5409807839
 40
0.6274806128
 40
0.7174907664
 40
0.8101658949
 40
0.9046319133
 40
1.0
 40
1.0
 40
1.0
 40
1.0
 10
5.408210942
 20
5.14518669
 30
0.0
 10
5.408210942
 20
5.1454609882
 30
0.0
 10
5.4081610337
 20
5.1460189388
 30
0.0
 10
5.4079382895
 20
5.1468482028
 30
0.0
 10
5.4075691848
 20
5.1476735545
 30
0.0
 10
5.4070556306
 20
5.1484943122
 30
0.0
 10
5.406398865
 20
5.1493107606
 30
0.0
 10
5.4055997053
 20
5.1501231637
 30
0.0
 10
5.4046587038
 20
5.1509316986
 30
0.0
 10
5.4035762728
 20
5.1517362594
 30
0.0
 10
5.4023529143
 20
5.1525366421
 30
0.0
 10
5.4009892201
 20
5.1533325542
 30
0.0
 10
5.3994858506
 20
5.1541235692
 30
0.0
 10
5.3978436076
 20
5.1549092719
 30
0.0
 10
5.3960634006
 20
5.1556892381
 30
0.0
 10
5.3941462165
 20
5.1564629678
 30
0.0
 10
5.3920931645
 20
5.1572300309
 30
0.0
 10
5.3890981971
 20
5.158270262
 30
0.0
 10
5.3850194069
 20
5.1595424078
 30
0.0
 10
5.3807029497
 20
5.1607295604
 30
0.0
 10
5.3769946288
 20
5.1616661844
 30
0.0
 10
5.3729637303
 20
5.162627639
 30
0.0
 10
5.3676177847
 20
5.163797902
 30
0.0
 10
5.3608381622
 20
5.1651330896
 30
0.0
 10
5.3535948999
 20
5.1664209198
 30
0.0
 10
5.3459053829
 20
5.1676582131
 30
0.0
 10
5.33778805
 20
5.1688419178
 30
0.0
 10
5.329262402
 20
5.1699691121
 30
0.0
 10
5.3203489336
 20
5.1710370121
 30
0.0
 10
5.3110690835
 20
5.1720430441
 30
0.0
 10
5.2980344252
 20
5.1733183449
 30
0.0
 10
5.2809963652
 20
5.1747304754
 30
0.0
 10
5.2597701062
 20
5.1761197489
 30
0.0
 10
5.237662672
 20
5.1772148122
 30
0.0
 10
5.214886889
 20
5.1780048409
 30
0.0
 10
5.1916618388
 20
5.1784820157
 30
0.0
 10
5.1760525726
 20
5.1785882342
 30
0.0
 10
5.1682109599
 20
5.1785882342
 30
0.0
  0
SPLINE
  5
351
100
AcDbEntity
  8
0
100
AcDbSpline
 62
7
  6
CONTINUOUS
 70
0
 71
3
 72
38
 73
34
 74
0
 42
0.0000001
 43
0.0000001
 44
0.0000000001
 40
0.0
 40
0.0
 40
0.0
 40
0.0
 40
0.0953685923
 40
0.1898347947
 40
0.2825105909
 40
0.3725210726
 40
0.4590213457
 40
0.5412022443
 40
0.6183004263
 40
0.6547202887
 40
0.689608786
 40
0.7228875499
 40
0.7544829175
 40
0.7843267374
 40
0.8123559206
 40
0.8385143891
 40
0.8627524723
 40
0.8850290912
 40
0.9053127461
 40
0.9235837227
 40
0.9398386376
 40
0.9472156172
 40
0.9540979129
 40
0.9604931025
 40
0.9664117048
 40
0.9718686292
 40
0.9768842196
 40
0.9814855858
 40
0.9857090115
 40
0.9896026812
 40
0.9932286217
 40
0.9966640268
 40
1.0
 40
1.0
 40
1.0
 40
1.0
 10
5.1682109599
 20
4.7989139932
 30
0.0
 10
5.1636366828
 20
4.7989139932
 30
0.0
 10
5.1545312864
 20
4.7989759522
 30
0.0
 10
5.1409833391
 20
4.7992543087
 30
0.0
 10
5.1276974676
 20
4.7997151555
 30
0.0
 10
5.1148014662
 20
4.8003539537
 30
0.0
 10
5.102419445
 20
4.8011643197
 30
0.0
 10
5.0906705137
 20
4.8021382389
 30
0.0
 10
5.0813320979
 20
4.8030950908
 30
0.0
 10
5.0742642892
 20
4.8039418081
 30
0.0
 10
5.0692909937
 20
4.8045993479
 30
0.0
 10
5.0645558842
 20
4.8052898343
 30
0.0
 10
5.0600703303
 20
4.8060115998
 30
0.0
 10
5.0558450991
 20
4.8067628242
 30
0.0
 10
5.0518903026
 20
4.8075416834
 30
0.0
 10
5.0482153873
 20
4.8083461856
 30
0.0
 10
5.0448290718
 20
4.8091743406
 30
0.0
 10
5.041739347
 20
4.8100240361
 30
0.0
 10
5.0389533184
 20
4.810893079
 30
0.0
 10
5.0364774363
 20
4.811779341
 30
0.0
 10
5.0346211678
 20
4.8125533172
 30
0.0
 10
5.03330061
 20
4.8131850388
 30
0.0
 10
5.0324236526
 20
4.8136464845
 30
0.0
 10
5.0316281505
 20
4.8141107451
 30
0.0
 10
5.0309145297
 20
4.8145776443
 30
0.0
 10
5.0302831229
 20
4.8150469819
 30
0.0
 10
5.0297341927
 20
4.8155186136
 30
0.0
 10
5.029268011
 20
4.8159925138
 30
0.0
 10
5.0288849161
 20
4.8164687879
 30
0.0
 10
5.0285853356
 20
4.816947556
 30
0.0
 10
5.0283700125
 20
4.8174290086
 30
0.0
 10
5.0282400902
 20
4.81791275
 30
0.0
 10
5.0282109789
 20
4.8182382201
 30
0.0
 10
5.0282109789
 20
4.8183982273
 30
0.0
  0
SPLINE
  5
352
100
AcDbEntity
  8
0
100
AcDbSpline
 62
7
  6
CONTINUOUS
 70
0
 71
3
 72
35
 73
31
 74
0
 42
0.0000001
 43
0.0000001
 44
0.0000000001
 40
0.0
 40
0.0
 40
0.0
 40
0.0
 40
0.0004924859
 40
0.0010270444
 40
0.0016378117
 40
0.0023479898
 40
0.0041186163
 40
0.0064078004
 40
0.0092441754
 40
0.0126412957
 40
0.0166060668
 40
0.0211420544
 40
0.0319301309
 40
0.0449999472
 40
0.0603327971
 40
0.0779003495
 40
0.0976675068
 40
0.1195924453
 40
0.1436274271
 40
0.1697191923
 40
0.2278333444
 40
0.2934054968
 40
0.3658273047
 40
0.4444187748
 40
0.5284327438
 40
0.6170627685
 40
0.7094505864
 40
0.8046960935
 40
0.9018637449
 40
1.0
 40
1.0
 40
1.0
 40
1.0
 10
7.0582109599
 20
3.484231311
 30
0.0
 10
7.0582002563
 20
3.4842313185
 30
0.0
 10
7.058177819
 20
3.4842349144
 30
0.0
 10
7.058145383
 20
3.4842504437
 30
0.0
 10
7.0581135469
 20
3.4842755986
 30
0.0
 10
7.05806826
 20
3.484325527
 30
0.0
 10
7.0580137873
 20
3.484414557
 30
0.0
 10
7.057952714
 20
3.4845515853
 30
0.0
 10
7.0578917786
 20
3.4847267004
 30
0.0
 10
7.0578310229
 20
3.4849399291
 30
0.0
 10
7.0577705152
 20
3.4851913974
 30
0.0
 10
7.0576852753
 20
3.485601909
 30
0.0
 10
7.0575826507
 20
3.4862106147
 30
0.0
 10
7.0574669708
 20
3.4870545575
 30
0.0
 10
7.0573534715
 20
3.4880472641
 30
0.0
 10
7.0572423596
 20
3.4891865602
 30
0.0
 10
7.0571339679
 20
3.4904699556
 30
0.0
 10
7.0570285368
 20
3.4918945769
 30
0.0
 10
7.0569263319
 20
3.4934572087
 30
0.0
 10
7.0567898917
 20
3.4958057474
 30
0.0
 10
7.0566317065
 20
3.499057213
 30
0.0
 10
7.0564631896
 20
3.5033160893
 30
0.0
 10
7.0563119395
 20
3.5080209114
 30
0.0
 10
7.0561783628
 20
3.5131272164
 30
0.0
 10
7.0560639508
 20
3.5185863313
 30
0.0
 10
7.0559692875
 20
3.5243457095
 30
0.0
 10
7.05589507
 20
3.5303495081
 30
0.0
 10
7.0558414332
 20
3.536539086
 30
0.0
 10
7.0558090231
 20
3.5428537478
 30
0.0
 10
7.0558021987
 20
3.5470984408
 30
0.0
 10
7.0558022007
 20
3.549231311
 30
0.0
  0
SPLINE
  5
353
100
AcDbEntity
  8
0
100
AcDbSpline
 62
7
  6
CONTINUOUS
 70
0
 71
3
 72
35
 73
31
 74
0
 42
0.0000001
 43
0.0000001
 44
0.0000000001
 40
0.0
 40
0.0
 40
0.0
 40
0.0
 40
0.0981362834
 40
0.1953039271
 40
0.2905493776
 40
0.3829371594
 40
0.4715671863
 40
0.5555810289
 40
0.6341725527
 40
0.7065944222
 40
0.7721665168
 40
0.8302807975
 40
0.8563725552
 40
0.8804074616
 40
0.90233237
 40
0.9220995782
 40
0.93966717
 40
0.95500002
 40
0.9680698325
 40
0.9788579045
 40
0.9833938829
 40
0.987358642
 40
0.9907557551
 40
0.9935921342
 40
0.9958813356
 40
0.9976519765
 40
0.998362157
 40
0.9989729254
 40
0.9995074902
 40
1.0
 40
1.0
 40
1.0
 40
1.0
 10
7.280619719
 20
3.549231311
 30
0.0
 10
7.2806197235
 20
3.5470984401
 30
0.0
 10
7.2806128774
 20
3.5428537464
 30
0.0
 10
7.2805804599
 20
3.5365390852
 30
0.0
 10
7.2805268863
 20
3.5303495087
 30
0.0
 10
7.2804526809
 20
3.5243457114
 30
0.0
 10
7.2803578979
 20
3.5185863386
 30
0.0
 10
7.2802436501
 20
3.5131272216
 30
0.0
 10
7.2801099946
 20
3.5080209181
 30
0.0
 10
7.2799586692
 20
3.5033160975
 30
0.0
 10
7.2797902764
 20
3.4990572129
 30
0.0
 10
7.2796319707
 20
3.4958057514
 30
0.0
 10
7.2794955386
 20
3.4934572114
 30
0.0
 10
7.279393395
 20
3.491894578
 30
0.0
 10
7.279287988
 20
3.4904699559
 30
0.0
 10
7.2791795665
 20
3.4891865616
 30
0.0
 10
7.2790684364
 20
3.4880472653
 30
0.0
 10
7.2789549407
 20
3.4870545575
 30
0.0
 10
7.2788392646
 20
3.4862106143
 30
0.0
 10
7.2787366409
 20
3.4856019088
 30
0.0
 10
7.2786514015
 20
3.4851913976
 30
0.0
 10
7.2785908944
 20
3.4849399298
 30
0.0
 10
7.2785301394
 20
3.4847267012
 30
0.0
 10
7.2784692051
 20
3.4845515855
 30
0.0
 10
7.2784081339
 20
3.4844145555
 30
0.0
 10
7.2783536631
 20
3.4843255234
 30
0.0
 10
7.2783083765
 20
3.4842755941
 30
0.0
 10
7.2782765399
 20
3.4842504394
 30
0.0
 10
7.2782441024
 20
3.4842349112
 30
0.0
 10
7.278221664
 20
3.4842313174
 30
0.0
 10
7.2782109599
 20
3.484231311
 30
0.0
  0
SPLINE
  5
354
100
AcDbEntity
  8
0
100
AcDbSpline
 62
7
  6
CONTINUOUS
 70
0
 71
3
 72
23
 73
19
 74
0
 42
0.0000001
 43
0.0000001
 44
0.0000000001
 40
0.0
 40
0.0
 40
0.0
 40
0.0
 40
0.0625185217
 40
0.1250369189
 40
0.1875537826
 40
0.2500691587
 40
0.3125822771
 40
0.3750927971
 40
0.4376002405
 40
0.5001042486
 40
0.5626046091
 40
0.6251010949
 40
0.6875936633
 40
0.7500823076
 40
0.8125670892
 40
0.8750481285
 40
0.9375262076
 40
1.0
 40
1.0
 40
1.0
 40
1.0
 10
6.4772954289
 20
3.549231311
 30
0.0
 10
6.4772954789
 20
3.5472944554
 30
0.0
 10
6.4774701487
 20
3.5434184832
 30
0.0
 10
6.4782540367
 20
3.5376535411
 30
0.0
 10
6.4795530954
 20
3.5319820494
 30
0.0
 10
6.481356411
 20
3.5264505164
 30
0.0
 10
6.4836486998
 20
3.5211032681
 30
0.0
 10
6.4864108074
 20
3.5159831926
 30
0.0
 10
6.4896196456
 20
3.5111309608
 30
0.0
 10
6.4932486549
 20
3.5065848544
 30
0.0
 10
6.4972680655
 20
3.5023804764
 30
0.0
 10
6.5016450659
 20
3.4985503576
 30
0.0
 10
6.5063443141
 20
3.4951239322
 30
0.0
 10
6.5113281453
 20
3.4921272258
 30
0.0
 10
6.5165568889
 20
3.489582783
 30
0.0
 10
6.521989463
 20
3.4875095251
 30
0.0
 10
6.5275826967
 20
3.485922893
 30
0.0
 10
6.5313911126
 20
3.4851969647
 30
0.0
 10
6.5333064463
 20
3.4849185042
 30
0.0
  0
SPLINE
  5
355
100
AcDbEntity
  8
0
100
AcDbSpline
 62
7
  6
CONTINUOUS
 70
0
 71
3
 72
23
 73
19
 74
0
 42
0.0000001
 43
0.0000001
 44
0.0000000001
 40
0.0
 40
0.0
 40
0.0
 40
0.0
 40
0.0624737881
 40
0.1249518663
 40
0.1874329036
 40
0.2499176646
 40
0.3124062929
 40
0.3748988623
 40
0.4373953394
 40
0.4998957041
 40
0.5623997334
 40
0.6249071888
 40
0.6874177271
 40
0.7499308636
 40
0.8124462462
 40
0.8749631106
 40
0.9374814961
 40
1.0
 40
1.0
 40
1.0
 40
1.0
 10
6.5333064789
 20
3.833544123
 30
0.0
 10
6.5313911446
 20
3.833265663
 30
0.0
 10
6.5275827274
 20
3.8325397353
 30
0.0
 10
6.5219894911
 20
3.8309531056
 30
0.0
 10
6.5165569142
 20
3.8288798512
 30
0.0
 10
6.5113281697
 20
3.8263354081
 30
0.0
 10
6.5063443377
 20
3.8233387016
 30
0.0
 10
6.5016450834
 20
3.8199122823
 30
0.0
 10
6.4972680827
 20
3.8160821604
 30
0.0
 10
6.4932486713
 20
3.8118777803
 30
0.0
 10
6.4896196483
 20
3.8073316804
 30
0.0
 10
6.4864108146
 20
3.8024794409
 30
0.0
 10
6.4836487053
 20
3.7973593627
 30
0.0
 10
6.481356409
 20
3.7920121139
 30
0.0
 10
6.4795530936
 20
3.7864805774
 30
0.0
 10
6.4782540445
 20
3.7808090816
 30
0.0
 10
6.4774701539
 20
3.7750441394
 30
0.0
 10
6.4772954748
 20
3.7711681667
 30
0.0
 10
6.4772954289
 20
3.769231311
 30
0.0
  0
SPLINE
  5
356
100
AcDbEntity
  8
0
100
AcDbSpline
 62
7
  6
CONTINUOUS
 70
0
 71
3
 72
23
 73
19
 74
0
 42
0.0000001
 43
0.0000001
 44
0.0000000001
 40
0.0
 40
0.0
 40
0.0
 40
0.0
 40
0.0624986599
 40
0.1249973071
 40
0.1874967083
 40
0.2499962432
 40
0.3124958417
 40
0.3749956995
 40
0.4374954777
 40
0.4999956555
 40
0.5624958565
 40
0.6249962623
 40
0.6874968097
 40
0.749997468
 40
0.8124982943
 40
0.8749990138
 40
0.9374997294
 40
1.0
 40
1.0
 40
1.0
 40
1.0
 10
7.844321158
 20
3.769231311
 30
0.0
 10
7.8443210229
 20
3.7708786286
 30
0.0
 10
7.8441544757
 20
3.7741755621
 30
0.0
 10
7.8434146632
 20
3.7790697269
 30
0.0
 10
7.8421890465
 20
3.7838660054
 30
0.0
 10
7.8404905425
 20
3.788515674
 30
0.0
 10
7.8383384487
 20
3.7929736122
 30
0.0
 10
7.8357539407
 20
3.7971954568
 30
0.0
 10
7.8327664347
 20
3.8011423985
 30
0.0
 10
7.8294033087
 20
3.8047745679
 30
0.0
 10
7.8257010403
 20
3.8080602127
 30
0.0
 10
7.8216951076
 20
3.8109679303
 30
0.0
 10
7.8174252981
 20
3.8134719264
 30
0.0
 10
7.8129332195
 20
3.8155509395
 30
0.0
 10
7.8082612208
 20
3.8171858519
 30
0.0
 10
7.8034532709
 20
3.8183627556
 30
0.0
 10
7.7985550417
 20
3.8190718615
 30
0.0
 10
7.7952581921
 20
3.8192312179
 30
0.0
 10
7.793610832
 20
3.819231311
 30
0.0
  0
SPLINE
  5
357
100
AcDbEntity
  8
0
100
AcDbSpline
 62
7
  6
CONTINUOUS
 70
0
 71
3
 72
23
 73
19
 74
0
 42
0.0000001
 43
0.0000001
 44
0.0000000001
 40
0.0
 40
0.0
 40
0.0
 40
0.0
 40
0.0625001543
 40
0.1250007237
 40
0.1875013864
 40
0.2500021347
 40
0.3125028247
 40
0.3750032569
 40
0.4375037002
 40
0.5000038436
 40
0.5625040151
 40
0.6250039253
 40
0.6875037169
 40
0.7500034236
 40
0.812502956
 40
0.8750024432
 40
0.9375012185
 40
1.0
 40
1.0
 40
1.0
 40
1.0
 10
7.793610832
 20
3.499231311
 30
0.0
 10
7.795258189
 20
3.4992314435
 30
0.0
 10
7.7985550319
 20
3.4993907988
 30
0.0
 10
7.803453238
 20
3.50009997
 30
0.0
 10
7.8082612146
 20
3.5012767833
 30
0.0
 10
7.8129331086
 20
3.502911909
 30
0.0
 10
7.817425517
 20
3.5049902715
 30
0.0
 10
7.8216947329
 20
3.5074952663
 30
0.0
 10
7.8257012181
 20
3.5104021594
 30
0.0
 10
7.8294033443
 20
3.5136880459
 30
0.0
 10
7.8327661671
 20
3.517320427
 30
0.0
 10
7.8357544983
 20
3.5212667825
 30
0.0
 10
7.8383380678
 20
3.5254892177
 30
0.0
 10
7.8404907499
 20
3.5299468372
 30
0.0
 10
7.842189109
 20
3.5345965931
 30
0.0
 10
7.8434147217
 20
3.5393928683
 30
0.0
 10
7.8441544901
 20
3.5442870498
 30
0.0
 10
7.8443210622
 20
3.5475839901
 30
0.0
 10
7.844321158
 20
3.549231311
 30
0.0
  0
SPLINE
  5
358
100
AcDbEntity
  8
0
100
AcDbSpline
 62
7
  6
CONTINUOUS
 70
0
 71
3
 72
27
 73
23
 74
0
 42
0.0000001
 43
0.0000001
 44
0.0000000001
 40
0.0
 40
0.0
 40
0.0
 40
0.0
 40
0.0312537088
 40
0.0625143348
 40
0.1249804026
 40
0.1562370941
 40
0.1874965094
 40
0.218754662
 40
0.2500129007
 40
0.281272189
 40
0.3125305321
 40
0.343790493
 40
0.3750494407
 40
0.4375451481
 40
0.5000451705
 40
0.6249428187
 40
0.6874506246
 40
0.7499588712
 40
0.8124673202
 40
0.874978643
 40
0.937493243
 40
1.0
 40
1.0
 40
1.0
 40
1.0
 10
7.8254490128
 20
3.549231311
 30
0.0
 10
7.8254490011
 20
3.5486152868
 30
0.0
 10
7.8253966734
 20
3.5473824718
 30
0.0
 10
7.8250980198
 20
3.5449355347
 30
0.0
 10
7.8245158194
 20
3.5425294358
 30
0.0
 10
7.8236578804
 20
3.5402182099
 30
0.0
 10
7.8228852829
 20
3.5385371685
 30
0.0
 10
7.8219958052
 20
3.5369152191
 30
0.0
 10
7.8209958176
 20
3.5353589878
 30
0.0
 10
7.8198931992
 20
3.5338738156
 30
0.0
 10
7.8186957478
 20
3.5324640954
 30
0.0
 10
7.8174131413
 20
3.5311315162
 30
0.0
 10
7.8156021572
 20
3.5294588702
 30
0.0
 10
7.813165779
 20
3.527563749
 30
0.0
 10
7.8089826608
 20
3.5249509891
 30
0.0
 10
7.8044571468
 20
3.5229355558
 30
0.0
 10
7.799755781
 20
3.5214572715
 30
0.0
 10
7.7961588131
 20
3.5205935154
 30
0.0
 10
7.7925158256
 20
3.5199561558
 30
0.0
 10
7.7888428266
 20
3.5195252629
 30
0.0
 10
7.7851531535
 20
3.5192814557
 30
0.0
 10
7.7826885485
 20
3.5192313111
 30
0.0
 10
7.7814565131
 20
3.519231311
 30
0.0
  0
SPLINE
  5
359
100
AcDbEntity
  8
0
100
AcDbSpline
 62
7
  6
CONTINUOUS
 70
0
 71
3
 72
24
 73
20
 74
0
 42
0.0000001
 43
0.0000001
 44
0.0000000001
 40
0.0
 40
0.0
 40
0.0
 40
0.0
 40
0.0625144621
 40
0.1250365595
 40
0.1875553579
 40
0.2500718847
 40
0.3750281493
 40
0.4999412335
 40
0.5624488578
 40
0.6249525993
 40
0.6874514494
 40
0.7499444068
 40
0.8124312291
 40
0.8436935786
 40
0.8749558274
 40
0.9062176305
 40
0.9374766622
 40
0.9687423217
 40
1.0
 40
1.0
 40
1.0
 40
1.0
 10
7.7814565131
 20
3.799231311
 30
0.0
 10
7.7826885549
 20
3.7992313117
 30
0.0
 10
7.7851531756
 20
3.7991811845
 30
0.0
 10
7.7888428303
 20
3.7989373844
 30
0.0
 10
7.7925159473
 20
3.7985063443
 30
0.0
 10
7.7973712669
 20
3.7976572074
 30
0.0
 10
7.8033288624
 20
3.7960297283
 30
0.0
 10
7.8089825209
 20
3.7935119975
 30
0.0
 10
7.8131658928
 20
3.7908984381
 30
0.0
 10
7.8160887893
 20
3.7886253843
 30
0.0
 10
7.8187376775
 20
3.7860365498
 30
0.0
 10
7.8210466982
 20
3.7831392607
 30
0.0
 10
7.8226309769
 20
3.7804859646
 30
0.0
 10
7.8236584065
 20
3.778244587
 30
0.0
 10
7.8243013853
 20
3.7765097059
 30
0.0
 10
7.8248087794
 20
3.7747304802
 30
0.0
 10
7.825174086
 20
3.7729166041
 30
0.0
 10
7.8253971403
 20
3.7710800798
 30
0.0
 10
7.8254490306
 20
3.7698473407
 30
0.0
 10
7.8254490128
 20
3.769231311
 30
0.0
  0
SPLINE
  5
35A
100
AcDbEntity
  8
0
100
AcDbSpline
 62
7
  6
CONTINUOUS
 70
0
 71
3
 72
42
 73
38
 74
0
 42
0.0000001
 43
0.0000001
 44
0.0000000001
 40
0.0
 40
0.0
 40
0.0
 40
0.0
 40
0.0033359677
 40
0.0067713684
 40
0.0103972327
 40
0.0142909168
 40
0.0185143768
 40
0.0231156535
 40
0.0281312164
 40
0.0335881604
 40
0.039506737
 40
0.0459018585
 40
0.0527841096
 40
0.0601611228
 40
0.0680379955
 40
0.0764176343
 40
0.0853015703
 40
0.0946898988
 40
0.1149733618
 40
0.1372498762
 40
0.1491263644
 40
0.1614884664
 40
0.1876467189
 40
0.2156758489
 40
0.2455194734
 40
0.277114747
 40
0.3103933016
 40
0.3452816614
 40
0.3817014094
 40
0.419569837
 40
0.458800282
 40
0.54098077
 40
0.6274806148
 40
0.7174907768
 40
0.8101658611
 40
0.9046319561
 40
1.0
 40
1.0
 40
1.0
 40
1.0
 10
4.8982109599
 20
5.1748947321
 30
0.0
 10
4.8982109599
 20
5.1752033184
 30
0.0
 10
4.8982671473
 20
5.1758310108
 30
0.0
 10
4.8985177249
 20
5.1767639268
 30
0.0
 10
4.8989329262
 20
5.1776924709
 30
0.0
 10
4.8995107232
 20
5.1786157954
 30
0.0
 10
4.9002495691
 20
5.1795343061
 30
0.0
 10
4.9011486039
 20
5.1804482834
 30
0.0
 10
4.9022072589
 20
5.1813578524
 30
0.0
 10
4.9034249825
 20
5.1822629954
 30
0.0
 10
4.9048012512
 20
5.1831634436
 30
0.0
 10
4.9063354235
 20
5.1840588157
 30
0.0
 10
4.9080267066
 20
5.1849487212
 30
0.0
 10
4.9098742252
 20
5.1858326489
 30
0.0
 10
4.911876968
 20
5.1867100865
 30
0.0
 10
4.9140337946
 20
5.1875805462
 30
0.0
 10
4.916343476
 20
5.1884434994
 30
0.0
 10
4.9197128193
 20
5.1896137344
 30
0.0
 10
4.924301452
 20
5.1910449269
 30
0.0
 10
4.9291574637
 20
5.1923804572
 30
0.0
 10
4.9333293303
 20
5.1934341691
 30
0.0
 10
4.937864094
 20
5.1945157886
 30
0.0
 10
4.9438782797
 20
5.1958323519
 30
0.0
 10
4.9515053554
 20
5.197334434
 30
0.0
 10
4.959654028
 20
5.1987832349
 30
0.0
 10
4.9683047331
 20
5.2001751978
 30
0.0
 10
4.9774367317
 20
5.2015068668
 30
0.0
 10
4.9870280876
 20
5.2027749523
 30
0.0
 10
4.9970557392
 20
5.2039763455
 30
0.0
 10
5.0074955694
 20
5.2051081336
 30
0.0
 10
5.02215956
 20
5.2065428386
 30
0.0
 10
5.0413273788
 20
5.2081314949
 30
0.0
 10
5.0652069197
 20
5.2096944222
 30
0.0
 10
5.0900777814
 20
5.2109263684
 30
0.0
 10
5.1157005412
 20
5.2118151537
 30
0.0
 10
5.1418287218
 20
5.2123519728
 30
0.0
 10
5.1593891495
 20
5.2124714693
 30
0.0
 10
5.1682109599
 20
5.2124714693
 30
0.0
  0
SPLINE
  5
35B
100
AcDbEntity
  8
0
100
AcDbSpline
 62
7
  6
CONTINUOUS
 70
0
 71
3
 72
23
 73
19
 74
0
 42
0.0000001
 43
0.0000001
 44
0.0000000001
 40
0.0
 40
0.0
 40
0.0
 40
0.0
 40
0.0625183608
 40
0.1250376983
 40
0.1875544514
 40
0.2500701597
 40
0.312583394
 40
0.3750940267
 40
0.4376015362
 40
0.5001055478
 40
0.5626058622
 40
0.6251022765
 40
0.687594705
 40
0.7500832293
 40
0.8125678338
 40
0.8750487364
 40
0.9375266839
 40
1.0
 40
1.0
 40
1.0
 40
1.0
 10
3.8591264908
 20
3.769231311
 30
0.0
 10
3.8591264359
 20
3.7711873013
 30
0.0
 10
3.8589482774
 20
3.7751016437
 30
0.0
 10
3.8581488648
 20
3.7809226651
 30
0.0
 10
3.8568241484
 20
3.7866474511
 30
0.0
 10
3.8549855954
 20
3.7922281134
 30
0.0
 10
3.8526489991
 20
3.7976190574
 30
0.0
 10
3.849834339
 20
3.8027762101
 30
0.0
 10
3.8465655508
 20
3.8076577907
 30
0.0
 10
3.8428702441
 20
3.8122245559
 30
0.0
 10
3.8387793123
 20
3.8164400562
 30
0.0
 10
3.8343267703
 20
3.8202710295
 30
0.0
 10
3.829549289
 20
3.8236875211
 30
0.0
 10
3.8244858525
 20
3.8266630413
 30
0.0
 10
3.8191775511
 20
3.8291748249
 30
0.0
 10
3.8136668704
 20
3.8312038145
 30
0.0
 10
3.8079984532
 20
3.8327346452
 30
0.0
 10
3.8041427639
 20
3.833415796
 30
0.0
 10
3.8022047903
 20
3.8336700508
 30
0.0
  0
SPLINE
  5
35C
100
AcDbEntity
  8
0
100
AcDbSpline
 62
7
  6
CONTINUOUS
 70
0
 71
3
 72
23
 73
19
 74
0
 42
0.0000001
 43
0.0000001
 44
0.0000000001
 40
0.0
 40
0.0
 40
0.0
 40
0.0
 40
0.0624733009
 40
0.124951215
 40
0.1874320925
 40
0.2499166504
 40
0.3124051111
 40
0.3748975771
 40
0.4373939591
 40
0.4998942792
 40
0.5623983164
 40
0.6249058332
 40
0.68741651
 40
0.7499297908
 40
0.8124455327
 40
0.874962305
 40
0.9374816521
 40
1.0
 40
1.0
 40
1.0
 40
1.0
 10
3.8022055969
 20
3.4847926742
 30
0.0
 10
3.8041435502
 20
3.4850469501
 30
0.0
 10
3.8079991954
 20
3.4857281467
 30
0.0
 10
3.8136675447
 20
3.4872590242
 30
0.0
 10
3.8191781537
 20
3.4892880513
 30
0.0
 10
3.8244863835
 20
3.491799859
 30
0.0
 10
3.8295497371
 20
3.4947754138
 30
0.0
 10
3.8343271682
 20
3.4981918849
 30
0.0
 10
3.8387796306
 20
3.5020228749
 30
0.0
 10
3.8428704996
 20
3.5062383632
 30
0.0
 10
3.8465657656
 20
3.5108050983
 30
0.0
 10
3.8498344874
 20
3.5156866658
 30
0.0
 10
3.852649099
 20
3.5208437891
 30
0.0
 10
3.8549856761
 20
3.5262346907
 30
0.0
 10
3.8568241879
 20
3.5318153165
 30
0.0
 10
3.8581488845
 20
3.5375400571
 30
0.0
 10
3.8589482747
 20
3.5433610293
 30
0.0
 10
3.8591264551
 20
3.5472753379
 30
0.0
 10
3.8591264908
 20
3.549231311
 30
0.0
  0
ENDSEC
  0
SECTION
  2
OBJECTS
  0
DICTIONARY
  5
C
100
AcDbDictionary
280
0
281
1
  3
ACAD_GROUP
350
D
  3
ACAD_MLINESTYLE
350
17
  3
ACAD_LAYOUT
350
1A
  3
ACAD_PLOTSETTINGS
350
19
  3
ACAD_PLOTSTYLENAME
350
E
  0
DICTIONARY
  5
D
102
{ACAD_REACTORS
330
C
102
}
100
AcDbDictionary
280
0
281
1
  0
ACDBDICTIONARYWDFLT
  5
E
102
{ACAD_REACTORS
330
C
102
}
100
AcDbDictionary
281
1
  3
Normal
350
F
100
AcDbDictionaryWithDefault
340
F
  0
DICTIONARY
  5
17
102
{ACAD_REACTORS
330
C
102
}
100
AcDbDictionary
280
0
281
1
  3
Standard
350
18
  0
DICTIONARY
  5
19
102
{ACAD_REACTORS
330
C
102
}
100
AcDbDictionary
281
1
  0
DICTIONARY
  5
1A
102
{ACAD_REACTORS
330
C
102
}
100
AcDbDictionary
281
1
  3
Model
350
35D
  3
Layout1
350
35E
  0
ACDBPLACEHOLDER
  5
F
102
{ACAD_REACTORS
330
E
102
}
  0
MLINESTYLE
  5
18
102
{ACAD_REACTORS
330
17
102
}
100
AcDbMlineStyle
  2
STANDARD
 70
0
  3

 62
256
 51
90.0
 52
90.0
 71
2
 49
0.5
 62
256
  6
BYLAYER
 49
-0.5
 62
256
  6
BYLAYER
  0
LAYOUT
  5
35D
102
{ACAD_REACTORS
330
1A
102
}
100
AcDbPlotSettings
  1

  2
none_device
  4
ANSI_A_(11.00_x_8.50_Inches)
  6

 40
0.0
 41
0.0
 42
0.0
 43
0.0
 44
279.4
 45
215.9
 46
0.0
 47
0.0
 48
0.0
 49
0.0
140
0.0
141
0.0
142
1.0
143
1.0
 70
1024
 72
0
 73
0
 74
0
  7

 75
0
147
1.0
148
0.0
149
0.0
100
AcDbLayout
  1
Model
 70
0
 71
0
 10
0.0
 20
0.0
 11
11.0
 21
8.5
 12
0.0
 22
0.0
 32
0.0
 14
0.0
 24
0.0
 34
0.0
 15
0.0
 25
0.0
 35
0.0
146
0.0
 13
0.0
 23
0.0
 33
0.0
 16
1.0
 26
0.0
 36
0.0
 17
0.0
 27
1.0
 37
0.0
 76
0
330
203
345
0
346
0
  0
LAYOUT
  5
35E
102
{ACAD_REACTORS
330
1A
102
}
100
AcDbPlotSettings
  1

  2
none_device
  4
ANSI_A_(11.00_x_8.50_Inches)
  6

 40
0.0
 41
0.0
 42
0.0
 43
0.0
 44
279.4
 45
215.9
 46
0.0
 47
0.0
 48
0.0
 49
0.0
140
0.0
141
0.0
142
1.0
143
1.0
 70
0
 72
0
 73
0
 74
0
  7

 75
0
147
1.0
148
0.0
149
0.0
100
AcDbLayout
  1
Layout1
 70
0
 71
1
 10
0.0
 20
0.0
 11
11.0
 21
8.5
 12
0.0
 22
0.0
 32
0.0
 14
0.0
 24
0.0
 34
0.0
 15
0.0
 25
0.0
 35
0.0
146
0.0
 13
0.0
 23
0.0
 33
0.0
 16
1.0
 26
0.0
 36
0.0
 17
0.0
 27
1.0
 37
0.0
 76
0
330
204
345
0
346
0
  0
ENDSEC
  0
EOF
