999
DXF file: E:\BT Custom\CADOUTPUT\_FRONT.dxf
999
Pro/ENGINEER 2018400 by Parametric Technology Corporation
  0
SECTION
  2
HEADER
  9
$ACADVER
  1
AC1018
  9
$DWGCODEPAGE
  3
ANSI_1252
  9
$EXTMAX
 10
22.0
 20
17.0
 30
0.0
  9
$EXTMIN
 10
0.0
 20
0.0
 30
0.0
  9
$LIMMIN
 10
0.0
 20
0.0
  9
$LIMMAX
 10
22.0
 20
17.0
  9
$VIEWCTR
 10
11.0
 20
8.5
  9
$VIEWSIZE
 40
17.0
  9
$CLAYER
  8
0
  9
$LTSCALE
 40
1.21
  9
$CELTYPE
  6
BYLAYER
  9
$DIMSCALE
 40
1.0
  9
$DIMASZ
 40
0.1
  9
$DIMEXO
 40
0.0625
  9
$DIMDLI
 40
0.836
  9
$DIMEXE
 40
0.125
  9
$DIMCEN
 40
0.198
  9
$DIMLFAC
 40
1.0
  9
$DIMBLK
  1
_FILLED
  9
$DIMALT
 70
1
  9
$DIMALTD
 70
2
  9
$DIMALTTD
 70
2
  9
$DIMALTF
 40
25.4
  9
$DIMTXT
 40
0.08
  9
$DIMTOL
 70
1
  9
$DIMLIM
 70
0
  9
$DIMTFAC
 40
1.0
  9
$DIMTP
 40
0.001
  9
$DIMTM
 40
0.001
  9
$DIMGAP
 40
0.09
  9
$DIMDSEP
 70
46
  9
$AUNITS
 70
0
  9
$PDMODE
 70
3
  9
$PDSIZE
 40
0.06
  9
$HANDSEED
  5
343
  9
$TILEMODE
 70
1
  9
$MEASUREMENT
 70
0
  9
$INSUNITS
 70
1
  0
ENDSEC
  0
SECTION
  2
CLASSES
  0
CLASS
  1
ACDBDICTIONARYWDFLT
  2
AcDbDictionaryWithDefault
  3
AutoCAD 2000
 90
0
 91
1
280
0
281
0
  0
CLASS
  1
ACDBPLACEHOLDER
  2
AcDbPlaceHolder
  3
AutoCAD 2000
 90
0
 91
1
280
0
281
0
  0
CLASS
  1
LAYOUT
  2
AcDbLayout
  3
AutoCAD 2000
 90
0
 91
0
280
0
281
0
  0
ENDSEC
  0
SECTION
  2
TABLES
  0
TABLE
  2
VPORT
  5
8
100
AcDbSymbolTable
 70
2
  0
VPORT
  5
1F4
100
AcDbSymbolTableRecord
100
AcDbViewportTableRecord
  2
*ACTIVE
 70
0
 10
0.0
 20
0.0
 11
1.0
 21
1.0
 12
11.0
 22
8.5
 13
0.0
 23
0.0
 14
1.0
 24
1.0
 15
0.0
 25
0.0
 16
0.0
 26
0.0
 36
1.0
 17
0.0
 27
0.0
 37
0.0
 40
17.0
 41
1.2941176471
 42
50.0
 43
0.0
 44
0.0
 50
0.0
 51
0.0
 71
0
 72
100
 73
1
 74
1
 75
0
 76
0
 77
0
 78
0
  0
ENDTAB
  0
TABLE
  2
LTYPE
  5
5
100
AcDbSymbolTable
 70
6
  0
LTYPE
  5
14
100
AcDbSymbolTableRecord
100
AcDbLinetypeTableRecord
  2
BYBLOCK
 70
0
  3

 72
65
 73
0
 40
0.0
  0
LTYPE
  5
15
100
AcDbSymbolTableRecord
100
AcDbLinetypeTableRecord
  2
BYLAYER
 70
0
  3

 72
65
 73
0
 40
0.0
  0
LTYPE
  5
16
100
AcDbSymbolTableRecord
100
AcDbLinetypeTableRecord
  2
CONTINUOUS
 70
64
  3
Solid line
 72
65
 73
0
 40
0.0
  0
LTYPE
  5
1F5
100
AcDbSymbolTableRecord
100
AcDbLinetypeTableRecord
  2
CENTER
 70
64
  3
____ _ ____ _ ____ _ ____ _ ____ _ ____ _ ____
 72
65
 73
4
 40
0.6
 49
0.375
 74
0
 49
-0.075
 74
0
 49
0.075
 74
0
 49
-0.075
 74
0
  0
LTYPE
  5
1F6
100
AcDbSymbolTableRecord
100
AcDbLinetypeTableRecord
  2
HIDDEN
 70
64
  3
- - - - - - - - - - - - - - - - - - - -
 72
65
 73
2
 40
0.2
 49
0.1
 74
0
 49
-0.1
 74
0
  0
LTYPE
  5
1F7
100
AcDbSymbolTableRecord
100
AcDbLinetypeTableRecord
  2
PHANTOM
 70
64
  3
_____ _ _ _____ _ _ _____ _ _ _____
 72
65
 73
6
 40
0.8
 49
0.45
 74
0
 49
-0.05
 74
0
 49
0.1
 74
0
 49
-0.05
 74
0
 49
0.1
 74
0
 49
-0.05
 74
0
  0
LTYPE
  5
1F8
100
AcDbSymbolTableRecord
100
AcDbLinetypeTableRecord
  2
DOT
 70
64
  3
. . . . . . . . . . . . . . . . . . . .
 72
65
 73
2
 40
0.2
 49
0.1
 74
0
 49
-0.1
 74
0
  0
LTYPE
  5
1F9
100
AcDbSymbolTableRecord
100
AcDbLinetypeTableRecord
  2
DASHED
 70
64
  3
- - - - - - - - - - - - - - - - - - - -
 72
65
 73
2
 40
0.2
 49
0.1
 74
0
 49
-0.1
 74
0
  0
ENDTAB
  0
TABLE
  2
LAYER
  5
2
100
AcDbSymbolTable
 70
36
  0
LAYER
  5
10
100
AcDbSymbolTableRecord
100
AcDbLayerTableRecord
  2
0
 70
0
 62
7
  6
CONTINUOUS
370
-3
390
F
  0
LAYER
  5
1FA
100
AcDbSymbolTableRecord
100
AcDbLayerTableRecord
  2
DEFAULT_1
 70
0
 62
7
  6
CENTER
370
-3
390
F
  0
LAYER
  5
1FB
100
AcDbSymbolTableRecord
100
AcDbLayerTableRecord
  2
DEFAULT_2
 70
0
 62
8
  6
HIDDEN
370
-3
390
F
  0
LAYER
  5
1FC
100
AcDbSymbolTableRecord
100
AcDbLayerTableRecord
  2
DEFAULT_3
 70
0
 62
7
  6
PHANTOM
370
-3
390
F
  0
LAYER
  5
1FD
100
AcDbSymbolTableRecord
100
AcDbLayerTableRecord
  2
ALL_FEATURES
 70
0
 62
7
  6
CONTINUOUS
370
-3
390
F
  0
LAYER
  5
1FE
100
AcDbSymbolTableRecord
100
AcDbLayerTableRecord
  2
AXES_FEATURES
 70
0
 62
7
  6
CONTINUOUS
370
-3
390
F
  0
LAYER
  5
1FF
100
AcDbSymbolTableRecord
100
AcDbLayerTableRecord
  2
DIMENSIONS
 70
0
 62
7
  6
CONTINUOUS
370
-3
390
F
  0
ENDTAB
  0
TABLE
  2
STYLE
  5
3
100
AcDbSymbolTable
 70
1
  0
STYLE
  5
11
100
AcDbSymbolTableRecord
100
AcDbTextStyleTableRecord
  2
STANDARD
 70
0
 40
0.0
 41
0.8
 50
0.0
 71
0
 42
0.2
  3
txt
  4

  0
STYLE
  5
200
100
AcDbSymbolTableRecord
100
AcDbTextStyleTableRecord
  2
TEXTSTYLE_1
 70
0
 40
0.0
 41
0.8
 50
0.0
 71
0
 42
0.2
  3
gdt
  4

  0
ENDTAB
  0
TABLE
  2
VIEW
  5
6
100
AcDbSymbolTable
 70
0
  0
ENDTAB
  0
TABLE
  2
UCS
  5
7
100
AcDbSymbolTable
 70
0
  0
ENDTAB
  0
TABLE
  2
APPID
  5
9
100
AcDbSymbolTable
 70
1
  0
APPID
  5
201
100
AcDbSymbolTableRecord
100
AcDbRegAppTableRecord
  2
ACAD
 70
0
  0
ENDTAB
  0
TABLE
  2
BLOCK_RECORD
  5
1
100
AcDbSymbolTable
 70
0
  0
BLOCK_RECORD
  5
202
100
AcDbSymbolTableRecord
100
AcDbBlockTableRecord
  2
*Model_Space
  0
BLOCK_RECORD
  5
203
100
AcDbSymbolTableRecord
100
AcDbBlockTableRecord
  2
*Paper_Space
  0
BLOCK_RECORD
  5
204
100
AcDbSymbolTableRecord
100
AcDbBlockTableRecord
  2
_FILLED
  0
ENDTAB
  0
TABLE
  2
DIMSTYLE
  5
A
100
AcDbSymbolTable
 70
1
100
AcDbDimStyleTable
 71
0
  0
DIMSTYLE
105
205
100
AcDbSymbolTableRecord
100
AcDbDimStyleTableRecord
  2
STANDARD
 70
0
  3

  4

 40
1.0
 41
0.1
 42
0.0625
 43
0.38
 44
0.125
 45
0.0
 46
0.0
 47
0.001
 48
0.001
140
0.08
141
0.09
142
0.0
143
25.4
144
1.0
145
0.0
146
1.0
147
0.09
 71
1.0
 72
0.0
 73
1
 74
1
 75
0
 76
0
 77
0
 78
4
 79
1
170
1
171
2
172
0
173
0
174
0
175
0
176
0
177
0
178
0
270
2
179
3
271
3
272
3
273
2
274
2
275
0
280
0
281
0
282
0
283
1
284
4
285
0
286
0
287
3
288
0
340
11
278
46
341
204
342
204
343
204
344
204
  0
ENDTAB
  0
ENDSEC
  0
SECTION
  2
BLOCKS
  0
BLOCK
  5
20
100
AcDbEntity
  8
0
100
AcDbBlockBegin
  2
*Model_Space
 70
0
 10
0.0
 20
0.0
 30
0.0
  3
*Model_Space
  1

  0
ENDBLK
  5
21
100
AcDbEntity
  8
0
100
AcDbBlockEnd
  0
BLOCK
  5
1C
100
AcDbEntity
  8
0
100
AcDbBlockBegin
  2
*Paper_Space
 70
0
 10
0.0
 20
0.0
 30
0.0
  3
*Paper_Space
  1

  0
ENDBLK
  5
1D
100
AcDbEntity
  8
0
100
AcDbBlockEnd
  0
BLOCK
  5
206
100
AcDbEntity
  8
0
100
AcDbBlockBegin
  2
_FILLED
 70
64
 10
0.0
 20
0.0
  3
_FILLED
  1

  0
SOLID
  5
207
100
AcDbEntity
  8
0
  6
BYBLOCK
 62
0
100
AcDbTrace
 10
0.0
 20
0.0
 11
-1.0
 21
0.2
 12
-1.0
 22
-0.2
 13
-1.0
 23
-0.2
  0
ENDBLK
  5
208
100
AcDbEntity
  8
0
  6
BYBLOCK
 62
0
100
AcDbBlockEnd
  0
ENDSEC
  0
SECTION
  2
ENTITIES
  0
LINE
  5
209
100
AcDbEntity
  8
0
100
AcDbLine
 62
7
  6
CONTINUOUS
 10
5.5376923427
 20
7.8499195021
 11
5.5376923427
 21
8.2899195021
  0
LINE
  5
20A
100
AcDbEntity
  8
0
100
AcDbLine
 62
9
  6
CONTINUOUS
 10
5.5558612809
 20
8.2899195021
 11
5.5558612809
 21
7.8499195021
  0
LINE
  5
20B
100
AcDbEntity
  8
0
100
AcDbLine
 62
9
  6
CONTINUOUS
 10
5.5854719465
 20
8.2899195021
 11
5.5854719465
 21
7.8499195021
  0
LINE
  5
20C
100
AcDbEntity
  8
0
100
AcDbLine
 62
9
  6
CONTINUOUS
 10
5.6232162368
 20
7.8499195021
 11
5.6232162369
 21
8.2899195018
  0
LINE
  5
20D
100
AcDbEntity
  8
0
100
AcDbLine
 62
9
  6
CONTINUOUS
 10
5.6461958196
 20
8.2899194617
 11
5.6461958196
 21
7.8499195021
  0
LINE
  5
20E
100
AcDbEntity
  8
0
100
AcDbLine
 62
9
  6
CONTINUOUS
 10
5.6868925986
 20
8.4199195021
 11
5.6868925986
 21
8.3899195021
  0
LINE
  5
20F
100
AcDbEntity
  8
0
100
AcDbLine
 62
9
  6
CONTINUOUS
 10
5.6868925949
 20
7.7499195021
 11
5.6868925949
 21
7.7199195021
  0
LINE
  5
210
100
AcDbEntity
  8
0
100
AcDbLine
 62
9
  6
CONTINUOUS
 10
5.7112012363
 20
8.3499195021
 11
5.7112012363
 21
8.3199195021
  0
LINE
  5
211
100
AcDbEntity
  8
0
100
AcDbLine
 62
9
  6
CONTINUOUS
 10
5.7112012371
 20
7.8199195021
 11
5.7112012371
 21
7.7899195021
  0
LINE
  5
212
100
AcDbEntity
  8
0
100
AcDbLine
 62
7
  6
CONTINUOUS
 10
5.8126923427
 20
5.2389195021
 11
5.8126923427
 21
5.1689195021
  0
LINE
  5
213
100
AcDbEntity
  8
0
100
AcDbLine
 62
9
  6
CONTINUOUS
 10
5.8376923427
 20
8.3199195021
 11
5.8376923427
 21
7.8199195021
  0
LINE
  5
214
100
AcDbEntity
  8
0
100
AcDbLine
 62
7
  6
CONTINUOUS
 10
5.8926923427
 20
5.4889195021
 11
5.8926923427
 21
5.3189195021
  0
LINE
  5
215
100
AcDbEntity
  8
0
100
AcDbLine
 62
9
  6
CONTINUOUS
 10
6.3626923427
 20
7.7199195021
 11
6.3626923427
 21
8.4199195021
  0
LINE
  5
216
100
AcDbEntity
  8
0
100
AcDbLine
 62
7
  6
CONTINUOUS
 10
6.4501923427
 20
7.6589195021
 11
6.4501923427
 21
5.5589195021
  0
LINE
  5
217
100
AcDbEntity
  8
0
100
AcDbLine
 62
7
  6
CONTINUOUS
 10
6.5126923427
 20
5.5289195021
 11
6.5126923427
 21
5.5189195021
  0
LINE
  5
218
100
AcDbEntity
  8
0
100
AcDbLine
 62
7
  6
CONTINUOUS
 10
6.6846923427
 20
7.7199195021
 11
6.6846923427
 21
7.6889195021
  0
LINE
  5
219
100
AcDbEntity
  8
0
100
AcDbLine
 62
7
  6
CONTINUOUS
 10
6.6876923427
 20
7.7499195021
 11
6.6876923427
 21
8.3899195021
  0
LINE
  5
21A
100
AcDbEntity
  8
0
100
AcDbLine
 62
9
  6
CONTINUOUS
 10
6.7128748245
 20
7.8499195021
 11
6.7128748245
 21
8.2899195021
  0
LINE
  5
21B
100
AcDbEntity
  8
0
100
AcDbLine
 62
7
  6
CONTINUOUS
 10
5.8126923427
 20
5.1689195021
 11
8.0626923427
 21
5.1689195021
  0
LINE
  5
21C
100
AcDbEntity
  8
0
100
AcDbLine
 62
7
  6
CONTINUOUS
 10
9.8126923427
 20
5.1689195021
 11
12.0626923427
 21
5.1689195021
  0
LINE
  5
21D
100
AcDbEntity
  8
0
100
AcDbLine
 62
7
  6
CONTINUOUS
 10
13.8126923427
 20
5.1689195021
 11
16.0626923427
 21
5.1689195021
  0
LINE
  5
21E
100
AcDbEntity
  8
0
100
AcDbLine
 62
9
  6
CONTINUOUS
 10
16.0626923427
 20
5.2389195021
 11
13.8126923427
 21
5.2389195021
  0
LINE
  5
21F
100
AcDbEntity
  8
0
100
AcDbLine
 62
9
  6
CONTINUOUS
 10
8.0626923427
 20
5.2389195021
 11
5.8126923427
 21
5.2389195021
  0
LINE
  5
220
100
AcDbEntity
  8
0
100
AcDbLine
 62
9
  6
CONTINUOUS
 10
12.0626923427
 20
5.2439195021
 11
9.8126923427
 21
5.2439195021
  0
LINE
  5
221
100
AcDbEntity
  8
0
100
AcDbLine
 62
9
  6
CONTINUOUS
 10
7.162509861
 20
7.8499195021
 11
7.162509861
 21
8.2899195021
  0
LINE
  5
222
100
AcDbEntity
  8
0
100
AcDbLine
 62
7
  6
CONTINUOUS
 10
7.1876923427
 20
7.7499195021
 11
7.1876923427
 21
8.3899195021
  0
LINE
  5
223
100
AcDbEntity
  8
0
100
AcDbLine
 62
7
  6
CONTINUOUS
 10
7.1906923427
 20
7.7199195021
 11
7.1906923427
 21
7.6889195021
  0
LINE
  5
224
100
AcDbEntity
  8
0
100
AcDbLine
 62
7
  6
CONTINUOUS
 10
7.3626923427
 20
5.5289195021
 11
7.3626923427
 21
5.5189195021
  0
LINE
  5
225
100
AcDbEntity
  8
0
100
AcDbLine
 62
7
  6
CONTINUOUS
 10
12.0376923427
 20
5.2689195021
 11
9.8376923427
 21
5.2689195021
  0
LINE
  5
226
100
AcDbEntity
  8
0
100
AcDbLine
 62
7
  6
CONTINUOUS
 10
5.8426923427
 20
5.2689195021
 11
8.0326711928
 21
5.2689195021
  0
LINE
  5
227
100
AcDbEntity
  8
0
100
AcDbLine
 62
7
  6
CONTINUOUS
 10
13.8426923427
 20
5.2689195021
 11
16.0326711928
 21
5.2689195021
  0
LINE
  5
228
100
AcDbEntity
  8
0
100
AcDbLine
 62
9
  6
CONTINUOUS
 10
5.8927050801
 20
5.3189195021
 11
7.9826923427
 21
5.3189195021
  0
LINE
  5
229
100
AcDbEntity
  8
0
100
AcDbLine
 62
9
  6
CONTINUOUS
 10
9.8926923427
 20
5.3189195021
 11
11.9826923427
 21
5.3189195021
  0
LINE
  5
22A
100
AcDbEntity
  8
0
100
AcDbLine
 62
9
  6
CONTINUOUS
 10
13.8926923427
 20
5.3189195021
 11
15.9826923427
 21
5.3189195021
  0
LINE
  5
22B
100
AcDbEntity
  8
0
100
AcDbLine
 62
9
  6
CONTINUOUS
 10
15.9826923427
 20
5.4889195021
 11
13.8926923427
 21
5.4889195021
  0
LINE
  5
22C
100
AcDbEntity
  8
0
100
AcDbLine
 62
9
  6
CONTINUOUS
 10
7.9826923427
 20
5.4889195021
 11
5.8926923427
 21
5.4889195021
  0
LINE
  5
22D
100
AcDbEntity
  8
0
100
AcDbLine
 62
9
  6
CONTINUOUS
 10
11.9826923427
 20
5.4939195021
 11
9.8926923427
 21
5.4939195021
  0
LINE
  5
22E
100
AcDbEntity
  8
0
100
AcDbLine
 62
7
  6
CONTINUOUS
 10
15.9526923427
 20
5.5189195021
 11
13.9226923427
 21
5.5189195021
  0
LINE
  5
22F
100
AcDbEntity
  8
0
100
AcDbLine
 62
7
  6
CONTINUOUS
 10
11.9576923427
 20
5.5189195021
 11
9.9176923427
 21
5.5189195021
  0
LINE
  5
230
100
AcDbEntity
  8
0
100
AcDbLine
 62
7
  6
CONTINUOUS
 10
7.9526923427
 20
5.5189195021
 11
5.9226923427
 21
5.5189195021
  0
LINE
  5
231
100
AcDbEntity
  8
0
100
AcDbLine
 62
7
  6
CONTINUOUS
 10
6.4801923427
 20
5.5289195021
 11
7.3951749302
 21
5.5289195021
  0
LINE
  5
232
100
AcDbEntity
  8
0
100
AcDbLine
 62
7
  6
CONTINUOUS
 10
14.4801923427
 20
5.5289195021
 11
15.3951749302
 21
5.5289195021
  0
LINE
  5
233
100
AcDbEntity
  8
0
100
AcDbLine
 62
9
  6
CONTINUOUS
 10
6.4501923427
 20
5.5589195021
 11
7.4251737884
 21
5.5589195021
  0
LINE
  5
234
100
AcDbEntity
  8
0
100
AcDbLine
 62
9
  6
CONTINUOUS
 10
14.4501923427
 20
5.5589195021
 11
15.4251737884
 21
5.5589195021
  0
LINE
  5
235
100
AcDbEntity
  8
0
100
AcDbLine
 62
7
  6
CONTINUOUS
 10
7.4251923427
 20
7.6589195021
 11
7.4251923427
 21
5.5589195021
  0
LINE
  5
236
100
AcDbEntity
  8
0
100
AcDbLine
 62
9
  6
CONTINUOUS
 10
7.5126923427
 20
8.4199195021
 11
7.5126923427
 21
7.7199195021
  0
LINE
  5
237
100
AcDbEntity
  8
0
100
AcDbLine
 62
7
  6
CONTINUOUS
 10
7.9826923427
 20
5.4889195021
 11
7.9826923427
 21
5.3189195021
  0
LINE
  5
238
100
AcDbEntity
  8
0
100
AcDbLine
 62
9
  6
CONTINUOUS
 10
8.0376923427
 20
7.8199195021
 11
8.0376923427
 21
8.3199195021
  0
LINE
  5
239
100
AcDbEntity
  8
0
100
AcDbLine
 62
7
  6
CONTINUOUS
 10
8.0626923427
 20
5.2389195021
 11
8.0626923427
 21
5.1689195021
  0
LINE
  5
23A
100
AcDbEntity
  8
0
100
AcDbLine
 62
9
  6
CONTINUOUS
 10
8.1641834491
 20
7.7899195021
 11
8.1641834491
 21
7.8199195021
  0
LINE
  5
23B
100
AcDbEntity
  8
0
100
AcDbLine
 62
9
  6
CONTINUOUS
 10
8.1641834492
 20
8.3199195021
 11
8.1641834492
 21
8.3499195021
  0
LINE
  5
23C
100
AcDbEntity
  8
0
100
AcDbLine
 62
9
  6
CONTINUOUS
 10
8.1884920905
 20
7.7199195021
 11
8.1884920905
 21
7.7499195021
  0
LINE
  5
23D
100
AcDbEntity
  8
0
100
AcDbLine
 62
9
  6
CONTINUOUS
 10
8.1884920869
 20
8.3899195021
 11
8.1884920869
 21
8.4199195021
  0
LINE
  5
23E
100
AcDbEntity
  8
0
100
AcDbLine
 62
9
  6
CONTINUOUS
 10
8.2291888659
 20
7.8499194472
 11
8.2291888659
 21
8.2899195021
  0
LINE
  5
23F
100
AcDbEntity
  8
0
100
AcDbLine
 62
9
  6
CONTINUOUS
 10
8.2521684486
 20
8.289919502
 11
8.2521684486
 21
7.849919502
  0
LINE
  5
240
100
AcDbEntity
  8
0
100
AcDbLine
 62
9
  6
CONTINUOUS
 10
8.289912739
 20
7.8499195021
 11
8.289912739
 21
8.2899195021
  0
LINE
  5
241
100
AcDbEntity
  8
0
100
AcDbLine
 62
9
  6
CONTINUOUS
 10
8.3195234046
 20
8.2899195022
 11
8.3195234046
 21
7.8499195021
  0
LINE
  5
242
100
AcDbEntity
  8
0
100
AcDbLine
 62
7
  6
CONTINUOUS
 10
8.3376923427
 20
7.8499195021
 11
8.3376923427
 21
8.2899195021
  0
LINE
  5
243
100
AcDbEntity
  8
0
100
AcDbLine
 62
9
  6
CONTINUOUS
 10
15.4251923427
 20
7.6589195021
 11
14.4501923427
 21
7.6589195021
  0
LINE
  5
244
100
AcDbEntity
  8
0
100
AcDbLine
 62
9
  6
CONTINUOUS
 10
7.4251923427
 20
7.6589195021
 11
6.4501923427
 21
7.6589195021
  0
LINE
  5
245
100
AcDbEntity
  8
0
100
AcDbLine
 62
7
  6
CONTINUOUS
 10
15.3951923427
 20
7.6889195021
 11
14.4801923427
 21
7.6889195021
  0
LINE
  5
246
100
AcDbEntity
  8
0
100
AcDbLine
 62
7
  6
CONTINUOUS
 10
7.3951923427
 20
7.6889195021
 11
6.4801923427
 21
7.6889195021
  0
LINE
  5
247
100
AcDbEntity
  8
0
100
AcDbLine
 62
9
  6
CONTINUOUS
 10
11.6376923427
 20
7.6956352309
 11
10.2376923427
 21
7.6956352309
  0
LINE
  5
248
100
AcDbEntity
  8
0
100
AcDbLine
 62
9
  6
CONTINUOUS
 10
10.2435502071
 20
7.7097773665
 11
11.6318344784
 21
7.7097773665
  0
LINE
  5
249
100
AcDbEntity
  8
0
100
AcDbLine
 62
9
  6
CONTINUOUS
 10
11.628349197
 20
7.7132626479
 11
10.2470354885
 21
7.7132626479
  0
LINE
  5
24A
100
AcDbEntity
  8
0
100
AcDbLine
 62
7
  6
CONTINUOUS
 10
5.6676980271
 20
7.7199195021
 11
8.2076866584
 21
7.7199195021
  0
LINE
  5
24B
100
AcDbEntity
  8
0
100
AcDbLine
 62
7
  6
CONTINUOUS
 10
13.6676980271
 20
7.7199195021
 11
16.2076866584
 21
7.7199195021
  0
LINE
  5
24C
100
AcDbEntity
  8
0
100
AcDbLine
 62
9
  6
CONTINUOUS
 10
10.2470354885
 20
7.7245763564
 11
11.6283265732
 21
7.7245763564
  0
LINE
  5
24D
100
AcDbEntity
  8
0
100
AcDbLine
 62
9
  6
CONTINUOUS
 10
11.6318344784
 20
7.7280616378
 11
10.2435502071
 21
7.7280616378
  0
LINE
  5
24E
100
AcDbEntity
  8
0
100
AcDbLine
 62
9
  6
CONTINUOUS
 10
10.2376923427
 20
7.7422037734
 11
11.637670091
 21
7.7422037734
  0
LINE
  5
24F
100
AcDbEntity
  8
0
100
AcDbLine
 62
9
  6
CONTINUOUS
 10
5.6868925986
 20
7.7499195021
 11
6.6876923427
 21
7.7499195021
  0
LINE
  5
250
100
AcDbEntity
  8
0
100
AcDbLine
 62
9
  6
CONTINUOUS
 10
7.1876923427
 20
7.7499195021
 11
8.1884920869
 21
7.7499195021
  0
LINE
  5
251
100
AcDbEntity
  8
0
100
AcDbLine
 62
9
  6
CONTINUOUS
 10
13.6868925986
 20
7.7499195021
 11
14.6876923427
 21
7.7499195021
  0
LINE
  5
252
100
AcDbEntity
  8
0
100
AcDbLine
 62
9
  6
CONTINUOUS
 10
15.1876923427
 20
7.7499195021
 11
16.1884920869
 21
7.7499195021
  0
LINE
  5
253
100
AcDbEntity
  8
0
100
AcDbLine
 62
9
  6
CONTINUOUS
 10
16.1641834492
 20
7.7899195021
 11
15.1876923427
 21
7.7899195021
  0
LINE
  5
254
100
AcDbEntity
  8
0
100
AcDbLine
 62
9
  6
CONTINUOUS
 10
14.6876923427
 20
7.7899195021
 11
13.7112012363
 21
7.7899195021
  0
LINE
  5
255
100
AcDbEntity
  8
0
100
AcDbLine
 62
9
  6
CONTINUOUS
 10
8.1641834492
 20
7.7899195021
 11
7.1876923427
 21
7.7899195021
  0
LINE
  5
256
100
AcDbEntity
  8
0
100
AcDbLine
 62
9
  6
CONTINUOUS
 10
6.6876923427
 20
7.7899195021
 11
5.7112012363
 21
7.7899195021
  0
LINE
  5
257
100
AcDbEntity
  8
0
100
AcDbLine
 62
9
  6
CONTINUOUS
 10
11.6376923427
 20
7.7989195021
 11
10.2376923427
 21
7.7989195021
  0
LINE
  5
258
100
AcDbEntity
  8
0
100
AcDbLine
 62
7
  6
CONTINUOUS
 10
11.6176923427
 20
7.8189195021
 11
10.2576923427
 21
7.8189195021
  0
LINE
  5
259
100
AcDbEntity
  8
0
100
AcDbLine
 62
7
  6
CONTINUOUS
 10
5.7112012363
 20
7.8199195021
 11
6.6876923427
 21
7.8199195021
  0
LINE
  5
25A
100
AcDbEntity
  8
0
100
AcDbLine
 62
7
  6
CONTINUOUS
 10
7.1876923427
 20
7.8199195021
 11
8.1641834491
 21
7.8199195021
  0
LINE
  5
25B
100
AcDbEntity
  8
0
100
AcDbLine
 62
7
  6
CONTINUOUS
 10
13.7112012363
 20
7.8199195021
 11
14.6876923427
 21
7.8199195021
  0
LINE
  5
25C
100
AcDbEntity
  8
0
100
AcDbLine
 62
7
  6
CONTINUOUS
 10
15.1876923427
 20
7.8199195021
 11
16.1641834491
 21
7.8199195021
  0
LINE
  5
25D
100
AcDbEntity
  8
0
100
AcDbLine
 62
9
  6
CONTINUOUS
 10
10.4076923427
 20
7.8389195021
 11
11.4676923427
 21
7.8389195021
  0
LINE
  5
25E
100
AcDbEntity
  8
0
100
AcDbLine
 62
9
  6
CONTINUOUS
 10
5.5376923427
 20
7.8499195021
 11
5.5854719465
 21
7.8499195021
  0
LINE
  5
25F
100
AcDbEntity
  8
0
100
AcDbLine
 62
9
  6
CONTINUOUS
 10
5.6232162368
 20
7.8499195021
 11
8.2521684486
 21
7.8499194472
  0
LINE
  5
260
100
AcDbEntity
  8
0
100
AcDbLine
 62
9
  6
CONTINUOUS
 10
8.289912739
 20
7.8499195021
 11
8.3376923427
 21
7.8499195021
  0
LINE
  5
261
100
AcDbEntity
  8
0
100
AcDbLine
 62
9
  6
CONTINUOUS
 10
13.5376923427
 20
7.8499195021
 11
13.5854719465
 21
7.8499195021
  0
LINE
  5
262
100
AcDbEntity
  8
0
100
AcDbLine
 62
9
  6
CONTINUOUS
 10
13.6232162368
 20
7.8499195021
 11
16.2521684486
 21
7.8499194472
  0
LINE
  5
263
100
AcDbEntity
  8
0
100
AcDbLine
 62
9
  6
CONTINUOUS
 10
16.289912739
 20
7.8499195021
 11
16.3376923427
 21
7.8499195021
  0
LINE
  5
264
100
AcDbEntity
  8
0
100
AcDbLine
 62
7
  6
CONTINUOUS
 10
10.2470354885
 20
7.7245763564
 11
10.2435502071
 21
7.7280616378
  0
LINE
  5
265
100
AcDbEntity
  8
0
100
AcDbLine
 62
7
  6
CONTINUOUS
 10
9.8126923427
 20
5.2439195021
 11
9.8126923427
 21
5.1689195021
  0
LINE
  5
266
100
AcDbEntity
  8
0
100
AcDbLine
 62
7
  6
CONTINUOUS
 10
9.8926923427
 20
5.4939195021
 11
9.8926923427
 21
5.3189195021
  0
LINE
  5
267
100
AcDbEntity
  8
0
100
AcDbLine
 62
9
  6
CONTINUOUS
 10
16.3376923427
 20
8.2899195021
 11
16.289912739
 21
8.2899195022
  0
LINE
  5
268
100
AcDbEntity
  8
0
100
AcDbLine
 62
9
  6
CONTINUOUS
 10
16.2521684486
 20
8.2899195021
 11
13.6232162368
 21
8.2899194617
  0
LINE
  5
269
100
AcDbEntity
  8
0
100
AcDbLine
 62
9
  6
CONTINUOUS
 10
13.5854719465
 20
8.2899195021
 11
13.5376923427
 21
8.2899195021
  0
LINE
  5
26A
100
AcDbEntity
  8
0
100
AcDbLine
 62
9
  6
CONTINUOUS
 10
8.3376923427
 20
8.2899195021
 11
8.289912739
 21
8.2899195022
  0
LINE
  5
26B
100
AcDbEntity
  8
0
100
AcDbLine
 62
9
  6
CONTINUOUS
 10
8.2521684486
 20
8.2899195021
 11
5.6232162368
 21
8.2899194617
  0
LINE
  5
26C
100
AcDbEntity
  8
0
100
AcDbLine
 62
9
  6
CONTINUOUS
 10
5.5854719465
 20
8.2899195022
 11
5.5376923427
 21
8.2899195021
  0
LINE
  5
26D
100
AcDbEntity
  8
0
100
AcDbLine
 62
9
  6
CONTINUOUS
 10
11.4676923427
 20
8.2989195021
 11
10.4076923427
 21
8.2989195021
  0
LINE
  5
26E
100
AcDbEntity
  8
0
100
AcDbLine
 62
7
  6
CONTINUOUS
 10
11.4876923427
 20
8.3189195021
 11
10.3876923427
 21
8.3189195021
  0
LINE
  5
26F
100
AcDbEntity
  8
0
100
AcDbLine
 62
7
  6
CONTINUOUS
 10
5.7112012356
 20
8.3199195021
 11
6.6876923427
 21
8.3199195021
  0
LINE
  5
270
100
AcDbEntity
  8
0
100
AcDbLine
 62
7
  6
CONTINUOUS
 10
7.1876923427
 20
8.3199195021
 11
8.1641834492
 21
8.3199195021
  0
LINE
  5
271
100
AcDbEntity
  8
0
100
AcDbLine
 62
7
  6
CONTINUOUS
 10
13.7112012356
 20
8.3199195021
 11
14.6876923427
 21
8.3199195021
  0
LINE
  5
272
100
AcDbEntity
  8
0
100
AcDbLine
 62
7
  6
CONTINUOUS
 10
15.1876923427
 20
8.3199195021
 11
16.1641834492
 21
8.3199195021
  0
LINE
  5
273
100
AcDbEntity
  8
0
100
AcDbLine
 62
9
  6
CONTINUOUS
 10
10.3676923427
 20
8.3389195021
 11
11.5076923427
 21
8.3389195021
  0
LINE
  5
274
100
AcDbEntity
  8
0
100
AcDbLine
 62
9
  6
CONTINUOUS
 10
5.7112012363
 20
8.3499195021
 11
6.6876923427
 21
8.3499195021
  0
LINE
  5
275
100
AcDbEntity
  8
0
100
AcDbLine
 62
9
  6
CONTINUOUS
 10
7.1876923427
 20
8.3499195021
 11
8.1641834491
 21
8.3499195021
  0
LINE
  5
276
100
AcDbEntity
  8
0
100
AcDbLine
 62
9
  6
CONTINUOUS
 10
13.7112012363
 20
8.3499195021
 11
14.6876923427
 21
8.3499195021
  0
LINE
  5
277
100
AcDbEntity
  8
0
100
AcDbLine
 62
9
  6
CONTINUOUS
 10
15.1876923427
 20
8.3499195021
 11
16.1641834491
 21
8.3499195021
  0
LINE
  5
278
100
AcDbEntity
  8
0
100
AcDbLine
 62
9
  6
CONTINUOUS
 10
16.1884920869
 20
8.3899195021
 11
15.1876923427
 21
8.3899195021
  0
LINE
  5
279
100
AcDbEntity
  8
0
100
AcDbLine
 62
9
  6
CONTINUOUS
 10
14.6876923427
 20
8.3899195021
 11
13.6868925986
 21
8.3899195021
  0
LINE
  5
27A
100
AcDbEntity
  8
0
100
AcDbLine
 62
9
  6
CONTINUOUS
 10
8.1884920869
 20
8.3899195021
 11
7.1876923427
 21
8.3899195021
  0
LINE
  5
27B
100
AcDbEntity
  8
0
100
AcDbLine
 62
9
  6
CONTINUOUS
 10
6.6876923427
 20
8.3899195021
 11
5.6868925986
 21
8.3899195021
  0
LINE
  5
27C
100
AcDbEntity
  8
0
100
AcDbLine
 62
9
  6
CONTINUOUS
 10
11.5076923427
 20
8.3989195021
 11
10.3676923427
 21
8.3989195021
  0
LINE
  5
27D
100
AcDbEntity
  8
0
100
AcDbLine
 62
7
  6
CONTINUOUS
 10
11.4876923427
 20
8.4189195021
 11
10.3876923427
 21
8.4189195021
  0
LINE
  5
27E
100
AcDbEntity
  8
0
100
AcDbLine
 62
7
  6
CONTINUOUS
 10
5.6676980271
 20
8.4199195021
 11
8.2076866584
 21
8.4199195021
  0
LINE
  5
27F
100
AcDbEntity
  8
0
100
AcDbLine
 62
7
  6
CONTINUOUS
 10
13.6676980271
 20
8.4199195021
 11
16.2076866584
 21
8.4199195021
  0
LINE
  5
280
100
AcDbEntity
  8
0
100
AcDbLine
 62
7
  6
CONTINUOUS
 10
10.2376923427
 20
7.7989195021
 11
10.2376923427
 21
7.7422037734
  0
LINE
  5
281
100
AcDbEntity
  8
0
100
AcDbLine
 62
7
  6
CONTINUOUS
 10
10.2376923427
 20
7.6956352309
 11
10.2376923427
 21
5.5189195021
  0
LINE
  5
282
100
AcDbEntity
  8
0
100
AcDbLine
 62
7
  6
CONTINUOUS
 10
10.3676923427
 20
8.3989195021
 11
10.3676923427
 21
8.3389195021
  0
LINE
  5
283
100
AcDbEntity
  8
0
100
AcDbLine
 62
7
  6
CONTINUOUS
 10
10.3976923427
 20
10.9489195021
 11
10.3976923427
 21
10.9089195021
  0
LINE
  5
284
100
AcDbEntity
  8
0
100
AcDbLine
 62
7
  6
CONTINUOUS
 10
10.3976923427
 20
10.2389195021
 11
10.3976923427
 21
10.1989195021
  0
LINE
  5
285
100
AcDbEntity
  8
0
100
AcDbLine
 62
7
  6
CONTINUOUS
 10
10.4076923427
 20
8.2989195021
 11
10.4076923427
 21
7.8389195021
  0
LINE
  5
286
100
AcDbEntity
  8
0
100
AcDbLine
 62
7
  6
CONTINUOUS
 10
10.4576923427
 20
10.8489195021
 11
10.4576923427
 21
10.2989195021
  0
LINE
  5
287
100
AcDbEntity
  8
0
100
AcDbLine
 62
7
  6
CONTINUOUS
 10
10.5001923427
 20
12.9289195021
 11
10.5001923427
 21
10.9789195021
  0
LINE
  5
288
100
AcDbEntity
  8
0
100
AcDbLine
 62
7
  6
CONTINUOUS
 10
10.5001923427
 20
8.4189195021
 11
10.5001923427
 21
10.1689195021
  0
LINE
  5
289
100
AcDbEntity
  8
0
100
AcDbLine
 62
7
  6
CONTINUOUS
 10
11.6318344784
 20
7.7097773665
 11
11.628349197
 21
7.7132626479
  0
LINE
  5
28A
100
AcDbEntity
  8
0
100
AcDbLine
 62
7
  6
CONTINUOUS
 10
11.3751923427
 20
12.9289195021
 11
11.3751923427
 21
10.9789195021
  0
LINE
  5
28B
100
AcDbEntity
  8
0
100
AcDbLine
 62
7
  6
CONTINUOUS
 10
11.3751923427
 20
8.4189195021
 11
11.3751923427
 21
10.1689195021
  0
LINE
  5
28C
100
AcDbEntity
  8
0
100
AcDbLine
 62
7
  6
CONTINUOUS
 10
11.4176923427
 20
10.8489195021
 11
11.4176923427
 21
10.2989195021
  0
LINE
  5
28D
100
AcDbEntity
  8
0
100
AcDbLine
 62
7
  6
CONTINUOUS
 10
11.4676923427
 20
8.2989195021
 11
11.4676923427
 21
7.8389195021
  0
LINE
  5
28E
100
AcDbEntity
  8
0
100
AcDbLine
 62
7
  6
CONTINUOUS
 10
11.4776923427
 20
10.9489195021
 11
11.4776923427
 21
10.9089195021
  0
LINE
  5
28F
100
AcDbEntity
  8
0
100
AcDbLine
 62
7
  6
CONTINUOUS
 10
11.4776923427
 20
10.2389195021
 11
11.4776923427
 21
10.1989195021
  0
LINE
  5
290
100
AcDbEntity
  8
0
100
AcDbLine
 62
7
  6
CONTINUOUS
 10
11.5076923427
 20
8.3989195021
 11
11.5076923427
 21
8.3389195021
  0
LINE
  5
291
100
AcDbEntity
  8
0
100
AcDbLine
 62
7
  6
CONTINUOUS
 10
11.6376923427
 20
7.7989195021
 11
11.6376923427
 21
7.7422037734
  0
LINE
  5
292
100
AcDbEntity
  8
0
100
AcDbLine
 62
7
  6
CONTINUOUS
 10
11.6376923427
 20
7.6956352309
 11
11.6376923427
 21
5.5189195021
  0
LINE
  5
293
100
AcDbEntity
  8
0
100
AcDbLine
 62
7
  6
CONTINUOUS
 10
10.2435502071
 20
7.7097773665
 11
10.2470354885
 21
7.7132626479
  0
LINE
  5
294
100
AcDbEntity
  8
0
100
AcDbLine
 62
7
  6
CONTINUOUS
 10
10.4276923427
 20
10.1689195021
 11
11.4476866295
 21
10.1689195021
  0
LINE
  5
295
100
AcDbEntity
  8
0
100
AcDbLine
 62
9
  6
CONTINUOUS
 10
10.3976923427
 20
10.1989195021
 11
11.4776862934
 21
10.1989195021
  0
LINE
  5
296
100
AcDbEntity
  8
0
100
AcDbLine
 62
7
  6
CONTINUOUS
 10
11.9826923427
 20
5.4939195021
 11
11.9826923427
 21
5.3189195021
  0
LINE
  5
297
100
AcDbEntity
  8
0
100
AcDbLine
 62
7
  6
CONTINUOUS
 10
12.0626923427
 20
5.2439195021
 11
12.0626923427
 21
5.1689195021
  0
LINE
  5
298
100
AcDbEntity
  8
0
100
AcDbLine
 62
9
  6
CONTINUOUS
 10
11.4776923427
 20
10.2389195021
 11
10.3976923427
 21
10.2389195021
  0
LINE
  5
299
100
AcDbEntity
  8
0
100
AcDbLine
 62
7
  6
CONTINUOUS
 10
11.4476923427
 20
10.2689195021
 11
10.4277009364
 21
10.2689195021
  0
LINE
  5
29A
100
AcDbEntity
  8
0
100
AcDbLine
 62
9
  6
CONTINUOUS
 10
10.4576923427
 20
10.2989195021
 11
11.4176923427
 21
10.2989195021
  0
LINE
  5
29B
100
AcDbEntity
  8
0
100
AcDbLine
 62
7
  6
CONTINUOUS
 10
11.628349197
 20
7.7245763564
 11
11.6318344784
 21
7.7280616378
  0
LINE
  5
29C
100
AcDbEntity
  8
0
100
AcDbLine
 62
9
  6
CONTINUOUS
 10
11.4176923427
 20
10.8489195021
 11
10.4576997037
 21
10.8489195021
  0
LINE
  5
29D
100
AcDbEntity
  8
0
100
AcDbLine
 62
7
  6
CONTINUOUS
 10
11.4476923427
 20
10.8789195021
 11
10.4277001638
 21
10.8789195021
  0
LINE
  5
29E
100
AcDbEntity
  8
0
100
AcDbLine
 62
9
  6
CONTINUOUS
 10
10.3976923427
 20
10.9089195021
 11
11.4776862934
 21
10.9089195021
  0
LINE
  5
29F
100
AcDbEntity
  8
0
100
AcDbLine
 62
9
  6
CONTINUOUS
 10
11.4776923427
 20
10.9489195021
 11
10.3976923427
 21
10.9489195021
  0
LINE
  5
2A0
100
AcDbEntity
  8
0
100
AcDbLine
 62
7
  6
CONTINUOUS
 10
11.4476923427
 20
10.9789195021
 11
10.4276923427
 21
10.9789195021
  0
LINE
  5
2A1
100
AcDbEntity
  8
0
100
AcDbLine
 62
9
  6
CONTINUOUS
 10
11.3751923427
 20
11.4289195021
 11
10.5001923427
 21
11.4289195021
  0
LINE
  5
2A2
100
AcDbEntity
  8
0
100
AcDbLine
 62
7
  6
CONTINUOUS
 10
13.5376923427
 20
7.8499195021
 11
13.5376923427
 21
8.2899195021
  0
LINE
  5
2A3
100
AcDbEntity
  8
0
100
AcDbLine
 62
9
  6
CONTINUOUS
 10
13.5558612809
 20
7.8499195021
 11
13.5558612809
 21
8.2899195021
  0
LINE
  5
2A4
100
AcDbEntity
  8
0
100
AcDbLine
 62
9
  6
CONTINUOUS
 10
13.5854719465
 20
8.2899195021
 11
13.5854719465
 21
7.8499195021
  0
LINE
  5
2A5
100
AcDbEntity
  8
0
100
AcDbLine
 62
9
  6
CONTINUOUS
 10
13.6232162368
 20
7.8499195021
 11
13.6232162369
 21
8.2899195018
  0
LINE
  5
2A6
100
AcDbEntity
  8
0
100
AcDbLine
 62
9
  6
CONTINUOUS
 10
13.6461958196
 20
8.2899194617
 11
13.6461958196
 21
7.8499195021
  0
LINE
  5
2A7
100
AcDbEntity
  8
0
100
AcDbLine
 62
9
  6
CONTINUOUS
 10
13.6868925944
 20
8.4199195021
 11
13.6868925944
 21
8.3899195021
  0
LINE
  5
2A8
100
AcDbEntity
  8
0
100
AcDbLine
 62
9
  6
CONTINUOUS
 10
13.6868925986
 20
7.7499195021
 11
13.6868925986
 21
7.7199195021
  0
LINE
  5
2A9
100
AcDbEntity
  8
0
100
AcDbLine
 62
9
  6
CONTINUOUS
 10
13.7112012363
 20
8.3499195021
 11
13.7112012363
 21
8.3199195021
  0
LINE
  5
2AA
100
AcDbEntity
  8
0
100
AcDbLine
 62
9
  6
CONTINUOUS
 10
13.7112012371
 20
7.8199195021
 11
13.7112012371
 21
7.7899195021
  0
LINE
  5
2AB
100
AcDbEntity
  8
0
100
AcDbLine
 62
7
  6
CONTINUOUS
 10
13.8126923427
 20
5.2389195021
 11
13.8126923427
 21
5.1689195021
  0
LINE
  5
2AC
100
AcDbEntity
  8
0
100
AcDbLine
 62
9
  6
CONTINUOUS
 10
13.8376923427
 20
8.3199195021
 11
13.8376923427
 21
7.8199195021
  0
LINE
  5
2AD
100
AcDbEntity
  8
0
100
AcDbLine
 62
7
  6
CONTINUOUS
 10
13.8926923427
 20
5.4889195021
 11
13.8926923427
 21
5.3189195021
  0
LINE
  5
2AE
100
AcDbEntity
  8
0
100
AcDbLine
 62
9
  6
CONTINUOUS
 10
14.3626923427
 20
7.7199195021
 11
14.3626923427
 21
8.4199195021
  0
LINE
  5
2AF
100
AcDbEntity
  8
0
100
AcDbLine
 62
7
  6
CONTINUOUS
 10
14.4501923427
 20
7.6589195021
 11
14.4501923427
 21
5.5589195021
  0
LINE
  5
2B0
100
AcDbEntity
  8
0
100
AcDbLine
 62
7
  6
CONTINUOUS
 10
14.5126923427
 20
5.5289195021
 11
14.5126923427
 21
5.5189195021
  0
LINE
  5
2B1
100
AcDbEntity
  8
0
100
AcDbLine
 62
7
  6
CONTINUOUS
 10
14.6846923427
 20
7.7199195021
 11
14.6846923427
 21
7.6889195021
  0
LINE
  5
2B2
100
AcDbEntity
  8
0
100
AcDbLine
 62
7
  6
CONTINUOUS
 10
14.6876923427
 20
7.7499195021
 11
14.6876923427
 21
8.3899195021
  0
LINE
  5
2B3
100
AcDbEntity
  8
0
100
AcDbLine
 62
9
  6
CONTINUOUS
 10
14.7128748245
 20
8.2899195022
 11
14.7128748245
 21
7.8499195021
  0
LINE
  5
2B4
100
AcDbEntity
  8
0
100
AcDbLine
 62
9
  6
CONTINUOUS
 10
15.162509861
 20
7.8499195021
 11
15.162509861
 21
8.2899195021
  0
LINE
  5
2B5
100
AcDbEntity
  8
0
100
AcDbLine
 62
7
  6
CONTINUOUS
 10
15.1876923427
 20
7.7499195021
 11
15.1876923427
 21
8.3899195021
  0
LINE
  5
2B6
100
AcDbEntity
  8
0
100
AcDbLine
 62
7
  6
CONTINUOUS
 10
15.1906923427
 20
7.7199195021
 11
15.1906923427
 21
7.6889195021
  0
LINE
  5
2B7
100
AcDbEntity
  8
0
100
AcDbLine
 62
7
  6
CONTINUOUS
 10
15.3626923427
 20
5.5289195021
 11
15.3626923427
 21
5.5189195021
  0
LINE
  5
2B8
100
AcDbEntity
  8
0
100
AcDbLine
 62
7
  6
CONTINUOUS
 10
15.4251923427
 20
7.6589195021
 11
15.4251923427
 21
5.5589195021
  0
LINE
  5
2B9
100
AcDbEntity
  8
0
100
AcDbLine
 62
9
  6
CONTINUOUS
 10
15.5126923427
 20
8.4199195021
 11
15.5126923427
 21
7.7199195021
  0
LINE
  5
2BA
100
AcDbEntity
  8
0
100
AcDbLine
 62
7
  6
CONTINUOUS
 10
15.9826923427
 20
5.4889195021
 11
15.9826923427
 21
5.3189195021
  0
LINE
  5
2BB
100
AcDbEntity
  8
0
100
AcDbLine
 62
9
  6
CONTINUOUS
 10
16.0376923427
 20
7.8199195021
 11
16.0376923427
 21
8.3199195021
  0
LINE
  5
2BC
100
AcDbEntity
  8
0
100
AcDbLine
 62
7
  6
CONTINUOUS
 10
16.0626923427
 20
5.2389195021
 11
16.0626923427
 21
5.1689195021
  0
LINE
  5
2BD
100
AcDbEntity
  8
0
100
AcDbLine
 62
9
  6
CONTINUOUS
 10
16.1641834491
 20
7.7899195021
 11
16.1641834491
 21
7.8199195021
  0
LINE
  5
2BE
100
AcDbEntity
  8
0
100
AcDbLine
 62
9
  6
CONTINUOUS
 10
16.1641834492
 20
8.3199195021
 11
16.1641834492
 21
8.3499195021
  0
LINE
  5
2BF
100
AcDbEntity
  8
0
100
AcDbLine
 62
9
  6
CONTINUOUS
 10
16.1884920905
 20
7.7199195021
 11
16.1884920905
 21
7.7499195021
  0
LINE
  5
2C0
100
AcDbEntity
  8
0
100
AcDbLine
 62
9
  6
CONTINUOUS
 10
16.1884920869
 20
8.3899195021
 11
16.1884920869
 21
8.4199195021
  0
LINE
  5
2C1
100
AcDbEntity
  8
0
100
AcDbLine
 62
9
  6
CONTINUOUS
 10
16.2291888659
 20
7.8499194472
 11
16.2291888659
 21
8.2899195021
  0
LINE
  5
2C2
100
AcDbEntity
  8
0
100
AcDbLine
 62
9
  6
CONTINUOUS
 10
16.2521684486
 20
8.289919502
 11
16.2521684486
 21
7.849919502
  0
LINE
  5
2C3
100
AcDbEntity
  8
0
100
AcDbLine
 62
9
  6
CONTINUOUS
 10
16.289912739
 20
7.8499195021
 11
16.289912739
 21
8.2899195021
  0
LINE
  5
2C4
100
AcDbEntity
  8
0
100
AcDbLine
 62
9
  6
CONTINUOUS
 10
16.3195234046
 20
8.2899195022
 11
16.3195234046
 21
7.8499195021
  0
LINE
  5
2C5
100
AcDbEntity
  8
0
100
AcDbLine
 62
7
  6
CONTINUOUS
 10
16.3376923427
 20
7.8499195021
 11
16.3376923427
 21
8.2899195021
  0
ARC
  5
2C6
100
AcDbEntity
  8
0
100
AcDbCircle
 62
7
  6
CONTINUOUS
 10
5.8426923427
 20
5.3189195021
 40
0.05
100
AcDbArc
 50
270.0
 51
360.0
  0
ARC
  5
2C7
100
AcDbEntity
  8
0
100
AcDbCircle
 62
7
  6
CONTINUOUS
 10
5.8426923427
 20
5.2389195021
 40
0.03
100
AcDbArc
 50
90.0
 51
180.0
  0
ARC
  5
2C8
100
AcDbEntity
  8
0
100
AcDbCircle
 62
7
  6
CONTINUOUS
 10
5.9226923427
 20
5.4889195021
 40
0.03
100
AcDbArc
 50
90.0
 51
180.0
  0
ARC
  5
2C9
100
AcDbEntity
  8
0
100
AcDbCircle
 62
7
  6
CONTINUOUS
 10
7.9526923427
 20
5.4889195021
 40
0.03
100
AcDbArc
 50
0.0
 51
90.0
  0
ARC
  5
2CA
100
AcDbEntity
  8
0
100
AcDbCircle
 62
7
  6
CONTINUOUS
 10
7.3951923427
 20
5.5589195021
 40
0.03
100
AcDbArc
 50
270.0
 51
360.0
  0
ARC
  5
2CB
100
AcDbEntity
  8
0
100
AcDbCircle
 62
7
  6
CONTINUOUS
 10
6.4801923427
 20
5.5589195021
 40
0.03
100
AcDbArc
 50
180.0
 51
270.0
  0
ARC
  5
2CC
100
AcDbEntity
  8
0
100
AcDbCircle
 62
9
  6
CONTINUOUS
 10
5.6869258068
 20
7.852359939
 40
0.132440441
100
AcDbArc
 50
261.7083138626
 51
269.9856336182
  0
ARC
  5
2CD
100
AcDbEntity
  8
0
100
AcDbCircle
 62
7
  6
CONTINUOUS
 10
5.6676923427
 20
7.8499195021
 40
0.13
100
AcDbArc
 50
180.0
 51
270.0
  0
ARC
  5
2CE
100
AcDbEntity
  8
0
100
AcDbCircle
 62
7
  6
CONTINUOUS
 10
6.4801923427
 20
7.6589195021
 40
0.03
100
AcDbArc
 50
90.0
 51
180.0
  0
ARC
  5
2CF
100
AcDbEntity
  8
0
100
AcDbCircle
 62
9
  6
CONTINUOUS
 10
5.6869566424
 20
8.2872505387
 40
0.1326707078
100
AcDbArc
 50
96.2150157499
 51
98.2887654484
  0
ARC
  5
2D0
100
AcDbEntity
  8
0
100
AcDbCircle
 62
9
  6
CONTINUOUS
 10
5.6869050849
 20
8.2879032861
 40
0.1320162166
100
AcDbArc
 50
90.0054191412
 51
96.2234406238
  0
ARC
  5
2D1
100
AcDbEntity
  8
0
100
AcDbCircle
 62
7
  6
CONTINUOUS
 10
5.6676923427
 20
8.2899195021
 40
0.13
100
AcDbArc
 50
90.0
 51
180.0
  0
ARC
  5
2D2
100
AcDbEntity
  8
0
100
AcDbCircle
 62
7
  6
CONTINUOUS
 10
7.3951923427
 20
7.6589195021
 40
0.03
100
AcDbArc
 50
0.0
 51
90.0
  0
ARC
  5
2D3
100
AcDbEntity
  8
0
100
AcDbCircle
 62
7
  6
CONTINUOUS
 10
7.1576923427
 20
7.7499195021
 40
0.03
100
AcDbArc
 50
269.9999999986
 51
360.0
  0
ARC
  5
2D4
100
AcDbEntity
  8
0
100
AcDbCircle
 62
7
  6
CONTINUOUS
 10
6.7176923427
 20
7.7499195021
 40
0.03
100
AcDbArc
 50
180.0
 51
270.0
  0
ARC
  5
2D5
100
AcDbEntity
  8
0
100
AcDbCircle
 62
7
  6
CONTINUOUS
 10
6.7176923427
 20
8.3899195021
 40
0.03
100
AcDbArc
 50
90.0
 51
180.0
  0
ARC
  5
2D6
100
AcDbEntity
  8
0
100
AcDbCircle
 62
7
  6
CONTINUOUS
 10
7.1576923427
 20
8.3899195021
 40
0.03
100
AcDbArc
 50
0.0
 51
90.000000002
  0
ARC
  5
2D7
100
AcDbEntity
  8
0
100
AcDbCircle
 62
7
  6
CONTINUOUS
 10
8.0326923427
 20
5.3189195021
 40
0.05
100
AcDbArc
 50
180.0
 51
270.0
  0
ARC
  5
2D8
100
AcDbEntity
  8
0
100
AcDbCircle
 62
7
  6
CONTINUOUS
 10
9.8426923427
 20
5.3189195021
 40
0.05
100
AcDbArc
 50
270.0
 51
360.0
  0
ARC
  5
2D9
100
AcDbEntity
  8
0
100
AcDbCircle
 62
7
  6
CONTINUOUS
 10
8.0326923427
 20
5.2389195021
 40
0.03
100
AcDbArc
 50
0.0
 51
90.0
  0
ARC
  5
2DA
100
AcDbEntity
  8
0
100
AcDbCircle
 62
7
  6
CONTINUOUS
 10
9.8376923427
 20
5.2439195021
 40
0.025
100
AcDbArc
 50
90.0
 51
180.0
  0
ARC
  5
2DB
100
AcDbEntity
  8
0
100
AcDbCircle
 62
7
  6
CONTINUOUS
 10
9.9176923427
 20
5.4939195021
 40
0.025
100
AcDbArc
 50
90.0
 51
180.0
  0
ARC
  5
2DC
100
AcDbEntity
  8
0
100
AcDbCircle
 62
9
  6
CONTINUOUS
 10
8.1884267338
 20
8.2872420298
 40
0.1326792822
100
AcDbArc
 50
81.7112781996
 51
83.784898533
  0
ARC
  5
2DD
100
AcDbEntity
  8
0
100
AcDbCircle
 62
9
  6
CONTINUOUS
 10
8.1884588784
 20
7.852360785
 40
0.1324412871
100
AcDbArc
 50
270.0143664358
 51
278.2916758281
  0
ARC
  5
2DE
100
AcDbEntity
  8
0
100
AcDbCircle
 62
9
  6
CONTINUOUS
 10
8.1884798801
 20
8.2879128737
 40
0.132006629
100
AcDbArc
 50
83.7763077952
 51
89.9947017824
  0
ARC
  5
2DF
100
AcDbEntity
  8
0
100
AcDbCircle
 62
7
  6
CONTINUOUS
 10
8.2076923427
 20
7.8499195021
 40
0.13
100
AcDbArc
 50
270.0
 51
360.0
  0
ARC
  5
2E0
100
AcDbEntity
  8
0
100
AcDbCircle
 62
7
  6
CONTINUOUS
 10
8.2076923427
 20
8.2899195021
 40
0.13
100
AcDbArc
 50
0.0
 51
90.0
  0
ARC
  5
2E1
100
AcDbEntity
  8
0
100
AcDbCircle
 62
7
  6
CONTINUOUS
 10
10.2576923427
 20
7.6956352309
 40
0.02
100
AcDbArc
 50
135.0000000014
 51
180.0
  0
ARC
  5
2E2
100
AcDbEntity
  8
0
100
AcDbCircle
 62
7
  6
CONTINUOUS
 10
10.2576923427
 20
7.7422037734
 40
0.02
100
AcDbArc
 50
180.0
 51
224.9999999986
  0
ARC
  5
2E3
100
AcDbEntity
  8
0
100
AcDbCircle
 62
7
  6
CONTINUOUS
 10
10.2576923427
 20
7.7989195021
 40
0.02
100
AcDbArc
 50
90.0
 51
180.0
  0
ARC
  5
2E4
100
AcDbEntity
  8
0
100
AcDbCircle
 62
7
  6
CONTINUOUS
 10
10.3876923427
 20
7.8389195021
 40
0.02
100
AcDbArc
 50
270.0
 51
360.0
  0
ARC
  5
2E5
100
AcDbEntity
  8
0
100
AcDbCircle
 62
7
  6
CONTINUOUS
 10
10.3876923427
 20
8.2989195021
 40
0.02
100
AcDbArc
 50
0.0
 51
90.0
  0
ARC
  5
2E6
100
AcDbEntity
  8
0
100
AcDbCircle
 62
7
  6
CONTINUOUS
 10
10.3876923427
 20
8.3389195021
 40
0.02
100
AcDbArc
 50
180.0
 51
270.0
  0
ARC
  5
2E7
100
AcDbEntity
  8
0
100
AcDbCircle
 62
7
  6
CONTINUOUS
 10
10.3876923427
 20
8.3989195021
 40
0.02
100
AcDbArc
 50
90.0
 51
180.0
  0
ARC
  5
2E8
100
AcDbEntity
  8
0
100
AcDbCircle
 62
7
  6
CONTINUOUS
 10
10.2413786342
 20
7.7189195021
 40
0.008
100
AcDbArc
 50
315.0000000025
 51
44.9999999975
  0
ARC
  5
2E9
100
AcDbEntity
  8
0
100
AcDbCircle
 62
7
  6
CONTINUOUS
 10
10.4276923427
 20
10.1989195021
 40
0.03
100
AcDbArc
 50
180.0
 51
270.0
  0
ARC
  5
2EA
100
AcDbEntity
  8
0
100
AcDbCircle
 62
7
  6
CONTINUOUS
 10
10.4276923427
 20
10.2389195021
 40
0.03
100
AcDbArc
 50
90.0
 51
180.0
  0
ARC
  5
2EB
100
AcDbEntity
  8
0
100
AcDbCircle
 62
7
  6
CONTINUOUS
 10
10.4276923427
 20
10.2989195021
 40
0.03
100
AcDbArc
 50
270.0
 51
360.0
  0
ARC
  5
2EC
100
AcDbEntity
  8
0
100
AcDbCircle
 62
7
  6
CONTINUOUS
 10
10.4276923427
 20
10.8489195021
 40
0.03
100
AcDbArc
 50
0.0
 51
90.0
  0
ARC
  5
2ED
100
AcDbEntity
  8
0
100
AcDbCircle
 62
7
  6
CONTINUOUS
 10
10.4276923427
 20
10.9089195021
 40
0.03
100
AcDbArc
 50
180.0
 51
270.0
  0
ARC
  5
2EE
100
AcDbEntity
  8
0
100
AcDbCircle
 62
7
  6
CONTINUOUS
 10
10.4276923427
 20
10.9489195021
 40
0.03
100
AcDbArc
 50
90.0
 51
180.0
  0
ARC
  5
2EF
100
AcDbEntity
  8
0
100
AcDbCircle
 62
7
  6
CONTINUOUS
 10
13.8426923427
 20
5.3189195021
 40
0.05
100
AcDbArc
 50
270.0
 51
360.0
  0
ARC
  5
2F0
100
AcDbEntity
  8
0
100
AcDbCircle
 62
7
  6
CONTINUOUS
 10
12.0326923427
 20
5.3189195021
 40
0.05
100
AcDbArc
 50
180.0
 51
270.0
  0
ARC
  5
2F1
100
AcDbEntity
  8
0
100
AcDbCircle
 62
7
  6
CONTINUOUS
 10
13.8426923427
 20
5.2389195021
 40
0.03
100
AcDbArc
 50
90.0
 51
180.0
  0
ARC
  5
2F2
100
AcDbEntity
  8
0
100
AcDbCircle
 62
7
  6
CONTINUOUS
 10
12.0376923427
 20
5.2439195021
 40
0.025
100
AcDbArc
 50
0.0
 51
90.0
  0
ARC
  5
2F3
100
AcDbEntity
  8
0
100
AcDbCircle
 62
7
  6
CONTINUOUS
 10
11.9576923427
 20
5.4939195021
 40
0.025
100
AcDbArc
 50
0.0
 51
90.0
  0
ARC
  5
2F4
100
AcDbEntity
  8
0
100
AcDbCircle
 62
9
  6
CONTINUOUS
 10
13.6869465299
 20
8.2873143592
 40
0.1326064687
100
AcDbArc
 50
96.2160503231
 51
98.2906057788
  0
ARC
  5
2F5
100
AcDbEntity
  8
0
100
AcDbCircle
 62
9
  6
CONTINUOUS
 10
13.6869177811
 20
8.2876187172
 40
0.1323007873
100
AcDbArc
 50
90.0109058489
 51
96.2179451992
  0
ARC
  5
2F6
100
AcDbEntity
  8
0
100
AcDbCircle
 62
9
  6
CONTINUOUS
 10
13.6869102837
 20
7.852120242
 40
0.1322007411
100
AcDbArc
 50
261.701724587
 51
269.9923352664
  0
ARC
  5
2F7
100
AcDbEntity
  8
0
100
AcDbCircle
 62
7
  6
CONTINUOUS
 10
13.6676923427
 20
7.8499195021
 40
0.13
100
AcDbArc
 50
180.0
 51
270.0
  0
ARC
  5
2F8
100
AcDbEntity
  8
0
100
AcDbCircle
 62
7
  6
CONTINUOUS
 10
13.6676923427
 20
8.2899195021
 40
0.13
100
AcDbArc
 50
90.0
 51
180.0
  0
ARC
  5
2F9
100
AcDbEntity
  8
0
100
AcDbCircle
 62
7
  6
CONTINUOUS
 10
11.6176923427
 20
7.6956352309
 40
0.02
100
AcDbArc
 50
0.0
 51
44.9999999986
  0
ARC
  5
2FA
100
AcDbEntity
  8
0
100
AcDbCircle
 62
7
  6
CONTINUOUS
 10
11.6176923427
 20
7.7989195021
 40
0.02
100
AcDbArc
 50
0.0
 51
90.0
  0
ARC
  5
2FB
100
AcDbEntity
  8
0
100
AcDbCircle
 62
7
  6
CONTINUOUS
 10
11.4876923427
 20
7.8389195021
 40
0.02
100
AcDbArc
 50
180.0
 51
270.0
  0
ARC
  5
2FC
100
AcDbEntity
  8
0
100
AcDbCircle
 62
7
  6
CONTINUOUS
 10
11.4876923427
 20
8.3389195021
 40
0.02
100
AcDbArc
 50
270.0
 51
360.0
  0
ARC
  5
2FD
100
AcDbEntity
  8
0
100
AcDbCircle
 62
7
  6
CONTINUOUS
 10
11.4876923427
 20
8.2989195021
 40
0.02
100
AcDbArc
 50
90.0
 51
180.0
  0
ARC
  5
2FE
100
AcDbEntity
  8
0
100
AcDbCircle
 62
7
  6
CONTINUOUS
 10
11.4876923427
 20
8.3989195021
 40
0.02
100
AcDbArc
 50
0.0
 51
90.0
  0
ARC
  5
2FF
100
AcDbEntity
  8
0
100
AcDbCircle
 62
7
  6
CONTINUOUS
 10
11.6176923427
 20
7.7422037734
 40
0.02
100
AcDbArc
 50
315.0000000014
 51
360.0
  0
ARC
  5
300
100
AcDbEntity
  8
0
100
AcDbCircle
 62
7
  6
CONTINUOUS
 10
11.6340060512
 20
7.7189195021
 40
0.008
100
AcDbArc
 50
135.0000000025
 51
224.9999999975
  0
ARC
  5
301
100
AcDbEntity
  8
0
100
AcDbCircle
 62
7
  6
CONTINUOUS
 10
16.0326923427
 20
5.3189195021
 40
0.05
100
AcDbArc
 50
180.0
 51
270.0
  0
ARC
  5
302
100
AcDbEntity
  8
0
100
AcDbCircle
 62
7
  6
CONTINUOUS
 10
16.0326923427
 20
5.2389195021
 40
0.03
100
AcDbArc
 50
0.0
 51
90.0
  0
ARC
  5
303
100
AcDbEntity
  8
0
100
AcDbCircle
 62
7
  6
CONTINUOUS
 10
15.9526923427
 20
5.4889195021
 40
0.03
100
AcDbArc
 50
0.0
 51
90.0
  0
ARC
  5
304
100
AcDbEntity
  8
0
100
AcDbCircle
 62
7
  6
CONTINUOUS
 10
13.9226923427
 20
5.4889195021
 40
0.03
100
AcDbArc
 50
90.0
 51
180.0
  0
ARC
  5
305
100
AcDbEntity
  8
0
100
AcDbCircle
 62
7
  6
CONTINUOUS
 10
14.4801923427
 20
5.5589195021
 40
0.03
100
AcDbArc
 50
180.0
 51
270.0
  0
ARC
  5
306
100
AcDbEntity
  8
0
100
AcDbCircle
 62
7
  6
CONTINUOUS
 10
15.3951923427
 20
5.5589195021
 40
0.03
100
AcDbArc
 50
270.0
 51
360.0
  0
ARC
  5
307
100
AcDbEntity
  8
0
100
AcDbCircle
 62
7
  6
CONTINUOUS
 10
14.4801923427
 20
7.6589195021
 40
0.03
100
AcDbArc
 50
90.0
 51
180.0
  0
ARC
  5
308
100
AcDbEntity
  8
0
100
AcDbCircle
 62
7
  6
CONTINUOUS
 10
14.7176923427
 20
7.7499195021
 40
0.03
100
AcDbArc
 50
180.0
 51
270.0000000014
  0
ARC
  5
309
100
AcDbEntity
  8
0
100
AcDbCircle
 62
7
  6
CONTINUOUS
 10
15.1576923427
 20
7.7499195021
 40
0.03
100
AcDbArc
 50
269.9999999986
 51
360.0
  0
ARC
  5
30A
100
AcDbEntity
  8
0
100
AcDbCircle
 62
7
  6
CONTINUOUS
 10
14.7176923427
 20
8.3899195021
 40
0.03
100
AcDbArc
 50
89.9999999979
 51
180.0
  0
ARC
  5
30B
100
AcDbEntity
  8
0
100
AcDbCircle
 62
7
  6
CONTINUOUS
 10
15.1576923427
 20
8.3899195021
 40
0.03
100
AcDbArc
 50
0.0
 51
90.000000002
  0
ARC
  5
30C
100
AcDbEntity
  8
0
100
AcDbCircle
 62
9
  6
CONTINUOUS
 10
16.1884588784
 20
7.852360785
 40
0.1324412871
100
AcDbArc
 50
270.0143664358
 51
278.291675828
  0
ARC
  5
30D
100
AcDbEntity
  8
0
100
AcDbCircle
 62
7
  6
CONTINUOUS
 10
16.2076923427
 20
7.8499195021
 40
0.13
100
AcDbArc
 50
270.0
 51
360.0
  0
ARC
  5
30E
100
AcDbEntity
  8
0
100
AcDbCircle
 62
7
  6
CONTINUOUS
 10
15.3951923427
 20
7.6589195021
 40
0.03
100
AcDbArc
 50
0.0
 51
90.0
  0
ARC
  5
30F
100
AcDbEntity
  8
0
100
AcDbCircle
 62
9
  6
CONTINUOUS
 10
16.1884267338
 20
8.2872420298
 40
0.1326792822
100
AcDbArc
 50
81.7112781995
 51
83.784898533
  0
ARC
  5
310
100
AcDbEntity
  8
0
100
AcDbCircle
 62
9
  6
CONTINUOUS
 10
16.1884798801
 20
8.2879128737
 40
0.132006629
100
AcDbArc
 50
83.7763077952
 51
89.9947017824
  0
ARC
  5
311
100
AcDbEntity
  8
0
100
AcDbCircle
 62
7
  6
CONTINUOUS
 10
16.2076923427
 20
8.2899195021
 40
0.13
100
AcDbArc
 50
0.0
 51
90.0
  0
ARC
  5
312
100
AcDbEntity
  8
0
100
AcDbCircle
 62
7
  6
CONTINUOUS
 10
10.9376923427
 20
12.9289195021
 40
0.4375
100
AcDbArc
 50
0.0
 51
180.0
  0
ARC
  5
313
100
AcDbEntity
  8
0
100
AcDbCircle
 62
7
  6
CONTINUOUS
 10
11.4476923427
 20
10.1989195021
 40
0.03
100
AcDbArc
 50
270.0
 51
360.0
  0
ARC
  5
314
100
AcDbEntity
  8
0
100
AcDbCircle
 62
7
  6
CONTINUOUS
 10
11.4476923427
 20
10.2389195021
 40
0.03
100
AcDbArc
 50
0.0
 51
90.0
  0
ARC
  5
315
100
AcDbEntity
  8
0
100
AcDbCircle
 62
7
  6
CONTINUOUS
 10
11.4476923427
 20
10.2989195021
 40
0.03
100
AcDbArc
 50
180.0
 51
270.0
  0
ARC
  5
316
100
AcDbEntity
  8
0
100
AcDbCircle
 62
7
  6
CONTINUOUS
 10
11.4476923427
 20
10.8489195021
 40
0.03
100
AcDbArc
 50
90.0
 51
180.0
  0
ARC
  5
317
100
AcDbEntity
  8
0
100
AcDbCircle
 62
7
  6
CONTINUOUS
 10
11.4476923427
 20
10.9089195021
 40
0.03
100
AcDbArc
 50
270.0
 51
360.0
  0
ARC
  5
318
100
AcDbEntity
  8
0
100
AcDbCircle
 62
7
  6
CONTINUOUS
 10
11.4476923427
 20
10.9489195021
 40
0.03
100
AcDbArc
 50
0.0
 51
90.0
  0
SPLINE
  5
319
100
AcDbEntity
  8
0
100
AcDbSpline
 62
9
  6
CONTINUOUS
 70
0
 71
3
 72
29
 73
25
 74
0
 42
0.0000001
 43
0.0000001
 44
0.0000000001
 40
0.0
 40
0.0
 40
0.0
 40
0.0
 40
0.0010160976
 40
0.0023334497
 40
0.0041061999
 40
0.006397217
 40
0.0126279085
 40
0.0211237806
 40
0.0262302048
 40
0.0319100832
 40
0.0449818393
 40
0.0603142598
 40
0.0778770467
 40
0.1195599926
 40
0.1696808128
 40
0.2277888497
 40
0.2933732983
 40
0.3658039407
 40
0.4444175725
 40
0.5284442697
 40
0.6170676661
 40
0.7094483429
 40
0.8047222063
 40
1.0
 40
1.0
 40
1.0
 40
1.0
 10
7.1576923428
 20
7.7199195021
 30
0.0
 10
7.157736509
 20
7.7199195287
 30
0.0
 10
7.1578376829
 20
7.7199560567
 30
0.0
 10
7.1579633424
 20
7.7200866327
 30
0.0
 10
7.1580864484
 20
7.7202864646
 30
0.0
 10
7.1582680974
 20
7.7206963977
 30
0.0
 10
7.1584789111
 20
7.7214075126
 30
0.0
 10
7.1586626697
 20
7.7222498744
 30
0.0
 10
7.1588132434
 20
7.7230744651
 30
0.0
 10
7.1589792448
 20
7.7240981644
 30
0.0
 10
7.1591800377
 20
7.7255662262
 30
0.0
 10
7.1594071791
 20
7.7275513971
 30
0.0
 10
7.1597217388
 20
7.7307778761
 30
0.0
 10
7.1600879624
 20
7.7355179436
 30
0.0
 10
7.1604832497
 20
7.7420222521
 30
0.0
 10
7.1608508596
 20
7.7495685184
 30
0.0
 10
7.1611874521
 20
7.7580867539
 30
0.0
 10
7.1614905513
 20
7.767498047
 30
0.0
 10
7.1617572754
 20
7.777712341
 30
0.0
 10
7.1619861469
 20
7.7886315511
 30
0.0
 10
7.1621756249
 20
7.8001499994
 30
0.0
 10
7.1623244282
 20
7.8121579576
 30
0.0
 10
7.1624680824
 20
7.8288021103
 30
0.0
 10
7.162509879
 20
7.8414314508
 30
0.0
 10
7.162509861
 20
7.8499195021
 30
0.0
  0
SPLINE
  5
31A
100
AcDbEntity
  8
0
100
AcDbSpline
 62
9
  6
CONTINUOUS
 70
0
 71
3
 72
15
 73
11
 74
0
 42
0.0000001
 43
0.0000001
 44
0.0000000001
 40
0.0
 40
0.0
 40
0.0
 40
0.0
 40
0.1251204863
 40
0.2503031806
 40
0.3753858495
 40
0.500371093
 40
0.6253261968
 40
0.7502586492
 40
0.8752008404
 40
1.0
 40
1.0
 40
1.0
 40
1.0
 10
8.1884920869
 20
8.3899194557
 30
0.0
 10
8.1950796906
 20
8.3899190834
 30
0.0
 10
8.208290957
 20
8.3886345229
 30
0.0
 10
8.2273561982
 20
8.382995289
 30
0.0
 10
8.2449646677
 20
8.3737602785
 30
0.0
 10
8.2604605359
 20
8.3613206414
 30
0.0
 10
8.2732011061
 20
8.3460796558
 30
0.0
 10
8.2827290186
 20
8.328646446
 30
0.0
 10
8.2885725688
 20
8.3096738554
 30
0.0
 10
8.2899121537
 20
8.296490188
 30
0.0
 10
8.2899126925
 20
8.2899195021
 30
0.0
  0
SPLINE
  5
31B
100
AcDbEntity
  8
0
100
AcDbSpline
 62
9
  6
CONTINUOUS
 70
0
 71
3
 72
15
 73
11
 74
0
 42
0.0000001
 43
0.0000001
 44
0.0000000001
 40
0.0
 40
0.0
 40
0.0
 40
0.0
 40
0.1247718414
 40
0.2496712223
 40
0.3745551801
 40
0.4994842745
 40
0.6244924515
 40
0.7496226275
 40
0.8748503102
 40
1.0
 40
1.0
 40
1.0
 40
1.0
 10
8.289912607
 20
7.8499195022
 30
0.0
 10
8.2899122251
 20
7.8433502583
 30
0.0
 10
8.2885733508
 20
7.8301702626
 30
0.0
 10
8.2827329788
 20
7.8112034532
 30
0.0
 10
8.2732116953
 20
7.7937738105
 30
0.0
 10
8.2604752673
 20
7.7785328467
 30
0.0
 10
8.2449796256
 20
7.7660892958
 30
0.0
 10
8.2273675467
 20
7.756847845
 30
0.0
 10
8.2082963562
 20
7.7512055086
 30
0.0
 10
8.1950812245
 20
7.7499201643
 30
0.0
 10
8.1884920869
 20
7.7499196342
 30
0.0
  0
SPLINE
  5
31C
100
AcDbEntity
  8
0
100
AcDbSpline
 62
9
  6
CONTINUOUS
 70
0
 71
3
 72
20
 73
16
 74
0
 42
0.0000001
 43
0.0000001
 44
0.0000000001
 40
0.0
 40
0.0
 40
0.0
 40
0.0
 40
0.1250021179
 40
0.1875308
 40
0.2500518232
 40
0.3750229047
 40
0.4999565409
 40
0.562478307
 40
0.6249954791
 40
0.6875098996
 40
0.7500169576
 40
0.8125218284
 40
0.8750208503
 40
0.9375118562
 40
1.0
 40
1.0
 40
1.0
 40
1.0
 10
8.1641834492
 20
7.7899195021
 30
0.0
 10
8.1691096885
 20
7.7899195026
 30
0.0
 10
8.1765076425
 20
7.7902202665
 30
0.0
 10
8.1862990554
 20
7.7913686831
 30
0.0
 10
8.1960092583
 20
7.7930672929
 30
0.0
 10
8.2079240647
 20
7.7963210926
 30
0.0
 10
8.2192308348
 20
7.8013570519
 30
0.0
 10
8.2275989275
 20
7.8065822363
 30
0.0
 10
8.2334451345
 20
7.8111286407
 30
0.0
 10
8.2387436186
 20
7.8163056262
 30
0.0
 10
8.2433642501
 20
7.8221003089
 30
0.0
 10
8.2471586434
 20
7.8284687416
 30
0.0
 10
8.250011704
 20
7.8353156209
 30
0.0
 10
8.2517595742
 20
7.8425238447
 30
0.0
 10
8.2521683987
 20
7.8474568914
 30
0.0
 10
8.2521684486
 20
7.849919502
 30
0.0
  0
SPLINE
  5
31D
100
AcDbEntity
  8
0
100
AcDbSpline
 62
9
  6
CONTINUOUS
 70
0
 71
3
 72
21
 73
17
 74
0
 42
0.0000001
 43
0.0000001
 44
0.0000000001
 40
0.0
 40
0.0
 40
0.0
 40
0.0
 40
0.0625284396
 40
0.1250185652
 40
0.1874867791
 40
0.2499625469
 40
0.3748399086
 40
0.4373605105
 40
0.4998893538
 40
0.5624224445
 40
0.6249575065
 40
0.6874855009
 40
0.7500050431
 40
0.8125332738
 40
0.8750907113
 40
1.0
 40
1.0
 40
1.0
 40
1.0
 10
8.2075539673
 20
8.4185353688
 30
0.0
 10
8.2113857527
 20
8.417977129
 30
0.0
 10
8.2190024952
 20
8.4165245637
 30
0.0
 10
8.2301844321
 20
8.4133468453
 30
0.0
 10
8.2410425403
 20
8.4091984179
 30
0.0
 10
8.2549645969
 20
8.4024171458
 30
0.0
 10
8.2679408093
 20
8.393809864
 30
0.0
 10
8.279595306
 20
8.3836020836
 30
0.0
 10
8.2876338753
 20
8.375193489
 30
0.0
 10
8.2948887995
 20
8.3661002483
 30
0.0
 10
8.301302516
 20
8.3563952548
 30
0.0
 10
8.3068258018
 20
8.3461580175
 30
0.0
 10
8.3114064801
 20
8.3354665754
 30
0.0
 10
8.3150122378
 20
8.3244044414
 30
0.0
 10
8.318469335
 20
8.3092993664
 30
0.0
 10
8.3195231873
 20
8.2976548341
 30
0.0
 10
8.3195234046
 20
8.2899195021
 30
0.0
  0
SPLINE
  5
31E
100
AcDbEntity
  8
0
100
AcDbSpline
 62
9
  6
CONTINUOUS
 70
0
 71
3
 72
19
 73
15
 74
0
 42
0.0000001
 43
0.0000001
 44
0.0000000001
 40
0.0
 40
0.0
 40
0.0
 40
0.0
 40
0.1250229865
 40
0.187562262
 40
0.250093915
 40
0.3750857772
 40
0.5000397651
 40
0.6249339165
 40
0.6874568669
 40
0.7499751809
 40
0.8124894159
 40
0.8749984251
 40
0.9375007955
 40
1.0
 40
1.0
 40
1.0
 40
1.0
 10
8.1641834491
 20
8.3499195021
 30
0.0
 10
8.1691097248
 20
8.349919505
 30
0.0
 10
8.1765077079
 20
8.349618957
 30
0.0
 10
8.1862993281
 20
8.3484707691
 30
0.0
 10
8.196009321
 20
8.3467726563
 30
0.0
 10
8.2079267085
 20
8.3435163089
 30
0.0
 10
8.2214791087
 20
8.3374835203
 30
0.0
 10
8.231685582
 20
8.330431184
 30
0.0
 10
8.238742865
 20
8.3235325238
 30
0.0
 10
8.2433625562
 20
8.3177371594
 30
0.0
 10
8.2471638123
 20
8.3113725128
 30
0.0
 10
8.2500098616
 20
8.3045226388
 30
0.0
 10
8.251763203
 20
8.2973158377
 30
0.0
 10
8.2521685184
 20
8.2923821556
 30
0.0
 10
8.2521684486
 20
8.289919502
 30
0.0
  0
SPLINE
  5
31F
100
AcDbEntity
  8
0
100
AcDbSpline
 62
9
  6
CONTINUOUS
 70
0
 71
3
 72
20
 73
16
 74
0
 42
0.0000001
 43
0.0000001
 44
0.0000000001
 40
0.0
 40
0.0
 40
0.0
 40
0.0
 40
0.0625368999
 40
0.1250382044
 40
0.187518676
 40
0.2500058047
 40
0.3749017949
 40
0.499838921
 40
0.5623768235
 40
0.6249169903
 40
0.6874506055
 40
0.7499760896
 40
0.812510643
 40
0.8750750968
 40
1.0
 40
1.0
 40
1.0
 40
1.0
 10
5.667830545
 20
8.4185353783
 30
0.0
 10
5.663998718
 20
8.417977129
 30
0.0
 10
5.6563817493
 20
8.4165244811
 30
0.0
 10
5.6451992664
 20
8.4133464128
 30
0.0
 10
5.634340782
 20
8.4091979323
 30
0.0
 10
5.6204168134
 20
8.4024150005
 30
0.0
 10
5.6042104289
 20
8.3916664738
 30
0.0
 10
5.590160945
 20
8.378214055
 30
0.0
 10
5.580495151
 20
8.3660993491
 30
0.0
 10
5.5740814904
 20
8.3563941325
 30
0.0
 10
5.5685585978
 20
8.3461573498
 30
0.0
 10
5.5639780128
 20
8.3354661859
 30
0.0
 10
5.5603723946
 20
8.324404281
 30
0.0
 10
5.5569153465
 20
8.3092993288
 30
0.0
 10
5.5558614851
 20
8.2976548394
 30
0.0
 10
5.5558612809
 20
8.2899195021
 30
0.0
  0
SPLINE
  5
320
100
AcDbEntity
  8
0
100
AcDbSpline
 62
9
  6
CONTINUOUS
 70
0
 71
3
 72
15
 73
11
 74
0
 42
0.0000001
 43
0.0000001
 44
0.0000000001
 40
0.0
 40
0.0
 40
0.0
 40
0.0
 40
0.1251420099
 40
0.2503562672
 40
0.3754746088
 40
0.5004757229
 40
0.6254049521
 40
0.7502976341
 40
0.8752146389
 40
1.0
 40
1.0
 40
1.0
 40
1.0
 10
5.6868925986
 20
7.749919209
 30
0.0
 10
5.6803038389
 20
7.7499197092
 30
0.0
 10
5.6670897492
 20
7.7512047268
 30
0.0
 10
5.648020092
 20
7.7568463192
 30
0.0
 10
5.6304091176
 20
7.7660862943
 30
0.0
 10
5.6149135275
 20
7.7785284115
 30
0.0
 10
5.6021758882
 20
7.7937685815
 30
0.0
 10
5.5926529281
 20
7.811199057
 30
0.0
 10
5.5868115605
 20
7.8301678661
 30
0.0
 10
5.5854720904
 20
7.8433495202
 30
0.0
 10
5.5854716533
 20
7.8499195021
 30
0.0
  0
SPLINE
  5
321
100
AcDbEntity
  8
0
100
AcDbSpline
 62
9
  6
CONTINUOUS
 70
0
 71
3
 72
15
 73
11
 74
0
 42
0.0000001
 43
0.0000001
 44
0.0000000001
 40
0.0
 40
0.0
 40
0.0
 40
0.0
 40
0.1247920943
 40
0.2497218674
 40
0.3746431542
 40
0.4995909612
 40
0.6245749817
 40
0.7496652362
 40
0.8748656675
 40
1.0
 40
1.0
 40
1.0
 40
1.0
 10
5.5854719211
 20
8.2899195021
 30
0.0
 10
5.5854724299
 20
8.2964898205
 30
0.0
 10
5.586811691
 20
8.3096724878
 30
0.0
 10
5.5926544985
 20
8.3286436064
 30
0.0
 10
5.602180955
 20
8.3460757278
 30
0.0
 10
5.6149200345
 20
8.361316586
 30
0.0
 10
5.630414997
 20
8.3737572893
 30
0.0
 10
5.6480242042
 20
8.3829937795
 30
0.0
 10
5.6670913574
 20
8.3886339315
 30
0.0
 10
5.6803042613
 20
8.3899190995
 30
0.0
 10
5.6868925986
 20
8.3899195276
 30
0.0
  0
SPLINE
  5
322
100
AcDbEntity
  8
0
100
AcDbSpline
 62
9
  6
CONTINUOUS
 70
0
 71
3
 72
18
 73
14
 74
0
 42
0.0000001
 43
0.0000001
 44
0.0000000001
 40
0.0
 40
0.0
 40
0.0
 40
0.0
 40
0.0625141388
 40
0.1251546394
 40
0.187740235
 40
0.2503065143
 40
0.3128615822
 40
0.3754358341
 40
0.5003391837
 40
0.6252543584
 40
0.7501739162
 40
0.8751154244
 40
1.0
 40
1.0
 40
1.0
 40
1.0
 10
5.6232162368
 20
7.8499195021
 30
0.0
 10
5.6232162803
 20
7.8474564087
 30
0.0
 10
5.6236221534
 20
7.8425168927
 30
0.0
 10
5.6253815685
 20
7.8353026226
 30
0.0
 10
5.6282308207
 20
7.8284435281
 30
0.0
 10
5.632034116
 20
7.8220724269
 30
0.0
 10
5.636667513
 20
7.8162811746
 30
0.0
 10
5.6437336704
 20
7.8093874958
 30
0.0
 10
5.6539426799
 20
7.8023395806
 30
0.0
 10
5.6674924364
 20
7.7963113355
 30
0.0
 10
5.6817834794
 20
7.7924102159
 30
0.0
 10
5.6964300774
 20
7.7903199526
 30
0.0
 10
5.7062807115
 20
7.789919504
 30
0.0
 10
5.7112012363
 20
7.7899195021
 30
0.0
  0
SPLINE
  5
323
100
AcDbEntity
  8
0
100
AcDbSpline
 62
9
  6
CONTINUOUS
 70
0
 71
3
 72
29
 73
25
 74
0
 42
0.0000001
 43
0.0000001
 44
0.0000000001
 40
0.0
 40
0.0
 40
0.0
 40
0.0
 40
0.1953039913
 40
0.2905847554
 40
0.3829511724
 40
0.4715539538
 40
0.5555622696
 40
0.6341629478
 40
0.706594534
 40
0.7721871127
 40
0.8303046746
 40
0.8804377529
 40
0.922127858
 40
0.9396912696
 40
0.9550233373
 40
0.9680946189
 40
0.9737744669
 40
0.9788807054
 40
0.9873754373
 40
0.9936045527
 40
0.9958948423
 40
0.9976670223
 40
0.9989840343
 40
1.0
 40
1.0
 40
1.0
 40
1.0
 10
6.7128748245
 20
8.2899195021
 30
0.0
 10
6.7128748125
 20
8.2984086971
 30
0.0
 10
6.712916729
 20
8.3110394835
 30
0.0
 10
6.7130606253
 20
8.3276844625
 30
0.0
 10
6.7132096032
 20
8.3396912093
 30
0.0
 10
6.7133989105
 20
8.3512073513
 30
0.0
 10
6.7136273034
 20
8.3621243188
 30
0.0
 10
6.7138936968
 20
8.3723373062
 30
0.0
 10
6.7141966987
 20
8.3817484394
 30
0.0
 10
6.714533327
 20
8.3902674877
 30
0.0
 10
6.714901061
 20
8.3978150541
 30
0.0
 10
6.7152964198
 20
8.4043206221
 30
0.0
 10
6.7156627199
 20
8.4090615608
 30
0.0
 10
6.7159773717
 20
8.4122883574
 30
0.0
 10
6.7162045625
 20
8.4142735151
 30
0.0
 10
6.7164053953
 20
8.4157415345
 30
0.0
 10
6.7165714105
 20
8.4167652017
 30
0.0
 10
6.7167219939
 20
8.4175897313
 30
0.0
 10
6.7169057654
 20
8.4184319617
 30
0.0
 10
6.7171165997
 20
8.4191429168
 30
0.0
 10
6.7172982599
 20
8.4195527088
 30
0.0
 10
6.7174213669
 20
8.4197524575
 30
0.0
 10
6.7175470283
 20
8.4198829687
 30
0.0
 10
6.7176481822
 20
8.4199194729
 30
0.0
 10
6.7176923427
 20
8.4199195021
 30
0.0
  0
SPLINE
  5
324
100
AcDbEntity
  8
0
100
AcDbSpline
 62
9
  6
CONTINUOUS
 70
0
 71
3
 72
18
 73
14
 74
0
 42
0.0000001
 43
0.0000001
 44
0.0000000001
 40
0.0
 40
0.0
 40
0.0
 40
0.0
 40
0.1472126178
 40
0.2892027654
 40
0.4256142607
 40
0.5556623716
 40
0.6182663667
 40
0.6788872179
 40
0.7931822455
 40
0.8473255553
 40
0.8995459654
 40
0.9502513183
 40
1.0
 40
1.0
 40
1.0
 40
1.0
 10
8.1641834273
 20
8.3199195021
 30
0.0
 10
8.1680173178
 20
8.3199195075
 30
0.0
 10
8.1755512973
 20
8.3197509556
 30
0.0
 10
8.1866047696
 20
8.3188065561
 30
0.0
 10
8.1971080113
 20
8.3170304181
 30
0.0
 10
8.2053682897
 20
8.3146436739
 30
0.0
 10
8.2114569437
 20
8.3120836051
 30
0.0
 10
8.2169255847
 20
8.3091868912
 30
0.0
 10
8.2217682845
 20
8.3055725328
 30
0.0
 10
8.2255017468
 20
8.3011741359
 30
0.0
 10
8.2275883122
 20
8.2976269172
 30
0.0
 10
8.2288855536
 20
8.2938392402
 30
0.0
 10
8.2291888061
 20
8.291215118
 30
0.0
 10
8.2291889197
 20
8.2899195021
 30
0.0
  0
SPLINE
  5
325
100
AcDbEntity
  8
0
100
AcDbSpline
 62
9
  6
CONTINUOUS
 70
0
 71
3
 72
22
 73
18
 74
0
 42
0.0000001
 43
0.0000001
 44
0.0000000001
 40
0.0
 40
0.0
 40
0.0
 40
0.0
 40
0.0322710896
 40
0.0644956871
 40
0.0966211911
 40
0.128627382
 40
0.1604918941
 40
0.1922278017
 40
0.2552874847
 40
0.3179700467
 40
0.3803700353
 40
0.4425646135
 40
0.5046135725
 40
0.6284165833
 40
0.7521326641
 40
0.8759491871
 40
1.0
 40
1.0
 40
1.0
 40
1.0
 10
8.2291888659
 20
7.8499195021
 30
0.0
 10
8.229188703
 20
7.8490786554
 30
0.0
 10
8.2290674967
 20
7.8473955623
 30
0.0
 10
8.228524521
 20
7.8449290238
 30
0.0
 10
8.2276543411
 20
7.8425664028
 30
0.0
 10
8.2265050832
 20
7.8403383024
 30
0.0
 10
8.2251163025
 20
7.8382642462
 30
0.0
 10
8.2230073589
 20
7.8357198859
 30
0.0
 10
8.2199788031
 20
7.8329226379
 30
0.0
 10
8.2159341872
 20
7.8301313435
 30
0.0
 10
8.2116238992
 20
7.8278258948
 30
0.0
 10
8.207138082
 20
7.8259332639
 30
0.0
 10
8.2010051956
 20
7.8238787614
 30
0.0
 10
8.1931316608
 20
7.8220467153
 30
0.0
 10
8.1835389806
 20
7.8207188761
 30
0.0
 10
8.1738751749
 20
7.8200424865
 30
0.0
 10
8.1674156836
 20
7.8199195022
 30
0.0
 10
8.1641834491
 20
7.8199195021
 30
0.0
  0
SPLINE
  5
326
100
AcDbEntity
  8
0
100
AcDbSpline
 62
9
  6
CONTINUOUS
 70
0
 71
3
 72
29
 73
25
 74
0
 42
0.0000001
 43
0.0000001
 44
0.0000000001
 40
0.0
 40
0.0
 40
0.0
 40
0.0
 40
0.1953010564
 40
0.2905823599
 40
0.3829520933
 40
0.4715574798
 40
0.5555663166
 40
0.6341665564
 40
0.7065968871
 40
0.7721882843
 40
0.8303055946
 40
0.8804389611
 40
0.9221293926
 40
0.9396927073
 40
0.9550245985
 40
0.9680957304
 40
0.973775546
 40
0.9788817376
 40
0.9873762392
 40
0.9936050298
 40
0.9958951553
 40
0.9976671898
 40
0.998984092
 40
1.0
 40
1.0
 40
1.0
 40
1.0
 10
7.162509861
 20
8.2899195021
 30
0.0
 10
7.1625098753
 20
8.2984085667
 30
0.0
 10
7.162468138
 20
8.3110392449
 30
0.0
 10
7.1623245059
 20
8.3276842609
 30
0.0
 10
7.162175625
 20
8.339691286
 30
0.0
 10
7.1619860981
 20
8.3512077012
 30
0.0
 10
7.1617572313
 20
8.3621247722
 30
0.0
 10
7.1614905143
 20
8.3723376963
 30
0.0
 10
7.1611875241
 20
8.3817487011
 30
0.0
 10
7.1608510226
 20
8.3902676346
 30
0.0
 10
7.1604833421
 20
8.3978151516
 30
0.0
 10
7.1600879828
 20
8.4043207333
 30
0.0
 10
7.1597217016
 20
8.4090616942
 30
0.0
 10
7.1594070824
 20
8.4122884951
 30
0.0
 10
7.1591799221
 20
8.4142736371
 30
0.0
 10
7.1589791199
 20
8.4157416443
 30
0.0
 10
7.1588131335
 20
8.4167653057
 30
0.0
 10
7.1586625774
 20
8.4175898264
 30
0.0
 10
7.1584788379
 20
8.4184320366
 30
0.0
 10
7.1582680352
 20
8.4191429683
 30
0.0
 10
7.158086396
 20
8.4195527394
 30
0.0
 10
7.1579633017
 20
8.4197524743
 30
0.0
 10
7.1578376486
 20
8.4198829753
 30
0.0
 10
7.1577365008
 20
8.4199194735
 30
0.0
 10
7.1576923428
 20
8.4199195021
 30
0.0
  0
SPLINE
  5
327
100
AcDbEntity
  8
0
100
AcDbSpline
 62
9
  6
CONTINUOUS
 70
0
 71
3
 72
20
 73
16
 74
0
 42
0.0000001
 43
0.0000001
 44
0.0000000001
 40
0.0
 40
0.0
 40
0.0
 40
0.0
 40
0.124938375
 40
0.1875081388
 40
0.2500361124
 40
0.3125481979
 40
0.3750664064
 40
0.4375924351
 40
0.5001214808
 40
0.6250599771
 40
0.7499782607
 40
0.8124777983
 40
0.8749673454
 40
0.9374701702
 40
1.0
 40
1.0
 40
1.0
 40
1.0
 10
5.5558612809
 20
7.8499195021
 30
0.0
 10
5.5558614476
 20
7.842183511
 30
0.0
 10
5.556916408
 20
7.8305382559
 30
0.0
 10
5.5603725754
 20
7.8154327184
 30
0.0
 10
5.5639781269
 20
7.8043719994
 30
0.0
 10
5.5685579874
 20
7.7936832338
 30
0.0
 10
5.574078893
 20
7.7834487363
 30
0.0
 10
5.5804905699
 20
7.7737453569
 30
0.0
 10
5.5901553301
 20
7.7616320372
 30
0.0
 10
5.6042033991
 20
7.7481775195
 30
0.0
 10
5.6204110667
 20
7.7374275389
 30
0.0
 10
5.634336718
 20
7.7306426982
 30
0.0
 10
5.6451963053
 20
7.7264938319
 30
0.0
 10
5.6563785757
 20
7.7233152977
 30
0.0
 10
5.6639949355
 20
7.7218622142
 30
0.0
 10
5.6678262244
 20
7.7213039343
 30
0.0
  0
SPLINE
  5
328
100
AcDbEntity
  8
0
100
AcDbSpline
 62
9
  6
CONTINUOUS
 70
0
 71
3
 72
21
 73
17
 74
0
 42
0.0000001
 43
0.0000001
 44
0.0000000001
 40
0.0
 40
0.0
 40
0.0
 40
0.0
 40
0.1249240268
 40
0.1874846347
 40
0.2500008749
 40
0.3125007256
 40
0.3750076059
 40
0.4375235727
 40
0.5000449324
 40
0.624973045
 40
0.6874930649
 40
0.7500045322
 40
0.8124986022
 40
0.8749820256
 40
0.9374779458
 40
1.0
 40
1.0
 40
1.0
 40
1.0
 10
8.3195234046
 20
7.8499195021
 30
0.0
 10
8.3195232635
 20
7.8421834573
 30
0.0
 10
8.3184681126
 20
7.8305382613
 30
0.0
 10
8.3150121399
 20
7.8154329925
 30
0.0
 10
8.3114069013
 20
7.8043728422
 30
0.0
 10
8.3068273051
 20
7.7936847833
 30
0.0
 10
8.3013070756
 20
7.7834507904
 30
0.0
 10
8.2948956059
 20
7.7737473239
 30
0.0
 10
8.2852321125
 20
7.7616349978
 30
0.0
 10
8.2739812565
 20
7.7508606899
 30
0.0
 10
8.2614621877
 20
7.7417313336
 30
0.0
 10
8.2514988029
 20
7.7357346782
 30
0.0
 10
8.2410480227
 20
7.7306426278
 30
0.0
 10
8.2301887304
 20
7.7264939757
 30
0.0
 10
8.219006196
 20
7.7233153026
 30
0.0
 10
8.2113898381
 20
7.7218622191
 30
0.0
 10
8.2075585591
 20
7.7213039397
 30
0.0
  0
SPLINE
  5
329
100
AcDbEntity
  8
0
100
AcDbSpline
 62
9
  6
CONTINUOUS
 70
0
 71
3
 72
29
 73
25
 74
0
 42
0.0000001
 43
0.0000001
 44
0.0000000001
 40
0.0
 40
0.0
 40
0.0
 40
0.0
 40
0.0010161538
 40
0.0023336218
 40
0.0041065305
 40
0.0063977227
 40
0.0126287156
 40
0.0211246687
 40
0.0262309936
 40
0.0319106641
 40
0.044981822
 40
0.0603135237
 40
0.0778756033
 40
0.1195574457
 40
0.1696770598
 40
0.2277851962
 40
0.29337029
 40
0.3658014994
 40
0.4444153801
 40
0.5284414421
 40
0.6170638761
 40
0.7094440139
 40
0.8047192404
 40
1.0
 40
1.0
 40
1.0
 40
1.0
 10
6.7176923427
 20
7.7199195021
 30
0.0
 10
6.717648174
 20
7.7199195269
 30
0.0
 10
6.717546992
 20
7.7199560577
 30
0.0
 10
6.7174213215
 20
7.7200866425
 30
0.0
 10
6.7172981996
 20
7.7202864877
 30
0.0
 10
6.7171165263
 20
7.7206964404
 30
0.0
 10
6.7169056826
 20
7.7214075722
 30
0.0
 10
6.7167219043
 20
7.7222499428
 30
0.0
 10
6.7165713243
 20
7.7230745227
 30
0.0
 10
6.7164053282
 20
7.7240981833
 30
0.0
 10
6.7162045597
 20
7.7255661821
 30
0.0
 10
6.7159774537
 20
7.7275512691
 30
0.0
 10
6.7156629331
 20
7.7307776423
 30
0.0
 10
6.715296669
 20
7.7355175756
 30
0.0
 10
6.7149012019
 20
7.742021779
 30
0.0
 10
6.7145335093
 20
7.7495680242
 30
0.0
 10
6.7141969985
 20
7.7580863228
 30
0.0
 10
6.7138940363
 20
7.7674976867
 30
0.0
 10
6.7136274166
 20
7.7777119942
 30
0.0
 10
6.7133985984
 20
7.78863115
 30
0.0
 10
6.7132091362
 20
7.8001495091
 30
0.0
 10
6.713060316
 20
7.8121574647
 30
0.0
 10
6.7129166305
 20
7.8288017869
 30
0.0
 10
6.7128748064
 20
7.8414313193
 30
0.0
 10
6.7128748245
 20
7.8499195021
 30
0.0
  0
SPLINE
  5
32A
100
AcDbEntity
  8
0
100
AcDbSpline
 62
9
  6
CONTINUOUS
 70
0
 71
3
 72
18
 73
14
 74
0
 42
0.0000001
 43
0.0000001
 44
0.0000000001
 40
0.0
 40
0.0
 40
0.0
 40
0.0
 40
0.1471619984
 40
0.2890941864
 40
0.4254541144
 40
0.555476225
 40
0.618081928
 40
0.6787150372
 40
0.7930713602
 40
0.8472657632
 40
0.8995285236
 40
0.9502490704
 40
1.0
 40
1.0
 40
1.0
 40
1.0
 10
5.7112012814
 20
7.8199195021
 30
0.0
 10
5.7073687025
 20
7.8199194959
 30
0.0
 10
5.6998375391
 20
7.8200878973
 30
0.0
 10
5.688788181
 20
7.8210314892
 30
0.0
 10
5.6782882526
 20
7.8228060703
 30
0.0
 10
5.6700295371
 20
7.8251909213
 30
0.0
 10
5.6639403896
 20
7.8277489994
 30
0.0
 10
5.658469014
 20
7.8306447543
 30
0.0
 10
5.6536226721
 20
7.8342599129
 30
0.0
 10
5.6498860096
 20
7.8386609069
 30
0.0
 10
5.6477972215
 20
7.8422101331
 30
0.0
 10
5.646499158
 20
7.8459992508
 30
0.0
 10
5.6461959405
 20
7.8486238255
 30
0.0
 10
5.6461957087
 20
7.8499195021
 30
0.0
  0
SPLINE
  5
32B
100
AcDbEntity
  8
0
100
AcDbSpline
 62
9
  6
CONTINUOUS
 70
0
 71
3
 72
20
 73
16
 74
0
 42
0.0000001
 43
0.0000001
 44
0.0000000001
 40
0.0
 40
0.0
 40
0.0
 40
0.0
 40
0.0322774716
 40
0.0645108053
 40
0.0966415461
 40
0.1286517618
 40
0.1921823509
 40
0.2552512052
 40
0.3179419092
 40
0.3803524023
 40
0.5045256953
 40
0.6283529149
 40
0.7520887404
 40
0.8759268683
 40
1.0
 40
1.0
 40
1.0
 40
1.0
 10
5.6461958196
 20
8.2899195021
 30
0.0
 10
5.6461959597
 20
8.2907603686
 30
0.0
 10
5.6463177958
 20
8.2924435193
 30
0.0
 10
5.6468601605
 20
8.2949101947
 30
0.0
 10
5.6477300112
 20
8.2972731442
 30
0.0
 10
5.6492586191
 20
8.300235091
 30
0.0
 10
5.6517672738
 20
8.3035585811
 30
0.0
 10
5.6554054437
 20
8.3069155746
 30
0.0
 10
5.6594508653
 20
8.309707521
 30
0.0
 10
5.6651865655
 20
8.3127746971
 30
0.0
 10
5.6728045893
 20
8.3155928896
 30
0.0
 10
5.6822517328
 20
8.3177923049
 30
0.0
 10
5.691846048
 20
8.3191200002
 30
0.0
 10
5.7015093784
 20
8.3197964987
 30
0.0
 10
5.7079689865
 20
8.3199194922
 30
0.0
 10
5.711201239
 20
8.3199195021
 30
0.0
  0
SPLINE
  5
32C
100
AcDbEntity
  8
0
100
AcDbSpline
 62
9
  6
CONTINUOUS
 70
0
 71
3
 72
17
 73
13
 74
0
 42
0.0000001
 43
0.0000001
 44
0.0000000001
 40
0.0
 40
0.0
 40
0.0
 40
0.0
 40
0.1246773922
 40
0.1872184443
 40
0.2497655541
 40
0.3746332834
 40
0.4371917553
 40
0.4997569638
 40
0.6247759831
 40
0.7498314949
 40
0.8749139752
 40
1.0
 40
1.0
 40
1.0
 40
1.0
 10
5.6232162369
 20
8.2899195018
 30
0.0
 10
5.6232163911
 20
8.2948296528
 30
0.0
 10
5.6244313489
 20
8.3022671663
 30
0.0
 10
5.6282255928
 20
8.3113686773
 30
0.0
 10
5.6332775562
 20
8.319853107
 30
0.0
 10
5.6400037688
 20
8.3272054193
 30
0.0
 10
5.6477837892
 20
8.3332578862
 30
0.0
 10
5.6561548002
 20
8.3384820631
 30
0.0
 10
5.667459988
 20
8.3435207577
 30
0.0
 10
5.6817566595
 20
8.3474218468
 30
0.0
 10
5.6964153254
 20
8.3495189256
 30
0.0
 10
5.7062749922
 20
8.3499194506
 30
0.0
 10
5.7112012363
 20
8.3499195021
 30
0.0
  0
SPLINE
  5
32D
100
AcDbEntity
  8
0
100
AcDbSpline
 62
9
  6
CONTINUOUS
 70
0
 71
3
 72
18
 73
14
 74
0
 42
0.0000001
 43
0.0000001
 44
0.0000000001
 40
0.0
 40
0.0
 40
0.0
 40
0.0
 40
0.1471619984
 40
0.2890941864
 40
0.4254541144
 40
0.555476225
 40
0.618081928
 40
0.6787150372
 40
0.7930713602
 40
0.8472657632
 40
0.8995285236
 40
0.9502490704
 40
1.0
 40
1.0
 40
1.0
 40
1.0
 10
13.7112012814
 20
7.8199195021
 30
0.0
 10
13.7073687025
 20
7.8199194959
 30
0.0
 10
13.6998375391
 20
7.8200878973
 30
0.0
 10
13.688788181
 20
7.8210314892
 30
0.0
 10
13.6782882526
 20
7.8228060703
 30
0.0
 10
13.6700295371
 20
7.8251909213
 30
0.0
 10
13.6639403896
 20
7.8277489994
 30
0.0
 10
13.658469014
 20
7.8306447543
 30
0.0
 10
13.6536226721
 20
7.8342599129
 30
0.0
 10
13.6498860096
 20
7.8386609069
 30
0.0
 10
13.6477972215
 20
7.8422101331
 30
0.0
 10
13.646499158
 20
7.8459992508
 30
0.0
 10
13.6461959405
 20
7.8486238255
 30
0.0
 10
13.6461957087
 20
7.8499195021
 30
0.0
  0
SPLINE
  5
32E
100
AcDbEntity
  8
0
100
AcDbSpline
 62
9
  6
CONTINUOUS
 70
0
 71
3
 72
20
 73
16
 74
0
 42
0.0000001
 43
0.0000001
 44
0.0000000001
 40
0.0
 40
0.0
 40
0.0
 40
0.0
 40
0.0322774716
 40
0.0645108053
 40
0.0966415461
 40
0.1286517618
 40
0.1921823509
 40
0.2552512052
 40
0.3179419092
 40
0.3803524023
 40
0.5045256953
 40
0.6283529149
 40
0.7520887404
 40
0.8759268683
 40
1.0
 40
1.0
 40
1.0
 40
1.0
 10
13.6461958196
 20
8.2899195021
 30
0.0
 10
13.6461959597
 20
8.2907603686
 30
0.0
 10
13.6463177958
 20
8.2924435193
 30
0.0
 10
13.6468601605
 20
8.2949101947
 30
0.0
 10
13.6477300112
 20
8.2972731442
 30
0.0
 10
13.6492586191
 20
8.300235091
 30
0.0
 10
13.6517672738
 20
8.3035585811
 30
0.0
 10
13.6554054437
 20
8.3069155746
 30
0.0
 10
13.6594508653
 20
8.309707521
 30
0.0
 10
13.6651865655
 20
8.3127746971
 30
0.0
 10
13.6728045893
 20
8.3155928896
 30
0.0
 10
13.6822517328
 20
8.3177923049
 30
0.0
 10
13.691846048
 20
8.3191200002
 30
0.0
 10
13.7015093784
 20
8.3197964987
 30
0.0
 10
13.7079689865
 20
8.3199194922
 30
0.0
 10
13.711201239
 20
8.3199195021
 30
0.0
  0
SPLINE
  5
32F
100
AcDbEntity
  8
0
100
AcDbSpline
 62
9
  6
CONTINUOUS
 70
0
 71
3
 72
20
 73
16
 74
0
 42
0.0000001
 43
0.0000001
 44
0.0000000001
 40
0.0
 40
0.0
 40
0.0
 40
0.0
 40
0.1249362509
 40
0.1875060926
 40
0.2500363625
 40
0.3125509412
 40
0.3750702919
 40
0.4375963435
 40
0.500124518
 40
0.6250606536
 40
0.7499790445
 40
0.8124792584
 40
0.8749691863
 40
0.937471547
 40
1.0
 40
1.0
 40
1.0
 40
1.0
 10
13.5558612809
 20
8.2899195021
 30
0.0
 10
13.5558614641
 20
8.297655331
 30
0.0
 10
13.5569162402
 20
8.3093004331
 30
0.0
 10
13.5603725889
 20
8.3244058881
 30
0.0
 10
13.563978238
 20
8.3354668364
 30
0.0
 10
13.5685581035
 20
8.3461559495
 30
0.0
 10
13.5740790886
 20
8.3563906151
 30
0.0
 10
13.5804907996
 20
8.3660939338
 30
0.0
 10
13.5901552832
 20
8.3782071416
 30
0.0
 10
13.6042032706
 20
8.3916613655
 30
0.0
 10
13.6204107571
 20
8.4024112726
 30
0.0
 10
13.6343363855
 20
8.4091961909
 30
0.0
 10
13.645195971
 20
8.4133450368
 30
0.0
 10
13.6563780919
 20
8.4165235827
 30
0.0
 10
13.6639942921
 20
8.4179767316
 30
0.0
 10
13.6678254786
 20
8.4185350166
 30
0.0
  0
SPLINE
  5
330
100
AcDbEntity
  8
0
100
AcDbSpline
 62
9
  6
CONTINUOUS
 70
0
 71
3
 72
18
 73
14
 74
0
 42
0.0000001
 43
0.0000001
 44
0.0000000001
 40
0.0
 40
0.0
 40
0.0
 40
0.0
 40
0.0625141388
 40
0.1251546394
 40
0.187740235
 40
0.2503065143
 40
0.3128615822
 40
0.3754358341
 40
0.5003391837
 40
0.6252543584
 40
0.7501739162
 40
0.8751154244
 40
1.0
 40
1.0
 40
1.0
 40
1.0
 10
13.6232162368
 20
7.8499195021
 30
0.0
 10
13.6232162803
 20
7.8474564087
 30
0.0
 10
13.6236221534
 20
7.8425168927
 30
0.0
 10
13.6253815685
 20
7.8353026226
 30
0.0
 10
13.6282308207
 20
7.8284435281
 30
0.0
 10
13.632034116
 20
7.8220724269
 30
0.0
 10
13.636667513
 20
7.8162811746
 30
0.0
 10
13.6437336704
 20
7.8093874958
 30
0.0
 10
13.6539426799
 20
7.8023395806
 30
0.0
 10
13.6674924364
 20
7.7963113355
 30
0.0
 10
13.6817834794
 20
7.7924102159
 30
0.0
 10
13.6964300774
 20
7.7903199526
 30
0.0
 10
13.7062807115
 20
7.789919504
 30
0.0
 10
13.7112012363
 20
7.7899195021
 30
0.0
  0
SPLINE
  5
331
100
AcDbEntity
  8
0
100
AcDbSpline
 62
9
  6
CONTINUOUS
 70
0
 71
3
 72
29
 73
25
 74
0
 42
0.0000001
 43
0.0000001
 44
0.0000000001
 40
0.0
 40
0.0
 40
0.0
 40
0.0
 40
0.1953052769
 40
0.2905823434
 40
0.3829416981
 40
0.4715385797
 40
0.5555442119
 40
0.6341442371
 40
0.706580155
 40
0.7721779655
 40
0.8302990921
 40
0.8804355614
 40
0.9221272505
 40
0.9396911242
 40
0.9550235111
 40
0.968094967
 40
0.9737748456
 40
0.9788810769
 40
0.9873757103
 40
0.9936046734
 40
0.9958948908
 40
0.997667017
 40
0.9989840087
 40
1.0
 40
1.0
 40
1.0
 40
1.0
 10
14.7128748245
 20
7.8499195021
 30
0.0
 10
14.7128748165
 20
7.8414302536
 30
0.0
 10
14.7129162877
 20
7.828799574
 30
0.0
 10
14.7130602387
 20
7.8121550109
 30
0.0
 10
14.7132094747
 20
7.8001489948
 30
0.0
 10
14.7133987729
 20
7.7886335364
 30
0.0
 10
14.7136269204
 20
7.7777169681
 30
0.0
 10
14.713893379
 20
7.7675039411
 30
0.0
 10
14.7141968049
 20
7.758092436
 30
0.0
 10
14.7145338303
 20
7.7495728351
 30
0.0
 10
14.7149015917
 20
7.742024743
 30
0.0
 10
14.7152967301
 20
7.7355187921
 30
0.0
 10
14.7156628969
 20
7.7307776066
 30
0.0
 10
14.7159775069
 20
7.7275507034
 30
0.0
 10
14.7162046791
 20
7.7255655023
 30
0.0
 10
14.7164054996
 20
7.7240974586
 30
0.0
 10
14.7165715015
 20
7.7230737808
 30
0.0
 10
14.7167220685
 20
7.7222492518
 30
0.0
 10
14.7169058164
 20
7.7214070281
 30
0.0
 10
14.7171166249
 20
7.7206960802
 30
0.0
 10
14.717298269
 20
7.7202862944
 30
0.0
 10
14.7174213683
 20
7.7200865485
 30
0.0
 10
14.7175470278
 20
7.7199560379
 30
0.0
 10
14.7176481811
 20
7.7199195334
 30
0.0
 10
14.7176923427
 20
7.7199195021
 30
0.0
  0
SPLINE
  5
332
100
AcDbEntity
  8
0
100
AcDbSpline
 62
9
  6
CONTINUOUS
 70
0
 71
3
 72
15
 73
11
 74
0
 42
0.0000001
 43
0.0000001
 44
0.0000000001
 40
0.0
 40
0.0
 40
0.0
 40
0.0
 40
0.125138849
 40
0.2503444731
 40
0.3754368236
 40
0.5004208253
 40
0.6253678636
 40
0.7502866557
 40
0.8752113904
 40
1.0
 40
1.0
 40
1.0
 40
1.0
 10
13.6868925986
 20
7.7499195298
 30
0.0
 10
13.6803040275
 20
7.7499199884
 30
0.0
 10
13.6670906326
 20
7.7512053665
 30
0.0
 10
13.648022931
 20
7.756845814
 30
0.0
 10
13.6304134822
 20
7.7660826729
 30
0.0
 10
13.6149187276
 20
7.7785237421
 30
0.0
 10
13.6021801201
 20
7.793764745
 30
0.0
 10
13.5926541125
 20
7.8111965777
 30
0.0
 10
13.5868115557
 20
7.8301671499
 30
0.0
 10
13.5854724697
 20
7.8433493712
 30
0.0
 10
13.5854719742
 20
7.8499195021
 30
0.0
  0
SPLINE
  5
333
100
AcDbEntity
  8
0
100
AcDbSpline
 62
9
  6
CONTINUOUS
 70
0
 71
3
 72
15
 73
11
 74
0
 42
0.0000001
 43
0.0000001
 44
0.0000000001
 40
0.0
 40
0.0
 40
0.0
 40
0.0
 40
0.1247901482
 40
0.2497126101
 40
0.3746071258
 40
0.4995359884
 40
0.6245363362
 40
0.7496522885
 40
0.8748614941
 40
1.0
 40
1.0
 40
1.0
 40
1.0
 10
13.5854720056
 20
8.2899195021
 30
0.0
 10
13.5854724751
 20
8.2964897123
 30
0.0
 10
13.5868121791
 20
8.3096718433
 30
0.0
 10
13.5926538373
 20
8.3286411515
 30
0.0
 10
13.6021771361
 20
8.3460717942
 30
0.0
 10
13.6149151049
 20
8.3613116561
 30
0.0
 10
13.6304107737
 20
8.3737532487
 30
0.0
 10
13.6480213922
 20
8.3829927757
 30
0.0
 10
13.6670904455
 20
8.3886341155
 30
0.0
 10
13.6803040473
 20
8.3899189564
 30
0.0
 10
13.6868925986
 20
8.389919443
 30
0.0
  0
SPLINE
  5
334
100
AcDbEntity
  8
0
100
AcDbSpline
 62
9
  6
CONTINUOUS
 70
0
 71
3
 72
29
 73
25
 74
0
 42
0.0000001
 43
0.0000001
 44
0.0000000001
 40
0.0
 40
0.0
 40
0.0
 40
0.0
 40
0.0010160976
 40
0.0023334497
 40
0.0041061999
 40
0.006397217
 40
0.0126279085
 40
0.0211237806
 40
0.0262302048
 40
0.0319100832
 40
0.0449818393
 40
0.0603142598
 40
0.0778770467
 40
0.1195599926
 40
0.1696808128
 40
0.2277888497
 40
0.2933732983
 40
0.3658039407
 40
0.4444175725
 40
0.5284442697
 40
0.6170676661
 40
0.7094483429
 40
0.8047222063
 40
1.0
 40
1.0
 40
1.0
 40
1.0
 10
15.1576923428
 20
7.7199195021
 30
0.0
 10
15.157736509
 20
7.7199195287
 30
0.0
 10
15.1578376829
 20
7.7199560567
 30
0.0
 10
15.1579633424
 20
7.7200866327
 30
0.0
 10
15.1580864484
 20
7.7202864646
 30
0.0
 10
15.1582680974
 20
7.7206963977
 30
0.0
 10
15.1584789111
 20
7.7214075126
 30
0.0
 10
15.1586626697
 20
7.7222498744
 30
0.0
 10
15.1588132434
 20
7.7230744651
 30
0.0
 10
15.1589792448
 20
7.7240981644
 30
0.0
 10
15.1591800377
 20
7.7255662262
 30
0.0
 10
15.1594071791
 20
7.7275513971
 30
0.0
 10
15.1597217388
 20
7.7307778761
 30
0.0
 10
15.1600879624
 20
7.7355179436
 30
0.0
 10
15.1604832497
 20
7.7420222521
 30
0.0
 10
15.1608508596
 20
7.7495685184
 30
0.0
 10
15.1611874521
 20
7.7580867539
 30
0.0
 10
15.1614905513
 20
7.767498047
 30
0.0
 10
15.1617572754
 20
7.777712341
 30
0.0
 10
15.1619861469
 20
7.7886315511
 30
0.0
 10
15.1621756249
 20
7.8001499994
 30
0.0
 10
15.1623244282
 20
7.8121579576
 30
0.0
 10
15.1624680824
 20
7.8288021103
 30
0.0
 10
15.162509879
 20
7.8414314508
 30
0.0
 10
15.162509861
 20
7.8499195021
 30
0.0
  0
SPLINE
  5
335
100
AcDbEntity
  8
0
100
AcDbSpline
 62
9
  6
CONTINUOUS
 70
0
 71
3
 72
19
 73
15
 74
0
 42
0.0000001
 43
0.0000001
 44
0.0000000001
 40
0.0
 40
0.0
 40
0.0
 40
0.0
 40
0.1250229865
 40
0.187562262
 40
0.250093915
 40
0.3750857772
 40
0.5000397651
 40
0.6249339165
 40
0.6874568669
 40
0.7499751809
 40
0.8124894159
 40
0.8749984251
 40
0.9375007955
 40
1.0
 40
1.0
 40
1.0
 40
1.0
 10
16.1641834491
 20
8.3499195021
 30
0.0
 10
16.1691097248
 20
8.349919505
 30
0.0
 10
16.1765077079
 20
8.349618957
 30
0.0
 10
16.1862993281
 20
8.3484707691
 30
0.0
 10
16.196009321
 20
8.3467726563
 30
0.0
 10
16.2079267085
 20
8.3435163089
 30
0.0
 10
16.2214791087
 20
8.3374835203
 30
0.0
 10
16.231685582
 20
8.330431184
 30
0.0
 10
16.238742865
 20
8.3235325238
 30
0.0
 10
16.2433625562
 20
8.3177371594
 30
0.0
 10
16.2471638123
 20
8.3113725128
 30
0.0
 10
16.2500098616
 20
8.3045226388
 30
0.0
 10
16.251763203
 20
8.2973158377
 30
0.0
 10
16.2521685184
 20
8.2923821556
 30
0.0
 10
16.2521684486
 20
8.289919502
 30
0.0
  0
SPLINE
  5
336
100
AcDbEntity
  8
0
100
AcDbSpline
 62
9
  6
CONTINUOUS
 70
0
 71
3
 72
29
 73
25
 74
0
 42
0.0000001
 43
0.0000001
 44
0.0000000001
 40
0.0
 40
0.0
 40
0.0
 40
0.0
 40
0.0010161348
 40
0.0023336162
 40
0.0041065866
 40
0.006397866
 40
0.0126289855
 40
0.0211247863
 40
0.0262308502
 40
0.0319101023
 40
0.0449800422
 40
0.0603101944
 40
0.0778705986
 40
0.1195489134
 40
0.1696637913
 40
0.2277708175
 40
0.2933560333
 40
0.3657887929
 40
0.4444061529
 40
0.5284348468
 40
0.6170598973
 40
0.7094423747
 40
0.8047191903
 40
1.0
 40
1.0
 40
1.0
 40
1.0
 10
14.7176923427
 20
8.4199195021
 30
0.0
 10
14.7176481749
 20
8.4199194814
 30
0.0
 10
14.7175469902
 20
8.4198829517
 30
0.0
 10
14.7174213255
 20
8.4197523572
 30
0.0
 10
14.7172982111
 20
8.4195524995
 30
0.0
 10
14.7171165536
 20
8.4191425267
 30
0.0
 10
14.7169057365
 20
8.418431385
 30
0.0
 10
14.7167219859
 20
8.4175890213
 30
0.0
 10
14.7165714339
 20
8.4167644733
 30
0.0
 10
14.7164054756
 20
8.4157408903
 30
0.0
 10
14.7162047565
 20
8.4142730251
 30
0.0
 10
14.7159776944
 20
8.4122881281
 30
0.0
 10
14.7156631975
 20
8.4090620485
 30
0.0
 10
14.7152968057
 20
8.404322561
 30
0.0
 10
14.7149010311
 20
8.3978187853
 30
0.0
 10
14.7145333555
 20
8.3902727885
 30
0.0
 10
14.714197191
 20
8.3817544534
 30
0.0
 10
14.7138945108
 20
8.3723428593
 30
0.0
 10
14.7136277512
 20
8.3621282255
 30
0.0
 10
14.7133985783
 20
8.3512087002
 30
0.0
 10
14.7132089457
 20
8.3396900163
 30
0.0
 10
14.7130601956
 20
8.3276817779
 30
0.0
 10
14.7129166433
 20
8.3110372857
 30
0.0
 10
14.7128748048
 20
8.2984076852
 30
0.0
 10
14.7128748245
 20
8.2899195021
 30
0.0
  0
SPLINE
  5
337
100
AcDbEntity
  8
0
100
AcDbSpline
 62
9
  6
CONTINUOUS
 70
0
 71
3
 72
29
 73
25
 74
0
 42
0.0000001
 43
0.0000001
 44
0.0000000001
 40
0.0
 40
0.0
 40
0.0
 40
0.0
 40
0.1953010564
 40
0.2905823599
 40
0.3829520933
 40
0.4715574798
 40
0.5555663166
 40
0.6341665564
 40
0.7065968871
 40
0.7721882843
 40
0.8303055946
 40
0.8804389611
 40
0.9221293926
 40
0.9396927073
 40
0.9550245985
 40
0.9680957304
 40
0.973775546
 40
0.9788817376
 40
0.9873762392
 40
0.9936050298
 40
0.9958951553
 40
0.9976671898
 40
0.998984092
 40
1.0
 40
1.0
 40
1.0
 40
1.0
 10
15.162509861
 20
8.2899195021
 30
0.0
 10
15.1625098753
 20
8.2984085667
 30
0.0
 10
15.162468138
 20
8.3110392449
 30
0.0
 10
15.1623245059
 20
8.3276842609
 30
0.0
 10
15.162175625
 20
8.339691286
 30
0.0
 10
15.1619860981
 20
8.3512077012
 30
0.0
 10
15.1617572313
 20
8.3621247722
 30
0.0
 10
15.1614905143
 20
8.3723376963
 30
0.0
 10
15.1611875241
 20
8.3817487011
 30
0.0
 10
15.1608510226
 20
8.3902676346
 30
0.0
 10
15.1604833421
 20
8.3978151516
 30
0.0
 10
15.1600879828
 20
8.4043207333
 30
0.0
 10
15.1597217016
 20
8.4090616942
 30
0.0
 10
15.1594070824
 20
8.4122884951
 30
0.0
 10
15.1591799221
 20
8.4142736371
 30
0.0
 10
15.1589791199
 20
8.4157416443
 30
0.0
 10
15.1588131335
 20
8.4167653057
 30
0.0
 10
15.1586625774
 20
8.4175898264
 30
0.0
 10
15.1584788379
 20
8.4184320366
 30
0.0
 10
15.1582680352
 20
8.4191429683
 30
0.0
 10
15.158086396
 20
8.4195527394
 30
0.0
 10
15.1579633017
 20
8.4197524743
 30
0.0
 10
15.1578376486
 20
8.4198829753
 30
0.0
 10
15.1577365008
 20
8.4199194735
 30
0.0
 10
15.1576923428
 20
8.4199195021
 30
0.0
  0
SPLINE
  5
338
100
AcDbEntity
  8
0
100
AcDbSpline
 62
9
  6
CONTINUOUS
 70
0
 71
3
 72
18
 73
14
 74
0
 42
0.0000001
 43
0.0000001
 44
0.0000000001
 40
0.0
 40
0.0
 40
0.0
 40
0.0
 40
0.1472126178
 40
0.2892027654
 40
0.4256142606
 40
0.5556623716
 40
0.6182663667
 40
0.6788872179
 40
0.7931822455
 40
0.8473255553
 40
0.8995459654
 40
0.9502513183
 40
1.0
 40
1.0
 40
1.0
 40
1.0
 10
16.1641834273
 20
8.3199195021
 30
0.0
 10
16.1680173178
 20
8.3199195075
 30
0.0
 10
16.1755512973
 20
8.3197509556
 30
0.0
 10
16.1866047696
 20
8.3188065561
 30
0.0
 10
16.1971080113
 20
8.3170304181
 30
0.0
 10
16.2053682897
 20
8.3146436739
 30
0.0
 10
16.2114569437
 20
8.3120836051
 30
0.0
 10
16.2169255847
 20
8.3091868912
 30
0.0
 10
16.2217682845
 20
8.3055725328
 30
0.0
 10
16.2255017468
 20
8.3011741359
 30
0.0
 10
16.2275883122
 20
8.2976269172
 30
0.0
 10
16.2288855536
 20
8.2938392402
 30
0.0
 10
16.2291888061
 20
8.291215118
 30
0.0
 10
16.2291889197
 20
8.2899195021
 30
0.0
  0
SPLINE
  5
339
100
AcDbEntity
  8
0
100
AcDbSpline
 62
9
  6
CONTINUOUS
 70
0
 71
3
 72
22
 73
18
 74
0
 42
0.0000001
 43
0.0000001
 44
0.0000000001
 40
0.0
 40
0.0
 40
0.0
 40
0.0
 40
0.0322710896
 40
0.0644956871
 40
0.0966211911
 40
0.128627382
 40
0.1604918941
 40
0.1922278017
 40
0.2552874847
 40
0.3179700467
 40
0.3803700353
 40
0.4425646135
 40
0.5046135725
 40
0.6284165833
 40
0.7521326641
 40
0.8759491871
 40
1.0
 40
1.0
 40
1.0
 40
1.0
 10
16.2291888659
 20
7.8499195021
 30
0.0
 10
16.229188703
 20
7.8490786554
 30
0.0
 10
16.2290674967
 20
7.8473955623
 30
0.0
 10
16.228524521
 20
7.8449290238
 30
0.0
 10
16.2276543411
 20
7.8425664028
 30
0.0
 10
16.2265050832
 20
7.8403383024
 30
0.0
 10
16.2251163025
 20
7.8382642462
 30
0.0
 10
16.2230073589
 20
7.8357198859
 30
0.0
 10
16.2199788031
 20
7.8329226379
 30
0.0
 10
16.2159341872
 20
7.8301313435
 30
0.0
 10
16.2116238992
 20
7.8278258948
 30
0.0
 10
16.207138082
 20
7.8259332639
 30
0.0
 10
16.2010051956
 20
7.8238787614
 30
0.0
 10
16.1931316608
 20
7.8220467153
 30
0.0
 10
16.1835389806
 20
7.8207188761
 30
0.0
 10
16.1738751749
 20
7.8200424865
 30
0.0
 10
16.1674156836
 20
7.8199195022
 30
0.0
 10
16.1641834491
 20
7.8199195021
 30
0.0
  0
SPLINE
  5
33A
100
AcDbEntity
  8
0
100
AcDbSpline
 62
9
  6
CONTINUOUS
 70
0
 71
3
 72
21
 73
17
 74
0
 42
0.0000001
 43
0.0000001
 44
0.0000000001
 40
0.0
 40
0.0
 40
0.0
 40
0.0
 40
0.1249240268
 40
0.1874846347
 40
0.2500008749
 40
0.3125007256
 40
0.3750076059
 40
0.4375235727
 40
0.5000449324
 40
0.624973045
 40
0.6874930649
 40
0.7500045322
 40
0.8124986022
 40
0.8749820256
 40
0.9374779458
 40
1.0
 40
1.0
 40
1.0
 40
1.0
 10
16.3195234046
 20
7.8499195021
 30
0.0
 10
16.3195232635
 20
7.8421834573
 30
0.0
 10
16.3184681126
 20
7.8305382613
 30
0.0
 10
16.3150121399
 20
7.8154329925
 30
0.0
 10
16.3114069013
 20
7.8043728422
 30
0.0
 10
16.3068273051
 20
7.7936847833
 30
0.0
 10
16.3013070756
 20
7.7834507904
 30
0.0
 10
16.2948956059
 20
7.7737473239
 30
0.0
 10
16.2852321125
 20
7.7616349978
 30
0.0
 10
16.2739812565
 20
7.7508606899
 30
0.0
 10
16.2614621877
 20
7.7417313336
 30
0.0
 10
16.2514988029
 20
7.7357346782
 30
0.0
 10
16.2410480227
 20
7.7306426278
 30
0.0
 10
16.2301887304
 20
7.7264939757
 30
0.0
 10
16.219006196
 20
7.7233153026
 30
0.0
 10
16.2113898381
 20
7.7218622191
 30
0.0
 10
16.2075585591
 20
7.7213039397
 30
0.0
  0
SPLINE
  5
33B
100
AcDbEntity
  8
0
100
AcDbSpline
 62
9
  6
CONTINUOUS
 70
0
 71
3
 72
20
 73
16
 74
0
 42
0.0000001
 43
0.0000001
 44
0.0000000001
 40
0.0
 40
0.0
 40
0.0
 40
0.0
 40
0.0625369693
 40
0.1250403961
 40
0.1875236987
 40
0.2500125542
 40
0.3749086703
 40
0.499843161
 40
0.5623801972
 40
0.6249202041
 40
0.6874541655
 40
0.7499800086
 40
0.8125142871
 40
0.875077295
 40
1.0
 40
1.0
 40
1.0
 40
1.0
 10
13.6678302245
 20
7.721303625
 30
0.0
 10
13.6639984004
 20
7.7218618802
 30
0.0
 10
13.656381319
 20
7.7233146094
 30
0.0
 10
13.6451985939
 20
7.7264928888
 30
0.0
 10
13.6343397487
 20
7.7306415278
 30
0.0
 10
13.6204155677
 20
7.7374246356
 30
0.0
 10
13.6042093711
 20
7.7481733182
 30
0.0
 10
13.5901602393
 20
7.7616257387
 30
0.0
 10
13.5804946515
 20
7.7737402873
 30
0.0
 10
13.5740811283
 20
7.7834455227
 30
0.0
 10
13.568558287
 20
7.7936823476
 30
0.0
 10
13.5639777566
 20
7.8043735464
 30
0.0
 10
13.5603722802
 20
7.8154353845
 30
0.0
 10
13.5569151781
 20
7.8305400501
 30
0.0
 10
13.5558614804
 20
7.8421843136
 30
0.0
 10
13.5558612809
 20
7.8499195021
 30
0.0
  0
SPLINE
  5
33C
100
AcDbEntity
  8
0
100
AcDbSpline
 62
9
  6
CONTINUOUS
 70
0
 71
3
 72
17
 73
13
 74
0
 42
0.0000001
 43
0.0000001
 44
0.0000000001
 40
0.0
 40
0.0
 40
0.0
 40
0.0
 40
0.1246773922
 40
0.1872184443
 40
0.2497655541
 40
0.3746332834
 40
0.4371917553
 40
0.4997569638
 40
0.6247759831
 40
0.7498314949
 40
0.8749139752
 40
1.0
 40
1.0
 40
1.0
 40
1.0
 10
13.6232162369
 20
8.2899195018
 30
0.0
 10
13.6232163911
 20
8.2948296528
 30
0.0
 10
13.6244313489
 20
8.3022671663
 30
0.0
 10
13.6282255928
 20
8.3113686773
 30
0.0
 10
13.6332775562
 20
8.319853107
 30
0.0
 10
13.6400037688
 20
8.3272054193
 30
0.0
 10
13.6477837892
 20
8.3332578862
 30
0.0
 10
13.6561548002
 20
8.3384820631
 30
0.0
 10
13.667459988
 20
8.3435207577
 30
0.0
 10
13.6817566595
 20
8.3474218468
 30
0.0
 10
13.6964153254
 20
8.3495189256
 30
0.0
 10
13.7062749922
 20
8.3499194506
 30
0.0
 10
13.7112012363
 20
8.3499195021
 30
0.0
  0
SPLINE
  5
33D
100
AcDbEntity
  8
0
100
AcDbSpline
 62
9
  6
CONTINUOUS
 70
0
 71
3
 72
15
 73
11
 74
0
 42
0.0000001
 43
0.0000001
 44
0.0000000001
 40
0.0
 40
0.0
 40
0.0
 40
0.0
 40
0.1251204863
 40
0.2503031806
 40
0.3753858495
 40
0.500371093
 40
0.6253261968
 40
0.7502586492
 40
0.8752008404
 40
1.0
 40
1.0
 40
1.0
 40
1.0
 10
16.1884920869
 20
8.3899194557
 30
0.0
 10
16.1950796906
 20
8.3899190834
 30
0.0
 10
16.208290957
 20
8.3886345229
 30
0.0
 10
16.2273561982
 20
8.382995289
 30
0.0
 10
16.2449646677
 20
8.3737602785
 30
0.0
 10
16.2604605359
 20
8.3613206414
 30
0.0
 10
16.2732011061
 20
8.3460796558
 30
0.0
 10
16.2827290186
 20
8.328646446
 30
0.0
 10
16.2885725688
 20
8.3096738554
 30
0.0
 10
16.2899121537
 20
8.296490188
 30
0.0
 10
16.2899126925
 20
8.2899195021
 30
0.0
  0
SPLINE
  5
33E
100
AcDbEntity
  8
0
100
AcDbSpline
 62
9
  6
CONTINUOUS
 70
0
 71
3
 72
15
 73
11
 74
0
 42
0.0000001
 43
0.0000001
 44
0.0000000001
 40
0.0
 40
0.0
 40
0.0
 40
0.0
 40
0.1247718414
 40
0.2496712223
 40
0.3745551801
 40
0.4994842745
 40
0.6244924515
 40
0.7496226275
 40
0.8748503102
 40
1.0
 40
1.0
 40
1.0
 40
1.0
 10
16.289912607
 20
7.8499195022
 30
0.0
 10
16.2899122251
 20
7.8433502583
 30
0.0
 10
16.2885733508
 20
7.8301702626
 30
0.0
 10
16.2827329788
 20
7.8112034532
 30
0.0
 10
16.2732116953
 20
7.7937738105
 30
0.0
 10
16.2604752673
 20
7.7785328467
 30
0.0
 10
16.2449796256
 20
7.7660892958
 30
0.0
 10
16.2273675467
 20
7.756847845
 30
0.0
 10
16.2082963562
 20
7.7512055086
 30
0.0
 10
16.1950812245
 20
7.7499201643
 30
0.0
 10
16.1884920869
 20
7.7499196342
 30
0.0
  0
SPLINE
  5
33F
100
AcDbEntity
  8
0
100
AcDbSpline
 62
9
  6
CONTINUOUS
 70
0
 71
3
 72
20
 73
16
 74
0
 42
0.0000001
 43
0.0000001
 44
0.0000000001
 40
0.0
 40
0.0
 40
0.0
 40
0.0
 40
0.1250021179
 40
0.1875308
 40
0.2500518232
 40
0.3750229047
 40
0.4999565409
 40
0.562478307
 40
0.6249954791
 40
0.6875098996
 40
0.7500169576
 40
0.8125218284
 40
0.8750208503
 40
0.9375118562
 40
1.0
 40
1.0
 40
1.0
 40
1.0
 10
16.1641834492
 20
7.7899195021
 30
0.0
 10
16.1691096885
 20
7.7899195026
 30
0.0
 10
16.1765076425
 20
7.7902202665
 30
0.0
 10
16.1862990554
 20
7.7913686831
 30
0.0
 10
16.1960092583
 20
7.7930672929
 30
0.0
 10
16.2079240647
 20
7.7963210926
 30
0.0
 10
16.2192308348
 20
7.8013570519
 30
0.0
 10
16.2275989275
 20
7.8065822363
 30
0.0
 10
16.2334451345
 20
7.8111286407
 30
0.0
 10
16.2387436186
 20
7.8163056262
 30
0.0
 10
16.2433642501
 20
7.8221003089
 30
0.0
 10
16.2471586434
 20
7.8284687416
 30
0.0
 10
16.250011704
 20
7.8353156209
 30
0.0
 10
16.2517595742
 20
7.8425238447
 30
0.0
 10
16.2521683987
 20
7.8474568914
 30
0.0
 10
16.2521684486
 20
7.849919502
 30
0.0
  0
SPLINE
  5
340
100
AcDbEntity
  8
0
100
AcDbSpline
 62
9
  6
CONTINUOUS
 70
0
 71
3
 72
21
 73
17
 74
0
 42
0.0000001
 43
0.0000001
 44
0.0000000001
 40
0.0
 40
0.0
 40
0.0
 40
0.0
 40
0.0625284396
 40
0.1250185652
 40
0.1874867791
 40
0.2499625469
 40
0.3748399086
 40
0.4373605105
 40
0.4998893538
 40
0.5624224445
 40
0.6249575065
 40
0.6874855009
 40
0.7500050431
 40
0.8125332738
 40
0.8750907113
 40
1.0
 40
1.0
 40
1.0
 40
1.0
 10
16.2075539673
 20
8.4185353688
 30
0.0
 10
16.2113857527
 20
8.417977129
 30
0.0
 10
16.2190024952
 20
8.4165245637
 30
0.0
 10
16.2301844321
 20
8.4133468453
 30
0.0
 10
16.2410425403
 20
8.4091984179
 30
0.0
 10
16.2549645969
 20
8.4024171458
 30
0.0
 10
16.2679408093
 20
8.393809864
 30
0.0
 10
16.279595306
 20
8.3836020836
 30
0.0
 10
16.2876338753
 20
8.375193489
 30
0.0
 10
16.2948887995
 20
8.3661002483
 30
0.0
 10
16.301302516
 20
8.3563952548
 30
0.0
 10
16.3068258018
 20
8.3461580175
 30
0.0
 10
16.3114064801
 20
8.3354665754
 30
0.0
 10
16.3150122378
 20
8.3244044414
 30
0.0
 10
16.318469335
 20
8.3092993664
 30
0.0
 10
16.3195231873
 20
8.2976548341
 30
0.0
 10
16.3195234046
 20
8.2899195021
 30
0.0
  0
ENDSEC
  0
SECTION
  2
OBJECTS
  0
DICTIONARY
  5
C
100
AcDbDictionary
280
0
281
1
  3
ACAD_GROUP
350
D
  3
ACAD_MLINESTYLE
350
17
  3
ACAD_LAYOUT
350
1A
  3
ACAD_PLOTSETTINGS
350
19
  3
ACAD_PLOTSTYLENAME
350
E
  0
DICTIONARY
  5
D
102
{ACAD_REACTORS
330
C
102
}
100
AcDbDictionary
280
0
281
1
  0
ACDBDICTIONARYWDFLT
  5
E
102
{ACAD_REACTORS
330
C
102
}
100
AcDbDictionary
281
1
  3
Normal
350
F
100
AcDbDictionaryWithDefault
340
F
  0
DICTIONARY
  5
17
102
{ACAD_REACTORS
330
C
102
}
100
AcDbDictionary
280
0
281
1
  3
Standard
350
18
  0
DICTIONARY
  5
19
102
{ACAD_REACTORS
330
C
102
}
100
AcDbDictionary
281
1
  0
DICTIONARY
  5
1A
102
{ACAD_REACTORS
330
C
102
}
100
AcDbDictionary
281
1
  3
Model
350
341
  3
Layout1
350
342
  0
ACDBPLACEHOLDER
  5
F
102
{ACAD_REACTORS
330
E
102
}
  0
MLINESTYLE
  5
18
102
{ACAD_REACTORS
330
17
102
}
100
AcDbMlineStyle
  2
STANDARD
 70
0
  3

 62
256
 51
90.0
 52
90.0
 71
2
 49
0.5
 62
256
  6
BYLAYER
 49
-0.5
 62
256
  6
BYLAYER
  0
LAYOUT
  5
341
102
{ACAD_REACTORS
330
1A
102
}
100
AcDbPlotSettings
  1

  2
none_device
  4
ANSI_C_(22.00_x_17.00_Inches)
  6

 40
0.0
 41
0.0
 42
0.0
 43
0.0
 44
558.8
 45
431.8
 46
0.0
 47
0.0
 48
0.0
 49
0.0
140
0.0
141
0.0
142
1.0
143
1.0
 70
1024
 72
0
 73
0
 74
0
  7

 75
0
147
1.0
148
0.0
149
0.0
100
AcDbLayout
  1
Model
 70
0
 71
0
 10
0.0
 20
0.0
 11
22.0
 21
17.0
 12
0.0
 22
0.0
 32
0.0
 14
0.0
 24
0.0
 34
0.0
 15
0.0
 25
0.0
 35
0.0
146
0.0
 13
0.0
 23
0.0
 33
0.0
 16
1.0
 26
0.0
 36
0.0
 17
0.0
 27
1.0
 37
0.0
 76
0
330
202
345
0
346
0
  0
LAYOUT
  5
342
102
{ACAD_REACTORS
330
1A
102
}
100
AcDbPlotSettings
  1

  2
none_device
  4
ANSI_C_(22.00_x_17.00_Inches)
  6

 40
0.0
 41
0.0
 42
0.0
 43
0.0
 44
558.8
 45
431.8
 46
0.0
 47
0.0
 48
0.0
 49
0.0
140
0.0
141
0.0
142
1.0
143
1.0
 70
0
 72
0
 73
0
 74
0
  7

 75
0
147
1.0
148
0.0
149
0.0
100
AcDbLayout
  1
Layout1
 70
0
 71
1
 10
0.0
 20
0.0
 11
22.0
 21
17.0
 12
0.0
 22
0.0
 32
0.0
 14
0.0
 24
0.0
 34
0.0
 15
0.0
 25
0.0
 35
0.0
146
0.0
 13
0.0
 23
0.0
 33
0.0
 16
1.0
 26
0.0
 36
0.0
 17
0.0
 27
1.0
 37
0.0
 76
0
330
203
345
0
346
0
  0
ENDSEC
  0
EOF
