999
DXF file: E:\BT Custom\CADOUTPUT\_TOP.dxf
999
Pro/ENGINEER 2018400 by Parametric Technology Corporation
  0
SECTION
  2
HEADER
  9
$ACADVER
  1
AC1018
  9
$DWGCODEPAGE
  3
ANSI_1252
  9
$EXTMAX
 10
22.0
 20
17.0
 30
0.0
  9
$EXTMIN
 10
0.0
 20
0.0
 30
0.0
  9
$LIMMIN
 10
0.0
 20
0.0
  9
$LIMMAX
 10
22.0
 20
17.0
  9
$VIEWCTR
 10
11.0
 20
8.5
  9
$VIEWSIZE
 40
17.0
  9
$CLAYER
  8
0
  9
$LTSCALE
 40
1.21
  9
$CELTYPE
  6
BYLAYER
  9
$DIMSCALE
 40
1.0
  9
$DIMASZ
 40
0.1
  9
$DIMEXO
 40
0.0625
  9
$DIMDLI
 40
0.836
  9
$DIMEXE
 40
0.125
  9
$DIMCEN
 40
0.198
  9
$DIMLFAC
 40
1.0
  9
$DIMBLK
  1
_FILLED
  9
$DIMALT
 70
1
  9
$DIMALTD
 70
2
  9
$DIMALTTD
 70
2
  9
$DIMALTF
 40
25.4
  9
$DIMTXT
 40
0.08
  9
$DIMTOL
 70
1
  9
$DIMLIM
 70
0
  9
$DIMTFAC
 40
1.0
  9
$DIMTP
 40
0.001
  9
$DIMTM
 40
0.001
  9
$DIMGAP
 40
0.09
  9
$DIMDSEP
 70
46
  9
$AUNITS
 70
0
  9
$PDMODE
 70
3
  9
$PDSIZE
 40
0.06
  9
$HANDSEED
  5
295
  9
$TILEMODE
 70
1
  9
$MEASUREMENT
 70
0
  9
$INSUNITS
 70
1
  0
ENDSEC
  0
SECTION
  2
CLASSES
  0
CLASS
  1
ACDBDICTIONARYWDFLT
  2
AcDbDictionaryWithDefault
  3
AutoCAD 2000
 90
0
 91
1
280
0
281
0
  0
CLASS
  1
ACDBPLACEHOLDER
  2
AcDbPlaceHolder
  3
AutoCAD 2000
 90
0
 91
1
280
0
281
0
  0
CLASS
  1
LAYOUT
  2
AcDbLayout
  3
AutoCAD 2000
 90
0
 91
0
280
0
281
0
  0
ENDSEC
  0
SECTION
  2
TABLES
  0
TABLE
  2
VPORT
  5
8
100
AcDbSymbolTable
 70
2
  0
VPORT
  5
1F4
100
AcDbSymbolTableRecord
100
AcDbViewportTableRecord
  2
*ACTIVE
 70
0
 10
0.0
 20
0.0
 11
1.0
 21
1.0
 12
11.0
 22
8.5
 13
0.0
 23
0.0
 14
1.0
 24
1.0
 15
0.0
 25
0.0
 16
0.0
 26
0.0
 36
1.0
 17
0.0
 27
0.0
 37
0.0
 40
17.0
 41
1.2941176471
 42
50.0
 43
0.0
 44
0.0
 50
0.0
 51
0.0
 71
0
 72
100
 73
1
 74
1
 75
0
 76
0
 77
0
 78
0
  0
ENDTAB
  0
TABLE
  2
LTYPE
  5
5
100
AcDbSymbolTable
 70
6
  0
LTYPE
  5
14
100
AcDbSymbolTableRecord
100
AcDbLinetypeTableRecord
  2
BYBLOCK
 70
0
  3

 72
65
 73
0
 40
0.0
  0
LTYPE
  5
15
100
AcDbSymbolTableRecord
100
AcDbLinetypeTableRecord
  2
BYLAYER
 70
0
  3

 72
65
 73
0
 40
0.0
  0
LTYPE
  5
16
100
AcDbSymbolTableRecord
100
AcDbLinetypeTableRecord
  2
CONTINUOUS
 70
64
  3
Solid line
 72
65
 73
0
 40
0.0
  0
LTYPE
  5
1F5
100
AcDbSymbolTableRecord
100
AcDbLinetypeTableRecord
  2
CENTER
 70
64
  3
____ _ ____ _ ____ _ ____ _ ____ _ ____ _ ____
 72
65
 73
4
 40
0.6
 49
0.375
 74
0
 49
-0.075
 74
0
 49
0.075
 74
0
 49
-0.075
 74
0
  0
LTYPE
  5
1F6
100
AcDbSymbolTableRecord
100
AcDbLinetypeTableRecord
  2
HIDDEN
 70
64
  3
- - - - - - - - - - - - - - - - - - - -
 72
65
 73
2
 40
0.2
 49
0.1
 74
0
 49
-0.1
 74
0
  0
LTYPE
  5
1F7
100
AcDbSymbolTableRecord
100
AcDbLinetypeTableRecord
  2
PHANTOM
 70
64
  3
_____ _ _ _____ _ _ _____ _ _ _____
 72
65
 73
6
 40
0.8
 49
0.45
 74
0
 49
-0.05
 74
0
 49
0.1
 74
0
 49
-0.05
 74
0
 49
0.1
 74
0
 49
-0.05
 74
0
  0
LTYPE
  5
1F8
100
AcDbSymbolTableRecord
100
AcDbLinetypeTableRecord
  2
DOT
 70
64
  3
. . . . . . . . . . . . . . . . . . . .
 72
65
 73
2
 40
0.2
 49
0.1
 74
0
 49
-0.1
 74
0
  0
LTYPE
  5
1F9
100
AcDbSymbolTableRecord
100
AcDbLinetypeTableRecord
  2
DASHED
 70
64
  3
- - - - - - - - - - - - - - - - - - - -
 72
65
 73
2
 40
0.2
 49
0.1
 74
0
 49
-0.1
 74
0
  0
ENDTAB
  0
TABLE
  2
LAYER
  5
2
100
AcDbSymbolTable
 70
36
  0
LAYER
  5
10
100
AcDbSymbolTableRecord
100
AcDbLayerTableRecord
  2
0
 70
0
 62
7
  6
CONTINUOUS
370
-3
390
F
  0
LAYER
  5
1FA
100
AcDbSymbolTableRecord
100
AcDbLayerTableRecord
  2
DEFAULT_1
 70
0
 62
7
  6
CENTER
370
-3
390
F
  0
LAYER
  5
1FB
100
AcDbSymbolTableRecord
100
AcDbLayerTableRecord
  2
DEFAULT_2
 70
0
 62
8
  6
HIDDEN
370
-3
390
F
  0
LAYER
  5
1FC
100
AcDbSymbolTableRecord
100
AcDbLayerTableRecord
  2
DEFAULT_3
 70
0
 62
7
  6
PHANTOM
370
-3
390
F
  0
LAYER
  5
1FD
100
AcDbSymbolTableRecord
100
AcDbLayerTableRecord
  2
ALL_FEATURES
 70
0
 62
7
  6
CONTINUOUS
370
-3
390
F
  0
LAYER
  5
1FE
100
AcDbSymbolTableRecord
100
AcDbLayerTableRecord
  2
AXES_FEATURES
 70
0
 62
7
  6
CONTINUOUS
370
-3
390
F
  0
LAYER
  5
1FF
100
AcDbSymbolTableRecord
100
AcDbLayerTableRecord
  2
DIMENSIONS
 70
0
 62
7
  6
CONTINUOUS
370
-3
390
F
  0
ENDTAB
  0
TABLE
  2
STYLE
  5
3
100
AcDbSymbolTable
 70
1
  0
STYLE
  5
11
100
AcDbSymbolTableRecord
100
AcDbTextStyleTableRecord
  2
STANDARD
 70
0
 40
0.0
 41
0.8
 50
0.0
 71
0
 42
0.2
  3
txt
  4

  0
STYLE
  5
200
100
AcDbSymbolTableRecord
100
AcDbTextStyleTableRecord
  2
TEXTSTYLE_1
 70
0
 40
0.0
 41
0.8
 50
0.0
 71
0
 42
0.2
  3
gdt
  4

  0
ENDTAB
  0
TABLE
  2
VIEW
  5
6
100
AcDbSymbolTable
 70
0
  0
ENDTAB
  0
TABLE
  2
UCS
  5
7
100
AcDbSymbolTable
 70
0
  0
ENDTAB
  0
TABLE
  2
APPID
  5
9
100
AcDbSymbolTable
 70
1
  0
APPID
  5
201
100
AcDbSymbolTableRecord
100
AcDbRegAppTableRecord
  2
ACAD
 70
0
  0
ENDTAB
  0
TABLE
  2
BLOCK_RECORD
  5
1
100
AcDbSymbolTable
 70
0
  0
BLOCK_RECORD
  5
202
100
AcDbSymbolTableRecord
100
AcDbBlockTableRecord
  2
*Model_Space
  0
BLOCK_RECORD
  5
203
100
AcDbSymbolTableRecord
100
AcDbBlockTableRecord
  2
*Paper_Space
  0
BLOCK_RECORD
  5
204
100
AcDbSymbolTableRecord
100
AcDbBlockTableRecord
  2
_FILLED
  0
ENDTAB
  0
TABLE
  2
DIMSTYLE
  5
A
100
AcDbSymbolTable
 70
1
100
AcDbDimStyleTable
 71
0
  0
DIMSTYLE
105
205
100
AcDbSymbolTableRecord
100
AcDbDimStyleTableRecord
  2
STANDARD
 70
0
  3

  4

 40
1.0
 41
0.1
 42
0.0625
 43
0.38
 44
0.125
 45
0.0
 46
0.0
 47
0.001
 48
0.001
140
0.08
141
0.09
142
0.0
143
25.4
144
1.0
145
0.0
146
1.0
147
0.09
 71
1.0
 72
0.0
 73
1
 74
1
 75
0
 76
0
 77
0
 78
4
 79
1
170
1
171
2
172
0
173
0
174
0
175
0
176
0
177
0
178
0
270
2
179
3
271
3
272
3
273
2
274
2
275
0
280
0
281
0
282
0
283
1
284
4
285
0
286
0
287
3
288
0
340
11
278
46
341
204
342
204
343
204
344
204
  0
ENDTAB
  0
ENDSEC
  0
SECTION
  2
BLOCKS
  0
BLOCK
  5
20
100
AcDbEntity
  8
0
100
AcDbBlockBegin
  2
*Model_Space
 70
0
 10
0.0
 20
0.0
 30
0.0
  3
*Model_Space
  1

  0
ENDBLK
  5
21
100
AcDbEntity
  8
0
100
AcDbBlockEnd
  0
BLOCK
  5
1C
100
AcDbEntity
  8
0
100
AcDbBlockBegin
  2
*Paper_Space
 70
0
 10
0.0
 20
0.0
 30
0.0
  3
*Paper_Space
  1

  0
ENDBLK
  5
1D
100
AcDbEntity
  8
0
100
AcDbBlockEnd
  0
BLOCK
  5
206
100
AcDbEntity
  8
0
100
AcDbBlockBegin
  2
_FILLED
 70
64
 10
0.0
 20
0.0
  3
_FILLED
  1

  0
SOLID
  5
207
100
AcDbEntity
  8
0
  6
BYBLOCK
 62
0
100
AcDbTrace
 10
0.0
 20
0.0
 11
-1.0
 21
0.2
 12
-1.0
 22
-0.2
 13
-1.0
 23
-0.2
  0
ENDBLK
  5
208
100
AcDbEntity
  8
0
  6
BYBLOCK
 62
0
100
AcDbBlockEnd
  0
ENDSEC
  0
SECTION
  2
ENTITIES
  0
LINE
  5
209
100
AcDbEntity
  8
0
100
AcDbLine
 62
7
  6
CONTINUOUS
 10
10.6023183383
 20
-6.0806681396
 11
11.4923183383
 21
-6.0806681396
  0
LINE
  5
20A
100
AcDbEntity
  8
0
100
AcDbLine
 62
9
  6
CONTINUOUS
 10
10.5723183383
 20
-6.0506681396
 11
11.5223183383
 21
-6.0506681396
  0
LINE
  5
20B
100
AcDbEntity
  8
0
100
AcDbLine
 62
9
  6
CONTINUOUS
 10
11.5223183383
 20
-6.0306681396
 11
10.5723183383
 21
-6.0306681396
  0
LINE
  5
20C
100
AcDbEntity
  8
0
100
AcDbLine
 62
7
  6
CONTINUOUS
 10
10.5273183383
 20
-6.0006681396
 11
11.5673183383
 21
-6.0006681396
  0
LINE
  5
20D
100
AcDbEntity
  8
0
100
AcDbLine
 62
9
  6
CONTINUOUS
 10
10.4973183383
 20
-5.9706681396
 11
11.5973183383
 21
-5.9706681396
  0
LINE
  5
20E
100
AcDbEntity
  8
0
100
AcDbLine
 62
7
  6
CONTINUOUS
 10
11.4351683378
 20
-4.6152534047
 11
11.0381589554
 21
-4.61531814
  0
LINE
  5
20F
100
AcDbEntity
  8
0
100
AcDbLine
 62
7
  6
CONTINUOUS
 10
11.5973183383
 20
-4.6246681396
 11
10.4973183383
 21
-4.6246681396
  0
LINE
  5
210
100
AcDbEntity
  8
0
100
AcDbLine
 62
7
  6
CONTINUOUS
 10
11.4351683379
 20
-4.61531814
 11
11.0381589525
 21
-4.61531814
  0
LINE
  5
211
100
AcDbEntity
  8
0
100
AcDbLine
 62
7
  6
CONTINUOUS
 10
10.4973183383
 20
-4.6046681396
 11
11.5973183383
 21
-4.6046681396
  0
LINE
  5
212
100
AcDbEntity
  8
0
100
AcDbLine
 62
7
  6
CONTINUOUS
 10
11.5973183383
 20
-2.5046681396
 11
10.4973183383
 21
-2.5046681396
  0
LINE
  5
213
100
AcDbEntity
  8
0
100
AcDbLine
 62
7
  6
CONTINUOUS
 10
10.6488183383
 20
-4.6046681396
 11
10.6688183383
 21
-4.6246681396
  0
LINE
  5
214
100
AcDbEntity
  8
0
100
AcDbLine
 62
7
  6
CONTINUOUS
 10
9.5873183383
 20
20.5753318604
 11
9.5873183383
 21
21.0453318604
  0
LINE
  5
215
100
AcDbEntity
  8
0
100
AcDbLine
 62
7
  6
CONTINUOUS
 10
9.6623183383
 20
20.4953318604
 11
9.6623183383
 21
20.5353318604
  0
LINE
  5
216
100
AcDbEntity
  8
0
100
AcDbLine
 62
7
  6
CONTINUOUS
 10
10.5773260027
 20
5.9053318604
 11
11.5173106738
 21
5.9053318604
  0
LWPOLYLINE
  5
217
100
AcDbEntity
  8
0
100
AcDbPolyline
 62
7
  6
CONTINUOUS
 90
4
 70
0
 10
10.5655025088
 20
6.6077638621
 10
10.572449553
 20
6.5956888422
 10
10.576441288
 20
6.5822398254
 10
10.5773197105
 20
6.5720109994
  0
LINE
  5
218
100
AcDbEntity
  8
0
100
AcDbLine
 62
7
  6
CONTINUOUS
 10
10.3848183383
 20
15.2583318604
 11
10.3848183383
 21
16.6153318604
  0
LINE
  5
219
100
AcDbEntity
  8
0
100
AcDbLine
 62
7
  6
CONTINUOUS
 10
10.3848183383
 20
16.6353318604
 11
10.3848183383
 21
20.4753318604
  0
LINE
  5
21A
100
AcDbEntity
  8
0
100
AcDbLine
 62
7
  6
CONTINUOUS
 10
10.4598183383
 20
15.1783318604
 11
10.4598183383
 21
15.1983318604
  0
LINE
  5
21B
100
AcDbEntity
  8
0
100
AcDbLine
 62
7
  6
CONTINUOUS
 10
10.4973183383
 20
-5.9706681396
 11
10.4973183383
 21
-4.6246681396
  0
LINE
  5
21C
100
AcDbEntity
  8
0
100
AcDbLine
 62
7
  6
CONTINUOUS
 10
10.4973183383
 20
-4.6046681396
 11
10.4973183383
 21
-2.5046681396
  0
LINE
  5
21D
100
AcDbEntity
  8
0
100
AcDbLine
 62
7
  6
CONTINUOUS
 10
10.5723183383
 20
-6.0506681396
 11
10.5723183383
 21
-6.0306681396
  0
LINE
  5
21E
100
AcDbEntity
  8
0
100
AcDbLine
 62
7
  6
CONTINUOUS
 10
10.5748183383
 20
16.6307027808
 11
10.5748183383
 21
16.6355629981
  0
LINE
  5
21F
100
AcDbEntity
  8
0
100
AcDbLine
 62
7
  6
CONTINUOUS
 10
10.5773183383
 20
17.1420109994
 11
10.5773183383
 21
16.4753318604
  0
LINE
  5
220
100
AcDbEntity
  8
0
100
AcDbLine
 62
7
  6
CONTINUOUS
 10
10.5773183383
 20
6.5720109994
 11
10.5773183383
 21
5.9053318604
  0
LINE
  5
221
100
AcDbEntity
  8
0
100
AcDbLine
 62
7
  6
CONTINUOUS
 10
10.5773183383
 20
7.3586527216
 11
10.5773183383
 21
8.0253318604
  0
LINE
  5
222
100
AcDbEntity
  8
0
100
AcDbLine
 62
7
  6
CONTINUOUS
 10
10.6723183383
 20
-2.5046681396
 11
10.6723183383
 21
5.9053318604
  0
LINE
  5
223
100
AcDbEntity
  8
0
100
AcDbLine
 62
7
  6
CONTINUOUS
 10
10.6723183383
 20
8.0253318604
 11
10.6723183383
 21
16.4753318604
  0
LINE
  5
224
100
AcDbEntity
  8
0
100
AcDbLine
 62
9
  6
CONTINUOUS
 10
11.0473182827
 20
18.1353312999
 11
11.0473182958
 21
18.1382487231
  0
LINE
  5
225
100
AcDbEntity
  8
0
100
AcDbLine
 62
9
  6
CONTINUOUS
 10
11.0473182958
 20
18.1382487231
 11
11.0473183204
 21
18.1953312485
  0
LINE
  5
226
100
AcDbEntity
  8
0
100
AcDbLine
 62
9
  6
CONTINUOUS
 10
11.0473183167
 20
16.8753318604
 11
11.0473183297
 21
16.9353319775
  0
LINE
  5
227
100
AcDbEntity
  8
0
100
AcDbLine
 62
9
  6
CONTINUOUS
 10
11.04731836
 20
7.6253318604
 11
11.0473183455
 21
7.5653317293
  0
LINE
  5
228
100
AcDbEntity
  8
0
100
AcDbLine
 62
9
  6
CONTINUOUS
 10
11.0473183167
 20
6.3053318604
 11
11.0473183297
 21
6.3653319775
  0
LWPOLYLINE
  5
229
100
AcDbEntity
  8
0
100
AcDbPolyline
 62
7
  6
CONTINUOUS
 90
4
 70
0
 10
11.5173169688
 20
17.1420110023
 10
11.5181954037
 20
17.1522399011
 10
11.5221871409
 20
17.1656888819
 10
11.5291341724
 20
17.1777638721
  0
LWPOLYLINE
  5
22A
100
AcDbEntity
  8
0
100
AcDbPolyline
 62
7
  6
CONTINUOUS
 90
4
 70
0
 10
10.5773197106
 20
7.3586527216
 10
10.5764193263
 20
7.3482977726
 10
10.572424228
 20
7.3349160072
 10
10.5655025092
 20
7.3228998594
  0
LINE
  5
22B
100
AcDbEntity
  8
0
100
AcDbLine
 62
7
  6
CONTINUOUS
 10
11.4223183383
 20
-2.5046681396
 11
11.4223183383
 21
5.9053318604
  0
LINE
  5
22C
100
AcDbEntity
  8
0
100
AcDbLine
 62
7
  6
CONTINUOUS
 10
11.4223183383
 20
8.0253318604
 11
11.4223183383
 21
16.4753318604
  0
LINE
  5
22D
100
AcDbEntity
  8
0
100
AcDbLine
 62
7
  6
CONTINUOUS
 10
11.4351683378
 20
-4.6151677823
 11
11.4351683378
 21
-4.6051610555
  0
LINE
  5
22E
100
AcDbEntity
  8
0
100
AcDbLine
 62
7
  6
CONTINUOUS
 10
11.5173183383
 20
17.1420110023
 11
11.5173183383
 21
16.4753318604
  0
LINE
  5
22F
100
AcDbEntity
  8
0
100
AcDbLine
 62
7
  6
CONTINUOUS
 10
11.5173183383
 20
6.5720110023
 11
11.5173183383
 21
5.9053318604
  0
LINE
  5
230
100
AcDbEntity
  8
0
100
AcDbLine
 62
7
  6
CONTINUOUS
 10
11.5173183383
 20
7.3586527188
 11
11.5173183383
 21
8.0253318604
  0
LINE
  5
231
100
AcDbEntity
  8
0
100
AcDbLine
 62
7
  6
CONTINUOUS
 10
11.5223183383
 20
-6.0506681396
 11
11.5223183383
 21
-6.0306681396
  0
LINE
  5
232
100
AcDbEntity
  8
0
100
AcDbLine
 62
7
  6
CONTINUOUS
 10
11.5973183383
 20
-5.9706681396
 11
11.5973183383
 21
-4.6246681396
  0
LINE
  5
233
100
AcDbEntity
  8
0
100
AcDbLine
 62
7
  6
CONTINUOUS
 10
11.5973183383
 20
-4.6046681396
 11
11.5973183383
 21
-2.5046681396
  0
LINE
  5
234
100
AcDbEntity
  8
0
100
AcDbLine
 62
7
  6
CONTINUOUS
 10
11.6348183383
 20
15.1783318604
 11
11.6348183383
 21
15.1983318604
  0
LINE
  5
235
100
AcDbEntity
  8
0
100
AcDbLine
 62
7
  6
CONTINUOUS
 10
11.7098183383
 20
15.2583318604
 11
11.7098183383
 21
16.6153318604
  0
LINE
  5
236
100
AcDbEntity
  8
0
100
AcDbLine
 62
7
  6
CONTINUOUS
 10
11.7098183383
 20
16.6353318604
 11
11.7098183383
 21
20.4753318604
  0
LWPOLYLINE
  5
237
100
AcDbEntity
  8
0
100
AcDbPolyline
 62
7
  6
CONTINUOUS
 90
4
 70
0
 10
11.5173169688
 20
6.5720110023
 10
11.5181954037
 20
6.5822399011
 10
11.5221871409
 20
6.5956888819
 10
11.5291341724
 20
6.6077638721
  0
LINE
  5
238
100
AcDbEntity
  8
0
100
AcDbLine
 62
7
  6
CONTINUOUS
 10
11.5173105216
 20
8.0253318604
 11
10.577326155
 21
8.0253318604
  0
LWPOLYLINE
  5
239
100
AcDbEntity
  8
0
100
AcDbPolyline
 62
7
  6
CONTINUOUS
 90
4
 70
0
 10
11.5291341721
 20
7.3228998494
 10
11.5222124693
 20
7.3349159597
 10
11.5182173675
 20
7.348297685
 10
11.5173169686
 20
7.3586527187
  0
LINE
  5
23A
100
AcDbEntity
  8
0
100
AcDbLine
 62
7
  6
CONTINUOUS
 10
12.4323183383
 20
20.4953318604
 11
12.4323183383
 21
20.5353318604
  0
LINE
  5
23B
100
AcDbEntity
  8
0
100
AcDbLine
 62
7
  6
CONTINUOUS
 10
12.5073183383
 20
20.5753318604
 11
12.5073183383
 21
21.0453318604
  0
LWPOLYLINE
  5
23C
100
AcDbEntity
  8
0
100
AcDbPolyline
 62
7
  6
CONTINUOUS
 90
4
 70
0
 10
10.5655025088
 20
17.1777638621
 10
10.572449553
 20
17.1656888422
 10
10.576441288
 20
17.1522398254
 10
10.5773197105
 20
17.1420109994
  0
LINE
  5
23D
100
AcDbEntity
  8
0
100
AcDbLine
 62
7
  6
CONTINUOUS
 10
10.4898183383
 20
15.1483318604
 11
10.6723183383
 21
15.1483318604
  0
LINE
  5
23E
100
AcDbEntity
  8
0
100
AcDbLine
 62
7
  6
CONTINUOUS
 10
11.4223183383
 20
15.1483318604
 11
11.6048183383
 21
15.1483318604
  0
LINE
  5
23F
100
AcDbEntity
  8
0
100
AcDbLine
 62
9
  6
CONTINUOUS
 10
10.4598183383
 20
15.1783318604
 11
10.6723183383
 21
15.1783318604
  0
LINE
  5
240
100
AcDbEntity
  8
0
100
AcDbLine
 62
9
  6
CONTINUOUS
 10
11.4223183383
 20
15.1783318604
 11
11.6348183383
 21
15.1783318604
  0
LINE
  5
241
100
AcDbEntity
  8
0
100
AcDbLine
 62
9
  6
CONTINUOUS
 10
11.6348183383
 20
15.1983318604
 11
11.4223183383
 21
15.1983318604
  0
LINE
  5
242
100
AcDbEntity
  8
0
100
AcDbLine
 62
9
  6
CONTINUOUS
 10
10.6723183383
 20
15.1983318604
 11
10.4598183383
 21
15.1983318604
  0
LINE
  5
243
100
AcDbEntity
  8
0
100
AcDbLine
 62
7
  6
CONTINUOUS
 10
10.4148183383
 20
15.2283318604
 11
10.6723183383
 21
15.2283318604
  0
LINE
  5
244
100
AcDbEntity
  8
0
100
AcDbLine
 62
7
  6
CONTINUOUS
 10
11.4223183383
 20
15.2283318604
 11
11.6798183383
 21
15.2283318604
  0
LINE
  5
245
100
AcDbEntity
  8
0
100
AcDbLine
 62
9
  6
CONTINUOUS
 10
10.3848183383
 20
15.2583318604
 11
10.6723183383
 21
15.2583318604
  0
LINE
  5
246
100
AcDbEntity
  8
0
100
AcDbLine
 62
9
  6
CONTINUOUS
 10
11.4223183383
 20
15.2583318604
 11
11.7098183383
 21
15.2583318604
  0
LINE
  5
247
100
AcDbEntity
  8
0
100
AcDbLine
 62
7
  6
CONTINUOUS
 10
10.5749399322
 20
16.6305621511
 11
10.5773183383
 21
16.6291886069
  0
LINE
  5
248
100
AcDbEntity
  8
0
100
AcDbLine
 62
7
  6
CONTINUOUS
 10
11.4351683379
 20
-4.61531814
 11
11.4258183383
 21
-4.6246681396
  0
LINE
  5
249
100
AcDbEntity
  8
0
100
AcDbLine
 62
7
  6
CONTINUOUS
 10
10.5773260027
 20
16.4753318604
 11
11.5173106738
 21
16.4753318604
  0
LINE
  5
24A
100
AcDbEntity
  8
0
100
AcDbLine
 62
7
  6
CONTINUOUS
 10
11.7098183383
 20
16.6153318604
 11
11.5173183383
 21
16.6153318604
  0
LINE
  5
24B
100
AcDbEntity
  8
0
100
AcDbLine
 62
7
  6
CONTINUOUS
 10
10.5773183383
 20
16.6153318604
 11
10.3848183383
 21
16.6153318604
  0
LINE
  5
24C
100
AcDbEntity
  8
0
100
AcDbLine
 62
7
  6
CONTINUOUS
 10
10.3848192221
 20
16.6353318604
 11
10.5773183383
 21
16.6353318604
  0
LINE
  5
24D
100
AcDbEntity
  8
0
100
AcDbLine
 62
7
  6
CONTINUOUS
 10
11.5173183383
 20
16.6353318604
 11
11.7098174545
 21
16.6353318604
  0
LINE
  5
24E
100
AcDbEntity
  8
0
100
AcDbLine
 62
7
  6
CONTINUOUS
 10
11.4349751838
 20
-4.6053686197
 11
11.4361879513
 21
-4.6046681396
  0
LINE
  5
24F
100
AcDbEntity
  8
0
100
AcDbLine
 62
7
  6
CONTINUOUS
 10
9.6823183383
 20
20.4753318604
 11
12.4123183383
 21
20.4753318604
  0
LINE
  5
250
100
AcDbEntity
  8
0
100
AcDbLine
 62
9
  6
CONTINUOUS
 10
9.6623183383
 20
20.4953318604
 11
12.4323183383
 21
20.4953318604
  0
LINE
  5
251
100
AcDbEntity
  8
0
100
AcDbLine
 62
9
  6
CONTINUOUS
 10
12.4323183383
 20
20.5353318604
 11
9.6623183383
 21
20.5353318604
  0
LINE
  5
252
100
AcDbEntity
  8
0
100
AcDbLine
 62
7
  6
CONTINUOUS
 10
9.6073183383
 20
20.5553318604
 11
12.4873183383
 21
20.5553318604
  0
LINE
  5
253
100
AcDbEntity
  8
0
100
AcDbLine
 62
9
  6
CONTINUOUS
 10
9.5873183383
 20
20.5753318604
 11
12.5073183383
 21
20.5753318604
  0
LINE
  5
254
100
AcDbEntity
  8
0
100
AcDbLine
 62
7
  6
CONTINUOUS
 10
12.5073062246
 20
21.0453318604
 11
9.587330452
 21
21.0453318604
  0
ARC
  5
255
100
AcDbEntity
  8
0
100
AcDbCircle
 62
9
  6
CONTINUOUS
 10
11.0215246601
 20
6.8823363636
 40
0.5831967527
100
AcDbArc
 50
305.8555481249
 51
306.714923474
  0
ARC
  5
256
100
AcDbEntity
  8
0
100
AcDbCircle
 62
7
  6
CONTINUOUS
 10
10.5273183383
 20
-5.9706681396
 40
0.03
100
AcDbArc
 50
180.0
 51
270.0
  0
ARC
  5
257
100
AcDbEntity
  8
0
100
AcDbCircle
 62
7
  6
CONTINUOUS
 10
10.5423183383
 20
-6.0306681396
 40
0.03
100
AcDbArc
 50
0.0
 51
90.0
  0
ARC
  5
258
100
AcDbEntity
  8
0
100
AcDbCircle
 62
7
  6
CONTINUOUS
 10
10.6023183383
 20
-6.0506681396
 40
0.03
100
AcDbArc
 50
180.0
 51
270.0
  0
ARC
  5
259
100
AcDbEntity
  8
0
100
AcDbCircle
 62
9
  6
CONTINUOUS
 10
10.9906074276
 20
17.5117895384
 40
0.6567056099
100
AcDbArc
 50
323.3389301193
 51
324.9582136826
  0
ARC
  5
25A
100
AcDbEntity
  8
0
100
AcDbCircle
 62
9
  6
CONTINUOUS
 10
11.0215246601
 20
17.4523363636
 40
0.5831967527
100
AcDbArc
 50
305.8555481249
 51
306.714923474
  0
ARC
  5
25B
100
AcDbEntity
  8
0
100
AcDbCircle
 62
7
  6
CONTINUOUS
 10
10.4148183383
 20
15.2583318604
 40
0.03
100
AcDbArc
 50
180.0
 51
270.0
  0
ARC
  5
25C
100
AcDbEntity
  8
0
100
AcDbCircle
 62
7
  6
CONTINUOUS
 10
10.4298183383
 20
15.1983318604
 40
0.03
100
AcDbArc
 50
0.0
 51
90.0
  0
ARC
  5
25D
100
AcDbEntity
  8
0
100
AcDbCircle
 62
7
  6
CONTINUOUS
 10
10.4898183383
 20
15.1783318604
 40
0.03
100
AcDbArc
 50
180.0
 51
270.0
  0
ARC
  5
25E
100
AcDbEntity
  8
0
100
AcDbCircle
 62
7
  6
CONTINUOUS
 10
9.6073183383
 20
20.5753318604
 40
0.02
100
AcDbArc
 50
180.0
 51
270.0
  0
ARC
  5
25F
100
AcDbEntity
  8
0
100
AcDbCircle
 62
7
  6
CONTINUOUS
 10
9.6423183383
 20
20.5353318604
 40
0.02
100
AcDbArc
 50
0.0
 51
90.0
  0
ARC
  5
260
100
AcDbEntity
  8
0
100
AcDbCircle
 62
7
  6
CONTINUOUS
 10
9.6823183383
 20
20.4953318604
 40
0.02
100
AcDbArc
 50
180.0
 51
270.0
  0
CIRCLE
  5
261
100
AcDbEntity
  8
0
100
AcDbCircle
 62
7
  6
CONTINUOUS
 10
11.0473183383
 20
6.9653318604
 40
0.6
  0
ARC
  5
262
100
AcDbEntity
  8
0
100
AcDbCircle
 62
7
  6
CONTINUOUS
 10
11.0473183383
 20
6.9653318604
 40
0.6
100
AcDbArc
 50
314.7903782842
 51
315.0346843262
  0
ARC
  5
263
100
AcDbEntity
  8
0
100
AcDbCircle
 62
7
  6
CONTINUOUS
 10
11.0473183383
 20
6.9653318604
 40
0.6
100
AcDbArc
 50
305.7120840813
 51
306.1733559328
  0
ARC
  5
264
100
AcDbEntity
  8
0
100
AcDbCircle
 62
7
  6
CONTINUOUS
 10
11.0473183383
 20
6.9653318604
 40
0.6
100
AcDbArc
 50
224.365702517
 51
224.7016702472
  0
ARC
  5
265
100
AcDbEntity
  8
0
100
AcDbCircle
 62
7
  6
CONTINUOUS
 10
11.0473183383
 20
6.9653318604
 40
0.6
100
AcDbArc
 50
233.2299247147
 51
233.8188225755
  0
ARC
  5
266
100
AcDbEntity
  8
0
100
AcDbCircle
 62
7
  6
CONTINUOUS
 10
11.0473183383
 20
6.9653318604
 40
0.6
100
AcDbArc
 50
242.3250093387
 51
242.829182209
  0
ARC
  5
267
100
AcDbEntity
  8
0
100
AcDbCircle
 62
7
  6
CONTINUOUS
 10
11.0473183383
 20
6.9653318604
 40
0.6
100
AcDbArc
 50
269.2628659031
 51
270.0000000001
  0
ARC
  5
268
100
AcDbEntity
  8
0
100
AcDbCircle
 62
9
  6
CONTINUOUS
 10
11.0733751825
 20
6.8826952395
 40
0.5836417631
100
AcDbArc
 50
233.2869746272
 51
234.1483783814
  0
CIRCLE
  5
269
100
AcDbEntity
  8
0
100
AcDbCircle
 62
9
  6
CONTINUOUS
 10
11.0473183383
 20
6.9653318604
 40
0.5799999803
  0
ARC
  5
26A
100
AcDbEntity
  8
0
100
AcDbCircle
 62
7
  6
CONTINUOUS
 10
11.5673183383
 20
-5.9706681396
 40
0.03
100
AcDbArc
 50
270.0
 51
360.0
  0
ARC
  5
26B
100
AcDbEntity
  8
0
100
AcDbCircle
 62
7
  6
CONTINUOUS
 10
11.4923183383
 20
-6.0506681396
 40
0.03
100
AcDbArc
 50
270.0
 51
360.0
  0
ARC
  5
26C
100
AcDbEntity
  8
0
100
AcDbCircle
 62
7
  6
CONTINUOUS
 10
11.5523183383
 20
-6.0306681396
 40
0.03
100
AcDbArc
 50
90.0
 51
180.0
  0
ARC
  5
26D
100
AcDbEntity
  8
0
100
AcDbCircle
 62
9
  6
CONTINUOUS
 10
11.102651534
 20
17.5103623335
 40
0.6547677517
100
AcDbArc
 50
215.0096125094
 51
216.6356030199
  0
CIRCLE
  5
26E
100
AcDbEntity
  8
0
100
AcDbCircle
 62
7
  6
CONTINUOUS
 10
11.0473183383
 20
17.5353318604
 40
0.6
  0
ARC
  5
26F
100
AcDbEntity
  8
0
100
AcDbCircle
 62
7
  6
CONTINUOUS
 10
11.0473183383
 20
17.5353318604
 40
0.6
100
AcDbArc
 50
314.7903782842
 51
315.0346843262
  0
ARC
  5
270
100
AcDbEntity
  8
0
100
AcDbCircle
 62
7
  6
CONTINUOUS
 10
11.0473183383
 20
17.5353318604
 40
0.6
100
AcDbArc
 50
216.5794549013
 51
224.7016702472
  0
ARC
  5
271
100
AcDbEntity
  8
0
100
AcDbCircle
 62
7
  6
CONTINUOUS
 10
11.0473183383
 20
17.5353318604
 40
0.6
100
AcDbArc
 50
233.2299247147
 51
233.8188225755
  0
ARC
  5
272
100
AcDbEntity
  8
0
100
AcDbCircle
 62
7
  6
CONTINUOUS
 10
11.0473183383
 20
17.5353318604
 40
0.6
100
AcDbArc
 50
242.3250093387
 51
251.5134991793
  0
ARC
  5
273
100
AcDbEntity
  8
0
100
AcDbCircle
 62
7
  6
CONTINUOUS
 10
11.0473183383
 20
17.5353318604
 40
0.6
100
AcDbArc
 50
260.5907167802
 51
270.0000000001
  0
ARC
  5
274
100
AcDbEntity
  8
0
100
AcDbCircle
 62
9
  6
CONTINUOUS
 10
11.0733751826
 20
17.4526952396
 40
0.5836417632
100
AcDbArc
 50
233.2869746272
 51
234.1483783813
  0
CIRCLE
  5
275
100
AcDbEntity
  8
0
100
AcDbCircle
 62
9
  6
CONTINUOUS
 10
11.0473183383
 20
17.5353318604
 40
0.5799999803
  0
ARC
  5
276
100
AcDbEntity
  8
0
100
AcDbCircle
 62
7
  6
CONTINUOUS
 10
11.6798183383
 20
15.2583318604
 40
0.03
100
AcDbArc
 50
270.0
 51
360.0
  0
ARC
  5
277
100
AcDbEntity
  8
0
100
AcDbCircle
 62
7
  6
CONTINUOUS
 10
11.6048183383
 20
15.1783318604
 40
0.03
100
AcDbArc
 50
270.0
 51
360.0
  0
ARC
  5
278
100
AcDbEntity
  8
0
100
AcDbCircle
 62
7
  6
CONTINUOUS
 10
11.6648183383
 20
15.1983318604
 40
0.03
100
AcDbArc
 50
90.0
 51
180.0
  0
ARC
  5
279
100
AcDbEntity
  8
0
100
AcDbCircle
 62
7
  6
CONTINUOUS
 10
12.4523183383
 20
20.5353318604
 40
0.02
100
AcDbArc
 50
90.0
 51
180.0
  0
ARC
  5
27A
100
AcDbEntity
  8
0
100
AcDbCircle
 62
7
  6
CONTINUOUS
 10
12.4873183383
 20
20.5753318604
 40
0.02
100
AcDbArc
 50
270.0
 51
360.0
  0
ARC
  5
27B
100
AcDbEntity
  8
0
100
AcDbCircle
 62
7
  6
CONTINUOUS
 10
12.4123183383
 20
20.4953318604
 40
0.02
100
AcDbArc
 50
270.0
 51
360.0
  0
LINE
  5
27C
100
AcDbEntity
  8
0
100
AcDbLine
 62
7
  6
CONTINUOUS
 10
10.5758904775
 20
16.6311235929
 11
10.574926912
 21
16.6308360923
  0
SPLINE
  5
27D
100
AcDbEntity
  8
0
100
AcDbSpline
 62
7
  6
CONTINUOUS
 70
0
 71
3
 72
8
 73
4
 74
0
 42
0.0000001
 43
0.0000001
 44
0.0000000001
 40
0.0
 40
0.0
 40
0.0
 40
0.0
 40
1.0
 40
1.0
 40
1.0
 40
1.0
 10
10.574926912
 20
16.6308360923
 30
0.0
 10
10.5749235649
 20
16.6308339618
 30
0.0
 10
10.5749202177
 20
16.6308318312
 30
0.0
 10
10.5749168706
 20
16.6308297007
 30
0.0
  0
LINE
  5
27E
100
AcDbEntity
  8
0
100
AcDbLine
 62
7
  6
CONTINUOUS
 10
10.5749168706
 20
16.6308297007
 11
10.5748199539
 21
16.630701848
  0
SPLINE
  5
27F
100
AcDbEntity
  8
0
100
AcDbSpline
 62
7
  6
CONTINUOUS
 70
0
 71
3
 72
14
 73
10
 74
0
 42
0.0000001
 43
0.0000001
 44
0.0000000001
 40
0.0
 40
0.0
 40
0.0
 40
0.0
 40
0.1098905703
 40
0.2259587365
 40
0.3473269773
 40
0.4730707565
 40
0.6022172954
 40
0.7337868001
 40
1.0
 40
1.0
 40
1.0
 40
1.0
 10
11.2989774295
 20
-4.6046664446
 30
0.0
 10
11.2894262764
 20
-4.6051180049
 30
0.0
 10
11.2697856696
 20
-4.6060175297
 30
0.0
 10
11.2395926429
 20
-4.607333841
 30
0.0
 10
11.2080190076
 20
-4.6086517015
 30
0.0
 10
11.1753065003
 20
-4.609970885
 30
0.0
 10
11.1417060279
 20
-4.6112993967
 30
0.0
 10
11.0958916596
 20
-4.6130883038
 30
0.0
 10
11.0613052623
 20
-4.6144181714
 30
0.0
 10
11.0381589525
 20
-4.61531814
 30
0.0
  0
LINE
  5
280
100
AcDbEntity
  8
0
100
AcDbLine
 62
7
  6
CONTINUOUS
 10
11.4350062673
 20
-4.6053506661
 11
11.4322927097
 21
-4.6059426426
  0
SPLINE
  5
281
100
AcDbEntity
  8
0
100
AcDbSpline
 62
7
  6
CONTINUOUS
 70
0
 71
3
 72
23
 73
19
 74
0
 42
0.0000001
 43
0.0000001
 44
0.0000000001
 40
0.0
 40
0.0
 40
0.0
 40
0.0
 40
0.0065905589
 40
0.0152202053
 40
0.0258687813
 40
0.0385142358
 40
0.0531336839
 40
0.0697038155
 40
0.1085960809
 40
0.1548679212
 40
0.2080683508
 40
0.2677404001
 40
0.3334255381
 40
0.4045906434
 40
0.4805878278
 40
0.6444472901
 40
0.8195717087
 40
1.0
 40
1.0
 40
1.0
 40
1.0
 10
11.4322927097
 20
-4.6059426426
 30
0.0
 10
11.4314342876
 20
-4.6060582848
 30
0.0
 10
11.4294449941
 20
-4.6062732303
 30
0.0
 10
11.4260570855
 20
-4.6065587296
 30
0.0
 10
11.4218711661
 20
-4.6068462904
 30
0.0
 10
11.4168966737
 20
-4.6071355631
 30
0.0
 10
11.4111428381
 20
-4.6074257523
 30
0.0
 10
11.4019412941
 20
-4.6078357492
 30
0.0
 10
11.3885799054
 20
-4.608336167
 30
0.0
 10
11.3704041831
 20
-4.6089127546
 30
0.0
 10
11.3494963139
 20
-4.60949167
 30
0.0
 10
11.3260362095
 20
-4.6100723116
 30
0.0
 10
11.3002144306
 20
-4.6106536986
 30
0.0
 10
11.2722466032
 20
-4.6112354736
 30
0.0
 10
11.2313777498
 20
-4.6120322024
 30
0.0
 10
11.1768468787
 20
-4.6130124726
 30
0.0
 10
11.1085918706
 20
-4.6141633753
 30
0.0
 10
11.0618689666
 20
-4.6149288535
 30
0.0
 10
11.0381590397
 20
-4.6153181385
 30
0.0
  0
SPLINE
  5
282
100
AcDbEntity
  8
0
100
AcDbSpline
 62
9
  6
CONTINUOUS
 70
0
 71
3
 72
19
 73
15
 74
0
 42
0.0000001
 43
0.0000001
 44
0.0000000001
 40
0.0
 40
0.0
 40
0.0
 40
0.0
 40
0.1345107642
 40
0.201453418
 40
0.267971253
 40
0.3339101283
 40
0.3991702921
 40
0.4636828728
 40
0.5273680027
 40
0.590135598
 40
0.6519150323
 40
0.7723839052
 40
0.8885105925
 40
1.0
 40
1.0
 40
1.0
 40
1.0
 10
11.0473183383
 20
16.8753318954
 30
0.0
 10
11.0624762779
 20
16.8753329528
 30
0.0
 10
11.0851937523
 20
16.8763466917
 30
0.0
 10
11.1152172168
 20
16.8796387671
 30
0.0
 10
11.137435816
 20
16.8830423997
 30
0.0
 10
11.1593001758
 20
16.8873636517
 30
0.0
 10
11.180741378
 20
16.8925567105
 30
0.0
 10
11.2017055153
 20
16.8985597999
 30
0.0
 10
11.2221432444
 20
16.9053158308
 30
0.0
 10
11.2420086325
 20
16.9127689596
 30
0.0
 10
11.2674667991
 20
16.9234714534
 30
0.0
 10
11.2977109988
 20
16.9382399669
 30
0.0
 10
11.3316633273
 20
16.9579425345
 30
0.0
 10
11.352945663
 20
16.9722984753
 30
0.0
 10
11.3631284981
 20
16.9796575401
 30
0.0
  0
SPLINE
  5
283
100
AcDbEntity
  8
0
100
AcDbSpline
 62
9
  6
CONTINUOUS
 70
0
 71
3
 72
28
 73
24
 74
0
 42
0.0000001
 43
0.0000001
 44
0.0000000001
 40
0.0
 40
0.0
 40
0.0
 40
0.0
 40
0.1900203186
 40
0.2807627413
 40
0.3684041789
 40
0.4527309786
 40
0.5334285137
 40
0.6100338654
 40
0.6820522856
 40
0.7489611619
 40
0.8100436967
 40
0.8644041552
 40
0.9110428498
 40
0.9311339313
 40
0.9488970088
 40
0.9642031889
 40
0.9769232324
 40
0.9869332073
 40
0.9941542133
 40
0.9967009269
 40
0.9985289045
 40
0.9996309843
 40
1.0
 40
1.0
 40
1.0
 40
1.0
 10
11.3701794843
 20
16.9848342076
 30
0.0
 10
11.3811658636
 20
16.993027508
 30
0.0
 10
11.3969792872
 20
17.0057110402
 30
0.0
 10
11.4168397322
 20
17.0233670274
 30
0.0
 10
11.4305958403
 20
17.036402412
 30
0.0
 10
11.4434363634
 20
17.0493372304
 30
0.0
 10
11.4553517338
 20
17.0620580729
 30
0.0
 10
11.4663305121
 20
17.0744310085
 30
0.0
 10
11.4763529244
 20
17.0863160017
 30
0.0
 10
11.4853883806
 20
17.0975630263
 30
0.0
 10
11.493401107
 20
17.1079936094
 30
0.0
 10
11.5003432569
 20
17.1173999375
 30
0.0
 10
11.5054111748
 20
17.1245131716
 30
0.0
 10
11.5088928916
 20
17.1295146748
 30
0.0
 10
11.5110638527
 20
17.1326750459
 30
0.0
 10
11.5129185885
 20
17.1354075869
 30
0.0
 10
11.5144484677
 20
17.1376847463
 30
0.0
 10
11.5156472228
 20
17.1394818196
 30
0.0
 10
11.5164359582
 20
17.1406703881
 30
0.0
 10
11.5168964
 20
17.1413685586
 30
0.0
 10
11.5171140614
 20
17.1416981978
 30
0.0
 10
11.5172437562
 20
17.141897679
 30
0.0
 10
11.5173027808
 20
17.1419858663
 30
0.0
 10
11.5173169688
 20
17.1420083844
 30
0.0
  0
SPLINE
  5
284
100
AcDbEntity
  8
0
100
AcDbSpline
 62
9
  6
CONTINUOUS
 70
0
 71
3
 72
40
 73
36
 74
0
 42
0.0000001
 43
0.0000001
 44
0.0000000001
 40
0.0
 40
0.0
 40
0.0
 40
0.0
 40
0.0000231129
 40
0.0000923794
 40
0.0002076874
 40
0.0003689249
 40
0.0008287404
 40
0.0014709297
 40
0.0022945969
 40
0.0032988466
 40
0.0044827834
 40
0.0058455122
 40
0.0091037669
 40
0.0130664555
 40
0.0177264271
 40
0.0230764007
 40
0.0291050595
 40
0.0357964524
 40
0.0511027048
 40
0.068865967
 40
0.0889573844
 40
0.1112457724
 40
0.1355973284
 40
0.1618788221
 40
0.1899587812
 40
0.2197172089
 40
0.2510418354
 40
0.3179504629
 40
0.3899690503
 40
0.4665747188
 40
0.547272414
 40
0.6315989653
 40
0.7192397996
 40
0.8099814075
 40
1.0
 40
1.0
 40
1.0
 40
1.0
 10
10.5773197104
 20
17.1420083767
 30
0.0
 10
10.5773191333
 20
17.1420099408
 30
0.0
 10
10.5773264022
 20
17.1419971608
 30
0.0
 10
10.5773311064
 20
17.1419915714
 30
0.0
 10
10.5773467421
 20
17.1419667713
 30
0.0
 10
10.577374642
 20
17.1419247239
 30
0.0
 10
10.5774254956
 20
17.1418467548
 30
0.0
 10
10.577501305
 20
17.1417315009
 30
0.0
 10
10.5775993632
 20
17.141582303
 30
0.0
 10
10.5777187862
 20
17.141400986
 30
0.0
 10
10.5778598194
 20
17.141187131
 30
0.0
 10
10.5780905722
 20
17.1408377689
 30
0.0
 10
10.5784323624
 20
17.140321505
 30
0.0
 10
10.5789064152
 20
17.1396075981
 30
0.0
 10
10.5794651101
 20
17.1387687798
 30
0.0
 10
10.5801077344
 20
17.1378068198
 30
0.0
 10
10.580833508
 20
17.1367241932
 30
0.0
 10
10.5819626282
 20
17.135047381
 30
0.0
 10
10.5835732734
 20
17.1326743978
 30
0.0
 10
10.5857444351
 20
17.1295137684
 30
0.0
 10
10.5882229597
 20
17.1259533701
 30
0.0
 10
10.5910002738
 20
17.1220220754
 30
0.0
 10
10.5940682082
 20
17.1177495968
 30
0.0
 10
10.5974183361
 20
17.1131656894
 30
0.0
 10
10.6010428216
 20
17.1082995333
 30
0.0
 10
10.6049342925
 20
17.1031790048
 30
0.0
 10
10.6105953074
 20
17.0958861401
 30
0.0
 10
10.6182872569
 20
17.0863118449
 30
0.0
 10
10.628310479
 20
17.07442604
 30
0.0
 10
10.6392902405
 20
17.062052255
 30
0.0
 10
10.6512066522
 20
17.0493305904
 30
0.0
 10
10.6640482927
 20
17.0363950373
 30
0.0
 10
10.6778055774
 20
17.0233590173
 30
0.0
 10
10.6976677106
 20
17.0057022915
 30
0.0
 10
10.7134824934
 20
16.9930183304
 30
0.0
 10
10.7244698154
 20
16.9848247955
 30
0.0
  0
SPLINE
  5
285
100
AcDbEntity
  8
0
100
AcDbSpline
 62
9
  6
CONTINUOUS
 70
0
 71
3
 72
19
 73
15
 74
0
 42
0.0000001
 43
0.0000001
 44
0.0000000001
 40
0.0
 40
0.0
 40
0.0
 40
0.0
 40
0.1114929392
 40
0.2276222333
 40
0.3480927847
 40
0.4098727977
 40
0.4726408064
 40
0.5363260657
 40
0.6008384131
 40
0.6660979001
 40
0.7320355685
 40
0.7985516964
 40
0.8654924324
 40
1.0
 40
1.0
 40
1.0
 40
1.0
 10
10.7315431009
 20
16.9796323097
 30
0.0
 10
10.7417255081
 20
16.9722747063
 30
0.0
 10
10.7630067329
 20
16.9579217356
 30
0.0
 10
10.7969568031
 20
16.9382234949
 30
0.0
 10
10.8271985219
 20
16.9234584379
 30
0.0
 10
10.8526543069
 20
16.9127585842
 30
0.0
 10
10.872517658
 20
16.905307366
 30
0.0
 10
10.8929531204
 20
16.8985531102
 30
0.0
 10
10.9139147401
 20
16.8925516466
 30
0.0
 10
10.9353531553
 20
16.8873600424
 30
0.0
 10
10.9572144559
 20
16.8830400535
 30
0.0
 10
10.9794297615
 20
16.8796374451
 30
0.0
 10
11.0094486916
 20
16.8763463848
 30
0.0
 10
11.0321626901
 20
16.8753329846
 30
0.0
 10
11.0473183383
 20
16.8753319103
 30
0.0
  0
SPLINE
  5
286
100
AcDbEntity
  8
0
100
AcDbSpline
 62
9
  6
CONTINUOUS
 70
0
 71
3
 72
40
 73
36
 74
0
 42
0.0000001
 43
0.0000001
 44
0.0000000001
 40
0.0
 40
0.0
 40
0.0
 40
0.0
 40
0.0000231059
 40
0.0000923523
 40
0.0002076272
 40
0.0003688186
 40
0.0008285036
 40
0.001470512
 40
0.0022939488
 40
0.0032979195
 40
0.0044815295
 40
0.0058438846
 40
0.0091012548
 40
0.0130628818
 40
0.0177216219
 40
0.0230702052
 40
0.0290973593
 40
0.035787154
 40
0.051089988
 40
0.068849631
 40
0.0889373463
 40
0.111222094
 40
0.135570205
 40
0.1618485767
 40
0.1899258308
 40
0.2196819759
 40
0.2510048252
 40
0.317911591
 40
0.3899298058
 40
0.4665367455
 40
0.5472377233
 40
0.6315695104
 40
0.719216494
 40
0.8099650936
 40
1.0
 40
1.0
 40
1.0
 40
1.0
 10
11.5173169686
 20
7.3586553623
 30
0.0
 10
11.5173175383
 20
7.3586537979
 30
0.0
 10
11.5173102951
 20
7.358666567
 30
0.0
 10
11.5173055816
 20
7.3586721433
 30
0.0
 10
11.5172899751
 20
7.3586969142
 30
0.0
 10
11.5172621064
 20
7.3587389046
 30
0.0
 10
11.5172113232
 20
7.3588167734
 30
0.0
 10
11.517135611
 20
7.3589318763
 30
0.0
 10
11.5170376816
 20
7.3590808803
 30
0.0
 10
11.516918414
 20
7.3592619616
 30
0.0
 10
11.5167775647
 20
7.3594755393
 30
0.0
 10
11.5165471121
 20
7.3598244494
 30
0.0
 10
11.5162057661
 20
7.360340047
 30
0.0
 10
11.5157323287
 20
7.3610530351
 30
0.0
 10
11.515174358
 20
7.3618907775
 30
0.0
 10
11.5145325633
 20
7.3628515104
 30
0.0
 10
11.5138077243
 20
7.3639327679
 30
0.0
 10
11.5126800456
 20
7.3656074902
 30
0.0
 10
11.5110714434
 20
7.367977561
 30
0.0
 10
11.5089030226
 20
7.3711343736
 30
0.0
 10
11.5064276003
 20
7.3746905598
 30
0.0
 10
11.5036537376
 20
7.37861731
 30
0.0
 10
11.5005895856
 20
7.3828849722
 30
0.0
 10
11.4972435552
 20
7.38746385
 30
0.0
 10
11.493623472
 20
7.3923248138
 30
0.0
 10
11.4897366961
 20
7.3974400313
 30
0.0
 10
11.4840824161
 20
7.4047256231
 30
0.0
 10
11.4763996075
 20
7.4142907662
 30
0.0
 10
11.4663883038
 20
7.426165714
 30
0.0
 10
11.4554215847
 20
7.4385288362
 30
0.0
 10
11.4435193276
 20
7.4512402767
 30
0.0
 10
11.4306930064
 20
7.4641662353
 30
0.0
 10
11.416952163
 20
7.4771933236
 30
0.0
 10
11.3971138485
 20
7.4948390933
 30
0.0
 10
11.3813183103
 20
7.5075165022
 30
0.0
 10
11.3703443915
 20
7.5157065126
 30
0.0
  0
SPLINE
  5
287
100
AcDbEntity
  8
0
100
AcDbSpline
 62
9
  6
CONTINUOUS
 70
0
 71
3
 72
16
 73
12
 74
0
 42
0.0000001
 43
0.0000001
 44
0.0000000001
 40
0.0
 40
0.0
 40
0.0
 40
0.0
 40
0.1108600061
 40
0.2265712935
 40
0.346839812
 40
0.4085879524
 40
0.4713675989
 40
0.7309955364
 40
0.7977382733
 40
0.8649353779
 40
1.0
 40
1.0
 40
1.0
 40
1.0
 10
11.3703443915
 20
7.5157065126
 30
0.0
 10
11.3600704918
 20
7.5233740875
 30
0.0
 10
11.3385509932
 20
7.5383595561
 30
0.0
 10
11.3041134871
 20
7.5589810693
 30
0.0
 10
11.2733322157
 20
7.5744820877
 30
0.0
 10
11.2473526289
 20
7.5857443607
 30
0.0
 10
11.2059205779
 20
7.6017733441
 30
0.0
 10
11.1622223249
 20
7.6136660669
 30
0.0
 10
11.1172618196
 20
7.6207620996
 30
0.0
 10
11.0863428883
 20
7.6242550319
 30
0.0
 10
11.0629370276
 20
7.6253307864
 30
0.0
 10
11.0473183383
 20
7.6253318537
 30
0.0
  0
SPLINE
  5
288
100
AcDbEntity
  8
0
100
AcDbSpline
 62
9
  6
CONTINUOUS
 70
0
 71
3
 72
16
 73
12
 74
0
 42
0.0000001
 43
0.0000001
 44
0.0000000001
 40
0.0
 40
0.0
 40
0.0
 40
0.0
 40
0.1350678677
 40
0.2022660273
 40
0.2690094495
 40
0.5286373096
 40
0.591416555
 40
0.6531642428
 40
0.7734316793
 40
0.8891416055
 40
1.0
 40
1.0
 40
1.0
 40
1.0
 10
11.0473183383
 20
7.6253318255
 30
0.0
 10
11.0316986075
 20
7.6253306788
 30
0.0
 10
11.0082912548
 20
7.6242547719
 30
0.0
 10
10.9773704488
 20
7.6207614652
 30
0.0
 10
10.9324078857
 20
7.6136647784
 30
0.0
 10
10.8887078895
 20
7.6017708882
 30
0.0
 10
10.8472744823
 20
7.5857404597
 30
0.0
 10
10.8212942178
 20
7.5744772757
 30
0.0
 10
10.7905122601
 20
7.5589750936
 30
0.0
 10
10.756074162
 20
7.5383521471
 30
0.0
 10
10.7345543978
 20
7.5233657029
 30
0.0
 10
10.7242804061
 20
7.5156976487
 30
0.0
  0
SPLINE
  5
289
100
AcDbEntity
  8
0
100
AcDbSpline
 62
9
  6
CONTINUOUS
 70
0
 71
3
 72
28
 73
24
 74
0
 42
0.0000001
 43
0.0000001
 44
0.0000000001
 40
0.0
 40
0.0
 40
0.0
 40
0.0
 40
0.1900365281
 40
0.2807858576
 40
0.3684333933
 40
0.4527654565
 40
0.5334663878
 40
0.6100731414
 40
0.6820912574
 40
0.748998206
 40
0.8100765714
 40
0.8644312525
 40
0.9110630128
 40
0.9311504317
 40
0.9489098898
 40
0.9642126262
 40
0.9769295324
 40
0.9869368559
 40
0.994155892
 40
0.9967018937
 40
0.9985293501
 40
0.9996311054
 40
1.0
 40
1.0
 40
1.0
 40
1.0
 10
10.7242804061
 20
7.5156976487
 30
0.0
 10
10.7133073753
 20
7.5075078627
 30
0.0
 10
10.6975131177
 20
7.4948308667
 30
0.0
 10
10.677676394
 20
7.4771858036
 30
0.0
 10
10.6639366597
 20
7.4641593178
 30
0.0
 10
10.6511113881
 20
7.451234044
 30
0.0
 10
10.6392101057
 20
7.4385233605
 30
0.0
 10
10.6282443065
 20
7.4261610205
 30
0.0
 10
10.6182337608
 20
7.4142868302
 30
0.0
 10
10.6092090706
 20
7.4030506133
 30
0.0
 10
10.6012059312
 20
7.3926306518
 30
0.0
 10
10.5942721948
 20
7.3832344368
 30
0.0
 10
10.5892104552
 20
7.3761291806
 30
0.0
 10
10.5857330335
 20
7.3711335036
 30
0.0
 10
10.5835648026
 20
7.3679769357
 30
0.0
 10
10.5817124194
 20
7.3652477542
 30
0.0
 10
10.5801844996
 20
7.3629734485
 30
0.0
 10
10.5789872801
 20
7.3611786692
 30
0.0
 10
10.5781995796
 20
7.3599916204
 30
0.0
 10
10.5777397184
 20
7.359294364
 30
0.0
 10
10.5775223708
 20
7.3589651354
 30
0.0
 10
10.577392794
 20
7.3587659489
 30
0.0
 10
10.577333902
 20
7.3586778437
 30
0.0
 10
10.5773197106
 20
7.3586553701
 30
0.0
  0
SPLINE
  5
28A
100
AcDbEntity
  8
0
100
AcDbSpline
 62
9
  6
CONTINUOUS
 70
0
 71
3
 72
19
 73
15
 74
0
 42
0.0000001
 43
0.0000001
 44
0.0000000001
 40
0.0
 40
0.0
 40
0.0
 40
0.0
 40
0.1345107642
 40
0.201453418
 40
0.267971253
 40
0.3339101283
 40
0.3991702921
 40
0.4636828728
 40
0.5273680027
 40
0.590135598
 40
0.6519150323
 40
0.7723839052
 40
0.8885105925
 40
1.0
 40
1.0
 40
1.0
 40
1.0
 10
11.0473183383
 20
6.3053318954
 30
0.0
 10
11.0624762779
 20
6.3053329528
 30
0.0
 10
11.0851937523
 20
6.3063466917
 30
0.0
 10
11.1152172168
 20
6.3096387671
 30
0.0
 10
11.137435816
 20
6.3130423997
 30
0.0
 10
11.1593001758
 20
6.3173636517
 30
0.0
 10
11.180741378
 20
6.3225567105
 30
0.0
 10
11.2017055153
 20
6.3285597999
 30
0.0
 10
11.2221432444
 20
6.3353158308
 30
0.0
 10
11.2420086325
 20
6.3427689596
 30
0.0
 10
11.2674667991
 20
6.3534714534
 30
0.0
 10
11.2977109988
 20
6.3682399669
 30
0.0
 10
11.3316633273
 20
6.3879425345
 30
0.0
 10
11.352945663
 20
6.4022984753
 30
0.0
 10
11.3631284981
 20
6.4096575401
 30
0.0
  0
SPLINE
  5
28B
100
AcDbEntity
  8
0
100
AcDbSpline
 62
9
  6
CONTINUOUS
 70
0
 71
3
 72
28
 73
24
 74
0
 42
0.0000001
 43
0.0000001
 44
0.0000000001
 40
0.0
 40
0.0
 40
0.0
 40
0.0
 40
0.1900203186
 40
0.2807627413
 40
0.3684041789
 40
0.4527309786
 40
0.5334285137
 40
0.6100338654
 40
0.6820522856
 40
0.7489611619
 40
0.8100436967
 40
0.8644041552
 40
0.9110428498
 40
0.9311339313
 40
0.9488970088
 40
0.9642031889
 40
0.9769232324
 40
0.9869332073
 40
0.9941542133
 40
0.9967009269
 40
0.9985289045
 40
0.9996309843
 40
1.0
 40
1.0
 40
1.0
 40
1.0
 10
11.3701794843
 20
6.4148342076
 30
0.0
 10
11.3811658636
 20
6.423027508
 30
0.0
 10
11.3969792872
 20
6.4357110402
 30
0.0
 10
11.4168397322
 20
6.4533670274
 30
0.0
 10
11.4305958403
 20
6.466402412
 30
0.0
 10
11.4434363634
 20
6.4793372304
 30
0.0
 10
11.4553517338
 20
6.4920580729
 30
0.0
 10
11.4663305121
 20
6.5044310085
 30
0.0
 10
11.4763529244
 20
6.5163160017
 30
0.0
 10
11.4853883806
 20
6.5275630263
 30
0.0
 10
11.493401107
 20
6.5379936094
 30
0.0
 10
11.5003432569
 20
6.5473999375
 30
0.0
 10
11.5054111748
 20
6.5545131716
 30
0.0
 10
11.5088928916
 20
6.5595146748
 30
0.0
 10
11.5110638527
 20
6.5626750459
 30
0.0
 10
11.5129185885
 20
6.5654075869
 30
0.0
 10
11.5144484677
 20
6.5676847463
 30
0.0
 10
11.5156472228
 20
6.5694818196
 30
0.0
 10
11.5164359582
 20
6.5706703881
 30
0.0
 10
11.5168964
 20
6.5713685586
 30
0.0
 10
11.5171140614
 20
6.5716981978
 30
0.0
 10
11.5172437562
 20
6.571897679
 30
0.0
 10
11.5173027808
 20
6.5719858663
 30
0.0
 10
11.5173169688
 20
6.5720083844
 30
0.0
  0
SPLINE
  5
28C
100
AcDbEntity
  8
0
100
AcDbSpline
 62
9
  6
CONTINUOUS
 70
0
 71
3
 72
40
 73
36
 74
0
 42
0.0000001
 43
0.0000001
 44
0.0000000001
 40
0.0
 40
0.0
 40
0.0
 40
0.0
 40
0.0000231129
 40
0.0000923794
 40
0.0002076874
 40
0.0003689249
 40
0.0008287404
 40
0.0014709297
 40
0.0022945969
 40
0.0032988466
 40
0.0044827834
 40
0.0058455122
 40
0.0091037669
 40
0.0130664555
 40
0.0177264271
 40
0.0230764007
 40
0.0291050595
 40
0.0357964524
 40
0.0511027048
 40
0.068865967
 40
0.0889573844
 40
0.1112457724
 40
0.1355973284
 40
0.1618788221
 40
0.1899587812
 40
0.2197172089
 40
0.2510418354
 40
0.3179504629
 40
0.3899690503
 40
0.4665747188
 40
0.547272414
 40
0.6315989653
 40
0.7192397996
 40
0.8099814075
 40
1.0
 40
1.0
 40
1.0
 40
1.0
 10
10.5773197104
 20
6.5720083767
 30
0.0
 10
10.5773191333
 20
6.5720099408
 30
0.0
 10
10.5773264022
 20
6.5719971608
 30
0.0
 10
10.5773311064
 20
6.5719915714
 30
0.0
 10
10.5773467421
 20
6.5719667713
 30
0.0
 10
10.577374642
 20
6.5719247239
 30
0.0
 10
10.5774254956
 20
6.5718467548
 30
0.0
 10
10.577501305
 20
6.5717315009
 30
0.0
 10
10.5775993632
 20
6.571582303
 30
0.0
 10
10.5777187862
 20
6.571400986
 30
0.0
 10
10.5778598194
 20
6.571187131
 30
0.0
 10
10.5780905722
 20
6.5708377689
 30
0.0
 10
10.5784323624
 20
6.570321505
 30
0.0
 10
10.5789064152
 20
6.5696075981
 30
0.0
 10
10.5794651101
 20
6.5687687798
 30
0.0
 10
10.5801077344
 20
6.5678068198
 30
0.0
 10
10.580833508
 20
6.5667241932
 30
0.0
 10
10.5819626282
 20
6.565047381
 30
0.0
 10
10.5835732734
 20
6.5626743978
 30
0.0
 10
10.5857444351
 20
6.5595137684
 30
0.0
 10
10.5882229597
 20
6.5559533701
 30
0.0
 10
10.5910002738
 20
6.5520220754
 30
0.0
 10
10.5940682082
 20
6.5477495968
 30
0.0
 10
10.5974183361
 20
6.5431656894
 30
0.0
 10
10.6010428216
 20
6.5382995333
 30
0.0
 10
10.6049342925
 20
6.5331790048
 30
0.0
 10
10.6105953074
 20
6.5258861401
 30
0.0
 10
10.6182872569
 20
6.5163118449
 30
0.0
 10
10.628310479
 20
6.50442604
 30
0.0
 10
10.6392902405
 20
6.492052255
 30
0.0
 10
10.6512066522
 20
6.4793305904
 30
0.0
 10
10.6640482927
 20
6.4663950373
 30
0.0
 10
10.6778055774
 20
6.4533590173
 30
0.0
 10
10.6976677106
 20
6.4357022915
 30
0.0
 10
10.7134824934
 20
6.4230183304
 30
0.0
 10
10.7244698154
 20
6.4148247955
 30
0.0
  0
SPLINE
  5
28D
100
AcDbEntity
  8
0
100
AcDbSpline
 62
9
  6
CONTINUOUS
 70
0
 71
3
 72
19
 73
15
 74
0
 42
0.0000001
 43
0.0000001
 44
0.0000000001
 40
0.0
 40
0.0
 40
0.0
 40
0.0
 40
0.1114929392
 40
0.2276222333
 40
0.3480927847
 40
0.4098727977
 40
0.4726408064
 40
0.5363260657
 40
0.6008384131
 40
0.6660979001
 40
0.7320355685
 40
0.7985516964
 40
0.8654924324
 40
1.0
 40
1.0
 40
1.0
 40
1.0
 10
10.7315431009
 20
6.4096323097
 30
0.0
 10
10.7417255081
 20
6.4022747063
 30
0.0
 10
10.7630067329
 20
6.3879217356
 30
0.0
 10
10.7969568031
 20
6.3682234949
 30
0.0
 10
10.8271985219
 20
6.3534584379
 30
0.0
 10
10.8526543069
 20
6.3427585842
 30
0.0
 10
10.872517658
 20
6.335307366
 30
0.0
 10
10.8929531204
 20
6.3285531102
 30
0.0
 10
10.9139147401
 20
6.3225516466
 30
0.0
 10
10.9353531553
 20
6.3173600424
 30
0.0
 10
10.9572144559
 20
6.3130400535
 30
0.0
 10
10.9794297615
 20
6.3096374451
 30
0.0
 10
11.0094486916
 20
6.3063463848
 30
0.0
 10
11.0321626901
 20
6.3053329846
 30
0.0
 10
11.0473183383
 20
6.3053319103
 30
0.0
  0
SPLINE
  5
28E
100
AcDbEntity
  8
0
100
AcDbSpline
 62
7
  6
CONTINUOUS
 70
0
 71
3
 72
33
 73
29
 74
0
 42
0.0000001
 43
0.0000001
 44
0.0000000001
 40
0.0
 40
0.0
 40
0.0
 40
0.0
 40
0.0004569367
 40
0.0010488061
 40
0.0026506822
 40
0.0048196599
 40
0.0075593256
 40
0.0108704246
 40
0.014752533
 40
0.0192046602
 40
0.0242255076
 40
0.0359672682
 40
0.0499649154
 40
0.0662026894
 40
0.0846394066
 40
0.1052157982
 40
0.1278720487
 40
0.1525482404
 40
0.1791843888
 40
0.2380963797
 40
0.304119999
 40
0.3766254178
 40
0.4548561459
 40
0.5380511183
 40
0.6254487188
 40
0.7162404324
 40
0.8095319124
 40
1.0
 40
1.0
 40
1.0
 40
1.0
 10
11.434999991
 20
-4.6053450133
 30
0.0
 10
11.4349476225
 20
-4.6053752633
 30
0.0
 10
11.43482066
 20
-4.6054327256
 30
0.0
 10
11.434488419
 20
-4.6055459354
 30
0.0
 10
11.4339254309
 20
-4.6056788553
 30
0.0
 10
11.4330771568
 20
-4.6058302954
 30
0.0
 10
11.43199972
 20
-4.6059827521
 30
0.0
 10
11.4306940299
 20
-4.6061363976
 30
0.0
 10
11.4291603823
 20
-4.6062905447
 30
0.0
 10
11.4273995237
 20
-4.6064451261
 30
0.0
 10
11.4246001045
 20
-4.6066631104
 30
0.0
 10
11.420537495
 20
-4.6069301282
 30
0.0
 10
11.4149901163
 20
-4.6072378437
 30
0.0
 10
11.408555496
 20
-4.6075462082
 30
0.0
 10
11.4012493226
 20
-4.607855258
 30
0.0
 10
11.3930929849
 20
-4.608164858
 30
0.0
 10
11.3841103071
 20
-4.6084748466
 30
0.0
 10
11.3743251706
 20
-4.6087851408
 30
0.0
 10
11.3597428163
 20
-4.6092136846
 30
0.0
 10
11.3396886271
 20
-4.6097433517
 30
0.0
 10
11.3135637687
 20
-4.6103604998
 30
0.0
 10
11.2848813679
 20
-4.6109783595
 30
0.0
 10
11.2539258079
 20
-4.6115972537
 30
0.0
 10
11.220998852
 20
-4.6122168066
 30
0.0
 10
11.1864091266
 20
-4.6128366828
 30
0.0
 10
11.1504828828
 20
-4.6134565927
 30
0.0
 10
11.1009164856
 20
-4.6142892238
 30
0.0
 10
11.0633647861
 20
-4.6149042941
 30
0.0
 10
11.0381589554
 20
-4.6153181398
 30
0.0
  0
SPLINE
  5
28F
100
AcDbEntity
  8
0
100
AcDbSpline
 62
9
  6
CONTINUOUS
 70
0
 71
3
 72
43
 73
39
 74
0
 42
0.0000001
 43
0.0000001
 44
0.0000000001
 40
0.0
 40
0.0
 40
0.0
 40
0.0
 40
0.0292093944
 40
0.058421797
 40
0.0877654917
 40
0.1173950528
 40
0.147501174
 40
0.1782932858
 40
0.20997759
 40
0.242698695
 40
0.2763672708
 40
0.2934274633
 40
0.310525189
 40
0.3275640555
 40
0.3444550173
 40
0.3611358358
 40
0.3775692791
 40
0.4096475831
 40
0.4407585859
 40
0.4710991481
 40
0.500891508
 40
0.5595505716
 40
0.588742071
 40
0.6180023241
 40
0.6474426356
 40
0.6771565996
 40
0.7072264482
 40
0.7377247217
 40
0.7687131784
 40
0.8002399389
 40
0.8323336043
 40
0.8649949475
 40
0.8981889703
 40
0.9318383923
 40
0.9488014069
 40
0.9658301268
 40
0.9829053062
 40
1.0
 40
1.0
 40
1.0
 40
1.0
 10
10.5663602068
 20
17.134713001
 30
0.0
 10
10.5584287968
 20
17.1460359218
 30
0.0
 10
10.5432775676
 20
17.1691914336
 30
0.0
 10
10.522732583
 20
17.2053219907
 30
0.0
 10
10.5043449233
 20
17.2428194593
 30
0.0
 10
10.4881037939
 20
17.2817540521
 30
0.0
 10
10.4740559945
 20
17.3222601358
 30
0.0
 10
10.4622734559
 20
17.3644934052
 30
0.0
 10
10.4528841137
 20
17.4085908389
 30
0.0
 10
10.4461513517
 20
17.4545500166
 30
0.0
 10
10.4430209404
 20
17.4939533367
 30
0.0
 10
10.4420578922
 20
17.5260450867
 30
0.0
 10
10.4421403498
 20
17.5502806464
 30
0.0
 10
10.4430469337
 20
17.5744190281
 30
0.0
 10
10.4447566719
 20
17.5983158334
 30
0.0
 10
10.4472280056
 20
17.6218577806
 30
0.0
 10
10.4514409075
 20
17.6524280753
 30
0.0
 10
10.4583783794
 20
17.6894972374
 30
0.0
 10
10.4692672314
 20
17.7324323173
 30
0.0
 10
10.4824722112
 20
17.7735793812
 30
0.0
 10
10.5028913039
 20
17.8259898342
 30
0.0
 10
10.5277870343
 20
17.8759802268
 30
0.0
 10
10.5570506017
 20
17.9230860167
 30
0.0
 10
10.5812031548
 20
17.9569905535
 30
0.0
 10
10.6076205089
 20
17.9894798617
 30
0.0
 10
10.6363627677
 20
18.0204598375
 30
0.0
 10
10.6674833843
 20
18.0497879112
 30
0.0
 10
10.7010305678
 20
18.0772730508
 30
0.0
 10
10.7370358849
 20
18.1026709613
 30
0.0
 10
10.7754876528
 20
18.1256998261
 30
0.0
 10
10.8163136315
 20
18.1460478368
 30
0.0
 10
10.8593679587
 20
18.1633723724
 30
0.0
 10
10.9044012035
 20
18.1773312429
 30
0.0
 10
10.9431865387
 20
18.1858794528
 30
0.0
 10
10.9748328113
 20
18.1907687092
 30
0.0
 10
10.9988646286
 20
18.1934214509
 30
0.0
 10
11.0230531779
 20
18.1949907533
 30
0.0
 10
11.0392276202
 20
18.1953302798
 30
0.0
 10
11.0473183383
 20
18.1953312484
 30
0.0
  0
LINE
  5
290
100
AcDbEntity
  8
0
100
AcDbLine
 62
7
  6
CONTINUOUS
 10
10.5748183383
 20
16.6307108442
 11
10.574885386
 21
16.6308303146
  0
LINE
  5
291
100
AcDbEntity
  8
0
100
AcDbLine
 62
7
  6
CONTINUOUS
 10
10.574885386
 20
16.6308303146
 11
10.5756098182
 21
16.6311226328
  0
SPLINE
  5
292
100
AcDbEntity
  8
0
100
AcDbSpline
 62
9
  6
CONTINUOUS
 70
0
 71
3
 72
45
 73
41
 74
0
 42
0.0000001
 43
0.0000001
 44
0.0000000001
 40
0.0
 40
0.0
 40
0.0
 40
0.0
 40
0.01709416
 40
0.0341689471
 40
0.0511971608
 40
0.0681595962
 40
0.1018079624
 40
0.1350009384
 40
0.1676616971
 40
0.1997548189
 40
0.231280741
 40
0.2622671438
 40
0.2927621558
 40
0.3228284623
 40
0.3525403054
 40
0.3819816245
 40
0.4112462658
 40
0.4404418002
 40
0.4696878253
 40
0.499119174
 40
0.528906581
 40
0.5592494019
 40
0.5903592036
 40
0.6224304467
 40
0.6388633512
 40
0.655547913
 40
0.6724415507
 40
0.6894790963
 40
0.7065762461
 40
0.7236367103
 40
0.7572977579
 40
0.7737904313
 40
0.7900229801
 40
0.8217118824
 40
0.8525007862
 40
0.8826046929
 40
0.9122399371
 40
0.9415877237
 40
0.9707972782
 40
1.0
 40
1.0
 40
1.0
 40
1.0
 10
11.0473183383
 20
18.1953312484
 30
0.0
 10
11.0554090294
 20
18.1953302537
 30
0.0
 10
11.0715834712
 20
18.1949878082
 30
0.0
 10
11.095771733
 20
18.1934156299
 30
0.0
 10
11.1198039334
 20
18.1907671992
 30
0.0
 10
11.1514511699
 20
18.1858850103
 30
0.0
 10
11.1902380315
 20
18.1773434565
 30
0.0
 10
11.2352698666
 20
18.1633783052
 30
0.0
 10
11.2783179778
 20
18.1460376806
 30
0.0
 10
11.3191406768
 20
18.1256828864
 30
0.0
 10
11.3575917596
 20
18.1026541658
 30
0.0
 10
11.3936039261
 20
18.0772694188
 30
0.0
 10
11.4271615389
 20
18.0498017792
 30
0.0
 10
11.4582919216
 20
18.0204882037
 30
0.0
 10
11.4870373528
 20
17.9895122731
 30
0.0
 10
11.5134479543
 20
17.9570129195
 30
0.0
 10
11.5375826832
 20
17.9230906694
 30
0.0
 10
11.5594857346
 20
17.8877961089
 30
0.0
 10
11.5791974835
 20
17.8511441789
 30
0.0
 10
11.5967678234
 20
17.8131103634
 30
0.0
 10
11.6121749419
 20
17.7735914143
 30
0.0
 10
11.6253658957
 20
17.7324424315
 30
0.0
 10
11.6362528062
 20
17.6895085273
 30
0.0
 10
11.6432058213
 20
17.6524456009
 30
0.0
 10
11.6474191867
 20
17.6218760868
 30
0.0
 10
11.6498739836
 20
17.5983288385
 30
0.0
 10
11.6515691939
 20
17.5744280411
 30
0.0
 10
11.6524805716
 20
17.5502891124
 30
0.0
 10
11.6525895285
 20
17.5260537457
 30
0.0
 10
11.651641347
 20
17.4939642575
 30
0.0
 10
11.6490868235
 20
17.4622261539
 30
0.0
 10
11.6450314559
 20
17.4310639895
 30
0.0
 10
11.6401230213
 20
17.4009696853
 30
0.0
 10
11.632371794
 20
17.3645034825
 30
0.0
 10
11.6205790359
 20
17.3222724195
 30
0.0
 10
11.6065226071
 20
17.2817682721
 30
0.0
 10
11.590298413
 20
17.2428218978
 30
0.0
 10
11.5719234305
 20
17.2053128367
 30
0.0
 10
11.5513731269
 20
17.1691863665
 30
0.0
 10
11.5362103657
 20
17.1460427342
 30
0.0
 10
11.528274318
 20
17.1347264495
 30
0.0
  0
ENDSEC
  0
SECTION
  2
OBJECTS
  0
DICTIONARY
  5
C
100
AcDbDictionary
280
0
281
1
  3
ACAD_GROUP
350
D
  3
ACAD_MLINESTYLE
350
17
  3
ACAD_LAYOUT
350
1A
  3
ACAD_PLOTSETTINGS
350
19
  3
ACAD_PLOTSTYLENAME
350
E
  0
DICTIONARY
  5
D
102
{ACAD_REACTORS
330
C
102
}
100
AcDbDictionary
280
0
281
1
  0
ACDBDICTIONARYWDFLT
  5
E
102
{ACAD_REACTORS
330
C
102
}
100
AcDbDictionary
281
1
  3
Normal
350
F
100
AcDbDictionaryWithDefault
340
F
  0
DICTIONARY
  5
17
102
{ACAD_REACTORS
330
C
102
}
100
AcDbDictionary
280
0
281
1
  3
Standard
350
18
  0
DICTIONARY
  5
19
102
{ACAD_REACTORS
330
C
102
}
100
AcDbDictionary
281
1
  0
DICTIONARY
  5
1A
102
{ACAD_REACTORS
330
C
102
}
100
AcDbDictionary
281
1
  3
Model
350
293
  3
Layout1
350
294
  0
ACDBPLACEHOLDER
  5
F
102
{ACAD_REACTORS
330
E
102
}
  0
MLINESTYLE
  5
18
102
{ACAD_REACTORS
330
17
102
}
100
AcDbMlineStyle
  2
STANDARD
 70
0
  3

 62
256
 51
90.0
 52
90.0
 71
2
 49
0.5
 62
256
  6
BYLAYER
 49
-0.5
 62
256
  6
BYLAYER
  0
LAYOUT
  5
293
102
{ACAD_REACTORS
330
1A
102
}
100
AcDbPlotSettings
  1

  2
none_device
  4
ANSI_C_(22.00_x_17.00_Inches)
  6

 40
0.0
 41
0.0
 42
0.0
 43
0.0
 44
558.8
 45
431.8
 46
0.0
 47
0.0
 48
0.0
 49
0.0
140
0.0
141
0.0
142
1.0
143
1.0
 70
1024
 72
0
 73
0
 74
0
  7

 75
0
147
1.0
148
0.0
149
0.0
100
AcDbLayout
  1
Model
 70
0
 71
0
 10
0.0
 20
0.0
 11
22.0
 21
17.0
 12
0.0
 22
0.0
 32
0.0
 14
0.0
 24
0.0
 34
0.0
 15
0.0
 25
0.0
 35
0.0
146
0.0
 13
0.0
 23
0.0
 33
0.0
 16
1.0
 26
0.0
 36
0.0
 17
0.0
 27
1.0
 37
0.0
 76
0
330
202
345
0
346
0
  0
LAYOUT
  5
294
102
{ACAD_REACTORS
330
1A
102
}
100
AcDbPlotSettings
  1

  2
none_device
  4
ANSI_C_(22.00_x_17.00_Inches)
  6

 40
0.0
 41
0.0
 42
0.0
 43
0.0
 44
558.8
 45
431.8
 46
0.0
 47
0.0
 48
0.0
 49
0.0
140
0.0
141
0.0
142
1.0
143
1.0
 70
0
 72
0
 73
0
 74
0
  7

 75
0
147
1.0
148
0.0
149
0.0
100
AcDbLayout
  1
Layout1
 70
0
 71
1
 10
0.0
 20
0.0
 11
22.0
 21
17.0
 12
0.0
 22
0.0
 32
0.0
 14
0.0
 24
0.0
 34
0.0
 15
0.0
 25
0.0
 35
0.0
146
0.0
 13
0.0
 23
0.0
 33
0.0
 16
1.0
 26
0.0
 36
0.0
 17
0.0
 27
1.0
 37
0.0
 76
0
330
203
345
0
346
0
  0
ENDSEC
  0
EOF
