999
DXF file: 3290-5811_Top.dxf
999
Pro/ENGINEER 2023134 by Parametric Technology Corporation
  0
SECTION
  2
HEADER
  9
$ACADVER
  1
AC1032
  9
$DWGCODEPAGE
  3
ANSI_1252
  9
$EXTMAX
 10
11.0
 20
8.5
 30
0.0
  9
$EXTMIN
 10
0.0
 20
0.0
 30
0.0
  9
$LIMMIN
 10
0.0
 20
0.0
  9
$LIMMAX
 10
11.0
 20
8.5
  9
$VIEWCTR
 10
5.5
 20
4.25
  9
$VIEWSIZE
 40
8.5
  9
$CLAYER
  8
0
  9
$LTSCALE
 40
0.605
  9
$CELTYPE
  6
BYLAYER
  9
$DIMSCALE
 40
1.0
  9
$DIMASZ
 40
0.1
  9
$DIMEXO
 40
0.0625
  9
$DIMDLI
 40
0.418
  9
$DIMEXE
 40
0.125
  9
$DIMCEN
 40
0.099
  9
$DIMLFAC
 40
1.0
  9
$DIMBLK
  1
_FILLED
  9
$DIMALT
 70
1
  9
$DIMALTD
 70
2
  9
$DIMALTTD
 70
2
  9
$DIMALTF
 40
25.4
  9
$DIMTXT
 40
0.08
  9
$DIMTOL
 70
1
  9
$DIMLIM
 70
0
  9
$DIMTFAC
 40
1.0
  9
$DIMTP
 40
0.001
  9
$DIMTM
 40
0.001
  9
$DIMGAP
 40
0.09
  9
$DIMDSEP
 70
46
  9
$AUNITS
 70
0
  9
$PDMODE
 70
3
  9
$PDSIZE
 40
0.3125
  9
$HANDSEED
  5
4B1
  9
$TILEMODE
 70
1
  9
$MEASUREMENT
 70
0
  9
$INSUNITS
 70
1
  0
ENDSEC
  0
SECTION
  2
CLASSES
  0
CLASS
  1
ACDBDICTIONARYWDFLT
  2
AcDbDictionaryWithDefault
  3
AutoCAD 2000
 90
0
 91
1
280
0
281
0
  0
CLASS
  1
ACDBPLACEHOLDER
  2
AcDbPlaceHolder
  3
AutoCAD 2000
 90
0
 91
1
280
0
281
0
  0
CLASS
  1
LAYOUT
  2
AcDbLayout
  3
AutoCAD 2000
 90
0
 91
0
280
0
281
0
  0
ENDSEC
  0
SECTION
  2
TABLES
  0
TABLE
  2
VPORT
  5
8
100
AcDbSymbolTable
 70
2
  0
VPORT
  5
1F4
100
AcDbSymbolTableRecord
100
AcDbViewportTableRecord
  2
*ACTIVE
 70
0
 10
0.0
 20
0.0
 11
1.0
 21
1.0
 12
5.5
 22
4.25
 13
0.0
 23
0.0
 14
1.0
 24
1.0
 15
0.0
 25
0.0
 16
0.0
 26
0.0
 36
1.0
 17
0.0
 27
0.0
 37
0.0
 40
8.5
 41
1.2941176471
 42
50.0
 43
0.0
 44
0.0
 50
0.0
 51
0.0
 71
0
 72
100
 73
1
 74
1
 75
0
 76
0
 77
0
 78
0
  0
ENDTAB
  0
TABLE
  2
LTYPE
  5
5
100
AcDbSymbolTable
 70
6
  0
LTYPE
  5
14
100
AcDbSymbolTableRecord
100
AcDbLinetypeTableRecord
  2
BYBLOCK
 70
0
  3

 72
65
 73
0
 40
0.0
  0
LTYPE
  5
15
100
AcDbSymbolTableRecord
100
AcDbLinetypeTableRecord
  2
BYLAYER
 70
0
  3

 72
65
 73
0
 40
0.0
  0
LTYPE
  5
16
100
AcDbSymbolTableRecord
100
AcDbLinetypeTableRecord
  2
CONTINUOUS
 70
64
  3
Solid line
 72
65
 73
0
 40
0.0
  0
LTYPE
  5
1F5
100
AcDbSymbolTableRecord
100
AcDbLinetypeTableRecord
  2
CENTER
 70
64
  3
____ _ ____ _ ____ _ ____ _ ____ _ ____ _ ____
 72
65
 73
4
 40
0.6
 49
0.375
 74
0
 49
-0.075
 74
0
 49
0.075
 74
0
 49
-0.075
 74
0
  0
LTYPE
  5
1F6
100
AcDbSymbolTableRecord
100
AcDbLinetypeTableRecord
  2
HIDDEN
 70
64
  3
- - - - - - - - - - - - - - - - - - - -
 72
65
 73
2
 40
0.2
 49
0.1
 74
0
 49
-0.1
 74
0
  0
LTYPE
  5
1F7
100
AcDbSymbolTableRecord
100
AcDbLinetypeTableRecord
  2
PHANTOM
 70
64
  3
_____ _ _ _____ _ _ _____ _ _ _____
 72
65
 73
6
 40
0.8
 49
0.45
 74
0
 49
-0.05
 74
0
 49
0.1
 74
0
 49
-0.05
 74
0
 49
0.1
 74
0
 49
-0.05
 74
0
  0
LTYPE
  5
1F8
100
AcDbSymbolTableRecord
100
AcDbLinetypeTableRecord
  2
DOT
 70
64
  3
. . . . . . . . . . . . . . . . . . . .
 72
65
 73
2
 40
0.2
 49
0.1
 74
0
 49
-0.1
 74
0
  0
LTYPE
  5
1F9
100
AcDbSymbolTableRecord
100
AcDbLinetypeTableRecord
  2
DASHED
 70
64
  3
- - - - - - - - - - - - - - - - - - - -
 72
65
 73
2
 40
0.2
 49
0.1
 74
0
 49
-0.1
 74
0
  0
ENDTAB
  0
TABLE
  2
LAYER
  5
2
100
AcDbSymbolTable
 70
36
  0
LAYER
  5
10
100
AcDbSymbolTableRecord
100
AcDbLayerTableRecord
  2
0
 70
0
 62
7
  6
CONTINUOUS
370
-3
390
F
  0
LAYER
  5
1FA
100
AcDbSymbolTableRecord
100
AcDbLayerTableRecord
  2
DEFAULT_1
 70
0
 62
7
  6
CENTER
370
-3
390
F
  0
LAYER
  5
1FB
100
AcDbSymbolTableRecord
100
AcDbLayerTableRecord
  2
DEFAULT_2
 70
0
 62
8
  6
HIDDEN
370
-3
390
F
  0
LAYER
  5
1FC
100
AcDbSymbolTableRecord
100
AcDbLayerTableRecord
  2
DEFAULT_3
 70
0
 62
7
  6
PHANTOM
370
-3
390
F
  0
LAYER
  5
1FD
100
AcDbSymbolTableRecord
100
AcDbLayerTableRecord
  2
DEFAULT_COORDINATE_SYSTEM
 70
0
 62
7
  6
CONTINUOUS
370
-3
390
F
  0
LAYER
  5
1FE
100
AcDbSymbolTableRecord
100
AcDbLayerTableRecord
  2
DEFAULT_DATUM_AXES
 70
0
 62
7
  6
CONTINUOUS
370
-3
390
F
  0
LAYER
  5
1FF
100
AcDbSymbolTableRecord
100
AcDbLayerTableRecord
  2
DEFAULT_DATUM_CURVES
 70
0
 62
7
  6
CONTINUOUS
370
-3
390
F
  0
LAYER
  5
200
100
AcDbSymbolTableRecord
100
AcDbLayerTableRecord
  2
DEFAULT_DATUM_PLANES
 70
0
 62
7
  6
CONTINUOUS
370
-3
390
F
  0
ENDTAB
  0
TABLE
  2
STYLE
  5
3
100
AcDbSymbolTable
 70
1
  0
STYLE
  5
11
100
AcDbSymbolTableRecord
100
AcDbTextStyleTableRecord
  2
STANDARD
 70
0
 40
0.0
 41
0.8
 50
0.0
 71
0
 42
0.2
  3
txt
  4

  0
STYLE
  5
201
100
AcDbSymbolTableRecord
100
AcDbTextStyleTableRecord
  2
TEXTSTYLE_1
 70
0
 40
0.0
 41
0.8
 50
0.0
 71
0
 42
0.2
  3
gdt
  4

  0
ENDTAB
  0
TABLE
  2
VIEW
  5
6
100
AcDbSymbolTable
 70
0
  0
ENDTAB
  0
TABLE
  2
UCS
  5
7
100
AcDbSymbolTable
 70
0
  0
ENDTAB
  0
TABLE
  2
APPID
  5
9
100
AcDbSymbolTable
 70
1
  0
APPID
  5
202
100
AcDbSymbolTableRecord
100
AcDbRegAppTableRecord
  2
ACAD
 70
0
  0
ENDTAB
  0
TABLE
  2
BLOCK_RECORD
  5
1
100
AcDbSymbolTable
 70
0
  0
BLOCK_RECORD
  5
203
100
AcDbSymbolTableRecord
100
AcDbBlockTableRecord
  2
*Model_Space
  0
BLOCK_RECORD
  5
204
100
AcDbSymbolTableRecord
100
AcDbBlockTableRecord
  2
*Paper_Space
  0
BLOCK_RECORD
  5
205
100
AcDbSymbolTableRecord
100
AcDbBlockTableRecord
  2
_FILLED
  0
ENDTAB
  0
TABLE
  2
DIMSTYLE
  5
A
100
AcDbSymbolTable
 70
1
100
AcDbDimStyleTable
 71
0
  0
DIMSTYLE
105
206
100
AcDbSymbolTableRecord
100
AcDbDimStyleTableRecord
  2
STANDARD
 70
0
  3

  4

 40
1.0
 41
0.1
 42
0.0625
 43
0.38
 44
0.125
 45
0.0
 46
0.0
 47
0.001
 48
0.001
140
0.08
141
0.09
142
0.0
143
25.4
144
1.0
145
0.0
146
1.0
147
0.09
 71
1
 72
0
 73
1
 74
1
 75
0
 76
0
 77
0
 78
4
 79
1
170
1
171
2
172
0
173
0
174
0
175
0
176
0
177
0
178
0
270
2
179
3
271
3
272
3
273
2
274
2
275
0
280
0
281
0
282
0
283
1
284
4
285
0
286
0
287
3
288
0
340
11
278
46
341
205
342
205
343
205
344
205
  0
ENDTAB
  0
ENDSEC
  0
SECTION
  2
BLOCKS
  0
BLOCK
  5
20
100
AcDbEntity
  8
0
100
AcDbBlockBegin
  2
*Model_Space
 70
0
 10
0.0
 20
0.0
 30
0.0
  3
*Model_Space
  1

  0
ENDBLK
  5
21
100
AcDbEntity
  8
0
100
AcDbBlockEnd
  0
BLOCK
  5
1C
100
AcDbEntity
  8
0
100
AcDbBlockBegin
  2
*Paper_Space
 70
0
 10
0.0
 20
0.0
 30
0.0
  3
*Paper_Space
  1

  0
ENDBLK
  5
1D
100
AcDbEntity
  8
0
100
AcDbBlockEnd
  0
BLOCK
  5
207
100
AcDbEntity
  8
0
100
AcDbBlockBegin
  2
_FILLED
 70
64
 10
0.0
 20
0.0
  3
_FILLED
  1

  0
SOLID
  5
208
100
AcDbEntity
  8
0
  6
BYBLOCK
 62
0
100
AcDbTrace
 10
0.0
 20
0.0
 11
-1.0
 21
0.2
 12
-1.0
 22
-0.2
 13
-1.0
 23
-0.2
  0
ENDBLK
  5
209
100
AcDbEntity
  8
0
  6
BYBLOCK
 62
0
100
AcDbBlockEnd
  0
ENDSEC
  0
SECTION
  2
ENTITIES
  0
MTEXT
  5
20A
100
AcDbEntity
  8
0
100
AcDbMText
 62
2
  6
CONTINUOUS
  7
STANDARD
 71
2
 72
1
 10
5.4987202579
 20
3.6453416216
 30
0.0
 11
1.0
 21
0.0
 31
0.0
 73
2
 44
0.9
  1
SCALE 0.500
 40
0.08
 41
0.704
  0
LINE
  5
20B
100
AcDbEntity
  8
0
100
AcDbLine
 62
7
  6
CONTINUOUS
 10
0.0
 20
0.0
 11
0.0
 21
8.5
  0
LINE
  5
20C
100
AcDbEntity
  8
0
100
AcDbLine
 62
7
  6
CONTINUOUS
 10
0.0
 20
0.0
 11
11.0
 21
0.0
  0
LINE
  5
20D
100
AcDbEntity
  8
0
100
AcDbLine
 62
7
  6
CONTINUOUS
 10
0.0
 20
8.5
 11
11.0
 21
8.5
  0
LINE
  5
20E
100
AcDbEntity
  8
0
100
AcDbLine
 62
7
  6
CONTINUOUS
 10
11.0
 20
0.0
 11
11.0
 21
8.5
  0
LINE
  5
20F
100
AcDbEntity
  8
0
100
AcDbLine
 62
7
  6
CONTINUOUS
 10
3.6134074197
 20
4.4694968577
 11
3.6134074197
 21
4.5594968577
  0
LINE
  5
210
100
AcDbEntity
  8
0
100
AcDbLine
 62
7
  6
CONTINUOUS
 10
3.6684074197
 20
4.4044968577
 11
3.6684074197
 21
4.3734968577
  0
LINE
  5
211
100
AcDbEntity
  8
0
100
AcDbLine
 62
7
  6
CONTINUOUS
 10
3.6684074197
 20
4.6244968577
 11
3.6684074197
 21
4.6554968577
  0
LINE
  5
212
100
AcDbEntity
  8
0
100
AcDbLine
 62
7
  6
CONTINUOUS
 10
3.6984074197
 20
4.6244968577
 11
3.6984074197
 21
4.6554968577
  0
LINE
  5
213
100
AcDbEntity
  8
0
100
AcDbLine
 62
7
  6
CONTINUOUS
 10
3.7155824226
 20
4.3734968577
 11
3.7155824226
 21
4.4044968577
  0
LINE
  5
214
100
AcDbEntity
  8
0
100
AcDbLine
 62
7
  6
CONTINUOUS
 10
3.9884074197
 20
4.0794968577
 11
3.9884074197
 21
4.9494968577
  0
LINE
  5
215
100
AcDbEntity
  8
0
100
AcDbLine
 62
7
  6
CONTINUOUS
 10
4.0509074197
 20
4.0169968577
 11
4.0509074197
 21
5.0119968577
  0
LINE
  5
216
100
AcDbEntity
  8
0
100
AcDbLine
 62
7
  6
CONTINUOUS
 10
3.9884074197
 20
4.9494968577
 11
4.0509074197
 21
5.0119968577
  0
LINE
  5
217
100
AcDbEntity
  8
0
100
AcDbLine
 62
7
  6
CONTINUOUS
 10
3.9884074197
 20
4.0794968577
 11
4.0509074197
 21
4.0169968577
  0
LINE
  5
218
100
AcDbEntity
  8
0
100
AcDbLine
 62
7
  6
CONTINUOUS
 10
4.7604074197
 20
5.0119968577
 11
4.7604074197
 21
4.5769968577
  0
LINE
  5
219
100
AcDbEntity
  8
0
100
AcDbLine
 62
7
  6
CONTINUOUS
 10
4.7604074197
 20
4.4519968577
 11
4.7604074197
 21
4.0169968577
  0
LINE
  5
21A
100
AcDbEntity
  8
0
100
AcDbLine
 62
7
  6
CONTINUOUS
 10
4.8384074197
 20
4.9339968577
 11
4.8384074197
 21
4.5769968577
  0
LINE
  5
21B
100
AcDbEntity
  8
0
100
AcDbLine
 62
7
  6
CONTINUOUS
 10
4.8384074197
 20
4.4519968577
 11
4.8384074197
 21
4.0949968577
  0
LINE
  5
21C
100
AcDbEntity
  8
0
100
AcDbLine
 62
7
  6
CONTINUOUS
 10
4.8434074197
 20
4.8333096274
 11
4.8434074197
 21
4.7478443937
  0
LINE
  5
21D
100
AcDbEntity
  8
0
100
AcDbLine
 62
7
  6
CONTINUOUS
 10
4.8434074197
 20
4.7303130303
 11
4.8434074197
 21
4.7171645328
  0
LINE
  5
21E
100
AcDbEntity
  8
0
100
AcDbLine
 62
7
  6
CONTINUOUS
 10
4.8434074197
 20
4.7045544015
 11
4.8434074197
 21
4.5769968577
  0
LINE
  5
21F
100
AcDbEntity
  8
0
100
AcDbLine
 62
7
  6
CONTINUOUS
 10
4.8434074197
 20
4.4519968577
 11
4.8434074197
 21
4.3161353782
  0
LINE
  5
220
100
AcDbEntity
  8
0
100
AcDbLine
 62
7
  6
CONTINUOUS
 10
4.8434074197
 20
4.2986040461
 11
4.8434074197
 21
4.2197130612
  0
LINE
  5
221
100
AcDbEntity
  8
0
100
AcDbLine
 62
7
  6
CONTINUOUS
 10
4.0509074197
 20
4.0169968577
 11
4.7604074197
 21
4.0169968577
  0
LINE
  5
222
100
AcDbEntity
  8
0
100
AcDbLine
 62
7
  6
CONTINUOUS
 10
5.2549074197
 20
4.5769968577
 11
5.2549074197
 21
4.4519968577
  0
LINE
  5
223
100
AcDbEntity
  8
0
100
AcDbLine
 62
7
  6
CONTINUOUS
 10
7.4728386309
 20
4.5704520823
 11
7.4700957848
 21
4.5697478391
  0
LINE
  5
224
100
AcDbEntity
  8
0
100
AcDbLine
 62
7
  6
CONTINUOUS
 10
7.0369762086
 20
4.4585416332
 11
7.0397190547
 21
4.4592458763
  0
LINE
  5
225
100
AcDbEntity
  8
0
100
AcDbLine
 62
7
  6
CONTINUOUS
 10
4.8384074197
 20
4.2197130612
 11
4.8434074197
 21
4.2197130612
  0
LINE
  5
226
100
AcDbEntity
  8
0
100
AcDbLine
 62
7
  6
CONTINUOUS
 10
4.8384074197
 20
4.2328615587
 11
4.8434074197
 21
4.2328615587
  0
LINE
  5
227
100
AcDbEntity
  8
0
100
AcDbLine
 62
7
  6
CONTINUOUS
 10
7.4781332274
 20
4.5426968353
 11
7.4753237444
 21
4.542341915
  0
LINE
  5
228
100
AcDbEntity
  8
0
100
AcDbLine
 62
7
  6
CONTINUOUS
 10
7.0316816121
 20
4.4862968802
 11
7.034491095
 21
4.4866518004
  0
LINE
  5
229
100
AcDbEntity
  8
0
100
AcDbLine
 62
7
  6
CONTINUOUS
 10
4.8384074197
 20
4.2986040461
 11
4.8434074197
 21
4.2986040461
  0
LINE
  5
22A
100
AcDbEntity
  8
0
100
AcDbLine
 62
7
  6
CONTINUOUS
 10
4.8384074197
 20
4.3161353782
 11
4.8434074197
 21
4.3161353782
  0
LINE
  5
22B
100
AcDbEntity
  8
0
100
AcDbLine
 62
7
  6
CONTINUOUS
 10
3.9884074197
 20
4.3734968577
 11
3.6684074197
 21
4.3734968577
  0
LINE
  5
22C
100
AcDbEntity
  8
0
100
AcDbLine
 62
7
  6
CONTINUOUS
 10
4.8384074197
 20
4.3950263569
 11
4.8434074197
 21
4.3950263569
  0
LINE
  5
22D
100
AcDbEntity
  8
0
100
AcDbLine
 62
7
  6
CONTINUOUS
 10
3.9884074197
 20
4.4044968577
 11
3.6684074197
 21
4.4044968577
  0
LINE
  5
22E
100
AcDbEntity
  8
0
100
AcDbLine
 62
7
  6
CONTINUOUS
 10
4.8384074197
 20
4.4125576952
 11
4.8434074197
 21
4.4125576952
  0
LINE
  5
22F
100
AcDbEntity
  8
0
100
AcDbLine
 62
7
  6
CONTINUOUS
 10
4.8384074197
 20
4.4147491031
 11
4.8434074197
 21
4.4147491031
  0
LINE
  5
230
100
AcDbEntity
  8
0
100
AcDbLine
 62
7
  6
CONTINUOUS
 10
4.8384074197
 20
4.4191319439
 11
4.8434074197
 21
4.4191319439
  0
LINE
  5
231
100
AcDbEntity
  8
0
100
AcDbLine
 62
7
  6
CONTINUOUS
 10
4.8384074197
 20
4.4278976006
 11
4.8434074197
 21
4.4278976006
  0
LINE
  5
232
100
AcDbEntity
  8
0
100
AcDbLine
 62
7
  6
CONTINUOUS
 10
4.8384074197
 20
4.4366632697
 11
4.8434074197
 21
4.4366632697
  0
LINE
  5
233
100
AcDbEntity
  8
0
100
AcDbLine
 62
7
  6
CONTINUOUS
 10
4.8384074197
 20
4.4476203593
 11
4.8434074197
 21
4.4476203593
  0
LINE
  5
234
100
AcDbEntity
  8
0
100
AcDbLine
 62
7
  6
CONTINUOUS
 10
4.7549074197
 20
4.4519968577
 11
5.5528145991
 21
4.4519968577
  0
LINE
  5
235
100
AcDbEntity
  8
0
100
AcDbLine
 62
7
  6
CONTINUOUS
 10
6.3914471626
 20
4.4519968577
 11
6.7895409314
 21
4.4519968577
  0
LINE
  5
236
100
AcDbEntity
  8
0
100
AcDbLine
 62
7
  6
CONTINUOUS
 10
3.9884074197
 20
4.4694968577
 11
3.6134074197
 21
4.4694968577
  0
LINE
  5
237
100
AcDbEntity
  8
0
100
AcDbLine
 62
7
  6
CONTINUOUS
 10
7.4799074196
 20
4.5144968577
 11
7.4770756069
 21
4.5144968577
  0
LINE
  5
238
100
AcDbEntity
  8
0
100
AcDbLine
 62
7
  6
CONTINUOUS
 10
7.0299074198
 20
4.5144968577
 11
7.0327392325
 21
4.5144968577
  0
LINE
  5
239
100
AcDbEntity
  8
0
100
AcDbLine
 62
7
  6
CONTINUOUS
 10
3.9884074197
 20
4.5594968577
 11
3.6134074197
 21
4.5594968577
  0
LINE
  5
23A
100
AcDbEntity
  8
0
100
AcDbLine
 62
7
  6
CONTINUOUS
 10
4.7549074197
 20
4.5769968577
 11
5.5528145991
 21
4.5769968577
  0
LINE
  5
23B
100
AcDbEntity
  8
0
100
AcDbLine
 62
7
  6
CONTINUOUS
 10
6.3914471626
 20
4.5769968577
 11
6.7895409314
 21
4.5769968577
  0
LINE
  5
23C
100
AcDbEntity
  8
0
100
AcDbLine
 62
7
  6
CONTINUOUS
 10
4.8384074197
 20
4.5988280805
 11
4.8434074197
 21
4.5988280805
  0
LINE
  5
23D
100
AcDbEntity
  8
0
100
AcDbLine
 62
7
  6
CONTINUOUS
 10
4.8384074197
 20
4.6163593937
 11
4.8434074197
 21
4.6163593937
  0
LINE
  5
23E
100
AcDbEntity
  8
0
100
AcDbLine
 62
7
  6
CONTINUOUS
 10
3.6684074197
 20
4.6244968577
 11
3.9884074197
 21
4.6244968577
  0
LINE
  5
23F
100
AcDbEntity
  8
0
100
AcDbLine
 62
7
  6
CONTINUOUS
 10
3.6684074197
 20
4.6554968577
 11
3.9884074197
 21
4.6554968577
  0
LINE
  5
240
100
AcDbEntity
  8
0
100
AcDbLine
 62
7
  6
CONTINUOUS
 10
4.8384074197
 20
4.6689534088
 11
4.8434074197
 21
4.6689534088
  0
LINE
  5
241
100
AcDbEntity
  8
0
100
AcDbLine
 62
7
  6
CONTINUOUS
 10
4.8384074197
 20
4.6799104733
 11
4.8434074197
 21
4.6799104733
  0
LINE
  5
242
100
AcDbEntity
  8
0
100
AcDbLine
 62
7
  6
CONTINUOUS
 10
4.8384074197
 20
4.688676155
 11
4.8434074197
 21
4.688676155
  0
LINE
  5
243
100
AcDbEntity
  8
0
100
AcDbLine
 62
7
  6
CONTINUOUS
 10
4.8384074197
 20
4.6952504037
 11
4.8434074197
 21
4.6952504037
  0
LINE
  5
244
100
AcDbEntity
  8
0
100
AcDbLine
 62
7
  6
CONTINUOUS
 10
4.8384074197
 20
4.6974417865
 11
4.8434074197
 21
4.6974417865
  0
LINE
  5
245
100
AcDbEntity
  8
0
100
AcDbLine
 62
7
  6
CONTINUOUS
 10
4.8384074197
 20
4.6996332195
 11
4.8434074197
 21
4.6996332195
  0
LINE
  5
246
100
AcDbEntity
  8
0
100
AcDbLine
 62
7
  6
CONTINUOUS
 10
4.8384074197
 20
4.7029356618
 11
4.8434074197
 21
4.7029356618
  0
LINE
  5
247
100
AcDbEntity
  8
0
100
AcDbLine
 62
7
  6
CONTINUOUS
 10
4.8384074197
 20
4.7045544015
 11
4.8434074197
 21
4.7045544015
  0
LINE
  5
248
100
AcDbEntity
  8
0
100
AcDbLine
 62
7
  6
CONTINUOUS
 10
4.8384074197
 20
4.7171645328
 11
4.8434074197
 21
4.7171645328
  0
LINE
  5
249
100
AcDbEntity
  8
0
100
AcDbLine
 62
7
  6
CONTINUOUS
 10
4.8384074197
 20
4.7303130303
 11
4.8434074197
 21
4.7303130303
  0
LINE
  5
24A
100
AcDbEntity
  8
0
100
AcDbLine
 62
7
  6
CONTINUOUS
 10
4.8384074197
 20
4.7478443937
 11
4.8434074197
 21
4.7478443937
  0
LINE
  5
24B
100
AcDbEntity
  8
0
100
AcDbLine
 62
7
  6
CONTINUOUS
 10
4.8384074197
 20
4.7500357765
 11
4.8434074197
 21
4.7500357765
  0
LINE
  5
24C
100
AcDbEntity
  8
0
100
AcDbLine
 62
7
  6
CONTINUOUS
 10
4.8384074197
 20
4.7544186424
 11
4.8434074197
 21
4.7544186424
  0
LINE
  5
24D
100
AcDbEntity
  8
0
100
AcDbLine
 62
7
  6
CONTINUOUS
 10
4.8384074197
 20
4.763184274
 11
4.8434074197
 21
4.763184274
  0
LINE
  5
24E
100
AcDbEntity
  8
0
100
AcDbLine
 62
7
  6
CONTINUOUS
 10
4.8384074197
 20
4.7719499557
 11
4.8434074197
 21
4.7719499557
  0
LINE
  5
24F
100
AcDbEntity
  8
0
100
AcDbLine
 62
7
  6
CONTINUOUS
 10
4.8384074197
 20
4.7829070202
 11
4.8434074197
 21
4.7829070202
  0
LINE
  5
250
100
AcDbEntity
  8
0
100
AcDbLine
 62
7
  6
CONTINUOUS
 10
4.8384074197
 20
4.8026297664
 11
4.8434074197
 21
4.8026297664
  0
LINE
  5
251
100
AcDbEntity
  8
0
100
AcDbLine
 62
7
  6
CONTINUOUS
 10
4.8384074197
 20
4.8135868811
 11
4.8434074197
 21
4.8135868811
  0
LINE
  5
252
100
AcDbEntity
  8
0
100
AcDbLine
 62
7
  6
CONTINUOUS
 10
7.4781332274
 20
4.4862968802
 11
7.4753237444
 21
4.4866518004
  0
LINE
  5
253
100
AcDbEntity
  8
0
100
AcDbLine
 62
7
  6
CONTINUOUS
 10
7.0316816121
 20
4.5426968353
 11
7.034491095
 21
4.542341915
  0
LINE
  5
254
100
AcDbEntity
  8
0
100
AcDbLine
 62
7
  6
CONTINUOUS
 10
4.8384074197
 20
4.8223525127
 11
4.8434074197
 21
4.8223525127
  0
LINE
  5
255
100
AcDbEntity
  8
0
100
AcDbLine
 62
7
  6
CONTINUOUS
 10
4.8384074197
 20
4.8311181944
 11
4.8434074197
 21
4.8311181944
  0
LINE
  5
256
100
AcDbEntity
  8
0
100
AcDbLine
 62
7
  6
CONTINUOUS
 10
4.8384074197
 20
4.8333096274
 11
4.8434074197
 21
4.8333096274
  0
LINE
  5
257
100
AcDbEntity
  8
0
100
AcDbLine
 62
7
  6
CONTINUOUS
 10
7.4728386309
 20
4.4585416332
 11
7.4700957848
 21
4.4592458763
  0
LINE
  5
258
100
AcDbEntity
  8
0
100
AcDbLine
 62
7
  6
CONTINUOUS
 10
7.0369762086
 20
4.5704520823
 11
7.0397190547
 21
4.5697478391
  0
LINE
  5
259
100
AcDbEntity
  8
0
100
AcDbLine
 62
7
  6
CONTINUOUS
 10
4.7604074197
 20
5.0119968577
 11
4.0509074197
 21
5.0119968577
  0
LINE
  5
25A
100
AcDbEntity
  8
0
100
AcDbLine
 62
7
  6
CONTINUOUS
 10
7.4641071289
 20
4.5973248821
 11
7.4614741761
 21
4.5962824223
  0
LINE
  5
25B
100
AcDbEntity
  8
0
100
AcDbLine
 62
7
  6
CONTINUOUS
 10
7.0457077105
 20
4.4316688334
 11
7.0483406634
 21
4.4327112932
  0
LINE
  5
25C
100
AcDbEntity
  8
0
100
AcDbLine
 62
7
  6
CONTINUOUS
 10
7.4641071289
 20
4.4316688334
 11
7.4614741761
 21
4.4327112932
  0
LINE
  5
25D
100
AcDbEntity
  8
0
100
AcDbLine
 62
7
  6
CONTINUOUS
 10
7.0457077105
 20
4.597324882
 11
7.0483406634
 21
4.5962824223
  0
LINE
  5
25E
100
AcDbEntity
  8
0
100
AcDbLine
 62
7
  6
CONTINUOUS
 10
7.4520764226
 20
4.6228914344
 11
7.4495948863
 21
4.6215271982
  0
LINE
  5
25F
100
AcDbEntity
  8
0
100
AcDbLine
 62
7
  6
CONTINUOUS
 10
7.0577384168
 20
4.4061022811
 11
7.0602199532
 21
4.4074665173
  0
LINE
  5
260
100
AcDbEntity
  8
0
100
AcDbLine
 62
7
  6
CONTINUOUS
 10
7.4520764226
 20
4.4061022811
 11
7.4495948863
 21
4.4074665173
  0
LINE
  5
261
100
AcDbEntity
  8
0
100
AcDbLine
 62
7
  6
CONTINUOUS
 10
7.0577384168
 20
4.6228914344
 11
7.0602199532
 21
4.6215271982
  0
LINE
  5
262
100
AcDbEntity
  8
0
100
AcDbLine
 62
7
  6
CONTINUOUS
 10
7.4369362434
 20
4.6467485394
 11
7.4346452588
 21
4.6450840417
  0
LINE
  5
263
100
AcDbEntity
  8
0
100
AcDbLine
 62
7
  6
CONTINUOUS
 10
7.0728785961
 20
4.382245176
 11
7.0751695807
 21
4.3839096738
  0
LINE
  5
264
100
AcDbEntity
  8
0
100
AcDbLine
 62
7
  6
CONTINUOUS
 10
7.4369362434
 20
4.382245176
 11
7.4346452588
 21
4.3839096738
  0
LINE
  5
265
100
AcDbEntity
  8
0
100
AcDbLine
 62
7
  6
CONTINUOUS
 10
7.0728785961
 20
4.6467485394
 11
7.0751695807
 21
4.6450840417
  0
LINE
  5
266
100
AcDbEntity
  8
0
100
AcDbLine
 62
7
  6
CONTINUOUS
 10
6.7549074197
 20
4.5769968577
 11
6.7549074197
 21
4.4519968577
  0
LINE
  5
267
100
AcDbEntity
  8
0
100
AcDbLine
 62
7
  6
CONTINUOUS
 10
7.4189253608
 20
4.6685199565
 11
7.4168610582
 21
4.6665814473
  0
LINE
  5
268
100
AcDbEntity
  8
0
100
AcDbLine
 62
7
  6
CONTINUOUS
 10
7.0908894786
 20
4.360473759
 11
7.0929537813
 21
4.3624122682
  0
LINE
  5
269
100
AcDbEntity
  8
0
100
AcDbLine
 62
7
  6
CONTINUOUS
 10
7.4189253608
 20
4.360473759
 11
7.4168610582
 21
4.3624122682
  0
LINE
  5
26A
100
AcDbEntity
  8
0
100
AcDbLine
 62
7
  6
CONTINUOUS
 10
7.0908894786
 20
4.6685199565
 11
7.0929537813
 21
4.6665814473
  0
LINE
  5
26B
100
AcDbEntity
  8
0
100
AcDbLine
 62
7
  6
CONTINUOUS
 10
7.3983278173
 20
4.6878623373
 11
7.396522752
 21
4.6856803881
  0
LINE
  5
26C
100
AcDbEntity
  8
0
100
AcDbLine
 62
7
  6
CONTINUOUS
 10
7.1114870221
 20
4.3411313782
 11
7.1132920875
 21
4.3433133274
  0
LINE
  5
26D
100
AcDbEntity
  8
0
100
AcDbLine
 62
7
  6
CONTINUOUS
 10
7.3983278173
 20
4.3411313782
 11
7.396522752
 21
4.3433133274
  0
LINE
  5
26E
100
AcDbEntity
  8
0
100
AcDbLine
 62
7
  6
CONTINUOUS
 10
7.1114870221
 20
4.6878623373
 11
7.1132920875
 21
4.6856803881
  0
LINE
  5
26F
100
AcDbEntity
  8
0
100
AcDbLine
 62
7
  6
CONTINUOUS
 10
7.3754684485
 20
4.7044706409
 11
7.3739510874
 21
4.7020796623
  0
LINE
  5
270
100
AcDbEntity
  8
0
100
AcDbLine
 62
7
  6
CONTINUOUS
 10
7.1343463909
 20
4.3245230746
 11
7.135863752
 21
4.3269140531
  0
LINE
  5
271
100
AcDbEntity
  8
0
100
AcDbLine
 62
7
  6
CONTINUOUS
 10
7.1343463909
 20
4.7044706409
 11
7.135863752
 21
4.7020796623
  0
LINE
  5
272
100
AcDbEntity
  8
0
100
AcDbLine
 62
7
  6
CONTINUOUS
 10
7.3754684485
 20
4.3245230746
 11
7.3739510874
 21
4.3269140531
  0
LINE
  5
273
100
AcDbEntity
  8
0
100
AcDbLine
 62
7
  6
CONTINUOUS
 10
7.212746624
 20
4.2934822264
 11
7.2132772528
 21
4.2962638799
  0
LINE
  5
274
100
AcDbEntity
  8
0
100
AcDbLine
 62
7
  6
CONTINUOUS
 10
7.2965375866
 20
4.7327298351
 11
7.2970682154
 21
4.7355114887
  0
LINE
  5
275
100
AcDbEntity
  8
0
100
AcDbLine
 62
7
  6
CONTINUOUS
 10
7.185378596
 20
4.3005091417
 11
7.1862536743
 21
4.3032023556
  0
LINE
  5
276
100
AcDbEntity
  8
0
100
AcDbLine
 62
7
  6
CONTINUOUS
 10
7.323561165
 20
4.7257913595
 11
7.3244362433
 21
4.7284845735
  0
LINE
  5
277
100
AcDbEntity
  8
0
100
AcDbLine
 62
7
  6
CONTINUOUS
 10
7.3507077603
 20
4.7180829444
 11
7.3495020331
 21
4.7155206437
  0
LINE
  5
278
100
AcDbEntity
  8
0
100
AcDbLine
 62
7
  6
CONTINUOUS
 10
7.1591070792
 20
4.310910771
 11
7.1603128064
 21
4.3134730718
  0
LINE
  5
279
100
AcDbEntity
  8
0
100
AcDbLine
 62
7
  6
CONTINUOUS
 10
7.1591070792
 20
4.7180829444
 11
7.1603128064
 21
4.7155206437
  0
LINE
  5
27A
100
AcDbEntity
  8
0
100
AcDbLine
 62
7
  6
CONTINUOUS
 10
7.3507077603
 20
4.310910771
 11
7.3495020331
 21
4.3134730718
  0
LINE
  5
27B
100
AcDbEntity
  8
0
100
AcDbLine
 62
7
  6
CONTINUOUS
 10
7.185378596
 20
4.7284845738
 11
7.1862536743
 21
4.7257913599
  0
LINE
  5
27C
100
AcDbEntity
  8
0
100
AcDbLine
 62
7
  6
CONTINUOUS
 10
7.3244362434
 20
4.3005091417
 11
7.3235611652
 21
4.3032023556
  0
LINE
  5
27D
100
AcDbEntity
  8
0
100
AcDbLine
 62
7
  6
CONTINUOUS
 10
7.2970682155
 20
4.2934822264
 11
7.2965375867
 21
4.2962638799
  0
LINE
  5
27E
100
AcDbEntity
  8
0
100
AcDbLine
 62
7
  6
CONTINUOUS
 10
7.2132772528
 20
4.7327298351
 11
7.212746624
 21
4.735511489
  0
LINE
  5
27F
100
AcDbEntity
  8
0
100
AcDbLine
 62
7
  6
CONTINUOUS
 10
7.2690352866
 20
4.289940844
 11
7.2688574756
 21
4.2927670687
  0
LINE
  5
280
100
AcDbEntity
  8
0
100
AcDbLine
 62
7
  6
CONTINUOUS
 10
7.2409573639
 20
4.7362266463
 11
7.2407795529
 21
4.7390528713
  0
LINE
  5
281
100
AcDbEntity
  8
0
100
AcDbLine
 62
7
  6
CONTINUOUS
 10
7.2407795528
 20
4.289940844
 11
7.2409573638
 21
4.2927670687
  0
LINE
  5
282
100
AcDbEntity
  8
0
100
AcDbLine
 62
7
  6
CONTINUOUS
 10
7.2688574756
 20
4.7362266463
 11
7.2690352866
 21
4.7390528713
  0
ARC
  5
283
100
AcDbEntity
  8
0
100
AcDbCircle
 62
7
  6
CONTINUOUS
 10
4.7604074197
 20
4.0949968577
 40
0.078
100
AcDbArc
 50
270.0
 51
360.0
  0
ARC
  5
284
100
AcDbEntity
  8
0
100
AcDbCircle
 62
7
  6
CONTINUOUS
 10
4.7604074197
 20
4.9339968577
 40
0.078
100
AcDbArc
 50
0.0
 51
90.0
  0
ARC
  5
285
100
AcDbEntity
  8
0
100
AcDbCircle
 62
7
  6
CONTINUOUS
 10
4.7549074197
 20
4.5144968577
 40
0.0625
100
AcDbArc
 50
90.0
 51
270.0
  0
ARC
  5
286
100
AcDbEntity
  8
0
100
AcDbCircle
 62
7
  6
CONTINUOUS
 10
3.6134074197
 20
4.5144968577
 40
0.045
100
AcDbArc
 50
90.0
 51
270.0
  0
ARC
  5
287
100
AcDbEntity
  8
0
100
AcDbCircle
 62
7
  6
CONTINUOUS
 10
7.061872244
 20
3.9922065517
 40
0.6851795341
100
AcDbArc
 50
52.5181778435
 51
53.0213685942
  0
ARC
  5
288
100
AcDbEntity
  8
0
100
AcDbCircle
 62
7
  6
CONTINUOUS
 10
6.8178309706
 20
4.1695129154
 40
0.6851795341
100
AcDbArc
 50
54.9786313913
 51
55.4818221565
  0
ARC
  5
289
100
AcDbEntity
  8
0
100
AcDbCircle
 62
7
  6
CONTINUOUS
 10
7.2421191018
 20
3.9578226247
 40
0.6851795341
100
AcDbArc
 50
105.3786313941
 51
105.8818221565
  0
ARC
  5
28A
100
AcDbEntity
  8
0
100
AcDbCircle
 62
7
  6
CONTINUOUS
 10
7.1724501598
 20
3.9638149686
 40
0.685179534
100
AcDbArc
 50
98.178631394
 51
98.6818221565
  0
ARC
  5
28B
100
AcDbEntity
  8
0
100
AcDbCircle
 62
7
  6
CONTINUOUS
 10
6.7917441428
 20
4.2054183537
 40
0.685179534
100
AcDbArc
 50
16.5181778435
 51
17.0213685943
  0
ARC
  5
28C
100
AcDbEntity
  8
0
100
AcDbCircle
 62
7
  6
CONTINUOUS
 10
6.9755210743
 20
4.0328403279
 40
0.685179534
100
AcDbArc
 50
76.578631394
 51
77.0818221565
  0
ARC
  5
28D
100
AcDbEntity
  8
0
100
AcDbCircle
 62
7
  6
CONTINUOUS
 10
7.128854717
 20
3.9721312441
 40
0.685179534
100
AcDbArc
 50
59.7181778435
 51
60.2213685943
  0
ARC
  5
28E
100
AcDbEntity
  8
0
100
AcDbCircle
 62
7
  6
CONTINUOUS
 10
6.9979340512
 20
4.0205186896
 40
0.685179534
100
AcDbArc
 50
45.3181778435
 51
45.8213685943
  0
ARC
  5
28F
100
AcDbEntity
  8
0
100
AcDbCircle
 62
7
  6
CONTINUOUS
 10
6.864515402
 20
4.1174530123
 40
0.685179534
100
AcDbArc
 50
62.178631394
 51
62.6818221565
  0
ARC
  5
290
100
AcDbEntity
  8
0
100
AcDbCircle
 62
7
  6
CONTINUOUS
 10
6.8831599672
 20
4.0999446002
 40
0.685179534
100
AcDbArc
 50
30.9181778435
 51
31.4213685943
  0
ARC
  5
291
100
AcDbEntity
  8
0
100
AcDbCircle
 62
7
  6
CONTINUOUS
 10
7.0380916894
 20
4.0016219395
 40
0.685179534
100
AcDbArc
 50
83.778631394
 51
84.2818221565
  0
ARC
  5
292
100
AcDbEntity
  8
0
100
AcDbCircle
 62
7
  6
CONTINUOUS
 10
6.9173565487
 20
4.0716547276
 40
0.685179534
100
AcDbArc
 50
69.378631394
 51
69.8818221565
  0
ARC
  5
293
100
AcDbEntity
  8
0
100
AcDbCircle
 62
7
  6
CONTINUOUS
 10
6.834134132
 20
4.1498057788
 40
0.685179534
100
AcDbArc
 50
23.7181778435
 51
24.2213685943
  0
ARC
  5
294
100
AcDbEntity
  8
0
100
AcDbCircle
 62
7
  6
CONTINUOUS
 10
7.1040816181
 20
3.9784918948
 40
0.685179534
100
AcDbArc
 50
90.978631394
 51
91.4818221565
  0
ARC
  5
295
100
AcDbEntity
  8
0
100
AcDbCircle
 62
7
  6
CONTINUOUS
 10
6.9380484818
 20
4.0566211582
 40
0.6851795339
100
AcDbArc
 50
38.1181778435
 51
38.6213685943
  0
ARC
  5
296
100
AcDbEntity
  8
0
100
AcDbCircle
 62
7
  6
CONTINUOUS
 10
7.1978251163
 20
3.9606093662
 40
0.6851795339
100
AcDbArc
 50
66.9181778435
 51
67.4213685943
  0
ARC
  5
297
100
AcDbEntity
  8
0
100
AcDbCircle
 62
7
  6
CONTINUOUS
 10
6.7566585152
 20
4.2659052811
 40
0.6851795341
100
AcDbArc
 50
9.3181778435
 51
9.8213685942
  0
ARC
  5
298
100
AcDbEntity
  8
0
100
AcDbCircle
 62
7
  6
CONTINUOUS
 10
6.7780394959
 20
4.2270134215
 40
0.6851795341
100
AcDbArc
 50
47.7786313913
 51
48.2818221565
  0
ARC
  5
299
100
AcDbEntity
  8
0
100
AcDbCircle
 62
7
  6
CONTINUOUS
 10
6.7104897096
 20
4.3976247065
 40
0.6851795341
100
AcDbArc
 50
354.9181778435
 51
355.4213685943
  0
ARC
  5
29A
100
AcDbEntity
  8
0
100
AcDbCircle
 62
7
  6
CONTINUOUS
 10
6.7215269554
 20
4.3546374726
 40
0.685179534
100
AcDbArc
 50
33.3786313913
 51
33.8818221565
  0
ARC
  5
29B
100
AcDbEntity
  8
0
100
AcDbCircle
 62
7
  6
CONTINUOUS
 10
6.7294305706
 20
4.3303126463
 40
0.685179534
100
AcDbArc
 50
2.1181778435
 51
2.6213685943
  0
ARC
  5
29C
100
AcDbEntity
  8
0
100
AcDbCircle
 62
7
  6
CONTINUOUS
 10
6.7001346414
 20
4.4667799103
 40
0.6851795339
100
AcDbArc
 50
347.7181778435
 51
348.2213685943
  0
ARC
  5
29D
100
AcDbEntity
  8
0
100
AcDbCircle
 62
7
  6
CONTINUOUS
 10
6.6985286711
 20
4.4923060766
 40
0.6851795339
100
AcDbArc
 50
18.978631394
 51
19.4818221565
  0
ARC
  5
29E
100
AcDbEntity
  8
0
100
AcDbCircle
 62
7
  6
CONTINUOUS
 10
6.7457685134
 20
4.2890477133
 40
0.6851795339
100
AcDbArc
 50
40.5786313912
 51
41.0818221565
  0
ARC
  5
29F
100
AcDbEntity
  8
0
100
AcDbCircle
 62
7
  6
CONTINUOUS
 10
6.7056971261
 20
4.4227483099
 40
0.6851795339
100
AcDbArc
 50
26.1786313912
 51
26.6818221565
  0
ARC
  5
2A0
100
AcDbEntity
  8
0
100
AcDbCircle
 62
7
  6
CONTINUOUS
 10
7.6266548724
 20
4.0999446001
 40
0.6851795341
100
AcDbArc
 50
148.5786313941
 51
149.0818221564
  0
ARC
  5
2A1
100
AcDbEntity
  8
0
100
AcDbCircle
 62
7
  6
CONTINUOUS
 10
7.5342937652
 20
4.0328403278
 40
0.6851795341
100
AcDbArc
 50
102.9181778435
 51
103.4213685942
  0
ARC
  5
2A2
100
AcDbEntity
  8
0
100
AcDbCircle
 62
7
  6
CONTINUOUS
 10
7.3119897232
 20
3.960609366
 40
0.6851795341
100
AcDbArc
 50
112.5786313941
 51
113.0818221565
  0
ARC
  5
2A3
100
AcDbEntity
  8
0
100
AcDbCircle
 62
7
  6
CONTINUOUS
 10
7.6919838689
 20
4.1695129155
 40
0.685179534
100
AcDbArc
 50
124.5181778435
 51
125.0213685911
  0
ARC
  5
2A4
100
AcDbEntity
  8
0
100
AcDbCircle
 62
7
  6
CONTINUOUS
 10
7.5924582908
 20
4.0716547276
 40
0.685179534
100
AcDbArc
 50
110.1181778435
 51
110.6213685942
  0
ARC
  5
2A5
100
AcDbEntity
  8
0
100
AcDbCircle
 62
7
  6
CONTINUOUS
 10
7.4717231501
 20
4.0016219394
 40
0.685179534
100
AcDbArc
 50
95.7181778435
 51
96.2213685943
  0
ARC
  5
2A6
100
AcDbEntity
  8
0
100
AcDbCircle
 62
7
  6
CONTINUOUS
 10
7.3373646796
 20
3.9638149685
 40
0.685179534
100
AcDbArc
 50
81.3181778435
 51
81.8213685943
  0
ARC
  5
2A7
100
AcDbEntity
  8
0
100
AcDbCircle
 62
7
  6
CONTINUOUS
 10
7.6452994375
 20
4.1174530122
 40
0.685179534
100
AcDbArc
 50
117.3181778435
 51
117.8213685911
  0
ARC
  5
2A8
100
AcDbEntity
  8
0
100
AcDbCircle
 62
7
  6
CONTINUOUS
 10
7.4057332214
 20
3.9784918948
 40
0.685179534
100
AcDbArc
 50
88.5181778435
 51
89.0213685943
  0
ARC
  5
2A9
100
AcDbEntity
  8
0
100
AcDbCircle
 62
7
  6
CONTINUOUS
 10
7.2676957377
 20
3.9578226247
 40
0.685179534
100
AcDbArc
 50
74.1181778435
 51
74.6213685943
  0
ARC
  5
2AA
100
AcDbEntity
  8
0
100
AcDbCircle
 62
7
  6
CONTINUOUS
 10
7.5118807883
 20
4.0205186896
 40
0.685179534
100
AcDbArc
 50
134.1786313941
 51
134.6818221565
  0
ARC
  5
2AB
100
AcDbEntity
  8
0
100
AcDbCircle
 62
7
  6
CONTINUOUS
 10
7.3809601225
 20
3.9721312441
 40
0.685179534
100
AcDbArc
 50
119.778631394
 51
120.2818221565
  0
ARC
  5
2AC
100
AcDbEntity
  8
0
100
AcDbCircle
 62
7
  6
CONTINUOUS
 10
7.5717663576
 20
4.0566211582
 40
0.685179534
100
AcDbArc
 50
141.378631394
 51
141.8818221565
  0
ARC
  5
2AD
100
AcDbEntity
  8
0
100
AcDbCircle
 62
7
  6
CONTINUOUS
 10
7.6756807075
 20
4.1498057788
 40
0.685179534
100
AcDbArc
 50
155.778631394
 51
156.2818221565
  0
ARC
  5
2AE
100
AcDbEntity
  8
0
100
AcDbCircle
 62
7
  6
CONTINUOUS
 10
7.4479425954
 20
3.9922065518
 40
0.6851795339
100
AcDbArc
 50
126.978631394
 51
127.4818221565
  0
ARC
  5
2AF
100
AcDbEntity
  8
0
100
AcDbCircle
 62
7
  6
CONTINUOUS
 10
7.7180706965
 20
4.2054183537
 40
0.6851795339
100
AcDbArc
 50
162.978631394
 51
163.4818221565
  0
ARC
  5
2B0
100
AcDbEntity
  8
0
100
AcDbCircle
 62
7
  6
CONTINUOUS
 10
7.7640463262
 20
4.2890477132
 40
0.6851795341
100
AcDbArc
 50
138.9181778435
 51
139.421368591
  0
ARC
  5
2B1
100
AcDbEntity
  8
0
100
AcDbCircle
 62
7
  6
CONTINUOUS
 10
7.7993251298
 20
4.3976247065
 40
0.685179534
100
AcDbArc
 50
184.578631394
 51
185.0818221565
  0
ARC
  5
2B2
100
AcDbEntity
  8
0
100
AcDbCircle
 62
7
  6
CONTINUOUS
 10
7.7531563242
 20
4.2659052811
 40
0.685179534
100
AcDbArc
 50
170.1786313941
 51
170.6818221565
  0
ARC
  5
2B3
100
AcDbEntity
  8
0
100
AcDbCircle
 62
7
  6
CONTINUOUS
 10
7.7317753435
 20
4.2270134216
 40
0.685179534
100
AcDbArc
 50
131.7181778435
 51
132.2213685911
  0
ARC
  5
2B4
100
AcDbEntity
  8
0
100
AcDbCircle
 62
7
  6
CONTINUOUS
 10
7.8096801981
 20
4.4667799103
 40
0.685179534
100
AcDbArc
 50
191.778631394
 51
192.2818221565
  0
ARC
  5
2B5
100
AcDbEntity
  8
0
100
AcDbCircle
 62
7
  6
CONTINUOUS
 10
7.7803842689
 20
4.3303126463
 40
0.685179534
100
AcDbArc
 50
177.378631394
 51
177.8818221565
  0
ARC
  5
2B6
100
AcDbEntity
  8
0
100
AcDbCircle
 62
7
  6
CONTINUOUS
 10
7.788287884
 20
4.3546374726
 40
0.685179534
100
AcDbArc
 50
146.1181778435
 51
146.6213685911
  0
ARC
  5
2B7
100
AcDbEntity
  8
0
100
AcDbCircle
 62
7
  6
CONTINUOUS
 10
7.8041177134
 20
4.4227483099
 40
0.685179534
100
AcDbArc
 50
153.3181778435
 51
153.8213685943
  0
ARC
  5
2B8
100
AcDbEntity
  8
0
100
AcDbCircle
 62
7
  6
CONTINUOUS
 10
7.8112861683
 20
4.4923060766
 40
0.6851795339
100
AcDbArc
 50
160.5181778435
 51
161.0213685943
  0
ARC
  5
2B9
100
AcDbEntity
  8
0
100
AcDbCircle
 62
7
  6
CONTINUOUS
 10
6.7104897096
 20
4.631369009
 40
0.6851795341
100
AcDbArc
 50
4.5786313941
 51
5.0818221565
  0
ARC
  5
2BA
100
AcDbEntity
  8
0
100
AcDbCircle
 62
7
  6
CONTINUOUS
 10
6.698528671
 20
4.5366876389
 40
0.6851795341
100
AcDbArc
 50
340.5181778435
 51
341.0213685942
  0
ARC
  5
2BB
100
AcDbEntity
  8
0
100
AcDbCircle
 62
7
  6
CONTINUOUS
 10
6.7294305705
 20
4.6986810692
 40
0.685179534
100
AcDbArc
 50
357.378631394
 51
357.8818221565
  0
ARC
  5
2BC
100
AcDbEntity
  8
0
100
AcDbCircle
 62
7
  6
CONTINUOUS
 10
6.7457685133
 20
4.7399460023
 40
0.685179534
100
AcDbArc
 50
318.9181778435
 51
319.4213685943
  0
ARC
  5
2BD
100
AcDbEntity
  8
0
100
AcDbCircle
 62
7
  6
CONTINUOUS
 10
6.7001346414
 20
4.5622138052
 40
0.6851795339
100
AcDbArc
 50
11.778631394
 51
12.2818221565
  0
ARC
  5
2BE
100
AcDbEntity
  8
0
100
AcDbCircle
 62
7
  6
CONTINUOUS
 10
6.7056971261
 20
4.6062454056
 40
0.685179534
100
AcDbArc
 50
333.3181778435
 51
333.8213685943
  0
ARC
  5
2BF
100
AcDbEntity
  8
0
100
AcDbCircle
 62
7
  6
CONTINUOUS
 10
6.7215269554
 20
4.6743562429
 40
0.6851795339
100
AcDbArc
 50
326.1181778435
 51
326.6213685943
  0
ARC
  5
2C0
100
AcDbEntity
  8
0
100
AcDbCircle
 62
7
  6
CONTINUOUS
 10
6.7566585153
 20
4.7630884343
 40
0.6851795339
100
AcDbArc
 50
350.178631394
 51
350.6818221565
  0
ARC
  5
2C1
100
AcDbEntity
  8
0
100
AcDbCircle
 62
7
  6
CONTINUOUS
 10
6.8831599671
 20
4.9290491154
 40
0.6851795341
100
AcDbArc
 50
328.5786313941
 51
329.0818221564
  0
ARC
  5
2C2
100
AcDbEntity
  8
0
100
AcDbCircle
 62
7
  6
CONTINUOUS
 10
6.8341341319
 20
4.8791879367
 40
0.685179534
100
AcDbArc
 50
335.7786313941
 51
336.2818221565
  0
ARC
  5
2C3
100
AcDbEntity
  8
0
100
AcDbCircle
 62
7
  6
CONTINUOUS
 10
6.7780394959
 20
4.8019802939
 40
0.685179534
100
AcDbArc
 50
311.7181778435
 51
312.2213685943
  0
ARC
  5
2C4
100
AcDbEntity
  8
0
100
AcDbCircle
 62
7
  6
CONTINUOUS
 10
6.9755210742
 20
4.9961533876
 40
0.685179534
100
AcDbArc
 50
282.9181778435
 51
283.4213685943
  0
ARC
  5
2C5
100
AcDbEntity
  8
0
100
AcDbCircle
 62
7
  6
CONTINUOUS
 10
7.0380916894
 20
5.0273717761
 40
0.685179534
100
AcDbArc
 50
275.7181778435
 51
276.2213685943
  0
ARC
  5
2C6
100
AcDbEntity
  8
0
100
AcDbCircle
 62
7
  6
CONTINUOUS
 10
6.9979340511
 20
5.0084750259
 40
0.685179534
100
AcDbArc
 50
314.1786313941
 51
314.6818221565
  0
ARC
  5
2C7
100
AcDbEntity
  8
0
100
AcDbCircle
 62
7
  6
CONTINUOUS
 10
7.1724501598
 20
5.0651787469
 40
0.685179534
100
AcDbArc
 50
261.3181778435
 51
261.8213685943
  0
ARC
  5
2C8
100
AcDbEntity
  8
0
100
AcDbCircle
 62
7
  6
CONTINUOUS
 10
7.061872244
 20
5.0367871637
 40
0.685179534
100
AcDbArc
 50
306.978631394
 51
307.4818221565
  0
ARC
  5
2C9
100
AcDbEntity
  8
0
100
AcDbCircle
 62
7
  6
CONTINUOUS
 10
7.1040816181
 20
5.0505018207
 40
0.685179534
100
AcDbArc
 50
268.5181778435
 51
269.0213685943
  0
ARC
  5
2CA
100
AcDbEntity
  8
0
100
AcDbCircle
 62
7
  6
CONTINUOUS
 10
6.8178309706
 20
4.8594808
 40
0.685179534
100
AcDbArc
 50
304.5181778435
 51
305.0213685943
  0
ARC
  5
2CB
100
AcDbEntity
  8
0
100
AcDbCircle
 62
7
  6
CONTINUOUS
 10
6.864515402
 20
4.9115407032
 40
0.685179534
100
AcDbArc
 50
297.3181778435
 51
297.8213685943
  0
ARC
  5
2CC
100
AcDbEntity
  8
0
100
AcDbCircle
 62
7
  6
CONTINUOUS
 10
6.9380484818
 20
4.9723725573
 40
0.685179534
100
AcDbArc
 50
321.378631394
 51
321.8818221565
  0
ARC
  5
2CD
100
AcDbEntity
  8
0
100
AcDbCircle
 62
7
  6
CONTINUOUS
 10
7.128854717
 20
5.0568624714
 40
0.685179534
100
AcDbArc
 50
299.778631394
 51
300.2818221565
  0
ARC
  5
2CE
100
AcDbEntity
  8
0
100
AcDbCircle
 62
7
  6
CONTINUOUS
 10
6.9173565487
 20
4.9573389878
 40
0.6851795339
100
AcDbArc
 50
290.1181778435
 51
290.6213685943
  0
ARC
  5
2CF
100
AcDbEntity
  8
0
100
AcDbCircle
 62
7
  6
CONTINUOUS
 10
7.2421191018
 20
5.0711710907
 40
0.6851795339
100
AcDbArc
 50
254.1181778435
 51
254.6213685943
  0
ARC
  5
2D0
100
AcDbEntity
  8
0
100
AcDbCircle
 62
7
  6
CONTINUOUS
 10
6.7917441429
 20
4.8235753618
 40
0.6851795339
100
AcDbArc
 50
342.978631394
 51
343.4818221565
  0
ARC
  5
2D1
100
AcDbEntity
  8
0
100
AcDbCircle
 62
7
  6
CONTINUOUS
 10
7.1978251164
 20
5.0683843493
 40
0.6851795339
100
AcDbArc
 50
292.578631394
 51
293.0818221565
  0
CIRCLE
  5
2D2
100
AcDbEntity
  8
0
100
AcDbCircle
 62
7
  6
CONTINUOUS
 10
7.2549074197
 20
4.5144968577
 40
0.47
  0
CIRCLE
  5
2D3
100
AcDbEntity
  8
0
100
AcDbCircle
 62
7
  6
CONTINUOUS
 10
7.2549074197
 20
4.5144968577
 40
0.46875
  0
CIRCLE
  5
2D4
100
AcDbEntity
  8
0
100
AcDbCircle
 62
7
  6
CONTINUOUS
 10
7.2549074197
 20
4.5144968577
 40
0.45375
  0
CIRCLE
  5
2D5
100
AcDbEntity
  8
0
100
AcDbCircle
 62
7
  6
CONTINUOUS
 10
7.2549074197
 20
4.5144968577
 40
0.44625
  0
CIRCLE
  5
2D6
100
AcDbEntity
  8
0
100
AcDbCircle
 62
7
  6
CONTINUOUS
 10
7.2549074197
 20
4.5144968577
 40
0.43125
  0
CIRCLE
  5
2D7
100
AcDbEntity
  8
0
100
AcDbCircle
 62
7
  6
CONTINUOUS
 10
7.2549074197
 20
4.5144968577
 40
0.41625
  0
CIRCLE
  5
2D8
100
AcDbEntity
  8
0
100
AcDbCircle
 62
7
  6
CONTINUOUS
 10
7.2549074197
 20
4.5144968577
 40
0.235
  0
ARC
  5
2D9
100
AcDbEntity
  8
0
100
AcDbCircle
 62
7
  6
CONTINUOUS
 10
7.2549074197
 20
4.5144968577
 40
0.225
100
AcDbArc
 50
77.2576003066
 51
84.432195712
  0
ARC
  5
2DA
100
AcDbEntity
  8
0
100
AcDbCircle
 62
7
  6
CONTINUOUS
 10
7.2549074197
 20
4.5144968577
 40
0.225
100
AcDbArc
 50
73.967804288
 51
77.232195712
  0
ARC
  5
2DB
100
AcDbEntity
  8
0
100
AcDbCircle
 62
7
  6
CONTINUOUS
 10
7.2549074197
 20
4.5144968577
 40
0.225
100
AcDbArc
 50
70.0576003076
 51
73.94239971
  0
ARC
  5
2DC
100
AcDbEntity
  8
0
100
AcDbCircle
 62
7
  6
CONTINUOUS
 10
7.2549074197
 20
4.5144968577
 40
0.225
100
AcDbArc
 50
66.767804288
 51
70.032195712
  0
ARC
  5
2DD
100
AcDbEntity
  8
0
100
AcDbCircle
 62
7
  6
CONTINUOUS
 10
7.2549074197
 20
4.5144968577
 40
0.225
100
AcDbArc
 50
62.8576002887
 51
66.7423996891
  0
ARC
  5
2DE
100
AcDbEntity
  8
0
100
AcDbCircle
 62
7
  6
CONTINUOUS
 10
7.2549074197
 20
4.5144968577
 40
0.225
100
AcDbArc
 50
59.567804288
 51
62.832195712
  0
ARC
  5
2DF
100
AcDbEntity
  8
0
100
AcDbCircle
 62
7
  6
CONTINUOUS
 10
7.2549074197
 20
4.5144968577
 40
0.225
100
AcDbArc
 50
55.6576002887
 51
59.5423996892
  0
ARC
  5
2E0
100
AcDbEntity
  8
0
100
AcDbCircle
 62
7
  6
CONTINUOUS
 10
7.2549074197
 20
4.5144968577
 40
0.225
100
AcDbArc
 50
52.367804288
 51
55.632195712
  0
ARC
  5
2E1
100
AcDbEntity
  8
0
100
AcDbCircle
 62
7
  6
CONTINUOUS
 10
7.2549074197
 20
4.5144968577
 40
0.225
100
AcDbArc
 50
45.167804288
 51
52.3423996891
  0
ARC
  5
2E2
100
AcDbEntity
  8
0
100
AcDbCircle
 62
7
  6
CONTINUOUS
 10
7.2549074197
 20
4.5144968577
 40
0.225
100
AcDbArc
 50
41.2576002887
 51
45.1423996892
  0
ARC
  5
2E3
100
AcDbEntity
  8
0
100
AcDbCircle
 62
7
  6
CONTINUOUS
 10
7.2549074197
 20
4.5144968577
 40
0.225
100
AcDbArc
 50
37.967804288
 51
41.232195712
  0
ARC
  5
2E4
100
AcDbEntity
  8
0
100
AcDbCircle
 62
7
  6
CONTINUOUS
 10
7.2549074197
 20
4.5144968577
 40
0.225
100
AcDbArc
 50
34.0576002887
 51
37.9423996892
  0
ARC
  5
2E5
100
AcDbEntity
  8
0
100
AcDbCircle
 62
7
  6
CONTINUOUS
 10
7.2549074197
 20
4.5144968577
 40
0.225
100
AcDbArc
 50
30.767804288
 51
34.032195712
  0
ARC
  5
2E6
100
AcDbEntity
  8
0
100
AcDbCircle
 62
7
  6
CONTINUOUS
 10
7.2549074197
 20
4.5144968577
 40
0.225
100
AcDbArc
 50
26.8576002887
 51
30.7423996892
  0
ARC
  5
2E7
100
AcDbEntity
  8
0
100
AcDbCircle
 62
7
  6
CONTINUOUS
 10
7.2549074197
 20
4.5144968577
 40
0.225
100
AcDbArc
 50
23.567804288
 51
26.832195712
  0
ARC
  5
2E8
100
AcDbEntity
  8
0
100
AcDbCircle
 62
7
  6
CONTINUOUS
 10
7.2549074197
 20
4.5144968577
 40
0.225
100
AcDbArc
 50
19.6576002887
 51
23.5423996892
  0
ARC
  5
2E9
100
AcDbEntity
  8
0
100
AcDbCircle
 62
7
  6
CONTINUOUS
 10
7.2549074197
 20
4.5144968577
 40
0.225
100
AcDbArc
 50
16.367804288
 51
19.632195712
  0
ARC
  5
2EA
100
AcDbEntity
  8
0
100
AcDbCircle
 62
7
  6
CONTINUOUS
 10
7.2549074197
 20
4.5144968577
 40
0.225
100
AcDbArc
 50
12.4576002887
 51
16.3423996892
  0
ARC
  5
2EB
100
AcDbEntity
  8
0
100
AcDbCircle
 62
7
  6
CONTINUOUS
 10
7.2549074197
 20
4.5144968577
 40
0.225
100
AcDbArc
 50
9.167804288
 51
12.432195712
  0
ARC
  5
2EC
100
AcDbEntity
  8
0
100
AcDbCircle
 62
7
  6
CONTINUOUS
 10
7.2549074197
 20
4.5144968577
 40
0.225
100
AcDbArc
 50
5.2576002887
 51
9.1423996892
  0
ARC
  5
2ED
100
AcDbEntity
  8
0
100
AcDbCircle
 62
7
  6
CONTINUOUS
 10
7.2549074197
 20
4.5144968577
 40
0.225
100
AcDbArc
 50
354.767804288
 51
5.232195712
  0
ARC
  5
2EE
100
AcDbEntity
  8
0
100
AcDbCircle
 62
7
  6
CONTINUOUS
 10
7.2549074197
 20
4.5144968577
 40
0.225
100
AcDbArc
 50
343.6576002887
 51
354.7423996892
  0
ARC
  5
2EF
100
AcDbEntity
  8
0
100
AcDbCircle
 62
7
  6
CONTINUOUS
 10
7.2549074197
 20
4.5144968577
 40
0.225
100
AcDbArc
 50
84.4576003068
 51
98.832195712
  0
ARC
  5
2F0
100
AcDbEntity
  8
0
100
AcDbCircle
 62
7
  6
CONTINUOUS
 10
7.2549074197
 20
4.5144968577
 40
0.225
100
AcDbArc
 50
340.367804288
 51
343.632195712
  0
ARC
  5
2F1
100
AcDbEntity
  8
0
100
AcDbCircle
 62
7
  6
CONTINUOUS
 10
7.2549074197
 20
4.5144968577
 40
0.225
100
AcDbArc
 50
336.4576002887
 51
340.3423996892
  0
ARC
  5
2F2
100
AcDbEntity
  8
0
100
AcDbCircle
 62
7
  6
CONTINUOUS
 10
7.2549074197
 20
4.5144968577
 40
0.225
100
AcDbArc
 50
333.167804288
 51
336.432195712
  0
ARC
  5
2F3
100
AcDbEntity
  8
0
100
AcDbCircle
 62
7
  6
CONTINUOUS
 10
7.2549074197
 20
4.5144968577
 40
0.225
100
AcDbArc
 50
98.8576003073
 51
102.7423997091
  0
ARC
  5
2F4
100
AcDbEntity
  8
0
100
AcDbCircle
 62
7
  6
CONTINUOUS
 10
7.2549074197
 20
4.5144968577
 40
0.225
100
AcDbArc
 50
102.7678038187
 51
106.0321961811
  0
ARC
  5
2F5
100
AcDbEntity
  8
0
100
AcDbCircle
 62
7
  6
CONTINUOUS
 10
7.2549074197
 20
4.5144968577
 40
0.225
100
AcDbArc
 50
329.2576002887
 51
333.1423996892
  0
ARC
  5
2F6
100
AcDbEntity
  8
0
100
AcDbCircle
 62
7
  6
CONTINUOUS
 10
7.2549074197
 20
4.5144968577
 40
0.225
100
AcDbArc
 50
325.967804288
 51
329.232195712
  0
ARC
  5
2F7
100
AcDbEntity
  8
0
100
AcDbCircle
 62
7
  6
CONTINUOUS
 10
7.2549074197
 20
4.5144968577
 40
0.225
100
AcDbArc
 50
106.0576002887
 51
109.9423996892
  0
ARC
  5
2F8
100
AcDbEntity
  8
0
100
AcDbCircle
 62
7
  6
CONTINUOUS
 10
7.2549074197
 20
4.5144968577
 40
0.225
100
AcDbArc
 50
322.0576002887
 51
325.9423996892
  0
ARC
  5
2F9
100
AcDbEntity
  8
0
100
AcDbCircle
 62
7
  6
CONTINUOUS
 10
7.2549074197
 20
4.5144968577
 40
0.225
100
AcDbArc
 50
318.767804288
 51
322.032195712
  0
ARC
  5
2FA
100
AcDbEntity
  8
0
100
AcDbCircle
 62
7
  6
CONTINUOUS
 10
7.2549074197
 20
4.5144968577
 40
0.225
100
AcDbArc
 50
307.6576002887
 51
318.7423996892
  0
ARC
  5
2FB
100
AcDbEntity
  8
0
100
AcDbCircle
 62
7
  6
CONTINUOUS
 10
7.2549074197
 20
4.5144968577
 40
0.225
100
AcDbArc
 50
304.367804288
 51
307.632195712
  0
ARC
  5
2FC
100
AcDbEntity
  8
0
100
AcDbCircle
 62
7
  6
CONTINUOUS
 10
7.2549074197
 20
4.5144968577
 40
0.225
100
AcDbArc
 50
300.4576002887
 51
304.3423996892
  0
ARC
  5
2FD
100
AcDbEntity
  8
0
100
AcDbCircle
 62
7
  6
CONTINUOUS
 10
7.2549074197
 20
4.5144968577
 40
0.225
100
AcDbArc
 50
297.167804288
 51
300.432195712
  0
ARC
  5
2FE
100
AcDbEntity
  8
0
100
AcDbCircle
 62
7
  6
CONTINUOUS
 10
7.2549074197
 20
4.5144968577
 40
0.225
100
AcDbArc
 50
293.2576002887
 51
297.1423996892
  0
ARC
  5
2FF
100
AcDbEntity
  8
0
100
AcDbCircle
 62
7
  6
CONTINUOUS
 10
7.2549074197
 20
4.5144968577
 40
0.225
100
AcDbArc
 50
282.767804288
 51
293.232195712
  0
ARC
  5
300
100
AcDbEntity
  8
0
100
AcDbCircle
 62
7
  6
CONTINUOUS
 10
7.2549074197
 20
4.5144968577
 40
0.225
100
AcDbArc
 50
275.567804288
 51
282.7423996892
  0
ARC
  5
301
100
AcDbEntity
  8
0
100
AcDbCircle
 62
7
  6
CONTINUOUS
 10
7.2549074197
 20
4.5144968577
 40
0.225
100
AcDbArc
 50
109.9678038187
 51
275.5423996892
  0
CIRCLE
  5
302
100
AcDbEntity
  8
0
100
AcDbCircle
 62
7
  6
CONTINUOUS
 10
7.2549074197
 20
4.5144968577
 40
0.2137333333
  0
ARC
  5
303
100
AcDbEntity
  8
0
100
AcDbCircle
 62
7
  6
CONTINUOUS
 10
7.8096801983
 20
4.5622138051
 40
0.6851795341
100
AcDbArc
 50
167.7181778436
 51
168.2213685942
  0
ARC
  5
304
100
AcDbEntity
  8
0
100
AcDbCircle
 62
7
  6
CONTINUOUS
 10
7.8041177135
 20
4.6062454057
 40
0.6851795341
100
AcDbArc
 50
206.1786313941
 51
206.6818221565
  0
ARC
  5
305
100
AcDbEntity
  8
0
100
AcDbCircle
 62
7
  6
CONTINUOUS
 10
7.7993251298
 20
4.631369009
 40
0.6851795341
100
AcDbArc
 50
174.9181778435
 51
175.4213685943
  0
ARC
  5
306
100
AcDbEntity
  8
0
100
AcDbCircle
 62
7
  6
CONTINUOUS
 10
7.8112861684
 20
4.5366876389
 40
0.6851795339
100
AcDbArc
 50
198.978631394
 51
199.4818221565
  0
ARC
  5
307
100
AcDbEntity
  8
0
100
AcDbCircle
 62
7
  6
CONTINUOUS
 10
7.7531563243
 20
4.7630884344
 40
0.6851795341
100
AcDbArc
 50
189.3181778435
 51
189.8213685942
  0
ARC
  5
308
100
AcDbEntity
  8
0
100
AcDbCircle
 62
7
  6
CONTINUOUS
 10
7.7640463261
 20
4.7399460022
 40
0.685179534
100
AcDbArc
 50
220.578631394
 51
221.0818221565
  0
ARC
  5
309
100
AcDbEntity
  8
0
100
AcDbCircle
 62
7
  6
CONTINUOUS
 10
7.7803842688
 20
4.6986810692
 40
0.685179534
100
AcDbArc
 50
182.1181778435
 51
182.6213685943
  0
ARC
  5
30A
100
AcDbEntity
  8
0
100
AcDbCircle
 62
7
  6
CONTINUOUS
 10
7.788287884
 20
4.6743562429
 40
0.6851795339
100
AcDbArc
 50
213.378631394
 51
213.8818221565
  0
ARC
  5
30B
100
AcDbEntity
  8
0
100
AcDbCircle
 62
7
  6
CONTINUOUS
 10
7.7317753435
 20
4.8019802939
 40
0.6851795341
100
AcDbArc
 50
227.7786313941
 51
228.2818221565
  0
ARC
  5
30C
100
AcDbEntity
  8
0
100
AcDbCircle
 62
7
  6
CONTINUOUS
 10
7.6919838689
 20
4.8594808
 40
0.6851795341
100
AcDbArc
 50
234.9786313941
 51
235.4818221565
  0
ARC
  5
30D
100
AcDbEntity
  8
0
100
AcDbCircle
 62
7
  6
CONTINUOUS
 10
7.7180706967
 20
4.8235753618
 40
0.6851795341
100
AcDbArc
 50
196.5181778435
 51
197.0213685943
  0
ARC
  5
30E
100
AcDbEntity
  8
0
100
AcDbCircle
 62
7
  6
CONTINUOUS
 10
7.4479425954
 20
5.0367871637
 40
0.685179534
100
AcDbArc
 50
232.5181778435
 51
233.0213685943
  0
ARC
  5
30F
100
AcDbEntity
  8
0
100
AcDbCircle
 62
7
  6
CONTINUOUS
 10
7.5118807883
 20
5.0084750259
 40
0.685179534
100
AcDbArc
 50
225.3181778435
 51
225.8213685942
  0
ARC
  5
310
100
AcDbEntity
  8
0
100
AcDbCircle
 62
7
  6
CONTINUOUS
 10
7.4717231501
 20
5.0273717761
 40
0.685179534
100
AcDbArc
 50
263.7786313941
 51
264.2818221565
  0
ARC
  5
311
100
AcDbEntity
  8
0
100
AcDbCircle
 62
7
  6
CONTINUOUS
 10
7.3119897231
 20
5.0683843494
 40
0.685179534
100
AcDbArc
 50
246.9181778435
 51
247.4213685943
  0
ARC
  5
312
100
AcDbEntity
  8
0
100
AcDbCircle
 62
7
  6
CONTINUOUS
 10
7.3809601225
 20
5.0568624714
 40
0.685179534
100
AcDbArc
 50
239.7181778435
 51
240.2213685943
  0
ARC
  5
313
100
AcDbEntity
  8
0
100
AcDbCircle
 62
7
  6
CONTINUOUS
 10
7.3373646796
 20
5.0651787469
 40
0.685179534
100
AcDbArc
 50
278.178631394
 51
278.6818221565
  0
ARC
  5
314
100
AcDbEntity
  8
0
100
AcDbCircle
 62
7
  6
CONTINUOUS
 10
7.2676957377
 20
5.0711710907
 40
0.685179534
100
AcDbArc
 50
285.378631394
 51
285.8818221565
  0
ARC
  5
315
100
AcDbEntity
  8
0
100
AcDbCircle
 62
7
  6
CONTINUOUS
 10
7.5342937652
 20
4.9961533875
 40
0.685179534
100
AcDbArc
 50
256.578631394
 51
257.0818221565
  0
ARC
  5
316
100
AcDbEntity
  8
0
100
AcDbCircle
 62
7
  6
CONTINUOUS
 10
7.5924582908
 20
4.9573389878
 40
0.685179534
100
AcDbArc
 50
249.378631394
 51
249.8818221565
  0
ARC
  5
317
100
AcDbEntity
  8
0
100
AcDbCircle
 62
7
  6
CONTINUOUS
 10
7.4057332214
 20
5.0505018207
 40
0.685179534
100
AcDbArc
 50
270.978631394
 51
271.4818221565
  0
ARC
  5
318
100
AcDbEntity
  8
0
100
AcDbCircle
 62
7
  6
CONTINUOUS
 10
7.6452994374
 20
4.9115407032
 40
0.685179534
100
AcDbArc
 50
242.178631394
 51
242.6818221565
  0
ARC
  5
319
100
AcDbEntity
  8
0
100
AcDbCircle
 62
7
  6
CONTINUOUS
 10
7.5717663576
 20
4.9723725572
 40
0.685179534
100
AcDbArc
 50
218.1181778435
 51
218.6213685943
  0
ARC
  5
31A
100
AcDbEntity
  8
0
100
AcDbCircle
 62
7
  6
CONTINUOUS
 10
7.6266548722
 20
4.9290491153
 40
0.6851795339
100
AcDbArc
 50
210.9181778435
 51
211.4213685943
  0
ARC
  5
31B
100
AcDbEntity
  8
0
100
AcDbCircle
 62
7
  6
CONTINUOUS
 10
7.6756807074
 20
4.8791879366
 40
0.6851795339
100
AcDbArc
 50
203.7181778435
 51
204.2213685943
  0
LINE
  5
31C
100
AcDbEntity
  8
0
100
AcDbLine
 62
7
  6
CONTINUOUS
 10
7.3576419862
 20
4.7146733021
 11
7.3567855708
 21
4.7150281517
  0
LINE
  5
31D
100
AcDbEntity
  8
0
100
AcDbLine
 62
7
  6
CONTINUOUS
 10
7.369632548
 20
4.7079654662
 11
7.3688740482
 21
4.7084984237
  0
SPLINE
  5
31E
100
AcDbEntity
  8
0
100
AcDbSpline
 62
7
  6
CONTINUOUS
 70
0
 71
3
 72
9
 73
5
 74
0
 42
0.0000001
 43
0.0000001
 44
0.0000000001
 40
0.0
 40
0.0
 40
0.0
 40
0.0
 40
0.4838122253
 40
1.0
 40
1.0
 40
1.0
 40
1.0
 10
7.3739525521
 20
4.7020819703
 30
0.0
 10
7.3727101158
 20
4.7021345164
 30
0.0
 10
7.3701360749
 20
4.7021137841
 30
0.0
 10
7.3675728244
 20
4.7018954352
 30
0.0
 10
7.3662552176
 20
4.7017398388
 30
0.0
  0
SPLINE
  5
31F
100
AcDbEntity
  8
0
100
AcDbSpline
 62
7
  6
CONTINUOUS
 70
0
 71
3
 72
9
 73
5
 74
0
 42
0.0000001
 43
0.0000001
 44
0.0000000001
 40
0.0
 40
0.0
 40
0.0
 40
0.0
 40
0.516187774
 40
1.0
 40
1.0
 40
1.0
 40
1.0
 10
7.3769203479
 20
4.6949715413
 30
0.0
 10
7.3765001261
 20
4.6962299973
 30
0.0
 10
7.375606315
 20
4.6986422641
 30
0.0
 10
7.3745291009
 20
4.7009801534
 30
0.0
 10
7.3739525521
 20
4.7020819703
 30
0.0
  0
LINE
  5
320
100
AcDbEntity
  8
0
100
AcDbLine
 62
7
  6
CONTINUOUS
 10
7.3819206545
 20
4.7002187956
 11
7.3811154667
 21
4.7006781845
  0
LINE
  5
321
100
AcDbEntity
  8
0
100
AcDbLine
 62
7
  6
CONTINUOUS
 10
7.3929759524
 20
4.6920610372
 11
7.3922902309
 21
4.6926848573
  0
SPLINE
  5
322
100
AcDbEntity
  8
0
100
AcDbSpline
 62
7
  6
CONTINUOUS
 70
0
 71
3
 72
9
 73
5
 74
0
 42
0.0000001
 43
0.0000001
 44
0.0000000001
 40
0.0
 40
0.0
 40
0.0
 40
0.0
 40
0.4838122253
 40
1.0
 40
1.0
 40
1.0
 40
1.0
 10
7.3965244944
 20
4.6856824943
 30
0.0
 10
7.3952984409
 20
4.6858903446
 30
0.0
 10
7.3927420986
 20
4.6861923886
 30
0.0
 10
7.3901716937
 20
4.686297022
 30
0.0
 10
7.3888449753
 20
4.6863077924
 30
0.0
  0
SPLINE
  5
323
100
AcDbEntity
  8
0
100
AcDbSpline
 62
7
  6
CONTINUOUS
 70
0
 71
3
 72
9
 73
5
 74
0
 42
0.0000001
 43
0.0000001
 44
0.0000000001
 40
0.0
 40
0.0
 40
0.0
 40
0.0
 40
0.516187774
 40
1.0
 40
1.0
 40
1.0
 40
1.0
 10
7.3985777151
 20
4.6782561697
 30
0.0
 10
7.3983185333
 20
4.6795573701
 30
0.0
 10
7.3977341074
 20
4.6820626398
 30
0.0
 10
7.3969584027
 20
4.6845171048
 30
0.0
 10
7.3965244944
 20
4.6856824943
 30
0.0
  0
LINE
  5
324
100
AcDbEntity
  8
0
100
AcDbLine
 62
7
  6
CONTINUOUS
 10
7.4041962482
 20
4.6828353432
 11
7.4034549862
 21
4.6833920265
  0
LINE
  5
325
100
AcDbEntity
  8
0
100
AcDbLine
 62
7
  6
CONTINUOUS
 10
7.4141419336
 20
4.6733563149
 11
7.4135398046
 21
4.6740611598
  0
SPLINE
  5
326
100
AcDbEntity
  8
0
100
AcDbSpline
 62
7
  6
CONTINUOUS
 70
0
 71
3
 72
9
 73
5
 74
0
 42
0.0000001
 43
0.0000001
 44
0.0000000001
 40
0.0
 40
0.0
 40
0.0
 40
0.0
 40
0.4838122253
 40
1.0
 40
1.0
 40
1.0
 40
1.0
 10
7.4168630509
 20
4.6665833185
 30
0.0
 10
7.4156727157
 20
4.6669431952
 30
0.0
 10
7.4131743871
 20
4.6675632521
 30
0.0
 10
7.4106373646
 20
4.6679892176
 30
0.0
 10
7.4093224576
 20
4.6681661849
 30
0.0
  0
SPLINE
  5
327
100
AcDbEntity
  8
0
100
AcDbSpline
 62
7
  6
CONTINUOUS
 70
0
 71
3
 72
9
 73
5
 74
0
 42
0.0000001
 43
0.0000001
 44
0.0000000001
 40
0.0
 40
0.0
 40
0.0
 40
0.0
 40
0.516187774
 40
1.0
 40
1.0
 40
1.0
 40
1.0
 10
7.417969316
 20
4.6589582159
 30
0.0
 10
7.4178752616
 20
4.6602816401
 30
0.0
 10
7.4176094376
 20
4.6628404029
 30
0.0
 10
7.4171474756
 20
4.6653727354
 30
0.0
 10
7.4168630509
 20
4.6665833185
 30
0.0
  0
LINE
  5
328
100
AcDbEntity
  8
0
100
AcDbLine
 62
7
  6
CONTINUOUS
 10
7.4241174679
 20
4.6627970924
 11
7.4234518219
 21
4.6634422908
  0
LINE
  5
329
100
AcDbEntity
  8
0
100
AcDbLine
 62
7
  6
CONTINUOUS
 10
7.4327966913
 20
4.6521462842
 11
7.4322876508
 21
4.6529210378
  0
SPLINE
  5
32A
100
AcDbEntity
  8
0
100
AcDbSpline
 62
7
  6
CONTINUOUS
 70
0
 71
3
 72
9
 73
5
 74
0
 42
0.0000001
 43
0.0000001
 44
0.0000000001
 40
0.0
 40
0.0
 40
0.0
 40
0.0
 40
0.4838122253
 40
1.0
 40
1.0
 40
1.0
 40
1.0
 10
7.4346474702
 20
4.6450856484
 30
0.0
 10
7.4335116257
 20
4.6455918759
 30
0.0
 10
7.4311107109
 20
4.646520167
 30
0.0
 10
7.4286470812
 20
4.6472607469
 30
0.0
 10
7.4273647226
 20
4.6476011204
 30
0.0
  0
SPLINE
  5
32B
100
AcDbEntity
  8
0
100
AcDbSpline
 62
7
  6
CONTINUOUS
 70
0
 71
3
 72
9
 73
5
 74
0
 42
0.0000001
 43
0.0000001
 44
0.0000000001
 40
0.0
 40
0.0
 40
0.0
 40
0.0
 40
0.516187774
 40
1.0
 40
1.0
 40
1.0
 40
1.0
 10
7.4347893334
 20
4.6373820202
 30
0.0
 10
7.4348618896
 20
4.638706797
 30
0.0
 10
7.4349188598
 20
4.6412786998
 30
0.0
 10
7.4347779259
 20
4.6438489632
 30
0.0
 10
7.4346474702
 20
4.6450856484
 30
0.0
  0
LINE
  5
32C
100
AcDbEntity
  8
0
100
AcDbLine
 62
7
  6
CONTINUOUS
 10
7.4413701441
 20
4.6404200582
 11
7.4407906117
 21
4.6411435966
  0
LINE
  5
32D
100
AcDbEntity
  8
0
100
AcDbLine
 62
7
  6
CONTINUOUS
 10
7.448646029
 20
4.6287654397
 11
7.4482381048
 21
4.6295978839
  0
SPLINE
  5
32E
100
AcDbEntity
  8
0
100
AcDbSpline
 62
7
  6
CONTINUOUS
 70
0
 71
3
 72
9
 73
5
 74
0
 42
0.0000001
 43
0.0000001
 44
0.0000000001
 40
0.0
 40
0.0
 40
0.0
 40
0.0
 40
0.4838122253
 40
1.0
 40
1.0
 40
1.0
 40
1.0
 10
7.4495972817
 20
4.6215285151
 30
0.0
 10
7.4485338407
 20
4.6221731098
 30
0.0
 10
7.4462682036
 20
4.6233949956
 30
0.0
 10
7.4439168196
 20
4.6244385104
 30
0.0
 10
7.4426872329
 20
4.6249369221
 30
0.0
  0
SPLINE
  5
32F
100
AcDbEntity
  8
0
100
AcDbSpline
 62
7
  6
CONTINUOUS
 70
0
 71
3
 72
9
 73
5
 74
0
 42
0.0000001
 43
0.0000001
 44
0.0000000001
 40
0.0
 40
0.0
 40
0.0
 40
0.0
 40
0.516187774
 40
1.0
 40
1.0
 40
1.0
 40
1.0
 10
7.4487725056
 20
4.6138678521
 30
0.0
 10
7.4490105282
 20
4.6151730889
 30
0.0
 10
7.449389394
 20
4.6177175712
 30
0.0
 10
7.4495717109
 20
4.620285231
 30
0.0
 10
7.4495972817
 20
4.6215285151
 30
0.0
  0
LINE
  5
330
100
AcDbEntity
  8
0
100
AcDbLine
 62
7
  6
CONTINUOUS
 10
7.4556821917
 20
4.61605714
 11
7.4551979125
 21
4.6168476078
  0
LINE
  5
331
100
AcDbEntity
  8
0
100
AcDbLine
 62
7
  6
CONTINUOUS
 10
7.4614399931
 20
4.6035825114
 11
7.4611396184
 21
4.604459518
  0
SPLINE
  5
332
100
AcDbEntity
  8
0
100
AcDbSpline
 62
7
  6
CONTINUOUS
 70
0
 71
3
 72
9
 73
5
 74
0
 42
0.0000001
 43
0.0000001
 44
0.0000000001
 40
0.0
 40
0.0
 40
0.0
 40
0.0
 40
0.4838122253
 40
1.0
 40
1.0
 40
1.0
 40
1.0
 10
7.4614767177
 20
4.5962834285
 30
0.0
 10
7.4605024514
 20
4.597056225
 30
0.0
 10
7.4584078224
 20
4.5985524354
 30
0.0
 10
7.4562057669
 20
4.5998824284
 30
0.0
 10
7.4550483434
 20
4.600531018
 30
0.0
  0
SPLINE
  5
333
100
AcDbEntity
  8
0
100
AcDbSpline
 62
7
  6
CONTINUOUS
 70
0
 71
3
 72
9
 73
5
 74
0
 42
0.0000001
 43
0.0000001
 44
0.0000000001
 40
0.0
 40
0.0
 40
0.0
 40
0.0
 40
0.516187774
 40
1.0
 40
1.0
 40
1.0
 40
1.0
 10
7.4596983095
 20
4.5887865441
 30
0.0
 10
7.4600980448
 20
4.5900516565
 30
0.0
 10
7.4607928314
 20
4.5925285904
 30
0.0
 10
7.4612955237
 20
4.5950531531
 30
0.0
 10
7.4614767177
 20
4.5962834285
 30
0.0
  0
LINE
  5
334
100
AcDbEntity
  8
0
100
AcDbLine
 62
7
  6
CONTINUOUS
 10
7.4668279012
 20
4.5900925555
 11
7.4664465126
 21
4.5909374864
  0
LINE
  5
335
100
AcDbEntity
  8
0
100
AcDbLine
 62
7
  6
CONTINUOUS
 10
7.4709768151
 20
4.5769946492
 11
7.470788727
 21
4.5779023873
  0
SPLINE
  5
336
100
AcDbEntity
  8
0
100
AcDbSpline
 62
7
  6
CONTINUOUS
 70
0
 71
3
 72
9
 73
5
 74
0
 42
0.0000001
 43
0.0000001
 44
0.0000000001
 40
0.0
 40
0.0
 40
0.0
 40
0.0
 40
0.4838122253
 40
1.0
 40
1.0
 40
1.0
 40
1.0
 10
7.4700984324
 20
4.5697485189
 30
0.0
 10
7.4692287056
 20
4.5706373296
 30
0.0
 10
7.4673381183
 20
4.5723842686
 30
0.0
 10
7.465320119
 20
4.5739797649
 30
0.0
 10
7.4642531119
 20
4.5747683038
 30
0.0
  0
SPLINE
  5
337
100
AcDbEntity
  8
0
100
AcDbSpline
 62
7
  6
CONTINUOUS
 70
0
 71
3
 72
9
 73
5
 74
0
 42
0.0000001
 43
0.0000001
 44
0.0000000001
 40
0.0
 40
0.0
 40
0.0
 40
0.0
 40
0.516187774
 40
1.0
 40
1.0
 40
1.0
 40
1.0
 10
7.4673944388
 20
4.5625336433
 30
0.0
 10
7.4679495827
 20
4.5637386798
 30
0.0
 10
7.4689493328
 20
4.5661090025
 30
0.0
 10
7.4697644728
 20
4.5685506542
 30
0.0
 10
7.4700984324
 20
4.5697485189
 30
0.0
  0
LINE
  5
338
100
AcDbEntity
  8
0
100
AcDbLine
 62
7
  6
CONTINUOUS
 10
7.4746314982
 20
4.5629357816
 11
7.4743590149
 21
4.5638218507
  0
LINE
  5
339
100
AcDbEntity
  8
0
100
AcDbLine
 62
7
  6
CONTINUOUS
 10
7.4771060936
 20
4.5494211594
 11
7.4770332584
 21
4.5503453134
  0
SPLINE
  5
33A
100
AcDbEntity
  8
0
100
AcDbSpline
 62
7
  6
CONTINUOUS
 70
0
 71
3
 72
9
 73
5
 74
0
 42
0.0000001
 43
0.0000001
 44
0.0000000001
 40
0.0
 40
0.0
 40
0.0
 40
0.0
 40
0.4838122253
 40
1.0
 40
1.0
 40
1.0
 40
1.0
 10
7.4753264564
 20
4.5423422576
 30
0.0
 10
7.4745749851
 20
4.5433330654
 30
0.0
 10
7.4729182551
 20
4.5453031827
 30
0.0
 10
7.4711161371
 20
4.5471390204
 30
0.0
 10
7.4701563738
 20
4.5480550729
 30
0.0
  0
SPLINE
  5
33B
100
AcDbEntity
  8
0
100
AcDbSpline
 62
7
  6
CONTINUOUS
 70
0
 71
3
 72
9
 73
5
 74
0
 42
0.0000001
 43
0.0000001
 44
0.0000000001
 40
0.0
 40
0.0
 40
0.0
 40
0.0
 40
0.516187774
 40
1.0
 40
1.0
 40
1.0
 40
1.0
 10
7.4717395209
 20
4.5355231737
 30
0.0
 10
7.4724413184
 20
4.5366491302
 30
0.0
 10
7.4737302653
 20
4.5388754602
 30
0.0
 10
7.4748449979
 20
4.5411956946
 30
0.0
 10
7.4753264564
 20
4.5423422576
 30
0.0
  0
LINE
  5
33C
100
AcDbEntity
  8
0
100
AcDbLine
 62
7
  6
CONTINUOUS
 10
7.4789699152
 20
4.535015097
 11
7.4788106344
 21
4.5359283303
  0
LINE
  5
33D
100
AcDbEntity
  8
0
100
AcDbLine
 62
7
  6
CONTINUOUS
 10
7.4797311664
 20
4.5212968926
 11
7.4797747327
 21
4.522222888
  0
SPLINE
  5
33E
100
AcDbEntity
  8
0
100
AcDbSpline
 62
7
  6
CONTINUOUS
 70
0
 71
3
 72
9
 73
5
 74
0
 42
0.0000001
 43
0.0000001
 44
0.0000000001
 40
0.0
 40
0.0
 40
0.0
 40
0.0
 40
0.4838122253
 40
1.0
 40
1.0
 40
1.0
 40
1.0
 10
7.4770783404
 20
4.5144968577
 30
0.0
 10
7.4764569759
 20
4.515574037
 30
0.0
 10
7.4750602309
 20
4.5177362627
 30
0.0
 10
7.4735024146
 20
4.5197834895
 30
0.0
 10
7.4726650311
 20
4.5208126089
 30
0.0
  0
SPLINE
  5
33F
100
AcDbEntity
  8
0
100
AcDbSpline
 62
7
  6
CONTINUOUS
 70
0
 71
3
 72
9
 73
5
 74
0
 42
0.0000001
 43
0.0000001
 44
0.0000000001
 40
0.0
 40
0.0
 40
0.0
 40
0.0
 40
0.516187774
 40
1.0
 40
1.0
 40
1.0
 40
1.0
 10
7.4726650311
 20
4.5081811065
 30
0.0
 10
7.4735024146
 20
4.5092102259
 30
0.0
 10
7.4750602309
 20
4.5112574528
 30
0.0
 10
7.4764569759
 20
4.5134196785
 30
0.0
 10
7.4770783404
 20
4.5144968577
 30
0.0
  0
LINE
  5
340
100
AcDbEntity
  8
0
100
AcDbLine
 62
7
  6
CONTINUOUS
 10
7.4797747327
 20
4.5067708275
 11
7.4797311664
 21
4.5076968229
  0
LINE
  5
341
100
AcDbEntity
  8
0
100
AcDbLine
 62
7
  6
CONTINUOUS
 10
7.4788106344
 20
4.4930653851
 11
7.4789699152
 21
4.4939786185
  0
SPLINE
  5
342
100
AcDbEntity
  8
0
100
AcDbSpline
 62
7
  6
CONTINUOUS
 70
0
 71
3
 72
9
 73
5
 74
0
 42
0.0000001
 43
0.0000001
 44
0.0000000001
 40
0.0
 40
0.0
 40
0.0
 40
0.0
 40
0.4838122253
 40
1.0
 40
1.0
 40
1.0
 40
1.0
 10
7.4753264564
 20
4.4866514578
 30
0.0
 10
7.4748449979
 20
4.4877980209
 30
0.0
 10
7.4737302653
 20
4.4901182553
 30
0.0
 10
7.4724413184
 20
4.4923445853
 30
0.0
 10
7.4717395209
 20
4.4934705418
 30
0.0
  0
SPLINE
  5
343
100
AcDbEntity
  8
0
100
AcDbSpline
 62
7
  6
CONTINUOUS
 70
0
 71
3
 72
9
 73
5
 74
0
 42
0.0000001
 43
0.0000001
 44
0.0000000001
 40
0.0
 40
0.0
 40
0.0
 40
0.0
 40
0.516187774
 40
1.0
 40
1.0
 40
1.0
 40
1.0
 10
7.4701563738
 20
4.4809386425
 30
0.0
 10
7.4711161371
 20
4.4818546951
 30
0.0
 10
7.4729182551
 20
4.4836905328
 30
0.0
 10
7.4745749851
 20
4.4856606501
 30
0.0
 10
7.4753264564
 20
4.4866514578
 30
0.0
  0
LINE
  5
344
100
AcDbEntity
  8
0
100
AcDbLine
 62
7
  6
CONTINUOUS
 10
7.4770332584
 20
4.4786484021
 11
7.4771060936
 21
4.479572556
  0
LINE
  5
345
100
AcDbEntity
  8
0
100
AcDbLine
 62
7
  6
CONTINUOUS
 10
7.4743590149
 20
4.4651718648
 11
7.4746314982
 21
4.4660579339
  0
SPLINE
  5
346
100
AcDbEntity
  8
0
100
AcDbSpline
 62
7
  6
CONTINUOUS
 70
0
 71
3
 72
9
 73
5
 74
0
 42
0.0000001
 43
0.0000001
 44
0.0000000001
 40
0.0
 40
0.0
 40
0.0
 40
0.0
 40
0.4838122253
 40
1.0
 40
1.0
 40
1.0
 40
1.0
 10
7.4700984324
 20
4.4592451965
 30
0.0
 10
7.4697644728
 20
4.4604430613
 30
0.0
 10
7.4689493328
 20
4.462884713
 30
0.0
 10
7.4679495827
 20
4.4652550357
 30
0.0
 10
7.4673944388
 20
4.4664600722
 30
0.0
  0
SPLINE
  5
347
100
AcDbEntity
  8
0
100
AcDbSpline
 62
7
  6
CONTINUOUS
 70
0
 71
3
 72
9
 73
5
 74
0
 42
0.0000001
 43
0.0000001
 44
0.0000000001
 40
0.0
 40
0.0
 40
0.0
 40
0.0
 40
0.516187774
 40
1.0
 40
1.0
 40
1.0
 40
1.0
 10
7.4642531119
 20
4.4542254117
 30
0.0
 10
7.465320119
 20
4.4550139506
 30
0.0
 10
7.4673381183
 20
4.4566094469
 30
0.0
 10
7.4692287056
 20
4.4583563859
 30
0.0
 10
7.4700984324
 20
4.4592451965
 30
0.0
  0
LINE
  5
348
100
AcDbEntity
  8
0
100
AcDbLine
 62
7
  6
CONTINUOUS
 10
7.470788727
 20
4.4510913282
 11
7.4709768151
 21
4.4519990663
  0
LINE
  5
349
100
AcDbEntity
  8
0
100
AcDbLine
 62
7
  6
CONTINUOUS
 10
7.4664465126
 20
4.4380562291
 11
7.4668279012
 21
4.43890116
  0
SPLINE
  5
34A
100
AcDbEntity
  8
0
100
AcDbSpline
 62
7
  6
CONTINUOUS
 70
0
 71
3
 72
9
 73
5
 74
0
 42
0.0000001
 43
0.0000001
 44
0.0000000001
 40
0.0
 40
0.0
 40
0.0
 40
0.0
 40
0.4838122253
 40
1.0
 40
1.0
 40
1.0
 40
1.0
 10
7.4614767177
 20
4.4327102869
 30
0.0
 10
7.4612955237
 20
4.4339405624
 30
0.0
 10
7.4607928314
 20
4.4364651251
 30
0.0
 10
7.4600980448
 20
4.438942059
 30
0.0
 10
7.4596983095
 20
4.4402071714
 30
0.0
  0
SPLINE
  5
34B
100
AcDbEntity
  8
0
100
AcDbSpline
 62
7
  6
CONTINUOUS
 70
0
 71
3
 72
9
 73
5
 74
0
 42
0.0000001
 43
0.0000001
 44
0.0000000001
 40
0.0
 40
0.0
 40
0.0
 40
0.0
 40
0.516187774
 40
1.0
 40
1.0
 40
1.0
 40
1.0
 10
7.4550483434
 20
4.4284626975
 30
0.0
 10
7.4562057669
 20
4.4291112871
 30
0.0
 10
7.4584078224
 20
4.4304412801
 30
0.0
 10
7.4605024514
 20
4.4319374905
 30
0.0
 10
7.4614767177
 20
4.4327102869
 30
0.0
  0
LINE
  5
34C
100
AcDbEntity
  8
0
100
AcDbLine
 62
7
  6
CONTINUOUS
 10
7.4611396184
 20
4.4245341974
 11
7.4614399931
 21
4.4254112041
  0
LINE
  5
34D
100
AcDbEntity
  8
0
100
AcDbLine
 62
7
  6
CONTINUOUS
 10
7.4551979125
 20
4.4121461077
 11
7.4556821917
 21
4.4129365755
  0
SPLINE
  5
34E
100
AcDbEntity
  8
0
100
AcDbSpline
 62
7
  6
CONTINUOUS
 70
0
 71
3
 72
9
 73
5
 74
0
 42
0.0000001
 43
0.0000001
 44
0.0000000001
 40
0.0
 40
0.0
 40
0.0
 40
0.0
 40
0.4838122253
 40
1.0
 40
1.0
 40
1.0
 40
1.0
 10
7.4495972817
 20
4.4074652004
 30
0.0
 10
7.4495717109
 20
4.4087084844
 30
0.0
 10
7.449389394
 20
4.4112761443
 30
0.0
 10
7.4490105282
 20
4.4138206266
 30
0.0
 10
7.4487725056
 20
4.4151258633
 30
0.0
  0
SPLINE
  5
34F
100
AcDbEntity
  8
0
100
AcDbSpline
 62
7
  6
CONTINUOUS
 70
0
 71
3
 72
9
 73
5
 74
0
 42
0.0000001
 43
0.0000001
 44
0.0000000001
 40
0.0
 40
0.0
 40
0.0
 40
0.0
 40
0.516187774
 40
1.0
 40
1.0
 40
1.0
 40
1.0
 10
7.4426872329
 20
4.4040567934
 30
0.0
 10
7.4439168196
 20
4.4045552051
 30
0.0
 10
7.4462682036
 20
4.4055987199
 30
0.0
 10
7.4485338407
 20
4.4068206057
 30
0.0
 10
7.4495972817
 20
4.4074652004
 30
0.0
  0
LINE
  5
350
100
AcDbEntity
  8
0
100
AcDbLine
 62
7
  6
CONTINUOUS
 10
7.4482381048
 20
4.3993958316
 11
7.448646029
 21
4.4002282758
  0
LINE
  5
351
100
AcDbEntity
  8
0
100
AcDbLine
 62
7
  6
CONTINUOUS
 10
7.4407906117
 20
4.3878501188
 11
7.4413701441
 21
4.3885736572
  0
SPLINE
  5
352
100
AcDbEntity
  8
0
100
AcDbSpline
 62
7
  6
CONTINUOUS
 70
0
 71
3
 72
9
 73
5
 74
0
 42
0.0000001
 43
0.0000001
 44
0.0000000001
 40
0.0
 40
0.0
 40
0.0
 40
0.0
 40
0.4838122253
 40
1.0
 40
1.0
 40
1.0
 40
1.0
 10
7.4346474702
 20
4.3839080671
 30
0.0
 10
7.4347779259
 20
4.3851447523
 30
0.0
 10
7.4349188598
 20
4.3877150157
 30
0.0
 10
7.4348618896
 20
4.3902869185
 30
0.0
 10
7.4347893334
 20
4.3916116952
 30
0.0
  0
SPLINE
  5
353
100
AcDbEntity
  8
0
100
AcDbSpline
 62
7
  6
CONTINUOUS
 70
0
 71
3
 72
9
 73
5
 74
0
 42
0.0000001
 43
0.0000001
 44
0.0000000001
 40
0.0
 40
0.0
 40
0.0
 40
0.0
 40
0.516187774
 40
1.0
 40
1.0
 40
1.0
 40
1.0
 10
7.4273647226
 20
4.3813925951
 30
0.0
 10
7.4286470812
 20
4.3817329686
 30
0.0
 10
7.4311107109
 20
4.3824735484
 30
0.0
 10
7.4335116257
 20
4.3834018396
 30
0.0
 10
7.4346474702
 20
4.3839080671
 30
0.0
  0
LINE
  5
354
100
AcDbEntity
  8
0
100
AcDbLine
 62
7
  6
CONTINUOUS
 10
7.4322876508
 20
4.3760726776
 11
7.4327966913
 21
4.3768474313
  0
LINE
  5
355
100
AcDbEntity
  8
0
100
AcDbLine
 62
7
  6
CONTINUOUS
 10
7.4234518219
 20
4.3655514247
 11
7.4241174679
 21
4.3661966231
  0
SPLINE
  5
356
100
AcDbEntity
  8
0
100
AcDbSpline
 62
7
  6
CONTINUOUS
 70
0
 71
3
 72
9
 73
5
 74
0
 42
0.0000001
 43
0.0000001
 44
0.0000000001
 40
0.0
 40
0.0
 40
0.0
 40
0.0
 40
0.4838122253
 40
1.0
 40
1.0
 40
1.0
 40
1.0
 10
7.4168630509
 20
4.3624103969
 30
0.0
 10
7.4171474756
 20
4.3636209801
 30
0.0
 10
7.4176094376
 20
4.3661533125
 30
0.0
 10
7.4178752616
 20
4.3687120754
 30
0.0
 10
7.417969316
 20
4.3700354995
 30
0.0
  0
SPLINE
  5
357
100
AcDbEntity
  8
0
100
AcDbSpline
 62
7
  6
CONTINUOUS
 70
0
 71
3
 72
9
 73
5
 74
0
 42
0.0000001
 43
0.0000001
 44
0.0000000001
 40
0.0
 40
0.0
 40
0.0
 40
0.0
 40
0.516187774
 40
1.0
 40
1.0
 40
1.0
 40
1.0
 10
7.4093224576
 20
4.3608275306
 30
0.0
 10
7.4106373646
 20
4.3610044979
 30
0.0
 10
7.4131743871
 20
4.3614304634
 30
0.0
 10
7.4156727157
 20
4.3620505203
 30
0.0
 10
7.4168630509
 20
4.3624103969
 30
0.0
  0
LINE
  5
358
100
AcDbEntity
  8
0
100
AcDbLine
 62
7
  6
CONTINUOUS
 10
7.4135398046
 20
4.3549325557
 11
7.4141419336
 21
4.3556374005
  0
LINE
  5
359
100
AcDbEntity
  8
0
100
AcDbLine
 62
7
  6
CONTINUOUS
 10
7.4034549862
 20
4.345601689
 11
7.4041962482
 21
4.3461583722
  0
SPLINE
  5
35A
100
AcDbEntity
  8
0
100
AcDbSpline
 62
7
  6
CONTINUOUS
 70
0
 71
3
 72
9
 73
5
 74
0
 42
0.0000001
 43
0.0000001
 44
0.0000000001
 40
0.0
 40
0.0
 40
0.0
 40
0.0
 40
0.4838122253
 40
1.0
 40
1.0
 40
1.0
 40
1.0
 10
7.3965244944
 20
4.3433112212
 30
0.0
 10
7.3969584027
 20
4.3444766107
 30
0.0
 10
7.3977341074
 20
4.3469310757
 30
0.0
 10
7.3983185333
 20
4.3494363453
 30
0.0
 10
7.3985777151
 20
4.3507375458
 30
0.0
  0
SPLINE
  5
35B
100
AcDbEntity
  8
0
100
AcDbSpline
 62
7
  6
CONTINUOUS
 70
0
 71
3
 72
9
 73
5
 74
0
 42
0.0000001
 43
0.0000001
 44
0.0000000001
 40
0.0
 40
0.0
 40
0.0
 40
0.0
 40
0.516187774
 40
1.0
 40
1.0
 40
1.0
 40
1.0
 10
7.3888449753
 20
4.3426859231
 30
0.0
 10
7.3901716937
 20
4.3426966935
 30
0.0
 10
7.3927420986
 20
4.3428013269
 30
0.0
 10
7.3952984409
 20
4.3431033708
 30
0.0
 10
7.3965244944
 20
4.3433112212
 30
0.0
  0
LINE
  5
35C
100
AcDbEntity
  8
0
100
AcDbLine
 62
7
  6
CONTINUOUS
 10
7.3922902309
 20
4.3363088582
 11
7.3929759524
 21
4.3369326783
  0
LINE
  5
35D
100
AcDbEntity
  8
0
100
AcDbLine
 62
7
  6
CONTINUOUS
 10
7.3811154667
 20
4.328315531
 11
7.3819206545
 21
4.3287749199
  0
SPLINE
  5
35E
100
AcDbEntity
  8
0
100
AcDbSpline
 62
7
  6
CONTINUOUS
 70
0
 71
3
 72
9
 73
5
 74
0
 42
0.0000001
 43
0.0000001
 44
0.0000000001
 40
0.0
 40
0.0
 40
0.0
 40
0.0
 40
0.4838122253
 40
1.0
 40
1.0
 40
1.0
 40
1.0
 10
7.3739525521
 20
4.3269117451
 30
0.0
 10
7.3745291009
 20
4.3280135621
 30
0.0
 10
7.375606315
 20
4.3303514513
 30
0.0
 10
7.3765001261
 20
4.3327637182
 30
0.0
 10
7.3769203479
 20
4.3340221742
 30
0.0
  0
SPLINE
  5
35F
100
AcDbEntity
  8
0
100
AcDbSpline
 62
7
  6
CONTINUOUS
 70
0
 71
3
 72
9
 73
5
 74
0
 42
0.0000001
 43
0.0000001
 44
0.0000000001
 40
0.0
 40
0.0
 40
0.0
 40
0.0
 40
0.516187774
 40
1.0
 40
1.0
 40
1.0
 40
1.0
 10
7.3662552176
 20
4.3272538767
 30
0.0
 10
7.3675728244
 20
4.3270982802
 30
0.0
 10
7.3701360749
 20
4.3268799314
 30
0.0
 10
7.3727101158
 20
4.326859199
 30
0.0
 10
7.3739525521
 20
4.3269117451
 30
0.0
  0
LINE
  5
360
100
AcDbEntity
  8
0
100
AcDbLine
 62
7
  6
CONTINUOUS
 10
7.3688740482
 20
4.3204952918
 11
7.369632548
 21
4.3210282492
  0
LINE
  5
361
100
AcDbEntity
  8
0
100
AcDbLine
 62
7
  6
CONTINUOUS
 10
7.3567855708
 20
4.3139655637
 11
7.3576419862
 21
4.3143204134
  0
SPLINE
  5
362
100
AcDbEntity
  8
0
100
AcDbSpline
 62
7
  6
CONTINUOUS
 70
0
 71
3
 72
9
 73
5
 74
0
 42
0.0000001
 43
0.0000001
 44
0.0000000001
 40
0.0
 40
0.0
 40
0.0
 40
0.0
 40
0.4838122253
 40
1.0
 40
1.0
 40
1.0
 40
1.0
 10
7.349503197
 20
4.3134705984
 30
0.0
 10
7.3502132938
 20
4.3144914665
 30
0.0
 10
7.3515750289
 20
4.31667591
 30
0.0
 10
7.3527641292
 20
4.3189571312
 30
0.0
 10
7.3533387638
 20
4.3201529961
 30
0.0
  0
SPLINE
  5
363
100
AcDbEntity
  8
0
100
AcDbSpline
 62
7
  6
CONTINUOUS
 70
0
 71
3
 72
9
 73
5
 74
0
 42
0.0000001
 43
0.0000001
 44
0.0000000001
 40
0.0
 40
0.0
 40
0.0
 40
0.0
 40
0.516187774
 40
1.0
 40
1.0
 40
1.0
 40
1.0
 10
7.3419094387
 20
4.314774764
 30
0.0
 10
7.3431971543
 20
4.3144552545
 30
0.0
 10
7.3457128265
 20
4.313917367
 30
0.0
 10
7.3482639719
 20
4.3135741852
 30
0.0
 10
7.349503197
 20
4.3134705984
 30
0.0
  0
LINE
  5
364
100
AcDbEntity
  8
0
100
AcDbLine
 62
7
  6
CONTINUOUS
 10
7.3436605437
 20
4.307741246
 11
7.3444798598
 21
4.3081749357
  0
LINE
  5
365
100
AcDbEntity
  8
0
100
AcDbLine
 62
7
  6
CONTINUOUS
 10
7.3308489956
 20
4.3027780948
 11
7.3317431324
 21
4.3030228091
  0
SPLINE
  5
366
100
AcDbEntity
  8
0
100
AcDbSpline
 62
7
  6
CONTINUOUS
 70
0
 71
3
 72
9
 73
5
 74
0
 42
0.0000001
 43
0.0000001
 44
0.0000000001
 40
0.0
 40
0.0
 40
0.0
 40
0.0
 40
0.4838122253
 40
1.0
 40
1.0
 40
1.0
 40
1.0
 10
7.3235620099
 20
4.3031997559
 30
0.0
 10
7.3243944561
 20
4.3041235753
 30
0.0
 10
7.3260192369
 20
4.3061201233
 30
0.0
 10
7.3274848736
 20
4.3082343225
 30
0.0
 10
7.3282048587
 20
4.3093487369
 30
0.0
  0
SPLINE
  5
367
100
AcDbEntity
  8
0
100
AcDbSpline
 62
7
  6
CONTINUOUS
 70
0
 71
3
 72
9
 73
5
 74
0
 42
0.0000001
 43
0.0000001
 44
0.0000000001
 40
0.0
 40
0.0
 40
0.0
 40
0.0
 40
0.516187774
 40
1.0
 40
1.0
 40
1.0
 40
1.0
 10
7.316191586
 20
4.305445388
 30
0.0
 10
7.3174291024
 20
4.3049670044
 30
0.0
 10
7.3198575226
 20
4.3041180609
 30
0.0
 10
7.3223455393
 20
4.3034578419
 30
0.0
 10
7.3235620099
 20
4.3031997559
 30
0.0
  0
LINE
  5
368
100
AcDbEntity
  8
0
100
AcDbLine
 62
7
  6
CONTINUOUS
 10
7.3170473495
 20
4.2982478598
 11
7.3179145607
 21
4.2985754421
  0
LINE
  5
369
100
AcDbEntity
  8
0
100
AcDbLine
 62
7
  6
CONTINUOUS
 10
7.3037147765
 20
4.2949295572
 11
7.3046325335
 21
4.2950602768
  0
SPLINE
  5
36A
100
AcDbEntity
  8
0
100
AcDbSpline
 62
7
  6
CONTINUOUS
 70
0
 71
3
 72
9
 73
5
 74
0
 42
0.0000001
 43
0.0000001
 44
0.0000000001
 40
0.0
 40
0.0
 40
0.0
 40
0.0
 40
0.4838122253
 40
1.0
 40
1.0
 40
1.0
 40
1.0
 10
7.2965380989
 20
4.2962611948
 30
0.0
 10
7.2974797663
 20
4.2970733965
 30
0.0
 10
7.299341969
 20
4.2988505621
 30
0.0
 10
7.3010610282
 20
4.3007643972
 30
0.0
 10
7.3019150091
 20
4.3017797861
 30
0.0
  0
SPLINE
  5
36B
100
AcDbEntity
  8
0
100
AcDbSpline
 62
7
  6
CONTINUOUS
 70
0
 71
3
 72
9
 73
5
 74
0
 42
0.0000001
 43
0.0000001
 44
0.0000000001
 40
0.0
 40
0.0
 40
0.0
 40
0.0
 40
0.516187774
 40
1.0
 40
1.0
 40
1.0
 40
1.0
 10
7.2895072453
 20
4.2994128785
 30
0.0
 10
7.2906750462
 20
4.2987831652
 30
0.0
 10
7.2929779167
 20
4.2976365542
 30
0.0
 10
7.2953635673
 20
4.29666971
 30
0.0
 10
7.2965380989
 20
4.2962611948
 30
0.0
  0
LINE
  5
36C
100
AcDbEntity
  8
0
100
AcDbLine
 62
7
  6
CONTINUOUS
 10
7.2894541714
 20
4.2921648494
 11
7.2903556014
 21
4.2923811583
  0
LINE
  5
36D
100
AcDbEntity
  8
0
100
AcDbLine
 62
7
  6
CONTINUOUS
 10
7.2758108361
 20
4.2905437271
 11
7.2767377399
 21
4.2905583905
  0
SPLINE
  5
36E
100
AcDbEntity
  8
0
100
AcDbSpline
 62
7
  6
CONTINUOUS
 70
0
 71
3
 72
9
 73
5
 74
0
 42
0.0000001
 43
0.0000001
 44
0.0000000001
 40
0.0
 40
0.0
 40
0.0
 40
0.0
 40
0.4838122253
 40
1.0
 40
1.0
 40
1.0
 40
1.0
 10
7.2688576473
 20
4.2927643406
 30
0.0
 10
7.2698936852
 20
4.2934521156
 30
0.0
 10
7.2719639418
 20
4.2949818718
 30
0.0
 10
7.2739093129
 20
4.2966651605
 30
0.0
 10
7.2748838218
 20
4.2975655105
 30
0.0
  0
SPLINE
  5
36F
100
AcDbEntity
  8
0
100
AcDbSpline
 62
7
  6
CONTINUOUS
 70
0
 71
3
 72
9
 73
5
 74
0
 42
0.0000001
 43
0.0000001
 44
0.0000000001
 40
0.0
 40
0.0
 40
0.0
 40
0.0
 40
0.516187774
 40
1.0
 40
1.0
 40
1.0
 40
1.0
 10
7.2622772448
 20
4.2967723719
 30
0.0
 10
7.2633569132
 20
4.2960012598
 30
0.0
 10
7.2654979164
 20
4.2945750639
 30
0.0
 10
7.2677435778
 20
4.2933168423
 30
0.0
 10
7.2688576473
 20
4.2927643406
 30
0.0
  0
LINE
  5
370
100
AcDbEntity
  8
0
100
AcDbLine
 62
7
  6
CONTINUOUS
 10
7.2613161704
 20
4.2895881476
 11
7.262237603
 21
4.2896897717
  0
LINE
  5
371
100
AcDbEntity
  8
0
100
AcDbLine
 62
7
  6
CONTINUOUS
 10
7.262237603
 20
4.7393039438
 11
7.2613161704
 21
4.7394055679
  0
SPLINE
  5
372
100
AcDbEntity
  8
0
100
AcDbSpline
 62
7
  6
CONTINUOUS
 70
0
 71
3
 72
9
 73
5
 74
0
 42
0.0000001
 43
0.0000001
 44
0.0000000001
 40
0.0
 40
0.0
 40
0.0
 40
0.0
 40
0.483812225
 40
1.0
 40
1.0
 40
1.0
 40
1.0
 10
7.2688576473
 20
4.7362293749
 30
0.0
 10
7.2677435778
 20
4.7356768731
 30
0.0
 10
7.2654979164
 20
4.7344186516
 30
0.0
 10
7.2633569132
 20
4.7329924556
 30
0.0
 10
7.2622772448
 20
4.7322213436
 30
0.0
  0
SPLINE
  5
373
100
AcDbEntity
  8
0
100
AcDbSpline
 62
7
  6
CONTINUOUS
 70
0
 71
3
 72
9
 73
5
 74
0
 42
0.0000001
 43
0.0000001
 44
0.0000000001
 40
0.0
 40
0.0
 40
0.0
 40
0.0
 40
0.5161877737
 40
1.0
 40
1.0
 40
1.0
 40
1.0
 10
7.2748838218
 20
4.731428205
 30
0.0
 10
7.2739093129
 20
4.7323285549
 30
0.0
 10
7.2719639418
 20
4.7340118437
 30
0.0
 10
7.2698936852
 20
4.7355415998
 30
0.0
 10
7.2688576473
 20
4.7362293749
 30
0.0
  0
LINE
  5
374
100
AcDbEntity
  8
0
100
AcDbLine
 62
7
  6
CONTINUOUS
 10
7.2767377399
 20
4.738435325
 11
7.2758108361
 21
4.7384499884
  0
LINE
  5
375
100
AcDbEntity
  8
0
100
AcDbLine
 62
7
  6
CONTINUOUS
 10
7.2903556014
 20
4.7366125572
 11
7.2894541714
 21
4.7368288661
  0
SPLINE
  5
376
100
AcDbEntity
  8
0
100
AcDbSpline
 62
7
  6
CONTINUOUS
 70
0
 71
3
 72
9
 73
5
 74
0
 42
0.0000001
 43
0.0000001
 44
0.0000000001
 40
0.0
 40
0.0
 40
0.0
 40
0.0
 40
0.483812225
 40
1.0
 40
1.0
 40
1.0
 40
1.0
 10
7.2965380989
 20
4.7327325206
 30
0.0
 10
7.2953635673
 20
4.7323240055
 30
0.0
 10
7.2929779167
 20
4.7313571613
 30
0.0
 10
7.2906750462
 20
4.7302105503
 30
0.0
 10
7.2895072453
 20
4.7295808369
 30
0.0
  0
SPLINE
  5
377
100
AcDbEntity
  8
0
100
AcDbSpline
 62
7
  6
CONTINUOUS
 70
0
 71
3
 72
9
 73
5
 74
0
 42
0.0000001
 43
0.0000001
 44
0.0000000001
 40
0.0
 40
0.0
 40
0.0
 40
0.0
 40
0.5161877737
 40
1.0
 40
1.0
 40
1.0
 40
1.0
 10
7.3019150091
 20
4.7272139294
 30
0.0
 10
7.3010610282
 20
4.7282293182
 30
0.0
 10
7.2993419691
 20
4.7301431534
 30
0.0
 10
7.2974797663
 20
4.7319203189
 30
0.0
 10
7.2965380989
 20
4.7327325206
 30
0.0
  0
LINE
  5
378
100
AcDbEntity
  8
0
100
AcDbLine
 62
7
  6
CONTINUOUS
 10
7.3046325335
 20
4.7339334387
 11
7.3037147765
 21
4.7340641583
  0
LINE
  5
379
100
AcDbEntity
  8
0
100
AcDbLine
 62
7
  6
CONTINUOUS
 10
7.3179145607
 20
4.7304182734
 11
7.3170473495
 21
4.7307458557
  0
SPLINE
  5
37A
100
AcDbEntity
  8
0
100
AcDbSpline
 62
7
  6
CONTINUOUS
 70
0
 71
3
 72
9
 73
5
 74
0
 42
0.0000001
 43
0.0000001
 44
0.0000000001
 40
0.0
 40
0.0
 40
0.0
 40
0.0
 40
0.483812225
 40
1.0
 40
1.0
 40
1.0
 40
1.0
 10
7.3235620099
 20
4.7257939596
 30
0.0
 10
7.3223455393
 20
4.7255358735
 30
0.0
 10
7.3198575226
 20
4.7248756546
 30
0.0
 10
7.3174291024
 20
4.7240267111
 30
0.0
 10
7.316191586
 20
4.7235483275
 30
0.0
  0
SPLINE
  5
37B
100
AcDbEntity
  8
0
100
AcDbSpline
 62
7
  6
CONTINUOUS
 70
0
 71
3
 72
9
 73
5
 74
0
 42
0.0000001
 43
0.0000001
 44
0.0000000001
 40
0.0
 40
0.0
 40
0.0
 40
0.0
 40
0.5161877737
 40
1.0
 40
1.0
 40
1.0
 40
1.0
 10
7.3282048587
 20
4.7196449786
 30
0.0
 10
7.3274848736
 20
4.7207593929
 30
0.0
 10
7.3260192369
 20
4.7228735922
 30
0.0
 10
7.3243944561
 20
4.7248701401
 30
0.0
 10
7.3235620099
 20
4.7257939596
 30
0.0
  0
LINE
  5
37C
100
AcDbEntity
  8
0
100
AcDbLine
 62
7
  6
CONTINUOUS
 10
7.3317431324
 20
4.7259709064
 11
7.3308489956
 21
4.7262156207
  0
LINE
  5
37D
100
AcDbEntity
  8
0
100
AcDbLine
 62
7
  6
CONTINUOUS
 10
7.3444798598
 20
4.7208187798
 11
7.3436605437
 21
4.7212524695
  0
SPLINE
  5
37E
100
AcDbEntity
  8
0
100
AcDbSpline
 62
7
  6
CONTINUOUS
 70
0
 71
3
 72
9
 73
5
 74
0
 42
0.0000001
 43
0.0000001
 44
0.0000000001
 40
0.0
 40
0.0
 40
0.0
 40
0.0
 40
0.4838122253
 40
1.0
 40
1.0
 40
1.0
 40
1.0
 10
7.349503197
 20
4.7155231171
 30
0.0
 10
7.3482639719
 20
4.7154195303
 30
0.0
 10
7.3457128265
 20
4.7150763485
 30
0.0
 10
7.3431971543
 20
4.7145384609
 30
0.0
 10
7.3419094387
 20
4.7142189515
 30
0.0
  0
SPLINE
  5
37F
100
AcDbEntity
  8
0
100
AcDbSpline
 62
7
  6
CONTINUOUS
 70
0
 71
3
 72
9
 73
5
 74
0
 42
0.0000001
 43
0.0000001
 44
0.0000000001
 40
0.0
 40
0.0
 40
0.0
 40
0.0
 40
0.516187774
 40
1.0
 40
1.0
 40
1.0
 40
1.0
 10
7.3533387638
 20
4.7088407194
 30
0.0
 10
7.3527641292
 20
4.7100365843
 30
0.0
 10
7.3515750289
 20
4.7123178054
 30
0.0
 10
7.3502132938
 20
4.714502249
 30
0.0
 10
7.349503197
 20
4.7155231171
 30
0.0
  0
SPLINE
  5
380
100
AcDbEntity
  8
0
100
AcDbSpline
 62
7
  6
CONTINUOUS
 70
0
 71
3
 72
9
 73
5
 74
0
 42
0.0000001
 43
0.0000001
 44
0.0000000001
 40
0.0
 40
0.0
 40
0.0
 40
0.0
 40
0.483812225
 40
1.0
 40
1.0
 40
1.0
 40
1.0
 10
7.2132767405
 20
4.7327325206
 30
0.0
 10
7.2123350732
 20
4.7319203189
 30
0.0
 10
7.2104728704
 20
4.7301431534
 30
0.0
 10
7.2087538112
 20
4.7282293182
 30
0.0
 10
7.2078998303
 20
4.7272139294
 30
0.0
  0
SPLINE
  5
381
100
AcDbEntity
  8
0
100
AcDbSpline
 62
7
  6
CONTINUOUS
 70
0
 71
3
 72
9
 73
5
 74
0
 42
0.0000001
 43
0.0000001
 44
0.0000000001
 40
0.0
 40
0.0
 40
0.0
 40
0.0
 40
0.5161877737
 40
1.0
 40
1.0
 40
1.0
 40
1.0
 10
7.2203075941
 20
4.7295808369
 30
0.0
 10
7.2191397933
 20
4.7302105503
 30
0.0
 10
7.2168369227
 20
4.7313571613
 30
0.0
 10
7.2144512721
 20
4.7323240055
 30
0.0
 10
7.2132767405
 20
4.7327325206
 30
0.0
  0
LINE
  5
382
100
AcDbEntity
  8
0
100
AcDbLine
 62
7
  6
CONTINUOUS
 10
7.2203606681
 20
4.7368288661
 11
7.2194592381
 21
4.7366125572
  0
LINE
  5
383
100
AcDbEntity
  8
0
100
AcDbLine
 62
7
  6
CONTINUOUS
 10
7.2340040033
 20
4.7384499884
 11
7.2330770996
 21
4.738435325
  0
SPLINE
  5
384
100
AcDbEntity
  8
0
100
AcDbSpline
 62
7
  6
CONTINUOUS
 70
0
 71
3
 72
9
 73
5
 74
0
 42
0.0000001
 43
0.0000001
 44
0.0000000001
 40
0.0
 40
0.0
 40
0.0
 40
0.0
 40
0.483812225
 40
1.0
 40
1.0
 40
1.0
 40
1.0
 10
7.2409571922
 20
4.7362293749
 30
0.0
 10
7.2399211543
 20
4.7355415999
 30
0.0
 10
7.2378508976
 20
4.7340118437
 30
0.0
 10
7.2359055266
 20
4.7323285549
 30
0.0
 10
7.2349310177
 20
4.731428205
 30
0.0
  0
SPLINE
  5
385
100
AcDbEntity
  8
0
100
AcDbSpline
 62
7
  6
CONTINUOUS
 70
0
 71
3
 72
9
 73
5
 74
0
 42
0.0000001
 43
0.0000001
 44
0.0000000001
 40
0.0
 40
0.0
 40
0.0
 40
0.0
 40
0.5161877737
 40
1.0
 40
1.0
 40
1.0
 40
1.0
 10
7.2475375947
 20
4.7322213436
 30
0.0
 10
7.2464579263
 20
4.7329924556
 30
0.0
 10
7.244316923
 20
4.7344186516
 30
0.0
 10
7.2420712617
 20
4.7356768731
 30
0.0
 10
7.2409571922
 20
4.7362293749
 30
0.0
  0
LINE
  5
386
100
AcDbEntity
  8
0
100
AcDbLine
 62
7
  6
CONTINUOUS
 10
7.248498669
 20
4.7394055679
 11
7.2475772364
 21
4.7393039438
  0
LINE
  5
387
100
AcDbEntity
  8
0
100
AcDbLine
 62
7
  6
CONTINUOUS
 10
7.2475772364
 20
4.2896897717
 11
7.248498669
 21
4.2895881476
  0
SPLINE
  5
388
100
AcDbEntity
  8
0
100
AcDbSpline
 62
7
  6
CONTINUOUS
 70
0
 71
3
 72
9
 73
5
 74
0
 42
0.0000001
 43
0.0000001
 44
0.0000000001
 40
0.0
 40
0.0
 40
0.0
 40
0.0
 40
0.4838122253
 40
1.0
 40
1.0
 40
1.0
 40
1.0
 10
7.2409571922
 20
4.2927643406
 30
0.0
 10
7.2420712617
 20
4.2933168423
 30
0.0
 10
7.244316923
 20
4.2945750639
 30
0.0
 10
7.2464579263
 20
4.2960012598
 30
0.0
 10
7.2475375947
 20
4.2967723719
 30
0.0
  0
SPLINE
  5
389
100
AcDbEntity
  8
0
100
AcDbSpline
 62
7
  6
CONTINUOUS
 70
0
 71
3
 72
9
 73
5
 74
0
 42
0.0000001
 43
0.0000001
 44
0.0000000001
 40
0.0
 40
0.0
 40
0.0
 40
0.0
 40
0.516187774
 40
1.0
 40
1.0
 40
1.0
 40
1.0
 10
7.2349310177
 20
4.2975655105
 30
0.0
 10
7.2359055266
 20
4.2966651605
 30
0.0
 10
7.2378508976
 20
4.2949818718
 30
0.0
 10
7.2399211543
 20
4.2934521156
 30
0.0
 10
7.2409571922
 20
4.2927643406
 30
0.0
  0
LINE
  5
38A
100
AcDbEntity
  8
0
100
AcDbLine
 62
7
  6
CONTINUOUS
 10
7.2330770996
 20
4.2905583905
 11
7.2340040033
 21
4.2905437271
  0
LINE
  5
38B
100
AcDbEntity
  8
0
100
AcDbLine
 62
7
  6
CONTINUOUS
 10
7.2194592381
 20
4.2923811583
 11
7.2203606681
 21
4.2921648494
  0
SPLINE
  5
38C
100
AcDbEntity
  8
0
100
AcDbSpline
 62
7
  6
CONTINUOUS
 70
0
 71
3
 72
9
 73
5
 74
0
 42
0.0000001
 43
0.0000001
 44
0.0000000001
 40
0.0
 40
0.0
 40
0.0
 40
0.0
 40
0.4838122253
 40
1.0
 40
1.0
 40
1.0
 40
1.0
 10
7.2132767405
 20
4.2962611948
 30
0.0
 10
7.2144512721
 20
4.29666971
 30
0.0
 10
7.2168369227
 20
4.2976365542
 30
0.0
 10
7.2191397932
 20
4.2987831652
 30
0.0
 10
7.2203075941
 20
4.2994128785
 30
0.0
  0
SPLINE
  5
38D
100
AcDbEntity
  8
0
100
AcDbSpline
 62
7
  6
CONTINUOUS
 70
0
 71
3
 72
9
 73
5
 74
0
 42
0.0000001
 43
0.0000001
 44
0.0000000001
 40
0.0
 40
0.0
 40
0.0
 40
0.0
 40
0.516187774
 40
1.0
 40
1.0
 40
1.0
 40
1.0
 10
7.2078998303
 20
4.3017797861
 30
0.0
 10
7.2087538112
 20
4.3007643973
 30
0.0
 10
7.2104728704
 20
4.2988505621
 30
0.0
 10
7.2123350732
 20
4.2970733965
 30
0.0
 10
7.2132767405
 20
4.2962611948
 30
0.0
  0
LINE
  5
38E
100
AcDbEntity
  8
0
100
AcDbLine
 62
7
  6
CONTINUOUS
 10
7.205182306
 20
4.2950602768
 11
7.206100063
 21
4.2949295572
  0
LINE
  5
38F
100
AcDbEntity
  8
0
100
AcDbLine
 62
7
  6
CONTINUOUS
 10
7.1919002787
 20
4.2985754421
 11
7.19276749
 21
4.2982478598
  0
SPLINE
  5
390
100
AcDbEntity
  8
0
100
AcDbSpline
 62
7
  6
CONTINUOUS
 70
0
 71
3
 72
9
 73
5
 74
0
 42
0.0000001
 43
0.0000001
 44
0.0000000001
 40
0.0
 40
0.0
 40
0.0
 40
0.0
 40
0.4838122253
 40
1.0
 40
1.0
 40
1.0
 40
1.0
 10
7.1862528296
 20
4.3031997559
 30
0.0
 10
7.1874693001
 20
4.3034578419
 30
0.0
 10
7.1899573169
 20
4.3041180609
 30
0.0
 10
7.1923857371
 20
4.3049670044
 30
0.0
 10
7.1936232535
 20
4.305445388
 30
0.0
  0
SPLINE
  5
391
100
AcDbEntity
  8
0
100
AcDbSpline
 62
7
  6
CONTINUOUS
 70
0
 71
3
 72
9
 73
5
 74
0
 42
0.0000001
 43
0.0000001
 44
0.0000000001
 40
0.0
 40
0.0
 40
0.0
 40
0.0
 40
0.516187774
 40
1.0
 40
1.0
 40
1.0
 40
1.0
 10
7.1816099808
 20
4.3093487369
 30
0.0
 10
7.1823299658
 20
4.3082343225
 30
0.0
 10
7.1837956026
 20
4.3061201233
 30
0.0
 10
7.1854203834
 20
4.3041235753
 30
0.0
 10
7.1862528296
 20
4.3031997559
 30
0.0
  0
LINE
  5
392
100
AcDbEntity
  8
0
100
AcDbLine
 62
7
  6
CONTINUOUS
 10
7.1780717071
 20
4.3030228091
 11
7.1789658438
 21
4.3027780948
  0
LINE
  5
393
100
AcDbEntity
  8
0
100
AcDbLine
 62
7
  6
CONTINUOUS
 10
7.1653349796
 20
4.3081749357
 11
7.1661542957
 21
4.307741246
  0
SPLINE
  5
394
100
AcDbEntity
  8
0
100
AcDbSpline
 62
7
  6
CONTINUOUS
 70
0
 71
3
 72
9
 73
5
 74
0
 42
0.0000001
 43
0.0000001
 44
0.0000000001
 40
0.0
 40
0.0
 40
0.0
 40
0.0
 40
0.4838122253
 40
1.0
 40
1.0
 40
1.0
 40
1.0
 10
7.1603116425
 20
4.3134705984
 30
0.0
 10
7.1615508676
 20
4.3135741852
 30
0.0
 10
7.164102013
 20
4.313917367
 30
0.0
 10
7.1666176852
 20
4.3144552545
 30
0.0
 10
7.1679054008
 20
4.314774764
 30
0.0
  0
SPLINE
  5
395
100
AcDbEntity
  8
0
100
AcDbSpline
 62
7
  6
CONTINUOUS
 70
0
 71
3
 72
9
 73
5
 74
0
 42
0.0000001
 43
0.0000001
 44
0.0000000001
 40
0.0
 40
0.0
 40
0.0
 40
0.0
 40
0.516187774
 40
1.0
 40
1.0
 40
1.0
 40
1.0
 10
7.1564760757
 20
4.3201529961
 30
0.0
 10
7.1570507102
 20
4.3189571312
 30
0.0
 10
7.1582398105
 20
4.31667591
 30
0.0
 10
7.1596015457
 20
4.3144914665
 30
0.0
 10
7.1603116425
 20
4.3134705984
 30
0.0
  0
LINE
  5
396
100
AcDbEntity
  8
0
100
AcDbLine
 62
7
  6
CONTINUOUS
 10
7.1521728533
 20
4.3143204134
 11
7.1530292687
 21
4.3139655637
  0
LINE
  5
397
100
AcDbEntity
  8
0
100
AcDbLine
 62
7
  6
CONTINUOUS
 10
7.1401822914
 20
4.3210282492
 11
7.1409407912
 21
4.3204952918
  0
SPLINE
  5
398
100
AcDbEntity
  8
0
100
AcDbSpline
 62
7
  6
CONTINUOUS
 70
0
 71
3
 72
9
 73
5
 74
0
 42
0.0000001
 43
0.0000001
 44
0.0000000001
 40
0.0
 40
0.0
 40
0.0
 40
0.0
 40
0.4838122253
 40
1.0
 40
1.0
 40
1.0
 40
1.0
 10
7.1358622873
 20
4.3269117451
 30
0.0
 10
7.1371047236
 20
4.326859199
 30
0.0
 10
7.1396787645
 20
4.3268799314
 30
0.0
 10
7.1422420151
 20
4.3270982802
 30
0.0
 10
7.1435596218
 20
4.3272538767
 30
0.0
  0
SPLINE
  5
399
100
AcDbEntity
  8
0
100
AcDbSpline
 62
7
  6
CONTINUOUS
 70
0
 71
3
 72
9
 73
5
 74
0
 42
0.0000001
 43
0.0000001
 44
0.0000000001
 40
0.0
 40
0.0
 40
0.0
 40
0.0
 40
0.516187774
 40
1.0
 40
1.0
 40
1.0
 40
1.0
 10
7.1328944916
 20
4.3340221742
 30
0.0
 10
7.1333147134
 20
4.3327637182
 30
0.0
 10
7.1342085245
 20
4.3303514513
 30
0.0
 10
7.1352857386
 20
4.3280135621
 30
0.0
 10
7.1358622873
 20
4.3269117451
 30
0.0
  0
LINE
  5
39A
100
AcDbEntity
  8
0
100
AcDbLine
 62
7
  6
CONTINUOUS
 10
7.127894185
 20
4.3287749199
 11
7.1286993728
 21
4.328315531
  0
LINE
  5
39B
100
AcDbEntity
  8
0
100
AcDbLine
 62
7
  6
CONTINUOUS
 10
7.116838887
 20
4.3369326783
 11
7.1175246086
 21
4.3363088582
  0
SPLINE
  5
39C
100
AcDbEntity
  8
0
100
AcDbSpline
 62
7
  6
CONTINUOUS
 70
0
 71
3
 72
9
 73
5
 74
0
 42
0.0000001
 43
0.0000001
 44
0.0000000001
 40
0.0
 40
0.0
 40
0.0
 40
0.0
 40
0.4838122253
 40
1.0
 40
1.0
 40
1.0
 40
1.0
 10
7.113290345
 20
4.3433112212
 30
0.0
 10
7.1145163986
 20
4.3431033708
 30
0.0
 10
7.1170727409
 20
4.3428013269
 30
0.0
 10
7.1196431458
 20
4.3426966935
 30
0.0
 10
7.1209698642
 20
4.3426859231
 30
0.0
  0
SPLINE
  5
39D
100
AcDbEntity
  8
0
100
AcDbSpline
 62
7
  6
CONTINUOUS
 70
0
 71
3
 72
9
 73
5
 74
0
 42
0.0000001
 43
0.0000001
 44
0.0000000001
 40
0.0
 40
0.0
 40
0.0
 40
0.0
 40
0.516187774
 40
1.0
 40
1.0
 40
1.0
 40
1.0
 10
7.1112371243
 20
4.3507375458
 30
0.0
 10
7.1114963062
 20
4.3494363453
 30
0.0
 10
7.1120807321
 20
4.3469310757
 30
0.0
 10
7.1128564368
 20
4.3444766107
 30
0.0
 10
7.113290345
 20
4.3433112212
 30
0.0
  0
LINE
  5
39E
100
AcDbEntity
  8
0
100
AcDbLine
 62
7
  6
CONTINUOUS
 10
7.1056185913
 20
4.3461583722
 11
7.1063598532
 21
4.345601689
  0
LINE
  5
39F
100
AcDbEntity
  8
0
100
AcDbLine
 62
7
  6
CONTINUOUS
 10
7.0956729059
 20
4.3556374005
 11
7.0962750349
 21
4.3549325557
  0
SPLINE
  5
3A0
100
AcDbEntity
  8
0
100
AcDbSpline
 62
7
  6
CONTINUOUS
 70
0
 71
3
 72
9
 73
5
 74
0
 42
0.0000001
 43
0.0000001
 44
0.0000000001
 40
0.0
 40
0.0
 40
0.0
 40
0.0
 40
0.4838122253
 40
1.0
 40
1.0
 40
1.0
 40
1.0
 10
7.0929517886
 20
4.3624103969
 30
0.0
 10
7.0941421238
 20
4.3620505203
 30
0.0
 10
7.0966404524
 20
4.3614304634
 30
0.0
 10
7.0991774749
 20
4.3610044979
 30
0.0
 10
7.1004923818
 20
4.3608275306
 30
0.0
  0
SPLINE
  5
3A1
100
AcDbEntity
  8
0
100
AcDbSpline
 62
7
  6
CONTINUOUS
 70
0
 71
3
 72
9
 73
5
 74
0
 42
0.0000001
 43
0.0000001
 44
0.0000000001
 40
0.0
 40
0.0
 40
0.0
 40
0.0
 40
0.516187774
 40
1.0
 40
1.0
 40
1.0
 40
1.0
 10
7.0918455234
 20
4.3700354995
 30
0.0
 10
7.0919395779
 20
4.3687120754
 30
0.0
 10
7.0922054019
 20
4.3661533125
 30
0.0
 10
7.0926673639
 20
4.3636209801
 30
0.0
 10
7.0929517886
 20
4.3624103969
 30
0.0
  0
LINE
  5
3A2
100
AcDbEntity
  8
0
100
AcDbLine
 62
7
  6
CONTINUOUS
 10
7.0856973716
 20
4.3661966231
 11
7.0863630175
 21
4.3655514247
  0
LINE
  5
3A3
100
AcDbEntity
  8
0
100
AcDbLine
 62
7
  6
CONTINUOUS
 10
7.0770181481
 20
4.3768474313
 11
7.0775271887
 21
4.3760726776
  0
SPLINE
  5
3A4
100
AcDbEntity
  8
0
100
AcDbSpline
 62
7
  6
CONTINUOUS
 70
0
 71
3
 72
9
 73
5
 74
0
 42
0.0000001
 43
0.0000001
 44
0.0000000001
 40
0.0
 40
0.0
 40
0.0
 40
0.0
 40
0.4838122253
 40
1.0
 40
1.0
 40
1.0
 40
1.0
 10
7.0751673692
 20
4.3839080671
 30
0.0
 10
7.0763032138
 20
4.3834018396
 30
0.0
 10
7.0787041286
 20
4.3824735484
 30
0.0
 10
7.0811677582
 20
4.3817329686
 30
0.0
 10
7.0824501169
 20
4.3813925951
 30
0.0
  0
SPLINE
  5
3A5
100
AcDbEntity
  8
0
100
AcDbSpline
 62
7
  6
CONTINUOUS
 70
0
 71
3
 72
9
 73
5
 74
0
 42
0.0000001
 43
0.0000001
 44
0.0000000001
 40
0.0
 40
0.0
 40
0.0
 40
0.0
 40
0.516187774
 40
1.0
 40
1.0
 40
1.0
 40
1.0
 10
7.075025506
 20
4.3916116952
 30
0.0
 10
7.0749529498
 20
4.3902869185
 30
0.0
 10
7.0748959797
 20
4.3877150157
 30
0.0
 10
7.0750369136
 20
4.3851447523
 30
0.0
 10
7.0751673692
 20
4.3839080671
 30
0.0
  0
LINE
  5
3A6
100
AcDbEntity
  8
0
100
AcDbLine
 62
7
  6
CONTINUOUS
 10
7.0684446954
 20
4.3885736572
 11
7.0690242277
 21
4.3878501188
  0
LINE
  5
3A7
100
AcDbEntity
  8
0
100
AcDbLine
 62
7
  6
CONTINUOUS
 10
7.0611688105
 20
4.4002282758
 11
7.0615767347
 21
4.3993958316
  0
SPLINE
  5
3A8
100
AcDbEntity
  8
0
100
AcDbSpline
 62
7
  6
CONTINUOUS
 70
0
 71
3
 72
9
 73
5
 74
0
 42
0.0000001
 43
0.0000001
 44
0.0000000001
 40
0.0
 40
0.0
 40
0.0
 40
0.0
 40
0.4838122253
 40
1.0
 40
1.0
 40
1.0
 40
1.0
 10
7.0602175578
 20
4.4074652004
 30
0.0
 10
7.0612809987
 20
4.4068206057
 30
0.0
 10
7.0635466359
 20
4.4055987199
 30
0.0
 10
7.0658980198
 20
4.4045552051
 30
0.0
 10
7.0671276066
 20
4.4040567934
 30
0.0
  0
SPLINE
  5
3A9
100
AcDbEntity
  8
0
100
AcDbSpline
 62
7
  6
CONTINUOUS
 70
0
 71
3
 72
9
 73
5
 74
0
 42
0.0000001
 43
0.0000001
 44
0.0000000001
 40
0.0
 40
0.0
 40
0.0
 40
0.0
 40
0.516187774
 40
1.0
 40
1.0
 40
1.0
 40
1.0
 10
7.0610423339
 20
4.4151258633
 30
0.0
 10
7.0608043112
 20
4.4138206266
 30
0.0
 10
7.0604254454
 20
4.4112761443
 30
0.0
 10
7.0602431286
 20
4.4087084844
 30
0.0
 10
7.0602175578
 20
4.4074652004
 30
0.0
  0
LINE
  5
3AA
100
AcDbEntity
  8
0
100
AcDbLine
 62
7
  6
CONTINUOUS
 10
7.0541326477
 20
4.4129365755
 11
7.0546169269
 21
4.4121461077
  0
LINE
  5
3AB
100
AcDbEntity
  8
0
100
AcDbLine
 62
7
  6
CONTINUOUS
 10
7.0483748464
 20
4.4254112041
 11
7.0486752211
 21
4.4245341974
  0
SPLINE
  5
3AC
100
AcDbEntity
  8
0
100
AcDbSpline
 62
7
  6
CONTINUOUS
 70
0
 71
3
 72
9
 73
5
 74
0
 42
0.0000001
 43
0.0000001
 44
0.0000000001
 40
0.0
 40
0.0
 40
0.0
 40
0.0
 40
0.4838122253
 40
1.0
 40
1.0
 40
1.0
 40
1.0
 10
7.0483381218
 20
4.4327102869
 30
0.0
 10
7.0493123881
 20
4.4319374905
 30
0.0
 10
7.0514070171
 20
4.4304412801
 30
0.0
 10
7.0536090726
 20
4.4291112871
 30
0.0
 10
7.0547664961
 20
4.4284626975
 30
0.0
  0
SPLINE
  5
3AD
100
AcDbEntity
  8
0
100
AcDbSpline
 62
7
  6
CONTINUOUS
 70
0
 71
3
 72
9
 73
5
 74
0
 42
0.0000001
 43
0.0000001
 44
0.0000000001
 40
0.0
 40
0.0
 40
0.0
 40
0.0
 40
0.516187774
 40
1.0
 40
1.0
 40
1.0
 40
1.0
 10
7.0501165299
 20
4.4402071714
 30
0.0
 10
7.0497167946
 20
4.438942059
 30
0.0
 10
7.0490220081
 20
4.4364651251
 30
0.0
 10
7.0485193158
 20
4.4339405624
 30
0.0
 10
7.0483381218
 20
4.4327102869
 30
0.0
  0
LINE
  5
3AE
100
AcDbEntity
  8
0
100
AcDbLine
 62
7
  6
CONTINUOUS
 10
7.0429869382
 20
4.43890116
 11
7.0433683268
 21
4.4380562291
  0
LINE
  5
3AF
100
AcDbEntity
  8
0
100
AcDbLine
 62
7
  6
CONTINUOUS
 10
7.0388380244
 20
4.4519990663
 11
7.0390261125
 21
4.4510913282
  0
SPLINE
  5
3B0
100
AcDbEntity
  8
0
100
AcDbSpline
 62
7
  6
CONTINUOUS
 70
0
 71
3
 72
9
 73
5
 74
0
 42
0.0000001
 43
0.0000001
 44
0.0000000001
 40
0.0
 40
0.0
 40
0.0
 40
0.0
 40
0.4838122253
 40
1.0
 40
1.0
 40
1.0
 40
1.0
 10
7.039716407
 20
4.4592451965
 30
0.0
 10
7.0405861338
 20
4.4583563859
 30
0.0
 10
7.0424767212
 20
4.4566094469
 30
0.0
 10
7.0444947205
 20
4.4550139506
 30
0.0
 10
7.0455617276
 20
4.4542254117
 30
0.0
  0
SPLINE
  5
3B1
100
AcDbEntity
  8
0
100
AcDbSpline
 62
7
  6
CONTINUOUS
 70
0
 71
3
 72
9
 73
5
 74
0
 42
0.0000001
 43
0.0000001
 44
0.0000000001
 40
0.0
 40
0.0
 40
0.0
 40
0.0
 40
0.516187774
 40
1.0
 40
1.0
 40
1.0
 40
1.0
 10
7.0424204006
 20
4.4664600722
 30
0.0
 10
7.0418652568
 20
4.4652550357
 30
0.0
 10
7.0408655067
 20
4.462884713
 30
0.0
 10
7.0400503666
 20
4.4604430613
 30
0.0
 10
7.039716407
 20
4.4592451965
 30
0.0
  0
LINE
  5
3B2
100
AcDbEntity
  8
0
100
AcDbLine
 62
7
  6
CONTINUOUS
 10
7.0351833413
 20
4.4660579339
 11
7.0354558246
 21
4.4651718648
  0
LINE
  5
3B3
100
AcDbEntity
  8
0
100
AcDbLine
 62
7
  6
CONTINUOUS
 10
7.0327087458
 20
4.479572556
 11
7.032781581
 21
4.4786484021
  0
SPLINE
  5
3B4
100
AcDbEntity
  8
0
100
AcDbSpline
 62
7
  6
CONTINUOUS
 70
0
 71
3
 72
9
 73
5
 74
0
 42
0.0000001
 43
0.0000001
 44
0.0000000001
 40
0.0
 40
0.0
 40
0.0
 40
0.0
 40
0.4838122253
 40
1.0
 40
1.0
 40
1.0
 40
1.0
 10
7.0344883831
 20
4.4866514578
 30
0.0
 10
7.0352398543
 20
4.4856606501
 30
0.0
 10
7.0368965843
 20
4.4836905328
 30
0.0
 10
7.0386987024
 20
4.4818546951
 30
0.0
 10
7.0396584656
 20
4.4809386425
 30
0.0
  0
SPLINE
  5
3B5
100
AcDbEntity
  8
0
100
AcDbSpline
 62
7
  6
CONTINUOUS
 70
0
 71
3
 72
9
 73
5
 74
0
 42
0.0000001
 43
0.0000001
 44
0.0000000001
 40
0.0
 40
0.0
 40
0.0
 40
0.0
 40
0.516187774
 40
1.0
 40
1.0
 40
1.0
 40
1.0
 10
7.0380753186
 20
4.4934705418
 30
0.0
 10
7.0373735211
 20
4.4923445853
 30
0.0
 10
7.0360845741
 20
4.4901182553
 30
0.0
 10
7.0349698416
 20
4.4877980209
 30
0.0
 10
7.0344883831
 20
4.4866514578
 30
0.0
  0
LINE
  5
3B6
100
AcDbEntity
  8
0
100
AcDbLine
 62
7
  6
CONTINUOUS
 10
7.0308449243
 20
4.4939786185
 11
7.0310042051
 21
4.4930653851
  0
LINE
  5
3B7
100
AcDbEntity
  8
0
100
AcDbLine
 62
7
  6
CONTINUOUS
 10
7.0300836731
 20
4.5076968229
 11
7.0300401067
 21
4.5067708275
  0
SPLINE
  5
3B8
100
AcDbEntity
  8
0
100
AcDbSpline
 62
7
  6
CONTINUOUS
 70
0
 71
3
 72
9
 73
5
 74
0
 42
0.0000001
 43
0.0000001
 44
0.0000000001
 40
0.0
 40
0.0
 40
0.0
 40
0.0
 40
0.4838122253
 40
1.0
 40
1.0
 40
1.0
 40
1.0
 10
7.032736499
 20
4.5144968577
 30
0.0
 10
7.0333578635
 20
4.5134196785
 30
0.0
 10
7.0347546085
 20
4.5112574528
 30
0.0
 10
7.0363124249
 20
4.5092102259
 30
0.0
 10
7.0371498083
 20
4.5081811065
 30
0.0
  0
SPLINE
  5
3B9
100
AcDbEntity
  8
0
100
AcDbSpline
 62
7
  6
CONTINUOUS
 70
0
 71
3
 72
9
 73
5
 74
0
 42
0.0000001
 43
0.0000001
 44
0.0000000001
 40
0.0
 40
0.0
 40
0.0
 40
0.0
 40
0.516187774
 40
1.0
 40
1.0
 40
1.0
 40
1.0
 10
7.0371498083
 20
4.5208126089
 30
0.0
 10
7.0363124249
 20
4.5197834895
 30
0.0
 10
7.0347546085
 20
4.5177362627
 30
0.0
 10
7.0333578635
 20
4.515574037
 30
0.0
 10
7.032736499
 20
4.5144968577
 30
0.0
  0
LINE
  5
3BA
100
AcDbEntity
  8
0
100
AcDbLine
 62
7
  6
CONTINUOUS
 10
7.0300401067
 20
4.522222888
 11
7.0300836731
 21
4.5212968926
  0
LINE
  5
3BB
100
AcDbEntity
  8
0
100
AcDbLine
 62
7
  6
CONTINUOUS
 10
7.0310042051
 20
4.5359283303
 11
7.0308449243
 21
4.535015097
  0
SPLINE
  5
3BC
100
AcDbEntity
  8
0
100
AcDbSpline
 62
7
  6
CONTINUOUS
 70
0
 71
3
 72
9
 73
5
 74
0
 42
0.0000001
 43
0.0000001
 44
0.0000000001
 40
0.0
 40
0.0
 40
0.0
 40
0.0
 40
0.4838122253
 40
1.0
 40
1.0
 40
1.0
 40
1.0
 10
7.0344883831
 20
4.5423422576
 30
0.0
 10
7.0349698416
 20
4.5411956946
 30
0.0
 10
7.0360845741
 20
4.5388754602
 30
0.0
 10
7.0373735211
 20
4.5366491302
 30
0.0
 10
7.0380753186
 20
4.5355231737
 30
0.0
  0
SPLINE
  5
3BD
100
AcDbEntity
  8
0
100
AcDbSpline
 62
7
  6
CONTINUOUS
 70
0
 71
3
 72
9
 73
5
 74
0
 42
0.0000001
 43
0.0000001
 44
0.0000000001
 40
0.0
 40
0.0
 40
0.0
 40
0.0
 40
0.516187774
 40
1.0
 40
1.0
 40
1.0
 40
1.0
 10
7.0396584656
 20
4.5480550729
 30
0.0
 10
7.0386987024
 20
4.5471390204
 30
0.0
 10
7.0368965843
 20
4.5453031827
 30
0.0
 10
7.0352398543
 20
4.5433330654
 30
0.0
 10
7.0344883831
 20
4.5423422576
 30
0.0
  0
LINE
  5
3BE
100
AcDbEntity
  8
0
100
AcDbLine
 62
7
  6
CONTINUOUS
 10
7.032781581
 20
4.5503453134
 11
7.0327087458
 21
4.5494211594
  0
LINE
  5
3BF
100
AcDbEntity
  8
0
100
AcDbLine
 62
7
  6
CONTINUOUS
 10
7.0354558246
 20
4.5638218507
 11
7.0351833413
 21
4.5629357816
  0
SPLINE
  5
3C0
100
AcDbEntity
  8
0
100
AcDbSpline
 62
7
  6
CONTINUOUS
 70
0
 71
3
 72
9
 73
5
 74
0
 42
0.0000001
 43
0.0000001
 44
0.0000000001
 40
0.0
 40
0.0
 40
0.0
 40
0.0
 40
0.4838122253
 40
1.0
 40
1.0
 40
1.0
 40
1.0
 10
7.039716407
 20
4.5697485189
 30
0.0
 10
7.0400503666
 20
4.5685506542
 30
0.0
 10
7.0408655067
 20
4.5661090025
 30
0.0
 10
7.0418652568
 20
4.5637386798
 30
0.0
 10
7.0424204006
 20
4.5625336433
 30
0.0
  0
SPLINE
  5
3C1
100
AcDbEntity
  8
0
100
AcDbSpline
 62
7
  6
CONTINUOUS
 70
0
 71
3
 72
9
 73
5
 74
0
 42
0.0000001
 43
0.0000001
 44
0.0000000001
 40
0.0
 40
0.0
 40
0.0
 40
0.0
 40
0.516187774
 40
1.0
 40
1.0
 40
1.0
 40
1.0
 10
7.0455617276
 20
4.5747683038
 30
0.0
 10
7.0444947205
 20
4.5739797649
 30
0.0
 10
7.0424767212
 20
4.5723842686
 30
0.0
 10
7.0405861338
 20
4.5706373296
 30
0.0
 10
7.039716407
 20
4.5697485189
 30
0.0
  0
LINE
  5
3C2
100
AcDbEntity
  8
0
100
AcDbLine
 62
7
  6
CONTINUOUS
 10
7.0390261125
 20
4.5779023873
 11
7.0388380244
 21
4.5769946492
  0
LINE
  5
3C3
100
AcDbEntity
  8
0
100
AcDbLine
 62
7
  6
CONTINUOUS
 10
7.0433683268
 20
4.5909374864
 11
7.0429869382
 21
4.5900925555
  0
SPLINE
  5
3C4
100
AcDbEntity
  8
0
100
AcDbSpline
 62
7
  6
CONTINUOUS
 70
0
 71
3
 72
9
 73
5
 74
0
 42
0.0000001
 43
0.0000001
 44
0.0000000001
 40
0.0
 40
0.0
 40
0.0
 40
0.0
 40
0.4838122253
 40
1.0
 40
1.0
 40
1.0
 40
1.0
 10
7.0483381218
 20
4.5962834285
 30
0.0
 10
7.0485193158
 20
4.5950531531
 30
0.0
 10
7.0490220081
 20
4.5925285904
 30
0.0
 10
7.0497167946
 20
4.5900516565
 30
0.0
 10
7.0501165299
 20
4.5887865441
 30
0.0
  0
SPLINE
  5
3C5
100
AcDbEntity
  8
0
100
AcDbSpline
 62
7
  6
CONTINUOUS
 70
0
 71
3
 72
9
 73
5
 74
0
 42
0.0000001
 43
0.0000001
 44
0.0000000001
 40
0.0
 40
0.0
 40
0.0
 40
0.0
 40
0.516187774
 40
1.0
 40
1.0
 40
1.0
 40
1.0
 10
7.0547664961
 20
4.600531018
 30
0.0
 10
7.0536090726
 20
4.5998824284
 30
0.0
 10
7.0514070171
 20
4.5985524354
 30
0.0
 10
7.0493123881
 20
4.597056225
 30
0.0
 10
7.0483381218
 20
4.5962834285
 30
0.0
  0
LINE
  5
3C6
100
AcDbEntity
  8
0
100
AcDbLine
 62
7
  6
CONTINUOUS
 10
7.0486752211
 20
4.604459518
 11
7.0483748464
 21
4.6035825114
  0
LINE
  5
3C7
100
AcDbEntity
  8
0
100
AcDbLine
 62
7
  6
CONTINUOUS
 10
7.0546169269
 20
4.6168476078
 11
7.0541326477
 21
4.61605714
  0
SPLINE
  5
3C8
100
AcDbEntity
  8
0
100
AcDbSpline
 62
7
  6
CONTINUOUS
 70
0
 71
3
 72
9
 73
5
 74
0
 42
0.0000001
 43
0.0000001
 44
0.0000000001
 40
0.0
 40
0.0
 40
0.0
 40
0.0
 40
0.4838122253
 40
1.0
 40
1.0
 40
1.0
 40
1.0
 10
7.0602175578
 20
4.6215285151
 30
0.0
 10
7.0602431286
 20
4.620285231
 30
0.0
 10
7.0604254454
 20
4.6177175712
 30
0.0
 10
7.0608043112
 20
4.6151730889
 30
0.0
 10
7.0610423339
 20
4.6138678521
 30
0.0
  0
SPLINE
  5
3C9
100
AcDbEntity
  8
0
100
AcDbSpline
 62
7
  6
CONTINUOUS
 70
0
 71
3
 72
9
 73
5
 74
0
 42
0.0000001
 43
0.0000001
 44
0.0000000001
 40
0.0
 40
0.0
 40
0.0
 40
0.0
 40
0.516187774
 40
1.0
 40
1.0
 40
1.0
 40
1.0
 10
7.0671276066
 20
4.6249369221
 30
0.0
 10
7.0658980198
 20
4.6244385104
 30
0.0
 10
7.0635466359
 20
4.6233949956
 30
0.0
 10
7.0612809987
 20
4.6221731098
 30
0.0
 10
7.0602175578
 20
4.6215285151
 30
0.0
  0
LINE
  5
3CA
100
AcDbEntity
  8
0
100
AcDbLine
 62
7
  6
CONTINUOUS
 10
7.0615767347
 20
4.6295978839
 11
7.0611688105
 21
4.6287654397
  0
LINE
  5
3CB
100
AcDbEntity
  8
0
100
AcDbLine
 62
7
  6
CONTINUOUS
 10
7.0690242277
 20
4.6411435966
 11
7.0684446954
 21
4.6404200582
  0
SPLINE
  5
3CC
100
AcDbEntity
  8
0
100
AcDbSpline
 62
7
  6
CONTINUOUS
 70
0
 71
3
 72
9
 73
5
 74
0
 42
0.0000001
 43
0.0000001
 44
0.0000000001
 40
0.0
 40
0.0
 40
0.0
 40
0.0
 40
0.4838122253
 40
1.0
 40
1.0
 40
1.0
 40
1.0
 10
7.0751673692
 20
4.6450856484
 30
0.0
 10
7.0750369136
 20
4.6438489632
 30
0.0
 10
7.0748959797
 20
4.6412786998
 30
0.0
 10
7.0749529498
 20
4.638706797
 30
0.0
 10
7.075025506
 20
4.6373820202
 30
0.0
  0
SPLINE
  5
3CD
100
AcDbEntity
  8
0
100
AcDbSpline
 62
7
  6
CONTINUOUS
 70
0
 71
3
 72
9
 73
5
 74
0
 42
0.0000001
 43
0.0000001
 44
0.0000000001
 40
0.0
 40
0.0
 40
0.0
 40
0.0
 40
0.516187774
 40
1.0
 40
1.0
 40
1.0
 40
1.0
 10
7.0824501169
 20
4.6476011204
 30
0.0
 10
7.0811677582
 20
4.6472607469
 30
0.0
 10
7.0787041286
 20
4.646520167
 30
0.0
 10
7.0763032138
 20
4.6455918759
 30
0.0
 10
7.0751673692
 20
4.6450856484
 30
0.0
  0
LINE
  5
3CE
100
AcDbEntity
  8
0
100
AcDbLine
 62
7
  6
CONTINUOUS
 10
7.0775271887
 20
4.6529210378
 11
7.0770181481
 21
4.6521462842
  0
LINE
  5
3CF
100
AcDbEntity
  8
0
100
AcDbLine
 62
7
  6
CONTINUOUS
 10
7.0863630175
 20
4.6634422908
 11
7.0856973716
 21
4.6627970924
  0
SPLINE
  5
3D0
100
AcDbEntity
  8
0
100
AcDbSpline
 62
7
  6
CONTINUOUS
 70
0
 71
3
 72
9
 73
5
 74
0
 42
0.0000001
 43
0.0000001
 44
0.0000000001
 40
0.0
 40
0.0
 40
0.0
 40
0.0
 40
0.4838122253
 40
1.0
 40
1.0
 40
1.0
 40
1.0
 10
7.0929517886
 20
4.6665833185
 30
0.0
 10
7.0926673639
 20
4.6653727354
 30
0.0
 10
7.0922054019
 20
4.6628404029
 30
0.0
 10
7.0919395779
 20
4.6602816401
 30
0.0
 10
7.0918455234
 20
4.6589582159
 30
0.0
  0
SPLINE
  5
3D1
100
AcDbEntity
  8
0
100
AcDbSpline
 62
7
  6
CONTINUOUS
 70
0
 71
3
 72
9
 73
5
 74
0
 42
0.0000001
 43
0.0000001
 44
0.0000000001
 40
0.0
 40
0.0
 40
0.0
 40
0.0
 40
0.516187774
 40
1.0
 40
1.0
 40
1.0
 40
1.0
 10
7.1004923818
 20
4.6681661849
 30
0.0
 10
7.0991774749
 20
4.6679892176
 30
0.0
 10
7.0966404524
 20
4.6675632521
 30
0.0
 10
7.0941421238
 20
4.6669431952
 30
0.0
 10
7.0929517886
 20
4.6665833185
 30
0.0
  0
LINE
  5
3D2
100
AcDbEntity
  8
0
100
AcDbLine
 62
7
  6
CONTINUOUS
 10
7.0962750349
 20
4.6740611598
 11
7.0956729059
 21
4.6733563149
  0
LINE
  5
3D3
100
AcDbEntity
  8
0
100
AcDbLine
 62
7
  6
CONTINUOUS
 10
7.1063598532
 20
4.6833920265
 11
7.1056185913
 21
4.6828353432
  0
SPLINE
  5
3D4
100
AcDbEntity
  8
0
100
AcDbSpline
 62
7
  6
CONTINUOUS
 70
0
 71
3
 72
9
 73
5
 74
0
 42
0.0000001
 43
0.0000001
 44
0.0000000001
 40
0.0
 40
0.0
 40
0.0
 40
0.0
 40
0.4838122253
 40
1.0
 40
1.0
 40
1.0
 40
1.0
 10
7.113290345
 20
4.6856824943
 30
0.0
 10
7.1128564368
 20
4.6845171048
 30
0.0
 10
7.1120807321
 20
4.6820626398
 30
0.0
 10
7.1114963062
 20
4.6795573701
 30
0.0
 10
7.1112371243
 20
4.6782561697
 30
0.0
  0
SPLINE
  5
3D5
100
AcDbEntity
  8
0
100
AcDbSpline
 62
7
  6
CONTINUOUS
 70
0
 71
3
 72
9
 73
5
 74
0
 42
0.0000001
 43
0.0000001
 44
0.0000000001
 40
0.0
 40
0.0
 40
0.0
 40
0.0
 40
0.516187774
 40
1.0
 40
1.0
 40
1.0
 40
1.0
 10
7.1209698642
 20
4.6863077924
 30
0.0
 10
7.1196431458
 20
4.686297022
 30
0.0
 10
7.1170727409
 20
4.6861923886
 30
0.0
 10
7.1145163986
 20
4.6858903446
 30
0.0
 10
7.113290345
 20
4.6856824943
 30
0.0
  0
LINE
  5
3D6
100
AcDbEntity
  8
0
100
AcDbLine
 62
7
  6
CONTINUOUS
 10
7.1175246086
 20
4.6926848573
 11
7.116838887
 21
4.6920610372
  0
LINE
  5
3D7
100
AcDbEntity
  8
0
100
AcDbLine
 62
7
  6
CONTINUOUS
 10
7.1286993728
 20
4.7006781845
 11
7.127894185
 21
4.7002187956
  0
SPLINE
  5
3D8
100
AcDbEntity
  8
0
100
AcDbSpline
 62
7
  6
CONTINUOUS
 70
0
 71
3
 72
9
 73
5
 74
0
 42
0.0000001
 43
0.0000001
 44
0.0000000001
 40
0.0
 40
0.0
 40
0.0
 40
0.0
 40
0.4838122253
 40
1.0
 40
1.0
 40
1.0
 40
1.0
 10
7.1358622873
 20
4.7020819703
 30
0.0
 10
7.1352857386
 20
4.7009801534
 30
0.0
 10
7.1342085245
 20
4.6986422641
 30
0.0
 10
7.1333147134
 20
4.6962299973
 30
0.0
 10
7.1328944916
 20
4.6949715413
 30
0.0
  0
SPLINE
  5
3D9
100
AcDbEntity
  8
0
100
AcDbSpline
 62
7
  6
CONTINUOUS
 70
0
 71
3
 72
9
 73
5
 74
0
 42
0.0000001
 43
0.0000001
 44
0.0000000001
 40
0.0
 40
0.0
 40
0.0
 40
0.0
 40
0.516187774
 40
1.0
 40
1.0
 40
1.0
 40
1.0
 10
7.1435596218
 20
4.7017398388
 30
0.0
 10
7.1422420151
 20
4.7018954352
 30
0.0
 10
7.1396787645
 20
4.7021137841
 30
0.0
 10
7.1371047236
 20
4.7021345164
 30
0.0
 10
7.1358622873
 20
4.7020819703
 30
0.0
  0
LINE
  5
3DA
100
AcDbEntity
  8
0
100
AcDbLine
 62
7
  6
CONTINUOUS
 10
7.1409407912
 20
4.7084984237
 11
7.1401822914
 21
4.7079654662
  0
LINE
  5
3DB
100
AcDbEntity
  8
0
100
AcDbLine
 62
7
  6
CONTINUOUS
 10
7.1530292687
 20
4.7150281517
 11
7.1521728533
 21
4.7146733021
  0
SPLINE
  5
3DC
100
AcDbEntity
  8
0
100
AcDbSpline
 62
7
  6
CONTINUOUS
 70
0
 71
3
 72
9
 73
5
 74
0
 42
0.0000001
 43
0.0000001
 44
0.0000000001
 40
0.0
 40
0.0
 40
0.0
 40
0.0
 40
0.4838122253
 40
1.0
 40
1.0
 40
1.0
 40
1.0
 10
7.1603116425
 20
4.7155231171
 30
0.0
 10
7.1596015457
 20
4.714502249
 30
0.0
 10
7.1582398105
 20
4.7123178054
 30
0.0
 10
7.1570507102
 20
4.7100365843
 30
0.0
 10
7.1564760757
 20
4.7088407194
 30
0.0
  0
SPLINE
  5
3DD
100
AcDbEntity
  8
0
100
AcDbSpline
 62
7
  6
CONTINUOUS
 70
0
 71
3
 72
9
 73
5
 74
0
 42
0.0000001
 43
0.0000001
 44
0.0000000001
 40
0.0
 40
0.0
 40
0.0
 40
0.0
 40
0.516187774
 40
1.0
 40
1.0
 40
1.0
 40
1.0
 10
7.1679054008
 20
4.7142189515
 30
0.0
 10
7.1666176852
 20
4.7145384609
 30
0.0
 10
7.164102013
 20
4.7150763485
 30
0.0
 10
7.1615508676
 20
4.7154195303
 30
0.0
 10
7.1603116425
 20
4.7155231171
 30
0.0
  0
LINE
  5
3DE
100
AcDbEntity
  8
0
100
AcDbLine
 62
7
  6
CONTINUOUS
 10
7.1661542957
 20
4.7212524695
 11
7.1653349796
 21
4.7208187798
  0
LINE
  5
3DF
100
AcDbEntity
  8
0
100
AcDbLine
 62
7
  6
CONTINUOUS
 10
7.1789658438
 20
4.7262156207
 11
7.1780717071
 21
4.7259709064
  0
SPLINE
  5
3E0
100
AcDbEntity
  8
0
100
AcDbSpline
 62
7
  6
CONTINUOUS
 70
0
 71
3
 72
9
 73
5
 74
0
 42
0.0000001
 43
0.0000001
 44
0.0000000001
 40
0.0
 40
0.0
 40
0.0
 40
0.0
 40
0.4838122253
 40
1.0
 40
1.0
 40
1.0
 40
1.0
 10
7.1862528296
 20
4.7257939596
 30
0.0
 10
7.1854203834
 20
4.7248701401
 30
0.0
 10
7.1837956026
 20
4.7228735922
 30
0.0
 10
7.1823299658
 20
4.7207593929
 30
0.0
 10
7.1816099808
 20
4.7196449786
 30
0.0
  0
SPLINE
  5
3E1
100
AcDbEntity
  8
0
100
AcDbSpline
 62
7
  6
CONTINUOUS
 70
0
 71
3
 72
9
 73
5
 74
0
 42
0.0000001
 43
0.0000001
 44
0.0000000001
 40
0.0
 40
0.0
 40
0.0
 40
0.0
 40
0.516187774
 40
1.0
 40
1.0
 40
1.0
 40
1.0
 10
7.1936232535
 20
4.7235483275
 30
0.0
 10
7.1923857371
 20
4.7240267111
 30
0.0
 10
7.1899573169
 20
4.7248756546
 30
0.0
 10
7.1874693001
 20
4.7255358735
 30
0.0
 10
7.1862528296
 20
4.7257939596
 30
0.0
  0
LINE
  5
3E2
100
AcDbEntity
  8
0
100
AcDbLine
 62
7
  6
CONTINUOUS
 10
7.19276749
 20
4.7307458557
 11
7.1919002787
 21
4.7304182734
  0
LINE
  5
3E3
100
AcDbEntity
  8
0
100
AcDbLine
 62
7
  6
CONTINUOUS
 10
7.206100063
 20
4.7340641583
 11
7.205182306
 21
4.7339334387
  0
SPLINE
  5
3E4
100
AcDbEntity
  8
0
100
AcDbSpline
 62
7
  6
CONTINUOUS
 70
0
 71
3
 72
13
 73
9
 74
0
 42
0.0000001
 43
0.0000001
 44
0.0000000001
 40
0.0
 40
0.0
 40
0.0
 40
0.0
 40
0.2573131703
 40
0.3788207719
 40
0.4977437313
 40
0.6165886982
 40
0.7381721411
 40
1.0
 40
1.0
 40
1.0
 40
1.0
 10
7.4407906117
 20
4.6411435966
 30
0.0
 10
7.4408696834
 20
4.6409544575
 30
0.0
 10
7.4409587111
 20
4.6406617685
 30
0.0
 10
7.4409913488
 20
4.6402653109
 30
0.0
 10
7.4409701057
 20
4.6399785528
 30
0.0
 10
7.4409006897
 20
4.6396993074
 30
0.0
 10
7.4407391977
 20
4.6393314718
 30
0.0
 10
7.4405465277
 20
4.6390864513
 30
0.0
 10
7.4403977694
 20
4.6389402165
 30
0.0
  0
SPLINE
  5
3E5
100
AcDbEntity
  8
0
100
AcDbSpline
 62
7
  6
CONTINUOUS
 70
0
 71
3
 72
14
 73
10
 74
0
 42
0.0000001
 43
0.0000001
 44
0.0000000001
 40
0.0
 40
0.0
 40
0.0
 40
0.0
 40
0.0879138119
 40
0.1866531741
 40
0.2969512276
 40
0.4187261567
 40
0.5511665106
 40
0.6931308996
 40
1.0
 40
1.0
 40
1.0
 40
1.0
 10
7.4403977694
 20
4.6389402165
 30
0.0
 10
7.4402739199
 20
4.6388184679
 30
0.0
 10
7.4399837581
 20
4.6385872344
 30
0.0
 10
7.4394728286
 20
4.6382957208
 30
0.0
 10
7.4388683776
 20
4.638043706
 30
0.0
 10
7.4381790935
 20
4.6378324284
 30
0.0
 10
7.4374148584
 20
4.6376607612
 30
0.0
 10
7.4362802637
 20
4.6374804927
 30
0.0
 10
7.4353949058
 20
4.6374097807
 30
0.0
 10
7.4347893334
 20
4.6373820202
 30
0.0
  0
SPLINE
  5
3E6
100
AcDbEntity
  8
0
100
AcDbSpline
 62
7
  6
CONTINUOUS
 70
0
 71
3
 72
13
 73
9
 74
0
 42
0.0000001
 43
0.0000001
 44
0.0000000001
 40
0.0
 40
0.0
 40
0.0
 40
0.0
 40
0.2573157132
 40
0.3788247149
 40
0.4977487868
 40
0.6165941672
 40
0.7381770172
 40
1.0
 40
1.0
 40
1.0
 40
1.0
 10
7.3308489956
 20
4.7262156207
 30
0.0
 10
7.3310241297
 20
4.7261090869
 30
0.0
 10
7.3312681802
 20
4.7259246371
 30
0.0
 10
7.3315276086
 20
4.7256231019
 30
0.0
 10
7.3316789743
 20
4.7253786423
 30
0.0
 10
7.3317869573
 20
4.7251119478
 30
0.0
 10
7.3318725308
 20
4.7247194739
 30
0.0
 10
7.3318606973
 20
4.7244080234
 30
0.0
 10
7.3318263193
 20
4.7242022941
 30
0.0
  0
SPLINE
  5
3E7
100
AcDbEntity
  8
0
100
AcDbSpline
 62
7
  6
CONTINUOUS
 70
0
 71
3
 72
14
 73
10
 74
0
 42
0.0000001
 43
0.0000001
 44
0.0000000001
 40
0.0
 40
0.0
 40
0.0
 40
0.0
 40
0.0879120261
 40
0.1866498189
 40
0.2969468101
 40
0.4187213754
 40
0.5511620767
 40
0.693127457
 40
1.0
 40
1.0
 40
1.0
 40
1.0
 10
7.3318263193
 20
4.7242022941
 30
0.0
 10
7.3317976951
 20
4.7240309978
 30
0.0
 10
7.331698882
 20
4.7236733649
 30
0.0
 10
7.3314568945
 20
4.7231371939
 30
0.0
 10
7.3311160213
 20
4.7225780046
 30
0.0
 10
7.330682563
 20
4.7220019068
 30
0.0
 10
7.3301651778
 20
4.7214137975
 30
0.0
 10
7.3293532071
 20
4.720601027
 30
0.0
 10
7.3286784774
 20
4.7200233978
 30
0.0
 10
7.3282048587
 20
4.7196449786
 30
0.0
  0
SPLINE
  5
3E8
100
AcDbEntity
  8
0
100
AcDbSpline
 62
7
  6
CONTINUOUS
 70
0
 71
3
 72
18
 73
14
 74
0
 42
0.0000001
 43
0.0000001
 44
0.0000000001
 40
0.0
 40
0.0
 40
0.0
 40
0.0
 40
0.1782563534
 40
0.3442705431
 40
0.494652069
 40
0.6267534363
 40
0.6856007546
 40
0.7397572575
 40
0.8352144873
 40
0.8781931627
 40
0.9192616242
 40
0.9595076536
 40
1.0
 40
1.0
 40
1.0
 40
1.0
 10
7.3419094387
 20
4.7142189515
 30
0.0
 10
7.3418461203
 20
4.7146596964
 30
0.0
 10
7.3417455383
 20
4.7155142964
 30
0.0
 10
7.3416826594
 20
4.7167495463
 30
0.0
 10
7.3417250737
 20
4.7178707046
 30
0.0
 10
7.3418580004
 20
4.7187163055
 30
0.0
 10
7.3420330076
 20
4.7193041504
 30
0.0
 10
7.3422310098
 20
4.7197860538
 30
0.0
 10
7.3424920869
 20
4.720199442
 30
0.0
 10
7.3428198545
 20
4.7205083874
 30
0.0
 10
7.3430807786
 20
4.7206797696
 30
0.0
 10
7.3433626704
 20
4.7207985158
 30
0.0
 10
7.3435605744
 20
4.7208428823
 30
0.0
 10
7.343660717
 20
4.7208570979
 30
0.0
  0
LINE
  5
3E9
100
AcDbEntity
  8
0
100
AcDbLine
 62
7
  6
CONTINUOUS
 10
7.343660717
 20
4.7208570979
 11
7.3444798598
 21
4.7208187798
  0
SPLINE
  5
3EA
100
AcDbEntity
  8
0
100
AcDbSpline
 62
7
  6
CONTINUOUS
 70
0
 71
3
 72
14
 73
10
 74
0
 42
0.0000001
 43
0.0000001
 44
0.0000000001
 40
0.0
 40
0.0
 40
0.0
 40
0.0
 40
0.3068662028
 40
0.4488296734
 40
0.581269854
 40
0.7030451996
 40
0.8133441123
 40
0.9120847847
 40
1.0
 40
1.0
 40
1.0
 40
1.0
 10
7.4426872329
 20
4.6249369221
 30
0.0
 10
7.4429701838
 20
4.625473026
 30
0.0
 10
7.4434111203
 20
4.6262439947
 30
0.0
 10
7.4440573004
 20
4.6271938308
 30
0.0
 10
7.4445380115
 20
4.6278122303
 30
0.0
 10
7.4450226507
 20
4.6283459534
 30
0.0
 10
7.4455080323
 20
4.6287855767
 30
0.0
 10
7.4459893341
 20
4.6291237685
 30
0.0
 10
7.4463220981
 20
4.6292878716
 30
0.0
 10
7.4464849892
 20
4.6293481029
 30
0.0
  0
SPLINE
  5
3EB
100
AcDbEntity
  8
0
100
AcDbSpline
 62
7
  6
CONTINUOUS
 70
0
 71
3
 72
13
 73
9
 74
0
 42
0.0000001
 43
0.0000001
 44
0.0000000001
 40
0.0
 40
0.0
 40
0.0
 40
0.0
 40
0.2618310315
 40
0.3834146414
 40
0.5022591766
 40
0.6211814799
 40
0.7426883383
 40
1.0
 40
1.0
 40
1.0
 40
1.0
 10
7.4464849892
 20
4.6293481029
 30
0.0
 10
7.4466806523
 20
4.6294204521
 30
0.0
 10
7.4469844013
 20
4.6294904778
 30
0.0
 10
7.4473860092
 20
4.6294799974
 30
0.0
 10
7.447668247
 20
4.6294239154
 30
0.0
 10
7.4479367709
 20
4.6293210426
 30
0.0
 10
7.448281616
 20
4.6291227054
 30
0.0
 10
7.4485085527
 20
4.6289175232
 30
0.0
 10
7.448646029
 20
4.6287654397
 30
0.0
  0
SPLINE
  5
3EC
100
AcDbEntity
  8
0
100
AcDbSpline
 62
7
  6
CONTINUOUS
 70
0
 71
3
 72
14
 73
10
 74
0
 42
0.0000001
 43
0.0000001
 44
0.0000000001
 40
0.0
 40
0.0
 40
0.0
 40
0.0
 40
0.3068639877
 40
0.4488268151
 40
0.5812667695
 40
0.7030423452
 40
0.8133419379
 40
0.9120836285
 40
1.0
 40
1.0
 40
1.0
 40
1.0
 10
7.2078998303
 20
4.7272139294
 30
0.0
 10
7.2074774119
 20
4.7276486866
 30
0.0
 10
7.2068804472
 20
4.7283062689
 30
0.0
 10
7.2061767924
 20
4.729214316
 30
0.0
 10
7.2057372116
 20
4.7298625809
 30
0.0
 10
7.2053793719
 20
4.7304884171
 30
0.0
 10
7.2051112506
 20
4.731085883
 30
0.0
 10
7.2049383302
 20
4.7316481272
 30
0.0
 10
7.2048850772
 20
4.7320153114
 30
0.0
 10
7.2048781233
 20
4.7321888416
 30
0.0
  0
SPLINE
  5
3ED
100
AcDbEntity
  8
0
100
AcDbSpline
 62
7
  6
CONTINUOUS
 70
0
 71
3
 72
13
 73
9
 74
0
 42
0.0000001
 43
0.0000001
 44
0.0000000001
 40
0.0
 40
0.0
 40
0.0
 40
0.0
 40
0.2618341699
 40
0.3834181698
 40
0.5022624483
 40
0.6211840325
 40
0.7426899805
 40
1.0
 40
1.0
 40
1.0
 40
1.0
 10
7.2048781233
 20
4.7321888416
 30
0.0
 10
7.2048697698
 20
4.7323972962
 30
0.0
 10
7.204897024
 20
4.7327078346
 30
0.0
 10
7.2050310884
 20
4.7330865705
 30
0.0
 10
7.2051716401
 20
4.7333376784
 30
0.0
 10
7.2053524583
 20
4.7335612822
 30
0.0
 10
7.2056476579
 20
4.733827973
 30
0.0
 10
7.205912934
 20
4.7339804041
 30
0.0
 10
7.206100063
 20
4.7340641583
 30
0.0
  0
LINE
  5
3EE
100
AcDbEntity
  8
0
100
AcDbLine
 62
7
  6
CONTINUOUS
 10
7.4551979125
 20
4.6168476078
 11
7.4552047729
 21
4.615615422
  0
SPLINE
  5
3EF
100
AcDbEntity
  8
0
100
AcDbSpline
 62
7
  6
CONTINUOUS
 70
0
 71
3
 72
17
 73
13
 74
0
 42
0.0000001
 43
0.0000001
 44
0.0000000001
 40
0.0
 40
0.0
 40
0.0
 40
0.0
 40
0.0390854653
 40
0.0792026795
 40
0.1657423824
 40
0.2139160962
 40
0.2659474417
 40
0.3823971287
 40
0.5158148626
 40
0.6648333478
 40
0.8271593242
 40
1.0
 40
1.0
 40
1.0
 40
1.0
 10
7.4552047729
 20
4.615615422
 30
0.0
 10
7.4551758737
 20
4.6155279826
 30
0.0
 10
7.4551024133
 20
4.6153553256
 30
0.0
 10
7.4548920515
 20
4.6150245631
 30
0.0
 10
7.4545888698
 20
4.6147356038
 30
0.0
 10
7.4542184432
 20
4.6144972402
 30
0.0
 10
7.4537607067
 20
4.6142690396
 30
0.0
 10
7.4530814452
 20
4.614046218
 30
0.0
 10
7.4521548885
 20
4.6138779186
 30
0.0
 10
7.4511089527
 20
4.6137939841
 30
0.0
 10
7.4499673177
 20
4.6137908177
 30
0.0
 10
7.4491784469
 20
4.613835367
 30
0.0
 10
7.4487725056
 20
4.6138678521
 30
0.0
  0
LINE
  5
3F0
100
AcDbEntity
  8
0
100
AcDbLine
 62
7
  6
CONTINUOUS
 10
7.2194592381
 20
4.7366125572
 11
7.2206332456
 21
4.7362383087
  0
SPLINE
  5
3F1
100
AcDbEntity
  8
0
100
AcDbSpline
 62
7
  6
CONTINUOUS
 70
0
 71
3
 72
17
 73
13
 74
0
 42
0.0000001
 43
0.0000001
 44
0.0000000001
 40
0.0
 40
0.0
 40
0.0
 40
0.0
 40
0.0390854141
 40
0.0792025931
 40
0.1657423645
 40
0.2139161749
 40
0.2659475946
 40
0.3823973753
 40
0.5158151425
 40
0.6648335913
 40
0.8271594734
 40
1.0
 40
1.0
 40
1.0
 40
1.0
 10
7.2206332456
 20
4.7362383087
 30
0.0
 10
7.2207074745
 20
4.7361838034
 30
0.0
 10
7.2208489795
 20
4.736060584
 30
0.0
 10
7.221098546
 20
4.7357583061
 30
0.0
 10
7.2212796718
 20
4.735380669
 30
0.0
 10
7.2213918991
 20
4.7349547137
 30
0.0
 10
7.2214674814
 20
4.7344488626
 30
0.0
 10
7.221469493
 20
4.7337339916
 30
0.0
 10
7.2213432328
 20
4.7328007778
 30
0.0
 10
7.2210998472
 20
4.7317800986
 30
0.0
 10
7.2207500744
 20
4.7306933632
 30
0.0
 10
7.2204639317
 20
4.7299568706
 30
0.0
 10
7.2203075941
 20
4.7295808369
 30
0.0
  0
SPLINE
  5
3F2
100
AcDbEntity
  8
0
100
AcDbSpline
 62
7
  6
CONTINUOUS
 70
0
 71
3
 72
14
 73
10
 74
0
 42
0.0000001
 43
0.0000001
 44
0.0000000001
 40
0.0
 40
0.0
 40
0.0
 40
0.0
 40
0.3068639877
 40
0.4488268151
 40
0.5812667695
 40
0.7030423452
 40
0.8133419379
 40
0.9120836285
 40
1.0
 40
1.0
 40
1.0
 40
1.0
 10
7.2349310177
 20
4.731428205
 30
0.0
 10
7.2345664196
 20
4.731912477
 30
0.0
 10
7.2340565791
 20
4.7326396936
 30
0.0
 10
7.2334722813
 20
4.7336287718
 30
0.0
 10
7.2331174159
 20
4.7343270191
 30
0.0
 10
7.2328408359
 20
4.7349927695
 30
0.0
 10
7.2326497111
 20
4.7356191287
 30
0.0
 10
7.2325486222
 20
4.7361986121
 30
0.0
 10
7.2325418094
 20
4.7365695753
 30
0.0
 10
7.2325566595
 20
4.7367426088
 30
0.0
  0
SPLINE
  5
3F3
100
AcDbEntity
  8
0
100
AcDbSpline
 62
7
  6
CONTINUOUS
 70
0
 71
3
 72
13
 73
9
 74
0
 42
0.0000001
 43
0.0000001
 44
0.0000000001
 40
0.0
 40
0.0
 40
0.0
 40
0.0
 40
0.2618341699
 40
0.3834181698
 40
0.5022624483
 40
0.6211840325
 40
0.7426899805
 40
1.0
 40
1.0
 40
1.0
 40
1.0
 10
7.2325566595
 20
4.7367426088
 30
0.0
 10
7.2325744982
 20
4.7369504666
 30
0.0
 10
7.2326404582
 20
4.7372551405
 30
0.0
 10
7.2328209337
 20
4.7376140872
 30
0.0
 10
7.2329918493
 20
4.7378455993
 30
0.0
 10
7.2331992666
 20
4.7380447774
 30
0.0
 10
7.2335255638
 20
4.7382723669
 30
0.0
 10
7.2338078528
 20
4.7383903481
 30
0.0
 10
7.2340040033
 20
4.7384499884
 30
0.0
  0
SPLINE
  5
3F4
100
AcDbEntity
  8
0
100
AcDbSpline
 62
7
  6
CONTINUOUS
 70
0
 71
3
 72
14
 73
10
 74
0
 42
0.0000001
 43
0.0000001
 44
0.0000000001
 40
0.0
 40
0.0
 40
0.0
 40
0.0
 40
0.3068662028
 40
0.4488296734
 40
0.581269854
 40
0.7030451996
 40
0.8133441123
 40
0.9120847847
 40
1.0
 40
1.0
 40
1.0
 40
1.0
 10
7.4550483434
 20
4.600531018
 30
0.0
 10
7.4553962548
 20
4.6010274315
 30
0.0
 10
7.4559303423
 20
4.6017370568
 30
0.0
 10
7.4566904731
 20
4.6025984153
 30
0.0
 10
7.4572448997
 20
4.6031516895
 30
0.0
 10
7.4577926106
 20
4.6036204626
 30
0.0
 10
7.4583292643
 20
4.6039957849
 30
0.0
 10
7.4588491575
 20
4.6042709869
 30
0.0
 10
7.4591998651
 20
4.6043920896
 30
0.0
 10
7.4593690208
 20
4.6044314302
 30
0.0
  0
SPLINE
  5
3F5
100
AcDbEntity
  8
0
100
AcDbSpline
 62
7
  6
CONTINUOUS
 70
0
 71
3
 72
13
 73
9
 74
0
 42
0.0000001
 43
0.0000001
 44
0.0000000001
 40
0.0
 40
0.0
 40
0.0
 40
0.0
 40
0.2618310315
 40
0.3834146414
 40
0.5022591766
 40
0.6211814799
 40
0.7426883383
 40
1.0
 40
1.0
 40
1.0
 40
1.0
 10
7.4593690208
 20
4.6044314302
 30
0.0
 10
7.4595722087
 20
4.6044786859
 30
0.0
 10
7.4598823391
 20
4.6045100896
 30
0.0
 10
7.4602794667
 20
4.604449357
 30
0.0
 10
7.4605524501
 20
4.6043583434
 30
0.0
 10
7.4608059631
 20
4.6042226268
 30
0.0
 10
7.4611232309
 20
4.603982633
 30
0.0
 10
7.4613226619
 20
4.603750626
 30
0.0
 10
7.4614399931
 20
4.6035825114
 30
0.0
  0
LINE
  5
3F6
100
AcDbEntity
  8
0
100
AcDbLine
 62
7
  6
CONTINUOUS
 10
7.2475772364
 20
4.7393039438
 11
7.2486950807
 21
4.7387855042
  0
SPLINE
  5
3F7
100
AcDbEntity
  8
0
100
AcDbSpline
 62
7
  6
CONTINUOUS
 70
0
 71
3
 72
17
 73
13
 74
0
 42
0.0000001
 43
0.0000001
 44
0.0000000001
 40
0.0
 40
0.0
 40
0.0
 40
0.0
 40
0.0390854141
 40
0.0792025931
 40
0.1657423645
 40
0.2139161749
 40
0.2659475946
 40
0.3823973753
 40
0.5158151425
 40
0.6648335913
 40
0.8271594734
 40
1.0
 40
1.0
 40
1.0
 40
1.0
 10
7.2486950807
 20
4.7387855042
 30
0.0
 10
7.248761893
 20
4.7387221254
 30
0.0
 10
7.2488868387
 20
4.7385821423
 30
0.0
 10
7.2490965519
 20
4.7382509689
 30
0.0
 10
7.249228919
 20
4.7378536086
 30
0.0
 10
7.249286875
 20
4.7374169462
 30
0.0
 10
7.2492984613
 20
4.7369056109
 30
0.0
 10
7.24921086
 20
4.7361961247
 30
0.0
 10
7.2489686326
 20
4.7352860943
 30
0.0
 10
7.2485992412
 20
4.7343039678
 30
0.0
 10
7.2481160224
 20
4.7332696397
 30
0.0
 10
7.247739829
 20
4.7325748178
 30
0.0
 10
7.2475375947
 20
4.7322213436
 30
0.0
  0
LINE
  5
3F8
100
AcDbEntity
  8
0
100
AcDbLine
 62
7
  6
CONTINUOUS
 10
7.4664465126
 20
4.5909374864
 11
7.4662988851
 21
4.589714157
  0
SPLINE
  5
3F9
100
AcDbEntity
  8
0
100
AcDbSpline
 62
7
  6
CONTINUOUS
 70
0
 71
3
 72
17
 73
13
 74
0
 42
0.0000001
 43
0.0000001
 44
0.0000000001
 40
0.0
 40
0.0
 40
0.0
 40
0.0
 40
0.0390854653
 40
0.0792026795
 40
0.1657423824
 40
0.2139160962
 40
0.2659474417
 40
0.3823971287
 40
0.5158148626
 40
0.6648333478
 40
0.8271593242
 40
1.0
 40
1.0
 40
1.0
 40
1.0
 10
7.4662988851
 20
4.589714157
 30
0.0
 10
7.4662592547
 20
4.5896310291
 30
0.0
 10
7.4661647339
 20
4.5894689406
 30
0.0
 10
7.4659145753
 20
4.5891671515
 30
0.0
 10
7.4655775681
 20
4.5889184696
 30
0.0
 10
7.4651801875
 20
4.5887284123
 30
0.0
 10
7.4646974593
 20
4.5885593807
 30
0.0
 10
7.463995627
 20
4.5884234501
 30
0.0
 10
7.463055283
 20
4.5883726062
 30
0.0
 10
7.462007075
 20
4.588420424
 30
0.0
 10
7.4608740452
 20
4.5885603674
 30
0.0
 10
7.4600969784
 20
4.5887034371
 30
0.0
 10
7.4596983095
 20
4.5887865441
 30
0.0
  0
SPLINE
  5
3FA
100
AcDbEntity
  8
0
100
AcDbSpline
 62
7
  6
CONTINUOUS
 70
0
 71
3
 72
18
 73
14
 74
0
 42
0.0000001
 43
0.0000001
 44
0.0000000001
 40
0.0
 40
0.0
 40
0.0
 40
0.0
 40
0.1782563534
 40
0.3442705431
 40
0.494652069
 40
0.6267534363
 40
0.6856007546
 40
0.7397572575
 40
0.8352144873
 40
0.8781931627
 40
0.9192616242
 40
0.9595076536
 40
1.0
 40
1.0
 40
1.0
 40
1.0
 10
7.2475375947
 20
4.2967723719
 30
0.0
 10
7.2477587157
 20
4.2963858867
 30
0.0
 10
7.2481668337
 20
4.2956283265
 30
0.0
 10
7.2486800228
 20
4.2945029674
 30
0.0
 10
7.249053313
 20
4.293444927
 30
0.0
 10
7.2492410072
 20
4.2926097736
 30
0.0
 10
7.2492946899
 20
4.2919987848
 30
0.0
 10
7.2492879925
 20
4.2914778329
 30
0.0
 10
7.2491974275
 20
4.2909973654
 30
0.0
 10
7.2490064072
 20
4.2905894559
 30
0.0
 10
7.2488268962
 20
4.2903340562
 30
0.0
 10
7.2486085132
 20
4.2901198775
 30
0.0
 10
7.2484408391
 20
4.2900057733
 30
0.0
 10
7.248352962
 20
4.2899556909
 30
0.0
  0
LINE
  5
3FB
100
AcDbEntity
  8
0
100
AcDbLine
 62
7
  6
CONTINUOUS
 10
7.248352962
 20
4.2899556909
 11
7.2475772364
 21
4.2896897717
  0
SPLINE
  5
3FC
100
AcDbEntity
  8
0
100
AcDbSpline
 62
7
  6
CONTINUOUS
 70
0
 71
3
 72
13
 73
9
 74
0
 42
0.0000001
 43
0.0000001
 44
0.0000000001
 40
0.0
 40
0.0
 40
0.0
 40
0.0
 40
0.2573131703
 40
0.3788207719
 40
0.4977437313
 40
0.6165886982
 40
0.7381721411
 40
1.0
 40
1.0
 40
1.0
 40
1.0
 10
7.2340040033
 20
4.2905437271
 30
0.0
 10
7.2338078669
 20
4.2906033631
 30
0.0
 10
7.2335255978
 20
4.2907213331
 30
0.0
 10
7.233199318
 20
4.290948897
 30
0.0
 10
7.2329919078
 20
4.2911480515
 30
0.0
 10
7.232820993
 20
4.2913795352
 30
0.0
 10
7.2326405096
 20
4.2917384341
 30
0.0
 10
7.2325745306
 20
4.2920430709
 30
0.0
 10
7.2325566769
 20
4.2922509047
 30
0.0
  0
SPLINE
  5
3FD
100
AcDbEntity
  8
0
100
AcDbSpline
 62
7
  6
CONTINUOUS
 70
0
 71
3
 72
14
 73
10
 74
0
 42
0.0000001
 43
0.0000001
 44
0.0000000001
 40
0.0
 40
0.0
 40
0.0
 40
0.0
 40
0.0879138119
 40
0.1866531741
 40
0.2969512276
 40
0.4187261567
 40
0.5511665106
 40
0.6931308996
 40
1.0
 40
1.0
 40
1.0
 40
1.0
 10
7.2325566769
 20
4.2922509047
 30
0.0
 10
7.2325418127
 20
4.2924239378
 30
0.0
 10
7.2325486002
 20
4.2927949051
 30
0.0
 10
7.2326496639
 20
4.2933744008
 30
0.0
 10
7.2328407747
 20
4.2940007787
 30
0.0
 10
7.2331173487
 20
4.2946665545
 30
0.0
 10
7.2334722187
 20
4.2953648326
 30
0.0
 10
7.2340565373
 20
4.2963539602
 30
0.0
 10
7.2345664011
 20
4.2970812138
 30
0.0
 10
7.2349310177
 20
4.2975655105
 30
0.0
  0
SPLINE
  5
3FE
100
AcDbEntity
  8
0
100
AcDbSpline
 62
7
  6
CONTINUOUS
 70
0
 71
3
 72
14
 73
10
 74
0
 42
0.0000001
 43
0.0000001
 44
0.0000000001
 40
0.0
 40
0.0
 40
0.0
 40
0.0
 40
0.3068662028
 40
0.4488296734
 40
0.581269854
 40
0.7030451996
 40
0.8133441123
 40
0.9120847847
 40
1.0
 40
1.0
 40
1.0
 40
1.0
 10
7.4642531119
 20
4.5747683038
 30
0.0
 10
7.464660497
 20
4.575217198
 30
0.0
 10
7.4652793128
 20
4.5758542889
 30
0.0
 10
7.4661414066
 20
4.5766135856
 30
0.0
 10
7.466760805
 20
4.577093009
 30
0.0
 10
7.4673629499
 20
4.5774894394
 30
0.0
 10
7.4679424122
 20
4.5777945416
 30
0.0
 10
7.4684926979
 20
4.5780024136
 30
0.0
 10
7.4688558183
 20
4.578078606
 30
0.0
 10
7.4690285707
 20
4.5780964357
 30
0.0
  0
SPLINE
  5
3FF
100
AcDbEntity
  8
0
100
AcDbSpline
 62
7
  6
CONTINUOUS
 70
0
 71
3
 72
13
 73
9
 74
0
 42
0.0000001
 43
0.0000001
 44
0.0000000001
 40
0.0
 40
0.0
 40
0.0
 40
0.0
 40
0.2618310315
 40
0.3834146414
 40
0.5022591766
 40
0.6211814799
 40
0.7426883383
 40
1.0
 40
1.0
 40
1.0
 40
1.0
 10
7.4690285707
 20
4.5780964357
 30
0.0
 10
7.4692360792
 20
4.5781178525
 30
0.0
 10
7.4695477001
 20
4.5781101389
 30
0.0
 10
7.4699340844
 20
4.578000112
 30
0.0
 10
7.4701935082
 20
4.5778756022
 30
0.0
 10
7.4704280124
 20
4.5777091821
 30
0.0
 10
7.4707126992
 20
4.5774313165
 30
0.0
 10
7.4708814795
 20
4.5771761436
 30
0.0
 10
7.4709768151
 20
4.5769946492
 30
0.0
  0
SPLINE
  5
400
100
AcDbEntity
  8
0
100
AcDbSpline
 62
7
  6
CONTINUOUS
 70
0
 71
3
 72
18
 73
14
 74
0
 42
0.0000001
 43
0.0000001
 44
0.0000000001
 40
0.0
 40
0.0
 40
0.0
 40
0.0
 40
0.1782563534
 40
0.3442705431
 40
0.494652069
 40
0.6267534363
 40
0.6856007546
 40
0.7397572575
 40
0.8352144873
 40
0.8781931627
 40
0.9192616242
 40
0.9595076536
 40
1.0
 40
1.0
 40
1.0
 40
1.0
 10
7.2203075941
 20
4.2994128785
 30
0.0
 10
7.2204785321
 20
4.2990017271
 30
0.0
 10
7.2207884844
 20
4.2981989897
 30
0.0
 10
7.221156582
 20
4.2970181847
 30
0.0
 10
7.2213943211
 20
4.2959217017
 30
0.0
 10
7.2214758629
 20
4.2950696093
 30
0.0
 10
7.221452545
 20
4.2944567102
 30
0.0
 10
7.2213806078
 20
4.2939407055
 30
0.0
 10
7.2212305384
 20
4.2934753774
 30
0.0
 10
7.2209898998
 20
4.2930946256
 30
0.0
 10
7.2207797941
 20
4.2928637386
 30
0.0
 10
7.2205362895
 20
4.2926786194
 30
0.0
 10
7.2203556365
 20
4.29258643
 30
0.0
 10
7.2202621753
 20
4.2925477565
 30
0.0
  0
LINE
  5
401
100
AcDbEntity
  8
0
100
AcDbLine
 62
7
  6
CONTINUOUS
 10
7.2202621753
 20
4.2925477565
 11
7.2194592381
 21
4.2923811583
  0
LINE
  5
402
100
AcDbEntity
  8
0
100
AcDbLine
 62
7
  6
CONTINUOUS
 10
7.4743590149
 20
4.5638218507
 11
7.4740592276
 21
4.5626266702
  0
SPLINE
  5
403
100
AcDbEntity
  8
0
100
AcDbSpline
 62
7
  6
CONTINUOUS
 70
0
 71
3
 72
17
 73
13
 74
0
 42
0.0000001
 43
0.0000001
 44
0.0000000001
 40
0.0
 40
0.0
 40
0.0
 40
0.0
 40
0.0390854653
 40
0.0792026795
 40
0.1657423824
 40
0.2139160962
 40
0.2659474417
 40
0.3823971287
 40
0.5158148626
 40
0.6648333478
 40
0.8271593242
 40
1.0
 40
1.0
 40
1.0
 40
1.0
 10
7.4740592276
 20
4.5626266702
 30
0.0
 10
7.474009491
 20
4.5625491648
 30
0.0
 10
7.4738954004
 20
4.562400201
 30
0.0
 10
7.4736093902
 20
4.5621321449
 30
0.0
 10
7.4732438723
 20
4.561927662
 30
0.0
 10
7.4728258047
 20
4.5617889084
 30
0.0
 10
7.4723256976
 20
4.5616817116
 30
0.0
 10
7.4716123629
 20
4.5616348158
 30
0.0
 10
7.4706730613
 20
4.5617022291
 30
0.0
 10
7.4696391119
 20
4.5618810451
 30
0.0
 10
7.468532556
 20
4.5621618914
 30
0.0
 10
7.467779548
 20
4.5624012252
 30
0.0
 10
7.4673944388
 20
4.5625336433
 30
0.0
  0
SPLINE
  5
404
100
AcDbEntity
  8
0
100
AcDbSpline
 62
7
  6
CONTINUOUS
 70
0
 71
3
 72
13
 73
9
 74
0
 42
0.0000001
 43
0.0000001
 44
0.0000000001
 40
0.0
 40
0.0
 40
0.0
 40
0.0
 40
0.2573131703
 40
0.3788207719
 40
0.4977437313
 40
0.6165886982
 40
0.7381721411
 40
1.0
 40
1.0
 40
1.0
 40
1.0
 10
7.206100063
 20
4.2949295572
 30
0.0
 10
7.2059129475
 20
4.2950133054
 30
0.0
 10
7.2056476898
 20
4.2951657228
 30
0.0
 10
7.205352504
 20
4.295432386
 30
0.0
 10
7.2051716901
 20
4.2956559655
 30
0.0
 10
7.2050311356
 20
4.2959070452
 30
0.0
 10
7.2048970573
 20
4.2962857347
 30
0.0
 10
7.2048697797
 20
4.2965962387
 30
0.0
 10
7.2048781152
 20
4.2968046713
 30
0.0
  0
SPLINE
  5
405
100
AcDbEntity
  8
0
100
AcDbSpline
 62
7
  6
CONTINUOUS
 70
0
 71
3
 72
14
 73
10
 74
0
 42
0.0000001
 43
0.0000001
 44
0.0000000001
 40
0.0
 40
0.0
 40
0.0
 40
0.0
 40
0.0879138119
 40
0.1866531741
 40
0.2969512276
 40
0.4187261567
 40
0.5511665106
 40
0.6931308996
 40
1.0
 40
1.0
 40
1.0
 40
1.0
 10
7.2048781152
 20
4.2968046713
 30
0.0
 10
7.204885055
 20
4.296978203
 30
0.0
 10
7.2049382836
 20
4.2973453943
 30
0.0
 10
7.2051111804
 20
4.297907654
 30
0.0
 10
7.2053792902
 20
4.2985051401
 30
0.0
 10
7.2057371272
 20
4.2991310022
 30
0.0
 10
7.2061767164
 20
4.2997792971
 30
0.0
 10
7.206880398
 20
4.3006873907
 30
0.0
 10
7.2074773904
 20
4.3013450068
 30
0.0
 10
7.2078998303
 20
4.3017797861
 30
0.0
  0
SPLINE
  5
406
100
AcDbEntity
  8
0
100
AcDbSpline
 62
7
  6
CONTINUOUS
 70
0
 71
3
 72
18
 73
14
 74
0
 42
0.0000001
 43
0.0000001
 44
0.0000000001
 40
0.0
 40
0.0
 40
0.0
 40
0.0
 40
0.1782563534
 40
0.3442705431
 40
0.494652069
 40
0.6267534363
 40
0.6856007546
 40
0.7397572575
 40
0.8352144873
 40
0.8781931627
 40
0.9192616242
 40
0.9595076536
 40
1.0
 40
1.0
 40
1.0
 40
1.0
 10
7.1936232535
 20
4.305445388
 30
0.0
 10
7.1937413126
 20
4.3050160543
 30
0.0
 10
7.1939482112
 20
4.3041807995
 30
0.0
 10
7.1941654122
 20
4.3029631706
 30
0.0
 10
7.1942638508
 20
4.3018455371
 30
0.0
 10
7.1942379541
 20
4.3009899439
 30
0.0
 10
7.1941380034
 20
4.3003848001
 30
0.0
 10
7.194001961
 20
4.2998818803
 30
0.0
 10
7.1937947538
 20
4.2994390302
 30
0.0
 10
7.1935082919
 20
4.2990914408
 30
0.0
 10
7.1932709052
 20
4.2988887076
 30
0.0
 10
7.1930061191
 20
4.2987355673
 30
0.0
 10
7.1928153362
 20
4.2986667467
 30
0.0
 10
7.1927177649
 20
4.2986400919
 30
0.0
  0
LINE
  5
407
100
AcDbEntity
  8
0
100
AcDbLine
 62
7
  6
CONTINUOUS
 10
7.1927177649
 20
4.2986400919
 11
7.1919002787
 21
4.2985754421
  0
SPLINE
  5
408
100
AcDbEntity
  8
0
100
AcDbSpline
 62
7
  6
CONTINUOUS
 70
0
 71
3
 72
14
 73
10
 74
0
 42
0.0000001
 43
0.0000001
 44
0.0000000001
 40
0.0
 40
0.0
 40
0.0
 40
0.0
 40
0.3068662028
 40
0.4488296734
 40
0.581269854
 40
0.7030451996
 40
0.8133441123
 40
0.9120847847
 40
1.0
 40
1.0
 40
1.0
 40
1.0
 10
7.4701563738
 20
4.5480550729
 30
0.0
 10
7.470616808
 20
4.5484493686
 30
0.0
 10
7.4713105928
 20
4.5490038776
 30
0.0
 10
7.4722610539
 20
4.5496491381
 30
0.0
 10
7.4729356558
 20
4.5500471499
 30
0.0
 10
7.4735827385
 20
4.5503649855
 30
0.0
 10
7.4741958711
 20
4.550595056
 30
0.0
 10
7.4747678708
 20
4.5507323198
 30
0.0
 10
7.4751376773
 20
4.5507624003
 30
0.0
 10
7.4753113023
 20
4.5507584378
 30
0.0
  0
SPLINE
  5
409
100
AcDbEntity
  8
0
100
AcDbSpline
 62
7
  6
CONTINUOUS
 70
0
 71
3
 72
13
 73
9
 74
0
 42
0.0000001
 43
0.0000001
 44
0.0000000001
 40
0.0
 40
0.0
 40
0.0
 40
0.0
 40
0.2618310315
 40
0.3834146414
 40
0.5022591766
 40
0.6211814799
 40
0.7426883383
 40
1.0
 40
1.0
 40
1.0
 40
1.0
 10
7.4753113023
 20
4.5507584378
 30
0.0
 10
7.4755198587
 20
4.550753678
 30
0.0
 10
7.4758280556
 20
4.5507069688
 30
0.0
 10
7.4761976031
 20
4.5505493826
 30
0.0
 10
7.476439376
 20
4.5503933402
 30
0.0
 10
7.4766511732
 20
4.5501988413
 30
0.0
 10
7.4768987893
 20
4.549887486
 30
0.0
 10
7.4770342571
 20
4.5496131715
 30
0.0
 10
7.4771060936
 20
4.5494211594
 30
0.0
  0
SPLINE
  5
40A
100
AcDbEntity
  8
0
100
AcDbSpline
 62
7
  6
CONTINUOUS
 70
0
 71
3
 72
13
 73
9
 74
0
 42
0.0000001
 43
0.0000001
 44
0.0000000001
 40
0.0
 40
0.0
 40
0.0
 40
0.0
 40
0.2573131703
 40
0.3788207719
 40
0.4977437313
 40
0.6165886982
 40
0.7381721411
 40
1.0
 40
1.0
 40
1.0
 40
1.0
 10
7.1789658438
 20
4.3027780948
 30
0.0
 10
7.1787907002
 20
4.3028846344
 30
0.0
 10
7.1785466371
 20
4.3030690956
 30
0.0
 10
7.1782872007
 20
4.3033706526
 30
0.0
 10
7.1781358345
 20
4.3036151311
 30
0.0
 10
7.178027857
 20
4.3038818471
 30
0.0
 10
7.1779422983
 20
4.304274355
 30
0.0
 10
7.1779541523
 20
4.3045858294
 30
0.0
 10
7.1779885456
 20
4.3047915737
 30
0.0
  0
SPLINE
  5
40B
100
AcDbEntity
  8
0
100
AcDbSpline
 62
7
  6
CONTINUOUS
 70
0
 71
3
 72
14
 73
10
 74
0
 42
0.0000001
 43
0.0000001
 44
0.0000000001
 40
0.0
 40
0.0
 40
0.0
 40
0.0
 40
0.0879138119
 40
0.1866531741
 40
0.2969512276
 40
0.4187261567
 40
0.5511665106
 40
0.6931308996
 40
1.0
 40
1.0
 40
1.0
 40
1.0
 10
7.1779885456
 20
4.3047915737
 30
0.0
 10
7.1780171799
 20
4.3049628672
 30
0.0
 10
7.1781160101
 20
4.3053204919
 30
0.0
 10
7.1783580134
 20
4.3058566482
 30
0.0
 10
7.1786988939
 20
4.3064158199
 30
0.0
 10
7.1791323506
 20
4.306991898
 30
0.0
 10
7.1796497263
 20
4.3075799858
 30
0.0
 10
7.1804616735
 20
4.3083927241
 30
0.0
 10
7.1811363797
 20
4.3089703317
 30
0.0
 10
7.1816099808
 20
4.3093487369
 30
0.0
  0
LINE
  5
40C
100
AcDbEntity
  8
0
100
AcDbLine
 62
7
  6
CONTINUOUS
 10
7.4788106344
 20
4.5359283303
 11
7.4783634151
 21
4.5347801475
  0
SPLINE
  5
40D
100
AcDbEntity
  8
0
100
AcDbSpline
 62
7
  6
CONTINUOUS
 70
0
 71
3
 72
17
 73
13
 74
0
 42
0.0000001
 43
0.0000001
 44
0.0000000001
 40
0.0
 40
0.0
 40
0.0
 40
0.0
 40
0.0390854653
 40
0.0792026795
 40
0.1657423824
 40
0.2139160962
 40
0.2659474417
 40
0.3823971287
 40
0.5158148626
 40
0.6648333478
 40
0.8271593242
 40
1.0
 40
1.0
 40
1.0
 40
1.0
 10
7.4783634151
 20
4.5347801475
 30
0.0
 10
7.4783043568
 20
4.5347094869
 30
0.0
 10
7.4781724957
 20
4.5345759971
 30
0.0
 10
7.4778551444
 20
4.5343459012
 30
0.0
 10
7.4774668802
 20
4.5341888424
 30
0.0
 10
7.4770347188
 20
4.5341035806
 30
0.0
 10
7.4765251199
 20
4.5340599091
 30
0.0
 10
7.4758115324
 20
4.5341027876
 30
0.0
 10
7.4748880866
 20
4.5342873951
 30
0.0
 10
7.4738847018
 20
4.5345943893
 30
0.0
 10
7.4728220708
 20
4.5350117093
 30
0.0
 10
7.4721049969
 20
4.5353435328
 30
0.0
 10
7.4717395209
 20
4.5355231737
 30
0.0
  0
SPLINE
  5
40E
100
AcDbEntity
  8
0
100
AcDbSpline
 62
7
  6
CONTINUOUS
 70
0
 71
3
 72
18
 73
14
 74
0
 42
0.0000001
 43
0.0000001
 44
0.0000000001
 40
0.0
 40
0.0
 40
0.0
 40
0.0
 40
0.1782563534
 40
0.3442705431
 40
0.494652069
 40
0.6267534363
 40
0.6856007546
 40
0.7397572575
 40
0.8352144873
 40
0.8781931627
 40
0.9192616242
 40
0.9595076536
 40
1.0
 40
1.0
 40
1.0
 40
1.0
 10
7.1679054008
 20
4.314774764
 30
0.0
 10
7.1679687192
 20
4.314334019
 30
0.0
 10
7.1680693011
 20
4.3134794191
 30
0.0
 10
7.16813218
 20
4.3122441692
 30
0.0
 10
7.1680897658
 20
4.3111230108
 30
0.0
 10
7.167956839
 20
4.31027741
 30
0.0
 10
7.1677818319
 20
4.309689565
 30
0.0
 10
7.1675838297
 20
4.3092076616
 30
0.0
 10
7.1673227525
 20
4.3087942735
 30
0.0
 10
7.1669949849
 20
4.3084853281
 30
0.0
 10
7.1667340609
 20
4.3083139459
 30
0.0
 10
7.1664521691
 20
4.3081951997
 30
0.0
 10
7.1662542651
 20
4.3081508332
 30
0.0
 10
7.1661541225
 20
4.3081366175
 30
0.0
  0
LINE
  5
40F
100
AcDbEntity
  8
0
100
AcDbLine
 62
7
  6
CONTINUOUS
 10
7.1661541225
 20
4.3081366175
 11
7.1653349796
 21
4.3081749357
  0
SPLINE
  5
410
100
AcDbEntity
  8
0
100
AcDbSpline
 62
7
  6
CONTINUOUS
 70
0
 71
3
 72
13
 73
9
 74
0
 42
0.0000001
 43
0.0000001
 44
0.0000000001
 40
0.0
 40
0.0
 40
0.0
 40
0.0
 40
0.2573131703
 40
0.3788207719
 40
0.4977437313
 40
0.6165886982
 40
0.7381721411
 40
1.0
 40
1.0
 40
1.0
 40
1.0
 10
7.1530292687
 20
4.3139655637
 30
0.0
 10
7.1528688591
 20
4.3140932145
 30
0.0
 10
7.1526498396
 20
4.3143068104
 30
0.0
 10
7.1524302441
 20
4.3146385056
 30
0.0
 10
7.1523107127
 20
4.3149000276
 30
0.0
 10
7.152237015
 20
4.3151781736
 30
0.0
 10
7.1522013253
 20
4.3155783097
 30
0.0
 10
7.1522521238
 20
4.3158858424
 30
0.0
 10
7.1523120325
 20
4.3160856537
 30
0.0
  0
SPLINE
  5
411
100
AcDbEntity
  8
0
100
AcDbSpline
 62
7
  6
CONTINUOUS
 70
0
 71
3
 72
14
 73
10
 74
0
 42
0.0000001
 43
0.0000001
 44
0.0000000001
 40
0.0
 40
0.0
 40
0.0
 40
0.0
 40
0.0879138119
 40
0.1866531741
 40
0.2969512276
 40
0.4187261567
 40
0.5511665106
 40
0.6931308996
 40
1.0
 40
1.0
 40
1.0
 40
1.0
 10
7.1523120325
 20
4.3160856537
 30
0.0
 10
7.1523619099
 20
4.3162520077
 30
0.0
 10
7.1525047829
 20
4.3165944257
 30
0.0
 10
7.1528120762
 20
4.3170960232
 30
0.0
 10
7.1532203516
 20
4.317608062
 30
0.0
 10
7.153722592
 20
4.318125271
 30
0.0
 10
7.1543095951
 20
4.3186438772
 30
0.0
 10
7.155217003
 20
4.3193484429
 30
0.0
 10
7.1559587823
 20
4.3198369328
 30
0.0
 10
7.1564760757
 20
4.3201529961
 30
0.0
  0
SPLINE
  5
412
100
AcDbEntity
  8
0
100
AcDbSpline
 62
7
  6
CONTINUOUS
 70
0
 71
3
 72
14
 73
10
 74
0
 42
0.0000001
 43
0.0000001
 44
0.0000000001
 40
0.0
 40
0.0
 40
0.0
 40
0.0
 40
0.3068662028
 40
0.4488296734
 40
0.581269854
 40
0.7030451996
 40
0.8133441123
 40
0.9120847847
 40
1.0
 40
1.0
 40
1.0
 40
1.0
 10
7.4726650311
 20
4.5208126089
 30
0.0
 10
7.473171253
 20
4.5211460878
 30
0.0
 10
7.4739290655
 20
4.52160927
 30
0.0
 10
7.4749529045
 20
4.5221303181
 30
0.0
 10
7.4756720711
 20
4.5224406414
 30
0.0
 10
7.4763538867
 20
4.5226748698
 30
0.0
 10
7.47699102
 20
4.5228262802
 30
0.0
 10
7.4775757131
 20
4.5228907711
 30
0.0
 10
7.4779463737
 20
4.5228742654
 30
0.0
 10
7.4781181329
 20
4.5228485731
 30
0.0
  0
SPLINE
  5
413
100
AcDbEntity
  8
0
100
AcDbSpline
 62
7
  6
CONTINUOUS
 70
0
 71
3
 72
13
 73
9
 74
0
 42
0.0000001
 43
0.0000001
 44
0.0000000001
 40
0.0
 40
0.0
 40
0.0
 40
0.0
 40
0.2618310315
 40
0.3834146414
 40
0.5022591766
 40
0.6211814799
 40
0.7426883383
 40
1.0
 40
1.0
 40
1.0
 40
1.0
 10
7.4781181329
 20
4.5228485731
 30
0.0
 10
7.4783244483
 20
4.5228177118
 30
0.0
 10
7.4786243607
 20
4.5227327436
 30
0.0
 10
7.4789712434
 20
4.5225300835
 30
0.0
 10
7.4791915526
 20
4.5223449693
 30
0.0
 10
7.4793773025
 20
4.5221254588
 30
0.0
 10
7.4795839429
 20
4.5217855242
 30
0.0
 10
7.4796839618
 20
4.5214963941
 30
0.0
 10
7.4797311664
 20
4.5212968926
 30
0.0
  0
SPLINE
  5
414
100
AcDbEntity
  8
0
100
AcDbSpline
 62
7
  6
CONTINUOUS
 70
0
 71
3
 72
14
 73
10
 74
0
 42
0.0000001
 43
0.0000001
 44
0.0000000001
 40
0.0
 40
0.0
 40
0.0
 40
0.0
 40
0.3068662028
 40
0.4488296733
 40
0.581269854
 40
0.7030451996
 40
0.8133441123
 40
0.9120847846
 40
1.0
 40
1.0
 40
1.0
 40
1.0
 10
7.1435596218
 20
4.3272538767
 30
0.0
 10
7.1435699401
 20
4.3266477726
 30
0.0
 10
7.1435549616
 20
4.3257597448
 30
0.0
 10
7.1434462966
 20
4.3246160975
 30
0.0
 10
7.1433229625
 20
4.3238426055
 30
0.0
 10
7.143155393
 20
4.3231414237
 30
0.0
 10
7.14294184
 20
4.3225223444
 30
0.0
 10
7.1426829972
 20
4.3219941158
 30
0.0
 10
7.1424704511
 20
4.3216900009
 30
0.0
 10
7.1423567252
 20
4.3215587465
 30
0.0
  0
SPLINE
  5
415
100
AcDbEntity
  8
0
100
AcDbSpline
 62
7
  6
CONTINUOUS
 70
0
 71
3
 72
13
 73
9
 74
0
 42
0.0000001
 43
0.0000001
 44
0.0000000001
 40
0.0
 40
0.0
 40
0.0
 40
0.0
 40
0.2618310315
 40
0.3834146414
 40
0.5022591766
 40
0.6211814799
 40
0.7426883383
 40
1.0
 40
1.0
 40
1.0
 40
1.0
 10
7.1423567252
 20
4.3215587465
 30
0.0
 10
7.1422201188
 20
4.321401085
 30
0.0
 10
7.1419876767
 20
4.3211933887
 30
0.0
 10
7.141630696
 20
4.3210090967
 30
0.0
 10
7.1413563514
 20
4.3209222726
 30
0.0
 10
7.1410714828
 20
4.3208830584
 30
0.0
 10
7.140673743
 20
4.3208907322
 30
0.0
 10
7.1403760296
 20
4.3209612072
 30
0.0
 10
7.1401822914
 20
4.3210282492
 30
0.0
  0
SPLINE
  5
416
100
AcDbEntity
  8
0
100
AcDbSpline
 62
7
  6
CONTINUOUS
 70
0
 71
3
 72
13
 73
9
 74
0
 42
0.0000001
 43
0.0000001
 44
0.0000000001
 40
0.0
 40
0.0
 40
0.0
 40
0.0
 40
0.2573131703
 40
0.3788207719
 40
0.4977437313
 40
0.6165886982
 40
0.7381721411
 40
1.0
 40
1.0
 40
1.0
 40
1.0
 10
7.4797311664
 20
4.5076968229
 30
0.0
 10
7.4796839636
 20
4.5074973289
 30
0.0
 10
7.4795839502
 20
4.5072082094
 30
0.0
 10
7.4793773227
 20
4.5068682845
 30
0.0
 10
7.4791915845
 20
4.5066487787
 30
0.0
 10
7.4789712894
 20
4.5064636662
 30
0.0
 10
7.4786244313
 20
4.5062610035
 30
0.0
 10
7.4783245385
 20
4.5061760263
 30
0.0
 10
7.4781182359
 20
4.5061451578
 30
0.0
  0
SPLINE
  5
417
100
AcDbEntity
  8
0
100
AcDbSpline
 62
7
  6
CONTINUOUS
 70
0
 71
3
 72
14
 73
10
 74
0
 42
0.0000001
 43
0.0000001
 44
0.0000000001
 40
0.0
 40
0.0
 40
0.0
 40
0.0
 40
0.0879138119
 40
0.1866531741
 40
0.2969512276
 40
0.4187261567
 40
0.5511665106
 40
0.6931308996
 40
1.0
 40
1.0
 40
1.0
 40
1.0
 10
7.4781182359
 20
4.5061451578
 30
0.0
 10
7.4779464776
 20
4.5061194581
 30
0.0
 10
7.4775758161
 20
4.506102939
 30
0.0
 10
7.476991118
 20
4.5061674165
 30
0.0
 10
7.4763539763
 20
4.5063188195
 30
0.0
 10
7.475672148
 20
4.5065530434
 30
0.0
 10
7.4749529653
 20
4.5068633679
 30
0.0
 10
7.4739290998
 20
4.5073844256
 30
0.0
 10
7.4731712666
 20
4.5078476187
 30
0.0
 10
7.4726650311
 20
4.5081811065
 30
0.0
  0
SPLINE
  5
418
100
AcDbEntity
  8
0
100
AcDbSpline
 62
7
  6
CONTINUOUS
 70
0
 71
3
 72
13
 73
9
 74
0
 42
0.0000001
 43
0.0000001
 44
0.0000000001
 40
0.0
 40
0.0
 40
0.0
 40
0.0
 40
0.2573131703
 40
0.3788207719
 40
0.4977437313
 40
0.6165886982
 40
0.7381721411
 40
1.0
 40
1.0
 40
1.0
 40
1.0
 10
7.1286993728
 20
4.328315531
 30
0.0
 10
7.128556227
 20
4.3284622799
 30
0.0
 10
7.1283657052
 20
4.3287016419
 30
0.0
 10
7.1281894137
 20
4.3290582442
 30
0.0
 10
7.1281036022
 20
4.3293326852
 30
0.0
 10
7.1280653466
 20
4.3296178748
 30
0.0
 10
7.1280800887
 20
4.3300193288
 30
0.0
 10
7.1281690307
 20
4.3303180697
 30
0.0
 10
7.12825351
 20
4.3305087969
 30
0.0
  0
SPLINE
  5
419
100
AcDbEntity
  8
0
100
AcDbSpline
 62
7
  6
CONTINUOUS
 70
0
 71
3
 72
14
 73
10
 74
0
 42
0.0000001
 43
0.0000001
 44
0.0000000001
 40
0.0
 40
0.0
 40
0.0
 40
0.0
 40
0.0879138119
 40
0.1866531741
 40
0.2969512276
 40
0.4187261567
 40
0.5511665106
 40
0.6931308996
 40
1.0
 40
1.0
 40
1.0
 40
1.0
 10
7.12825351
 20
4.3305087969
 30
0.0
 10
7.1283238437
 20
4.3306675879
 30
0.0
 10
7.1285085066
 20
4.3309893991
 30
0.0
 10
7.1288762436
 20
4.3314485273
 30
0.0
 10
7.129345475
 20
4.331905358
 30
0.0
 10
7.1299085787
 20
4.3323555413
 30
0.0
 10
7.1305559516
 20
4.3327964871
 30
0.0
 10
7.1315445098
 20
4.3333817687
 30
0.0
 10
7.132341664
 20
4.3337734371
 30
0.0
 10
7.1328944916
 20
4.3340221742
 30
0.0
  0
SPLINE
  5
41A
100
AcDbEntity
  8
0
100
AcDbSpline
 62
7
  6
CONTINUOUS
 70
0
 71
3
 72
14
 73
10
 74
0
 42
0.0000001
 43
0.0000001
 44
0.0000000001
 40
0.0
 40
0.0
 40
0.0
 40
0.0
 40
0.3068662028
 40
0.4488296733
 40
0.581269854
 40
0.7030451996
 40
0.8133441123
 40
0.9120847846
 40
1.0
 40
1.0
 40
1.0
 40
1.0
 10
7.1209698642
 20
4.3426859231
 30
0.0
 10
7.1209041361
 20
4.3420833051
 30
0.0
 10
7.1207779763
 20
4.341204157
 30
0.0
 10
7.1205268312
 20
4.340083147
 30
0.0
 10
7.1203075253
 20
4.3393312121
 30
0.0
 10
7.1200533958
 20
4.3386565613
 30
0.0
 10
7.1197639355
 20
4.338069129
 30
0.0
 10
7.1194409292
 20
4.3375775072
 30
0.0
 10
7.1191919434
 20
4.3373024294
 30
0.0
 10
7.1190626637
 20
4.3371864636
 30
0.0
  0
SPLINE
  5
41B
100
AcDbEntity
  8
0
100
AcDbSpline
 62
7
  6
CONTINUOUS
 70
0
 71
3
 72
13
 73
9
 74
0
 42
0.0000001
 43
0.0000001
 44
0.0000000001
 40
0.0
 40
0.0
 40
0.0
 40
0.0
 40
0.2618310315
 40
0.3834146414
 40
0.5022591766
 40
0.6211814799
 40
0.7426883383
 40
1.0
 40
1.0
 40
1.0
 40
1.0
 10
7.1190626637
 20
4.3371864636
 30
0.0
 10
7.1189073742
 20
4.3370471666
 30
0.0
 10
7.1186507338
 20
4.3368702408
 30
0.0
 10
7.1182734701
 20
4.3367321436
 30
0.0
 10
7.1179904068
 20
4.3366803886
 30
0.0
 10
7.1177028696
 20
4.3366771871
 30
0.0
 10
7.1173092279
 20
4.3367346504
 30
0.0
 10
7.1170226949
 20
4.3368418831
 30
0.0
 10
7.116838887
 20
4.3369326783
 30
0.0
  0
SPLINE
  5
41C
100
AcDbEntity
  8
0
100
AcDbSpline
 62
7
  6
CONTINUOUS
 70
0
 71
3
 72
18
 73
14
 74
0
 42
0.0000001
 43
0.0000001
 44
0.0000000001
 40
0.0
 40
0.0
 40
0.0
 40
0.0
 40
0.1782563534
 40
0.3442705431
 40
0.494652069
 40
0.6267534363
 40
0.6856007546
 40
0.7397572575
 40
0.8352144873
 40
0.8781931627
 40
0.9192616242
 40
0.9595076536
 40
1.0
 40
1.0
 40
1.0
 40
1.0
 10
7.4717395209
 20
4.4934705418
 30
0.0
 10
7.4721391277
 20
4.4936669588
 30
0.0
 10
7.472920819
 20
4.4940267039
 30
0.0
 10
7.4740761809
 20
4.4944682185
 30
0.0
 10
7.4751555725
 20
4.4947743371
 30
0.0
 10
7.4760008634
 20
4.4949092213
 30
0.0
 10
7.4766140173
 20
4.4949244337
 30
0.0
 10
7.4771335208
 20
4.4948850387
 30
0.0
 10
7.4776073535
 20
4.4947644836
 30
0.0
 10
7.4780024638
 20
4.4945482275
 30
0.0
 10
7.4782460879
 20
4.4943530339
 30
0.0
 10
7.4784461316
 20
4.4941216335
 30
0.0
 10
7.4785494824
 20
4.4939471256
 30
0.0
 10
7.478593948
 20
4.4938562772
 30
0.0
  0
LINE
  5
41D
100
AcDbEntity
  8
0
100
AcDbLine
 62
7
  6
CONTINUOUS
 10
7.478593948
 20
4.4938562772
 11
7.4788106344
 21
4.4930653851
  0
SPLINE
  5
41E
100
AcDbEntity
  8
0
100
AcDbSpline
 62
7
  6
CONTINUOUS
 70
0
 71
3
 72
13
 73
9
 74
0
 42
0.0000001
 43
0.0000001
 44
0.0000000001
 40
0.0
 40
0.0
 40
0.0
 40
0.0
 40
0.2573131703
 40
0.3788207719
 40
0.4977437313
 40
0.6165886982
 40
0.7381721411
 40
1.0
 40
1.0
 40
1.0
 40
1.0
 10
7.1063598532
 20
4.345601689
 30
0.0
 10
7.1062362287
 20
4.3457652216
 30
0.0
 10
7.1060772092
 20
4.346026575
 30
0.0
 10
7.1059470019
 20
4.3464024605
 30
0.0
 10
7.1058962637
 20
4.3466854925
 30
0.0
 10
7.1058940535
 20
4.3469732279
 30
0.0
 10
7.1059589948
 20
4.3473696688
 30
0.0
 10
7.1060846777
 20
4.3476549066
 30
0.0
 10
7.1061923953
 20
4.3478335418
 30
0.0
  0
SPLINE
  5
41F
100
AcDbEntity
  8
0
100
AcDbSpline
 62
7
  6
CONTINUOUS
 70
0
 71
3
 72
14
 73
10
 74
0
 42
0.0000001
 43
0.0000001
 44
0.0000000001
 40
0.0
 40
0.0
 40
0.0
 40
0.0
 40
0.0879138119
 40
0.1866531741
 40
0.2969512276
 40
0.4187261567
 40
0.5511665106
 40
0.6931308996
 40
1.0
 40
1.0
 40
1.0
 40
1.0
 10
7.1061923953
 20
4.3478335418
 30
0.0
 10
7.1062820762
 20
4.3479822655
 30
0.0
 10
7.1065056166
 20
4.3482783947
 30
0.0
 10
7.1069279979
 20
4.3486878129
 30
0.0
 10
7.1074507854
 20
4.3490822311
 30
0.0
 10
7.1080658717
 20
4.3494582889
 30
0.0
 10
7.1087634051
 20
4.3498146204
 30
0.0
 10
7.1098175234
 20
4.3502713877
 30
0.0
 10
7.1106574809
 20
4.3505600577
 30
0.0
 10
7.1112371243
 20
4.3507375458
 30
0.0
  0
SPLINE
  5
420
100
AcDbEntity
  8
0
100
AcDbSpline
 62
7
  6
CONTINUOUS
 70
0
 71
3
 72
13
 73
9
 74
0
 42
0.0000001
 43
0.0000001
 44
0.0000000001
 40
0.0
 40
0.0
 40
0.0
 40
0.0
 40
0.2573131703
 40
0.3788207719
 40
0.4977437313
 40
0.6165886982
 40
0.7381721411
 40
1.0
 40
1.0
 40
1.0
 40
1.0
 10
7.4771060936
 20
4.479572556
 30
0.0
 10
7.4770342598
 20
4.4793805512
 30
0.0
 10
7.4768987988
 20
4.4791062465
 30
0.0
 10
7.4766511967
 20
4.4787948993
 30
0.0
 10
7.4764394118
 20
4.4786004035
 30
0.0
 10
7.476197653
 20
4.478444361
 30
0.0
 10
7.4758281296
 20
4.4782867692
 30
0.0
 10
7.4755199511
 20
4.4782400486
 30
0.0
 10
7.4753114064
 20
4.4782352801
 30
0.0
  0
SPLINE
  5
421
100
AcDbEntity
  8
0
100
AcDbSpline
 62
7
  6
CONTINUOUS
 70
0
 71
3
 72
14
 73
10
 74
0
 42
0.0000001
 43
0.0000001
 44
0.0000000001
 40
0.0
 40
0.0
 40
0.0
 40
0.0
 40
0.0879138119
 40
0.1866531741
 40
0.2969512276
 40
0.4187261567
 40
0.5511665106
 40
0.6931308996
 40
1.0
 40
1.0
 40
1.0
 40
1.0
 10
7.4753114064
 20
4.4782352801
 30
0.0
 10
7.4751377814
 20
4.4782313101
 30
0.0
 10
7.4747679723
 20
4.4782613775
 30
0.0
 10
7.4741959659
 20
4.4783986286
 30
0.0
 10
7.4735828241
 20
4.4786286928
 30
0.0
 10
7.4729357282
 20
4.4789465255
 30
0.0
 10
7.4722611105
 20
4.4793445405
 30
0.0
 10
7.4713106243
 20
4.4799898139
 30
0.0
 10
7.4706168204
 20
4.4805443362
 30
0.0
 10
7.4701563738
 20
4.4809386425
 30
0.0
  0
SPLINE
  5
422
100
AcDbEntity
  8
0
100
AcDbSpline
 62
7
  6
CONTINUOUS
 70
0
 71
3
 72
14
 73
10
 74
0
 42
0.0000001
 43
0.0000001
 44
0.0000000001
 40
0.0
 40
0.0
 40
0.0
 40
0.0
 40
0.3068662028
 40
0.4488296733
 40
0.581269854
 40
0.7030451996
 40
0.8133441123
 40
0.9120847846
 40
1.0
 40
1.0
 40
1.0
 40
1.0
 10
7.1004923818
 20
4.3608275306
 30
0.0
 10
7.100351644
 20
4.3602379023
 30
0.0
 10
7.1001162925
 20
4.3593814985
 30
0.0
 10
7.0997266279
 20
4.3583008049
 30
0.0
 10
7.0994148089
 20
4.3575822855
 30
0.0
 10
7.0990781271
 20
4.3569448054
 30
0.0
 10
7.0987173245
 20
4.3563982842
 30
0.0
 10
7.0983352486
 20
4.3559510224
 30
0.0
 10
7.0980537498
 20
4.3557093199
 30
0.0
 10
7.0979109551
 20
4.3556104715
 30
0.0
  0
SPLINE
  5
423
100
AcDbEntity
  8
0
100
AcDbSpline
 62
7
  6
CONTINUOUS
 70
0
 71
3
 72
13
 73
9
 74
0
 42
0.0000001
 43
0.0000001
 44
0.0000000001
 40
0.0
 40
0.0
 40
0.0
 40
0.0
 40
0.2618310315
 40
0.3834146414
 40
0.5022591766
 40
0.6211814799
 40
0.7426883383
 40
1.0
 40
1.0
 40
1.0
 40
1.0
 10
7.0979109551
 20
4.3556104715
 30
0.0
 10
7.0977394316
 20
4.3554917359
 30
0.0
 10
7.0974626402
 20
4.3553483708
 30
0.0
 10
7.0970710432
 20
4.3552586462
 30
0.0
 10
7.0967837253
 20
4.3552427765
 30
0.0
 10
7.0964980542
 20
4.3552756383
 30
0.0
 10
7.0961147185
 20
4.3553819849
 30
0.0
 10
7.0958438847
 20
4.355524284
 30
0.0
 10
7.0956729059
 20
4.3556374005
 30
0.0
  0
SPLINE
  5
424
100
AcDbEntity
  8
0
100
AcDbSpline
 62
7
  6
CONTINUOUS
 70
0
 71
3
 72
13
 73
9
 74
0
 42
0.0000001
 43
0.0000001
 44
0.0000000001
 40
0.0
 40
0.0
 40
0.0
 40
0.0
 40
0.2573131703
 40
0.3788207719
 40
0.4977437313
 40
0.6165886982
 40
0.7381721411
 40
1.0
 40
1.0
 40
1.0
 40
1.0
 10
7.0863630175
 20
4.3655514247
 30
0.0
 10
7.0862608639
 20
4.3657291621
 30
0.0
 10
7.0861358546
 20
4.366008385
 30
0.0
 10
7.086053785
 20
4.3663976258
 30
0.0
 10
7.0860389202
 20
4.3666847853
 30
0.0
 10
7.0860727901
 20
4.3669705288
 30
0.0
 10
7.0861869066
 20
4.3673557043
 30
0.0
 10
7.0863473482
 20
4.3676229407
 30
0.0
 10
7.0864766054
 20
4.3677866667
 30
0.0
  0
SPLINE
  5
425
100
AcDbEntity
  8
0
100
AcDbSpline
 62
7
  6
CONTINUOUS
 70
0
 71
3
 72
14
 73
10
 74
0
 42
0.0000001
 43
0.0000001
 44
0.0000000001
 40
0.0
 40
0.0
 40
0.0
 40
0.0
 40
0.0879138119
 40
0.1866531741
 40
0.2969512276
 40
0.4187261567
 40
0.5511665106
 40
0.6931308996
 40
1.0
 40
1.0
 40
1.0
 40
1.0
 10
7.0864766054
 20
4.3677866667
 30
0.0
 10
7.0865842192
 20
4.3679229777
 30
0.0
 10
7.0868431117
 20
4.3681887548
 30
0.0
 10
7.0873134761
 20
4.3685420062
 30
0.0
 10
7.087881575
 20
4.3688677916
 30
0.0
 10
7.0885389437
 20
4.3691637934
 30
0.0
 10
7.089275637
 20
4.369429891
 30
0.0
 10
7.0903786914
 20
4.3697509404
 30
0.0
 10
7.0912482055
 20
4.3699320596
 30
0.0
 10
7.0918455234
 20
4.3700354995
 30
0.0
  0
SPLINE
  5
426
100
AcDbEntity
  8
0
100
AcDbSpline
 62
7
  6
CONTINUOUS
 70
0
 71
3
 72
18
 73
14
 74
0
 42
0.0000001
 43
0.0000001
 44
0.0000000001
 40
0.0
 40
0.0
 40
0.0
 40
0.0
 40
0.1782563534
 40
0.3442705431
 40
0.494652069
 40
0.6267534363
 40
0.6856007546
 40
0.7397572575
 40
0.8352144873
 40
0.8781931627
 40
0.9192616242
 40
0.9595076536
 40
1.0
 40
1.0
 40
1.0
 40
1.0
 10
7.4673944388
 20
4.4664600722
 30
0.0
 10
7.4678155123
 20
4.4666048564
 30
0.0
 10
7.4686361277
 20
4.4668637929
 30
0.0
 10
7.4698377156
 20
4.4671570208
 30
0.0
 10
7.4709469628
 20
4.4673254419
 30
0.0
 10
7.4718024937
 20
4.4673533195
 30
0.0
 10
7.4724127194
 20
4.4672915633
 30
0.0
 10
7.4729231889
 20
4.467187368
 30
0.0
 10
7.4733781758
 20
4.4670083765
 30
0.0
 10
7.4737430664
 20
4.4667443051
 30
0.0
 10
7.4739603052
 20
4.4665201165
 30
0.0
 10
7.4741297694
 20
4.4662654687
 30
0.0
 10
7.4742104335
 20
4.4660793836
 30
0.0
 10
7.4742431622
 20
4.4659836785
 30
0.0
  0
LINE
  5
427
100
AcDbEntity
  8
0
100
AcDbLine
 62
7
  6
CONTINUOUS
 10
7.4742431622
 20
4.4659836785
 11
7.4743590149
 21
4.4651718648
  0
SPLINE
  5
428
100
AcDbEntity
  8
0
100
AcDbSpline
 62
7
  6
CONTINUOUS
 70
0
 71
3
 72
14
 73
10
 74
0
 42
0.0000001
 43
0.0000001
 44
0.0000000001
 40
0.0
 40
0.0
 40
0.0
 40
0.0
 40
0.3068662028
 40
0.4488296733
 40
0.581269854
 40
0.7030451996
 40
0.8133441123
 40
0.9120847846
 40
1.0
 40
1.0
 40
1.0
 40
1.0
 10
7.0824501169
 20
4.3813925951
 30
0.0
 10
7.0822365887
 20
4.3808252554
 30
0.0
 10
7.0818957572
 20
4.380005102
 30
0.0
 10
7.0813737184
 20
4.3789817678
 30
0.0
 10
7.0809743039
 20
4.3783079955
 30
0.0
 10
7.0805603794
 20
4.3777177395
 30
0.0
 10
7.0801339246
 20
4.3772207484
 30
0.0
 10
7.0796988047
 20
4.3768249002
 30
0.0
 10
7.0793892322
 20
4.3766203847
 30
0.0
 10
7.0792351746
 20
4.3765402127
 30
0.0
  0
SPLINE
  5
429
100
AcDbEntity
  8
0
100
AcDbSpline
 62
7
  6
CONTINUOUS
 70
0
 71
3
 72
13
 73
9
 74
0
 42
0.0000001
 43
0.0000001
 44
0.0000000001
 40
0.0
 40
0.0
 40
0.0
 40
0.0
 40
0.2618310315
 40
0.3834146414
 40
0.5022591766
 40
0.6211814799
 40
0.7426883383
 40
1.0
 40
1.0
 40
1.0
 40
1.0
 10
7.0792351746
 20
4.3765402127
 30
0.0
 10
7.0790501221
 20
4.3764439109
 30
0.0
 10
7.0787575448
 20
4.3763363675
 30
0.0
 10
7.0783577902
 20
4.3762964305
 30
0.0
 10
7.0780707489
 20
4.3763166965
 30
0.0
 10
7.0777914491
 20
4.3763851032
 30
0.0
 10
7.0774244649
 20
4.3765386559
 30
0.0
 10
7.0771736015
 20
4.3767137774
 30
0.0
 10
7.0770181481
 20
4.3768474313
 30
0.0
  0
SPLINE
  5
42A
100
AcDbEntity
  8
0
100
AcDbSpline
 62
7
  6
CONTINUOUS
 70
0
 71
3
 72
13
 73
9
 74
0
 42
0.0000001
 43
0.0000001
 44
0.0000000001
 40
0.0
 40
0.0
 40
0.0
 40
0.0
 40
0.2573131703
 40
0.3788207719
 40
0.4977437313
 40
0.6165886982
 40
0.7381721411
 40
1.0
 40
1.0
 40
1.0
 40
1.0
 10
7.4709768151
 20
4.4519990663
 30
0.0
 10
7.4708814831
 20
4.4518175787
 30
0.0
 10
7.4707127107
 20
4.4515624147
 30
0.0
 10
7.4704280389
 20
4.4512845554
 30
0.0
 10
7.4701935471
 20
4.4511181369
 30
0.0
 10
7.4699341374
 20
4.4509936252
 30
0.0
 10
7.4695477763
 20
4.4508835896
 30
0.0
 10
7.4692361723
 20
4.4508758625
 30
0.0
 10
7.4690286744
 20
4.4508972692
 30
0.0
  0
SPLINE
  5
42B
100
AcDbEntity
  8
0
100
AcDbSpline
 62
7
  6
CONTINUOUS
 70
0
 71
3
 72
14
 73
10
 74
0
 42
0.0000001
 43
0.0000001
 44
0.0000000001
 40
0.0
 40
0.0
 40
0.0
 40
0.0
 40
0.0879138119
 40
0.1866531741
 40
0.2969512276
 40
0.4187261567
 40
0.5511665106
 40
0.6931308996
 40
1.0
 40
1.0
 40
1.0
 40
1.0
 10
7.4690286744
 20
4.4508972692
 30
0.0
 10
7.4688559209
 20
4.4509150914
 30
0.0
 10
7.4684927963
 20
4.4509912711
 30
0.0
 10
7.4679425025
 20
4.4511991313
 30
0.0
 10
7.4673630301
 20
4.4515042285
 30
0.0
 10
7.4667608718
 20
4.4519006576
 30
0.0
 10
7.4661414581
 20
4.4523800861
 30
0.0
 10
7.465279341
 20
4.4531393989
 30
0.0
 10
7.464660508
 20
4.4537765053
 30
0.0
 10
7.4642531119
 20
4.4542254117
 30
0.0
  0
SPLINE
  5
42C
100
AcDbEntity
  8
0
100
AcDbSpline
 62
7
  6
CONTINUOUS
 70
0
 71
3
 72
13
 73
9
 74
0
 42
0.0000001
 43
0.0000001
 44
0.0000000001
 40
0.0
 40
0.0
 40
0.0
 40
0.0
 40
0.2573131703
 40
0.3788207719
 40
0.4977437313
 40
0.6165886982
 40
0.7381721411
 40
1.0
 40
1.0
 40
1.0
 40
1.0
 10
7.0690242277
 20
4.3878501188
 30
0.0
 10
7.068945156
 20
4.388039258
 30
0.0
 10
7.0688561284
 20
4.3883319469
 30
0.0
 10
7.0688234907
 20
4.3887284046
 30
0.0
 10
7.0688447337
 20
4.3890151627
 30
0.0
 10
7.0689141498
 20
4.3892944081
 30
0.0
 10
7.0690756417
 20
4.3896622437
 30
0.0
 10
7.0692683118
 20
4.3899072642
 30
0.0
 10
7.0694170701
 20
4.390053499
 30
0.0
  0
SPLINE
  5
42D
100
AcDbEntity
  8
0
100
AcDbSpline
 62
7
  6
CONTINUOUS
 70
0
 71
3
 72
14
 73
10
 74
0
 42
0.0000001
 43
0.0000001
 44
0.0000000001
 40
0.0
 40
0.0
 40
0.0
 40
0.0
 40
0.0879138119
 40
0.1866531741
 40
0.2969512276
 40
0.4187261567
 40
0.5511665106
 40
0.6931308996
 40
1.0
 40
1.0
 40
1.0
 40
1.0
 10
7.0694170701
 20
4.390053499
 30
0.0
 10
7.0695409196
 20
4.3901752475
 30
0.0
 10
7.0698310813
 20
4.3904064811
 30
0.0
 10
7.0703420109
 20
4.3906979946
 30
0.0
 10
7.0709464619
 20
4.3909500095
 30
0.0
 10
7.0716357459
 20
4.3911612871
 30
0.0
 10
7.072399981
 20
4.3913329542
 30
0.0
 10
7.0735345757
 20
4.3915132227
 30
0.0
 10
7.0744199337
 20
4.3915839348
 30
0.0
 10
7.075025506
 20
4.3916116952
 30
0.0
  0
SPLINE
  5
42E
100
AcDbEntity
  8
0
100
AcDbSpline
 62
7
  6
CONTINUOUS
 70
0
 71
3
 72
14
 73
10
 74
0
 42
0.0000001
 43
0.0000001
 44
0.0000000001
 40
0.0
 40
0.0
 40
0.0
 40
0.0
 40
0.3068662028
 40
0.4488296734
 40
0.581269854
 40
0.7030451996
 40
0.8133441123
 40
0.9120847847
 40
1.0
 40
1.0
 40
1.0
 40
1.0
 10
7.0671276066
 20
4.4040567934
 30
0.0
 10
7.0668446556
 20
4.4035206895
 30
0.0
 10
7.0664037192
 20
4.4027497208
 30
0.0
 10
7.065757539
 20
4.4017998847
 30
0.0
 10
7.065276828
 20
4.4011814852
 30
0.0
 10
7.0647921888
 20
4.4006477621
 30
0.0
 10
7.0643068071
 20
4.4002081388
 30
0.0
 10
7.0638255054
 20
4.399869947
 30
0.0
 10
7.0634927414
 20
4.3997058439
 30
0.0
 10
7.0633298503
 20
4.3996456126
 30
0.0
  0
SPLINE
  5
42F
100
AcDbEntity
  8
0
100
AcDbSpline
 62
7
  6
CONTINUOUS
 70
0
 71
3
 72
13
 73
9
 74
0
 42
0.0000001
 43
0.0000001
 44
0.0000000001
 40
0.0
 40
0.0
 40
0.0
 40
0.0
 40
0.2618310315
 40
0.3834146414
 40
0.5022591766
 40
0.6211814799
 40
0.7426883383
 40
1.0
 40
1.0
 40
1.0
 40
1.0
 10
7.0633298503
 20
4.3996456126
 30
0.0
 10
7.0631341872
 20
4.3995732634
 30
0.0
 10
7.0628304382
 20
4.3995032376
 30
0.0
 10
7.0624288303
 20
4.3995137181
 30
0.0
 10
7.0621465924
 20
4.3995698001
 30
0.0
 10
7.0618780686
 20
4.3996726729
 30
0.0
 10
7.0615332234
 20
4.3998710101
 30
0.0
 10
7.0613062867
 20
4.4000761923
 30
0.0
 10
7.0611688105
 20
4.4002282758
 30
0.0
  0
SPLINE
  5
430
100
AcDbEntity
  8
0
100
AcDbSpline
 62
7
  6
CONTINUOUS
 70
0
 71
3
 72
18
 73
14
 74
0
 42
0.0000001
 43
0.0000001
 44
0.0000000001
 40
0.0
 40
0.0
 40
0.0
 40
0.0
 40
0.1782563534
 40
0.3442705431
 40
0.494652069
 40
0.6267534363
 40
0.6856007546
 40
0.7397572575
 40
0.8352144873
 40
0.8781931627
 40
0.9192616242
 40
0.9595076536
 40
1.0
 40
1.0
 40
1.0
 40
1.0
 10
7.4596983095
 20
4.4402071714
 30
0.0
 10
7.460134209
 20
4.4402980395
 30
0.0
 10
7.4609808069
 20
4.4404520837
 30
0.0
 10
7.4622096712
 20
4.4405924005
 30
0.0
 10
7.4633312804
 20
4.4406204681
 30
0.0
 10
7.4641835592
 20
4.4405408994
 30
0.0
 10
7.4647812329
 20
4.4404031487
 30
0.0
 10
7.4652746181
 20
4.4402357961
 30
0.0
 10
7.4657035837
 20
4.440001191
 30
0.0
 10
7.4660325002
 20
4.439693469
 30
0.0
 10
7.4662199277
 20
4.439443821
 30
0.0
 10
7.4663561397
 20
4.4391699416
 30
0.0
 10
7.4664128452
 20
4.4389752139
 30
0.0
 10
7.4664333208
 20
4.4388761615
 30
0.0
  0
LINE
  5
431
100
AcDbEntity
  8
0
100
AcDbLine
 62
7
  6
CONTINUOUS
 10
7.4664333208
 20
4.4388761615
 11
7.4664465126
 21
4.4380562291
  0
LINE
  5
432
100
AcDbEntity
  8
0
100
AcDbLine
 62
7
  6
CONTINUOUS
 10
7.0546169269
 20
4.4121461077
 11
7.0546100666
 21
4.4133782935
  0
SPLINE
  5
433
100
AcDbEntity
  8
0
100
AcDbSpline
 62
7
  6
CONTINUOUS
 70
0
 71
3
 72
17
 73
13
 74
0
 42
0.0000001
 43
0.0000001
 44
0.0000000001
 40
0.0
 40
0.0
 40
0.0
 40
0.0
 40
0.0390854653
 40
0.0792026795
 40
0.1657423824
 40
0.2139160962
 40
0.2659474417
 40
0.3823971287
 40
0.5158148626
 40
0.6648333478
 40
0.8271593242
 40
1.0
 40
1.0
 40
1.0
 40
1.0
 10
7.0546100666
 20
4.4133782935
 30
0.0
 10
7.0546389657
 20
4.4134657329
 30
0.0
 10
7.0547124262
 20
4.4136383898
 30
0.0
 10
7.054922788
 20
4.4139691524
 30
0.0
 10
7.0552259697
 20
4.4142581117
 30
0.0
 10
7.0555963963
 20
4.4144964752
 30
0.0
 10
7.0560541328
 20
4.4147246758
 30
0.0
 10
7.0567333943
 20
4.4149474975
 30
0.0
 10
7.057659951
 20
4.4151157969
 30
0.0
 10
7.0587058867
 20
4.4151997314
 30
0.0
 10
7.0598475218
 20
4.4152028978
 30
0.0
 10
7.0606363926
 20
4.4151583485
 30
0.0
 10
7.0610423339
 20
4.4151258633
 30
0.0
  0
SPLINE
  5
434
100
AcDbEntity
  8
0
100
AcDbSpline
 62
7
  6
CONTINUOUS
 70
0
 71
3
 72
13
 73
9
 74
0
 42
0.0000001
 43
0.0000001
 44
0.0000000001
 40
0.0
 40
0.0
 40
0.0
 40
0.0
 40
0.2573131703
 40
0.3788207719
 40
0.4977437313
 40
0.6165886982
 40
0.7381721411
 40
1.0
 40
1.0
 40
1.0
 40
1.0
 10
7.4614399931
 20
4.4254112041
 30
0.0
 10
7.4613226663
 20
4.4252430958
 30
0.0
 10
7.4611232443
 20
4.4250110967
 30
0.0
 10
7.4608059922
 20
4.4247711072
 30
0.0
 10
7.4605524917
 20
4.4246353905
 30
0.0
 10
7.460279522
 20
4.4245443733
 30
0.0
 10
7.4598824164
 20
4.4244836293
 30
0.0
 10
7.459572301
 20
4.4245150174
 30
0.0
 10
7.4593691222
 20
4.4245622617
 30
0.0
  0
SPLINE
  5
435
100
AcDbEntity
  8
0
100
AcDbSpline
 62
7
  6
CONTINUOUS
 70
0
 71
3
 72
14
 73
10
 74
0
 42
0.0000001
 43
0.0000001
 44
0.0000000001
 40
0.0
 40
0.0
 40
0.0
 40
0.0
 40
0.0879138119
 40
0.1866531741
 40
0.2969512276
 40
0.4187261567
 40
0.5511665106
 40
0.6931308996
 40
1.0
 40
1.0
 40
1.0
 40
1.0
 10
7.4593691222
 20
4.4245622617
 30
0.0
 10
7.4591999646
 20
4.4246015951
 30
0.0
 10
7.4588492513
 20
4.4247226857
 30
0.0
 10
7.4583293485
 20
4.424997877
 30
0.0
 10
7.4577926842
 20
4.4253731955
 30
0.0
 10
7.4572449599
 20
4.4258419691
 30
0.0
 10
7.4566905188
 20
4.4263952503
 30
0.0
 10
7.4559303669
 20
4.4272566276
 30
0.0
 10
7.4553962642
 20
4.4279662706
 30
0.0
 10
7.4550483434
 20
4.4284626975
 30
0.0
  0
SPLINE
  5
436
100
AcDbEntity
  8
0
100
AcDbSpline
 62
7
  6
CONTINUOUS
 70
0
 71
3
 72
14
 73
10
 74
0
 42
0.0000001
 43
0.0000001
 44
0.0000000001
 40
0.0
 40
0.0
 40
0.0
 40
0.0
 40
0.3068662028
 40
0.4488296734
 40
0.581269854
 40
0.7030451996
 40
0.8133441123
 40
0.9120847847
 40
1.0
 40
1.0
 40
1.0
 40
1.0
 10
7.0547664961
 20
4.4284626975
 30
0.0
 10
7.0544185847
 20
4.427966284
 30
0.0
 10
7.0538844972
 20
4.4272566586
 30
0.0
 10
7.0531243663
 20
4.4263953002
 30
0.0
 10
7.0525699397
 20
4.425842026
 30
0.0
 10
7.0520222288
 20
4.4253732528
 30
0.0
 10
7.0514855752
 20
4.4249979306
 30
0.0
 10
7.050965682
 20
4.4247227286
 30
0.0
 10
7.0506149743
 20
4.4246016259
 30
0.0
 10
7.0504458187
 20
4.4245622852
 30
0.0
  0
SPLINE
  5
437
100
AcDbEntity
  8
0
100
AcDbSpline
 62
7
  6
CONTINUOUS
 70
0
 71
3
 72
13
 73
9
 74
0
 42
0.0000001
 43
0.0000001
 44
0.0000000001
 40
0.0
 40
0.0
 40
0.0
 40
0.0
 40
0.2618310315
 40
0.3834146414
 40
0.5022591766
 40
0.6211814799
 40
0.7426883383
 40
1.0
 40
1.0
 40
1.0
 40
1.0
 10
7.0504458187
 20
4.4245622852
 30
0.0
 10
7.0502426307
 20
4.4245150296
 30
0.0
 10
7.0499325003
 20
4.4244836259
 30
0.0
 10
7.0495353728
 20
4.4245443585
 30
0.0
 10
7.0492623894
 20
4.424635372
 30
0.0
 10
7.0490088763
 20
4.4247710887
 30
0.0
 10
7.0486916086
 20
4.4250110825
 30
0.0
 10
7.0484921775
 20
4.4252430895
 30
0.0
 10
7.0483748464
 20
4.4254112041
 30
0.0
  0
LINE
  5
438
100
AcDbEntity
  8
0
100
AcDbLine
 62
7
  6
CONTINUOUS
 10
7.0433683268
 20
4.4380562291
 11
7.0435159544
 21
4.4392795585
  0
SPLINE
  5
439
100
AcDbEntity
  8
0
100
AcDbSpline
 62
7
  6
CONTINUOUS
 70
0
 71
3
 72
17
 73
13
 74
0
 42
0.0000001
 43
0.0000001
 44
0.0000000001
 40
0.0
 40
0.0
 40
0.0
 40
0.0
 40
0.0390854653
 40
0.0792026795
 40
0.1657423824
 40
0.2139160962
 40
0.2659474417
 40
0.3823971287
 40
0.5158148626
 40
0.6648333478
 40
0.8271593242
 40
1.0
 40
1.0
 40
1.0
 40
1.0
 10
7.0435159544
 20
4.4392795585
 30
0.0
 10
7.0435555847
 20
4.4393626864
 30
0.0
 10
7.0436501056
 20
4.4395247749
 30
0.0
 10
7.0439002641
 20
4.4398265639
 30
0.0
 10
7.0442372714
 20
4.4400752459
 30
0.0
 10
7.0446346519
 20
4.4402653032
 30
0.0
 10
7.0451173802
 20
4.4404343348
 30
0.0
 10
7.0458192125
 20
4.4405702653
 30
0.0
 10
7.0467595565
 20
4.4406211093
 30
0.0
 10
7.0478077645
 20
4.4405732915
 30
0.0
 10
7.0489407943
 20
4.440433348
 30
0.0
 10
7.0497178611
 20
4.4402902783
 30
0.0
 10
7.0501165299
 20
4.4402071714
 30
0.0
  0
SPLINE
  5
43A
100
AcDbEntity
  8
0
100
AcDbSpline
 62
7
  6
CONTINUOUS
 70
0
 71
3
 72
18
 73
14
 74
0
 42
0.0000001
 43
0.0000001
 44
0.0000000001
 40
0.0
 40
0.0
 40
0.0
 40
0.0
 40
0.1782563534
 40
0.3442705431
 40
0.494652069
 40
0.6267534363
 40
0.6856007546
 40
0.7397572575
 40
0.8352144873
 40
0.8781931627
 40
0.9192616242
 40
0.9595076536
 40
1.0
 40
1.0
 40
1.0
 40
1.0
 10
7.4487725056
 20
4.4151258633
 30
0.0
 10
7.4492163566
 20
4.4151613822
 30
0.0
 10
7.4500755858
 20
4.4152081049
 30
0.0
 10
7.4513123464
 20
4.4151932977
 30
0.0
 10
7.4524286292
 20
4.4150805691
 30
0.0
 10
7.4532642149
 20
4.4148948089
 30
0.0
 10
7.4538399111
 20
4.414683236
 30
0.0
 10
7.4543084309
 20
4.4144553656
 30
0.0
 10
7.4547046102
 20
4.4141688468
 30
0.0
 10
7.4549923653
 20
4.4138223271
 30
0.0
 10
7.4551470257
 20
4.4135511567
 30
0.0
 10
7.4552478374
 20
4.413262365
 30
0.0
 10
7.4552796899
 20
4.4130620658
 30
0.0
 10
7.4552875895
 20
4.4129612281
 30
0.0
  0
LINE
  5
43B
100
AcDbEntity
  8
0
100
AcDbLine
 62
7
  6
CONTINUOUS
 10
7.4552875895
 20
4.4129612281
 11
7.4551979125
 21
4.4121461077
  0
SPLINE
  5
43C
100
AcDbEntity
  8
0
100
AcDbSpline
 62
7
  6
CONTINUOUS
 70
0
 71
3
 72
14
 73
10
 74
0
 42
0.0000001
 43
0.0000001
 44
0.0000000001
 40
0.0
 40
0.0
 40
0.0
 40
0.0
 40
0.3068662028
 40
0.4488296734
 40
0.581269854
 40
0.7030451996
 40
0.8133441123
 40
0.9120847847
 40
1.0
 40
1.0
 40
1.0
 40
1.0
 10
7.0455617276
 20
4.4542254117
 30
0.0
 10
7.0451543424
 20
4.4537765174
 30
0.0
 10
7.0445355267
 20
4.4531394266
 30
0.0
 10
7.0436734329
 20
4.4523801298
 30
0.0
 10
7.0430540345
 20
4.4519007064
 30
0.0
 10
7.0424518896
 20
4.4515042761
 30
0.0
 10
7.0418724272
 20
4.4511991739
 30
0.0
 10
7.0413221416
 20
4.4509913019
 30
0.0
 10
7.0409590212
 20
4.4509151095
 30
0.0
 10
7.0407862687
 20
4.4508972798
 30
0.0
  0
SPLINE
  5
43D
100
AcDbEntity
  8
0
100
AcDbSpline
 62
7
  6
CONTINUOUS
 70
0
 71
3
 72
13
 73
9
 74
0
 42
0.0000001
 43
0.0000001
 44
0.0000000001
 40
0.0
 40
0.0
 40
0.0
 40
0.0
 40
0.2618310315
 40
0.3834146414
 40
0.5022591766
 40
0.6211814799
 40
0.7426883383
 40
1.0
 40
1.0
 40
1.0
 40
1.0
 10
7.0407862687
 20
4.4508972798
 30
0.0
 10
7.0405787602
 20
4.450875863
 30
0.0
 10
7.0402671394
 20
4.4508835766
 30
0.0
 10
7.0398807551
 20
4.4509936035
 30
0.0
 10
7.0396213313
 20
4.4511181133
 30
0.0
 10
7.0393868271
 20
4.4512845334
 30
0.0
 10
7.0391021403
 20
4.451562399
 30
0.0
 10
7.03893336
 20
4.4518175718
 30
0.0
 10
7.0388380244
 20
4.4519990663
 30
0.0
  0
SPLINE
  5
43E
100
AcDbEntity
  8
0
100
AcDbSpline
 62
7
  6
CONTINUOUS
 70
0
 71
3
 72
13
 73
9
 74
0
 42
0.0000001
 43
0.0000001
 44
0.0000000001
 40
0.0
 40
0.0
 40
0.0
 40
0.0
 40
0.2573131703
 40
0.3788207719
 40
0.4977437313
 40
0.6165886982
 40
0.7381721411
 40
1.0
 40
1.0
 40
1.0
 40
1.0
 10
7.448646029
 20
4.4002282758
 30
0.0
 10
7.4485085579
 20
4.400076198
 30
0.0
 10
7.4482816311
 20
4.3998710225
 30
0.0
 10
7.447936802
 20
4.3996726876
 30
0.0
 10
7.4476682906
 20
4.3995698132
 30
0.0
 10
7.4473860659
 20
4.3995137258
 30
0.0
 10
7.4469844784
 20
4.3995032313
 30
0.0
 10
7.4466807423
 20
4.3995732398
 30
0.0
 10
7.4464850869
 20
4.3996455765
 30
0.0
  0
SPLINE
  5
43F
100
AcDbEntity
  8
0
100
AcDbSpline
 62
7
  6
CONTINUOUS
 70
0
 71
3
 72
14
 73
10
 74
0
 42
0.0000001
 43
0.0000001
 44
0.0000000001
 40
0.0
 40
0.0
 40
0.0
 40
0.0
 40
0.0879138119
 40
0.1866531741
 40
0.2969512276
 40
0.4187261567
 40
0.5511665106
 40
0.6931308996
 40
1.0
 40
1.0
 40
1.0
 40
1.0
 10
7.4464850869
 20
4.3996455765
 30
0.0
 10
7.446322193
 20
4.3997058009
 30
0.0
 10
7.4459894218
 20
4.3998698926
 30
0.0
 10
7.4455081091
 20
4.4002080751
 30
0.0
 10
7.4450227165
 20
4.400647696
 30
0.0
 10
7.4445380641
 20
4.4011814212
 30
0.0
 10
7.4440573395
 20
4.4017998295
 30
0.0
 10
7.4434111407
 20
4.4027496869
 30
0.0
 10
7.4429701915
 20
4.403520675
 30
0.0
 10
7.4426872329
 20
4.4040567934
 30
0.0
  0
LINE
  5
440
100
AcDbEntity
  8
0
100
AcDbLine
 62
7
  6
CONTINUOUS
 10
7.0354558246
 20
4.4651718648
 11
7.0357556119
 21
4.4663670453
  0
SPLINE
  5
441
100
AcDbEntity
  8
0
100
AcDbSpline
 62
7
  6
CONTINUOUS
 70
0
 71
3
 72
17
 73
13
 74
0
 42
0.0000001
 43
0.0000001
 44
0.0000000001
 40
0.0
 40
0.0
 40
0.0
 40
0.0
 40
0.0390854653
 40
0.0792026795
 40
0.1657423824
 40
0.2139160962
 40
0.2659474417
 40
0.3823971287
 40
0.5158148626
 40
0.6648333478
 40
0.8271593242
 40
1.0
 40
1.0
 40
1.0
 40
1.0
 10
7.0357556119
 20
4.4663670453
 30
0.0
 10
7.0358053484
 20
4.4664445507
 30
0.0
 10
7.035919439
 20
4.4665935144
 30
0.0
 10
7.0362054492
 20
4.4668615706
 30
0.0
 10
7.0365709672
 20
4.4670660535
 30
0.0
 10
7.0369890347
 20
4.4672048071
 30
0.0
 10
7.0374891418
 20
4.4673120039
 30
0.0
 10
7.0382024765
 20
4.4673588997
 30
0.0
 10
7.0391417781
 20
4.4672914864
 30
0.0
 10
7.0401757275
 20
4.4671126703
 30
0.0
 10
7.0412822835
 20
4.4668318241
 30
0.0
 10
7.0420352915
 20
4.4665924903
 30
0.0
 10
7.0424204006
 20
4.4664600722
 30
0.0
  0
SPLINE
  5
442
100
AcDbEntity
  8
0
100
AcDbSpline
 62
7
  6
CONTINUOUS
 70
0
 71
3
 72
14
 73
10
 74
0
 42
0.0000001
 43
0.0000001
 44
0.0000000001
 40
0.0
 40
0.0
 40
0.0
 40
0.0
 40
0.3068662028
 40
0.4488296734
 40
0.581269854
 40
0.7030451996
 40
0.8133441123
 40
0.9120847847
 40
1.0
 40
1.0
 40
1.0
 40
1.0
 10
7.0396584656
 20
4.4809386425
 30
0.0
 10
7.0391980315
 20
4.4805443469
 30
0.0
 10
7.0385042467
 20
4.4799898378
 30
0.0
 10
7.0375537856
 20
4.4793445774
 30
0.0
 10
7.0368791836
 20
4.4789465656
 30
0.0
 10
7.0362321009
 20
4.47862873
 30
0.0
 10
7.0356189684
 20
4.4783986595
 30
0.0
 10
7.0350469686
 20
4.4782613957
 30
0.0
 10
7.0346771621
 20
4.4782313151
 30
0.0
 10
7.0345035372
 20
4.4782352777
 30
0.0
  0
SPLINE
  5
443
100
AcDbEntity
  8
0
100
AcDbSpline
 62
7
  6
CONTINUOUS
 70
0
 71
3
 72
13
 73
9
 74
0
 42
0.0000001
 43
0.0000001
 44
0.0000000001
 40
0.0
 40
0.0
 40
0.0
 40
0.0
 40
0.2618310315
 40
0.3834146414
 40
0.5022591766
 40
0.6211814799
 40
0.7426883383
 40
1.0
 40
1.0
 40
1.0
 40
1.0
 10
7.0345035372
 20
4.4782352777
 30
0.0
 10
7.0342949807
 20
4.4782400375
 30
0.0
 10
7.0339867839
 20
4.4782867467
 30
0.0
 10
7.0336172364
 20
4.4784443328
 30
0.0
 10
7.0333754634
 20
4.4786003753
 30
0.0
 10
7.0331636663
 20
4.4787948742
 30
0.0
 10
7.0329160502
 20
4.4791062295
 30
0.0
 10
7.0327805824
 20
4.479380544
 30
0.0
 10
7.0327087458
 20
4.479572556
 30
0.0
  0
SPLINE
  5
444
100
AcDbEntity
  8
0
100
AcDbSpline
 62
7
  6
CONTINUOUS
 70
0
 71
3
 72
18
 73
14
 74
0
 42
0.0000001
 43
0.0000001
 44
0.0000000001
 40
0.0
 40
0.0
 40
0.0
 40
0.0
 40
0.1782563534
 40
0.3442705431
 40
0.494652069
 40
0.6267534363
 40
0.6856007546
 40
0.7397572575
 40
0.8352144873
 40
0.8781931627
 40
0.9192616242
 40
0.9595076536
 40
1.0
 40
1.0
 40
1.0
 40
1.0
 10
7.4347893334
 20
4.3916116952
 30
0.0
 10
7.4352341362
 20
4.3915913047
 30
0.0
 10
7.436092446
 20
4.3915299691
 30
0.0
 10
7.4373175986
 20
4.3913602714
 30
0.0
 10
7.4384109505
 20
4.3911085244
 30
0.0
 10
7.4392166655
 20
4.3908195023
 30
0.0
 10
7.439761305
 20
4.3905374439
 30
0.0
 10
7.4401975707
 20
4.3902526491
 30
0.0
 10
7.4405547156
 20
4.3899187351
 30
0.0
 10
7.4407967712
 20
4.3895388826
 30
0.0
 10
7.4409162254
 20
4.3892504664
 30
0.0
 10
7.4409800471
 20
4.3889513169
 30
0.0
 10
7.4409865442
 20
4.3887486049
 30
0.0
 10
7.4409817432
 20
4.3886475723
 30
0.0
  0
LINE
  5
445
100
AcDbEntity
  8
0
100
AcDbLine
 62
7
  6
CONTINUOUS
 10
7.4409817432
 20
4.3886475723
 11
7.4407906117
 21
4.3878501188
  0
LINE
  5
446
100
AcDbEntity
  8
0
100
AcDbLine
 62
7
  6
CONTINUOUS
 10
7.0310042051
 20
4.4930653851
 11
7.0314514243
 21
4.4942135679
  0
SPLINE
  5
447
100
AcDbEntity
  8
0
100
AcDbSpline
 62
7
  6
CONTINUOUS
 70
0
 71
3
 72
17
 73
13
 74
0
 42
0.0000001
 43
0.0000001
 44
0.0000000001
 40
0.0
 40
0.0
 40
0.0
 40
0.0
 40
0.0390854653
 40
0.0792026795
 40
0.1657423824
 40
0.2139160962
 40
0.2659474417
 40
0.3823971287
 40
0.5158148626
 40
0.6648333478
 40
0.8271593242
 40
1.0
 40
1.0
 40
1.0
 40
1.0
 10
7.0314514243
 20
4.4942135679
 30
0.0
 10
7.0315104827
 20
4.4942842286
 30
0.0
 10
7.0316423437
 20
4.4944177183
 30
0.0
 10
7.031959695
 20
4.4946478142
 30
0.0
 10
7.0323479593
 20
4.4948048731
 30
0.0
 10
7.0327801207
 20
4.4948901349
 30
0.0
 10
7.0332897196
 20
4.4949338064
 30
0.0
 10
7.034003307
 20
4.4948909278
 30
0.0
 10
7.0349267528
 20
4.4947063204
 30
0.0
 10
7.0359301376
 20
4.4943993261
 30
0.0
 10
7.0369927687
 20
4.4939820062
 30
0.0
 10
7.0377098425
 20
4.4936501827
 30
0.0
 10
7.0380753186
 20
4.4934705418
 30
0.0
  0
SPLINE
  5
448
100
AcDbEntity
  8
0
100
AcDbSpline
 62
7
  6
CONTINUOUS
 70
0
 71
3
 72
13
 73
9
 74
0
 42
0.0000001
 43
0.0000001
 44
0.0000000001
 40
0.0
 40
0.0
 40
0.0
 40
0.0
 40
0.2573131703
 40
0.3788207719
 40
0.4977437313
 40
0.6165886982
 40
0.7381721411
 40
1.0
 40
1.0
 40
1.0
 40
1.0
 10
7.4327966913
 20
4.3768474313
 30
0.0
 10
7.4326412438
 20
4.3767137824
 30
0.0
 10
7.4323903911
 20
4.3765386662
 30
0.0
 10
7.4320234231
 20
4.3763851138
 30
0.0
 10
7.4317441355
 20
4.376316704
 30
0.0
 10
7.4314571066
 20
4.3762964311
 30
0.0
 10
7.4310573704
 20
4.3763363516
 30
0.0
 10
7.4307648037
 20
4.3764438762
 30
0.0
 10
7.4305797573
 20
4.3765401647
 30
0.0
  0
SPLINE
  5
449
100
AcDbEntity
  8
0
100
AcDbSpline
 62
7
  6
CONTINUOUS
 70
0
 71
3
 72
14
 73
10
 74
0
 42
0.0000001
 43
0.0000001
 44
0.0000000001
 40
0.0
 40
0.0
 40
0.0
 40
0.0
 40
0.0879138119
 40
0.1866531741
 40
0.2969512276
 40
0.4187261567
 40
0.5511665106
 40
0.6931308996
 40
1.0
 40
1.0
 40
1.0
 40
1.0
 10
7.4305797573
 20
4.3765401647
 30
0.0
 10
7.430425696
 20
4.3766203302
 30
0.0
 10
7.4301161149
 20
4.3768248353
 30
0.0
 10
7.4296809831
 20
4.3772206756
 30
0.0
 10
7.4292545171
 20
4.3777176657
 30
0.0
 10
7.4288405797
 20
4.3783079255
 30
0.0
 10
7.4284411529
 20
4.3789817082
 30
0.0
 10
7.4279190983
 20
4.3800050658
 30
0.0
 10
7.4275782565
 20
4.38082524
 30
0.0
 10
7.4273647226
 20
4.3813925951
 30
0.0
  0
SPLINE
  5
44A
100
AcDbEntity
  8
0
100
AcDbSpline
 62
7
  6
CONTINUOUS
 70
0
 71
3
 72
14
 73
10
 74
0
 42
0.0000001
 43
0.0000001
 44
0.0000000001
 40
0.0
 40
0.0
 40
0.0
 40
0.0
 40
0.3068662028
 40
0.4488296734
 40
0.581269854
 40
0.7030451996
 40
0.8133441123
 40
0.9120847847
 40
1.0
 40
1.0
 40
1.0
 40
1.0
 10
7.0371498083
 20
4.5081811065
 30
0.0
 10
7.0366435865
 20
4.5078476277
 30
0.0
 10
7.0358857739
 20
4.5073844454
 30
0.0
 10
7.0348619349
 20
4.5068633974
 30
0.0
 10
7.0341427683
 20
4.5065530741
 30
0.0
 10
7.0334609527
 20
4.5063188457
 30
0.0
 10
7.0328238194
 20
4.5061674353
 30
0.0
 10
7.0322391263
 20
4.5061029444
 30
0.0
 10
7.0318684658
 20
4.5061194501
 30
0.0
 10
7.0316967066
 20
4.5061451424
 30
0.0
  0
SPLINE
  5
44B
100
AcDbEntity
  8
0
100
AcDbSpline
 62
7
  6
CONTINUOUS
 70
0
 71
3
 72
13
 73
9
 74
0
 42
0.0000001
 43
0.0000001
 44
0.0000000001
 40
0.0
 40
0.0
 40
0.0
 40
0.0
 40
0.2618310315
 40
0.3834146414
 40
0.5022591766
 40
0.6211814799
 40
0.7426883383
 40
1.0
 40
1.0
 40
1.0
 40
1.0
 10
7.0316967066
 20
4.5061451424
 30
0.0
 10
7.0314903912
 20
4.5061760037
 30
0.0
 10
7.0311904787
 20
4.5062609719
 30
0.0
 10
7.0308435961
 20
4.506463632
 30
0.0
 10
7.0306232868
 20
4.5066487462
 30
0.0
 10
7.030437537
 20
4.5068682567
 30
0.0
 10
7.0302308965
 20
4.5072081913
 30
0.0
 10
7.0301308777
 20
4.5074973214
 30
0.0
 10
7.0300836731
 20
4.5076968229
 30
0.0
  0
SPLINE
  5
44C
100
AcDbEntity
  8
0
100
AcDbSpline
 62
7
  6
CONTINUOUS
 70
0
 71
3
 72
13
 73
9
 74
0
 42
0.0000001
 43
0.0000001
 44
0.0000000001
 40
0.0
 40
0.0
 40
0.0
 40
0.0
 40
0.2573131703
 40
0.3788207719
 40
0.4977437313
 40
0.6165886982
 40
0.7381721411
 40
1.0
 40
1.0
 40
1.0
 40
1.0
 10
7.0300836731
 20
4.5212968926
 30
0.0
 10
7.0301308759
 20
4.5214963866
 30
0.0
 10
7.0302308893
 20
4.521785506
 30
0.0
 10
7.0304375168
 20
4.5221254309
 30
0.0
 10
7.0306232549
 20
4.5223449368
 30
0.0
 10
7.03084355
 20
4.5225300493
 30
0.0
 10
7.0311904081
 20
4.522732712
 30
0.0
 10
7.0314903009
 20
4.5228176891
 30
0.0
 10
7.0316966035
 20
4.5228485576
 30
0.0
  0
SPLINE
  5
44D
100
AcDbEntity
  8
0
100
AcDbSpline
 62
7
  6
CONTINUOUS
 70
0
 71
3
 72
14
 73
10
 74
0
 42
0.0000001
 43
0.0000001
 44
0.0000000001
 40
0.0
 40
0.0
 40
0.0
 40
0.0
 40
0.0879138119
 40
0.1866531741
 40
0.2969512276
 40
0.4187261567
 40
0.5511665106
 40
0.6931308996
 40
1.0
 40
1.0
 40
1.0
 40
1.0
 10
7.0316966035
 20
4.5228485576
 30
0.0
 10
7.0318683619
 20
4.5228742574
 30
0.0
 10
7.0322390233
 20
4.5228907764
 30
0.0
 10
7.0328237214
 20
4.522826299
 30
0.0
 10
7.0334608632
 20
4.5226748959
 30
0.0
 10
7.0341426915
 20
4.5224406721
 30
0.0
 10
7.0348618741
 20
4.5221303476
 30
0.0
 10
7.0358857397
 20
4.5216092899
 30
0.0
 10
7.0366435728
 20
4.5211460968
 30
0.0
 10
7.0371498083
 20
4.5208126089
 30
0.0
  0
SPLINE
  5
44E
100
AcDbEntity
  8
0
100
AcDbSpline
 62
7
  6
CONTINUOUS
 70
0
 71
3
 72
14
 73
10
 74
0
 42
0.0000001
 43
0.0000001
 44
0.0000000001
 40
0.0
 40
0.0
 40
0.0
 40
0.0
 40
0.3068662028
 40
0.4488296733
 40
0.581269854
 40
0.7030451996
 40
0.8133441123
 40
0.9120847846
 40
1.0
 40
1.0
 40
1.0
 40
1.0
 10
7.417969316
 20
4.3700354995
 30
0.0
 10
7.4185666178
 20
4.3699320624
 30
0.0
 10
7.4194361095
 20
4.3697509494
 30
0.0
 10
7.4205391379
 20
4.369429911
 30
0.0
 10
7.4212758187
 20
4.3691638236
 30
0.0
 10
7.4219331813
 20
4.3688678338
 30
0.0
 10
7.4225012791
 20
4.3685420595
 30
0.0
 10
7.422971649
 20
4.3681888214
 30
0.0
 10
7.42323055
 20
4.3679230546
 30
0.0
 10
7.4233381695
 20
4.3677867485
 30
0.0
  0
SPLINE
  5
44F
100
AcDbEntity
  8
0
100
AcDbSpline
 62
7
  6
CONTINUOUS
 70
0
 71
3
 72
13
 73
9
 74
0
 42
0.0000001
 43
0.0000001
 44
0.0000000001
 40
0.0
 40
0.0
 40
0.0
 40
0.0
 40
0.2618310315
 40
0.3834146414
 40
0.5022591766
 40
0.6211814799
 40
0.7426883383
 40
1.0
 40
1.0
 40
1.0
 40
1.0
 10
7.4233381695
 20
4.3677867485
 30
0.0
 10
7.4234674409
 20
4.367623019
 30
0.0
 10
7.423627903
 20
4.3673557757
 30
0.0
 10
7.4237420392
 20
4.3669705852
 30
0.0
 10
7.4237759183
 20
4.3666848308
 30
0.0
 10
7.4237610588
 20
4.36639766
 30
0.0
 10
7.423678992
 20
4.3660084032
 30
0.0
 10
7.4235539794
 20
4.3657291688
 30
0.0
 10
7.4234518219
 20
4.3655514247
 30
0.0
  0
SPLINE
  5
450
100
AcDbEntity
  8
0
100
AcDbSpline
 62
7
  6
CONTINUOUS
 70
0
 71
3
 72
18
 73
14
 74
0
 42
0.0000001
 43
0.0000001
 44
0.0000000001
 40
0.0
 40
0.0
 40
0.0
 40
0.0
 40
0.1782563534
 40
0.3442705431
 40
0.494652069
 40
0.6267534363
 40
0.6856007546
 40
0.7397572575
 40
0.8352144873
 40
0.8781931627
 40
0.9192616242
 40
0.9595076536
 40
1.0
 40
1.0
 40
1.0
 40
1.0
 10
7.0380753186
 20
4.5355231737
 30
0.0
 10
7.0376757117
 20
4.5353267566
 30
0.0
 10
7.0368940204
 20
4.5349670116
 30
0.0
 10
7.0357386586
 20
4.534525497
 30
0.0
 10
7.0346592669
 20
4.5342193783
 30
0.0
 10
7.0338139761
 20
4.5340844941
 30
0.0
 10
7.0332008221
 20
4.5340692818
 30
0.0
 10
7.0326813187
 20
4.5341086767
 30
0.0
 10
7.0322074859
 20
4.5342292319
 30
0.0
 10
7.0318123756
 20
4.534445488
 30
0.0
 10
7.0315687516
 20
4.5346406816
 30
0.0
 10
7.0313687078
 20
4.534872082
 30
0.0
 10
7.0312653571
 20
4.5350465898
 30
0.0
 10
7.0312208914
 20
4.5351374383
 30
0.0
  0
LINE
  5
451
100
AcDbEntity
  8
0
100
AcDbLine
 62
7
  6
CONTINUOUS
 10
7.0312208914
 20
4.5351374383
 11
7.0310042051
 21
4.5359283303
  0
SPLINE
  5
452
100
AcDbEntity
  8
0
100
AcDbSpline
 62
7
  6
CONTINUOUS
 70
0
 71
3
 72
13
 73
9
 74
0
 42
0.0000001
 43
0.0000001
 44
0.0000000001
 40
0.0
 40
0.0
 40
0.0
 40
0.0
 40
0.2573131703
 40
0.3788207719
 40
0.4977437313
 40
0.6165886982
 40
0.7381721411
 40
1.0
 40
1.0
 40
1.0
 40
1.0
 10
7.4141419336
 20
4.3556374005
 30
0.0
 10
7.4139709612
 20
4.3555242883
 30
0.0
 10
7.4137001387
 20
4.3553819931
 30
0.0
 10
7.4133168191
 20
4.3552756448
 30
0.0
 10
7.4130311597
 20
4.3552427784
 30
0.0
 10
7.4127438532
 20
4.3552586396
 30
0.0
 10
7.4123522724
 20
4.3553483455
 30
0.0
 10
7.4120754891
 20
4.3554916906
 30
0.0
 10
7.41190397
 20
4.3556104123
 30
0.0
  0
SPLINE
  5
453
100
AcDbEntity
  8
0
100
AcDbSpline
 62
7
  6
CONTINUOUS
 70
0
 71
3
 72
14
 73
10
 74
0
 42
0.0000001
 43
0.0000001
 44
0.0000000001
 40
0.0
 40
0.0
 40
0.0
 40
0.0
 40
0.0879138119
 40
0.1866531741
 40
0.2969512276
 40
0.4187261567
 40
0.5511665106
 40
0.6931308996
 40
1.0
 40
1.0
 40
1.0
 40
1.0
 10
7.41190397
 20
4.3556104123
 30
0.0
 10
7.4117611709
 20
4.3557092547
 30
0.0
 10
7.4114796623
 20
4.355950948
 30
0.0
 10
7.4110975735
 20
4.3563982034
 30
0.0
 10
7.4107367597
 20
4.3569447251
 30
0.0
 10
7.4104000655
 20
4.3575822105
 30
0.0
 10
7.4100882357
 20
4.3583007417
 30
0.0
 10
7.4096985584
 20
4.3593814606
 30
0.0
 10
7.4094631993
 20
4.3602378864
 30
0.0
 10
7.4093224576
 20
4.3608275306
 30
0.0
  0
SPLINE
  5
454
100
AcDbEntity
  8
0
100
AcDbSpline
 62
7
  6
CONTINUOUS
 70
0
 71
3
 72
13
 73
9
 74
0
 42
0.0000001
 43
0.0000001
 44
0.0000000001
 40
0.0
 40
0.0
 40
0.0
 40
0.0
 40
0.2573131703
 40
0.3788207719
 40
0.4977437313
 40
0.6165886982
 40
0.7381721411
 40
1.0
 40
1.0
 40
1.0
 40
1.0
 10
7.0327087458
 20
4.5494211594
 30
0.0
 10
7.0327805797
 20
4.5496131643
 30
0.0
 10
7.0329160407
 20
4.5498874689
 30
0.0
 10
7.0331636428
 20
4.5501988161
 30
0.0
 10
7.0333754277
 20
4.550393312
 30
0.0
 10
7.0336171865
 20
4.5505493545
 30
0.0
 10
7.0339867098
 20
4.5507069463
 30
0.0
 10
7.0342948884
 20
4.5507536668
 30
0.0
 10
7.034503433
 20
4.5507584354
 30
0.0
  0
SPLINE
  5
455
100
AcDbEntity
  8
0
100
AcDbSpline
 62
7
  6
CONTINUOUS
 70
0
 71
3
 72
14
 73
10
 74
0
 42
0.0000001
 43
0.0000001
 44
0.0000000001
 40
0.0
 40
0.0
 40
0.0
 40
0.0
 40
0.0879138119
 40
0.1866531741
 40
0.2969512276
 40
0.4187261567
 40
0.5511665106
 40
0.6931308996
 40
1.0
 40
1.0
 40
1.0
 40
1.0
 10
7.034503433
 20
4.5507584354
 30
0.0
 10
7.0346770581
 20
4.5507624054
 30
0.0
 10
7.0350468671
 20
4.550732338
 30
0.0
 10
7.0356188735
 20
4.5505950869
 30
0.0
 10
7.0362320154
 20
4.5503650227
 30
0.0
 10
7.0368791113
 20
4.55004719
 30
0.0
 10
7.0375537289
 20
4.549649175
 30
0.0
 10
7.0385042152
 20
4.5490039016
 30
0.0
 10
7.0391980191
 20
4.5484493792
 30
0.0
 10
7.0396584656
 20
4.5480550729
 30
0.0
  0
SPLINE
  5
456
100
AcDbEntity
  8
0
100
AcDbSpline
 62
7
  6
CONTINUOUS
 70
0
 71
3
 72
18
 73
14
 74
0
 42
0.0000001
 43
0.0000001
 44
0.0000000001
 40
0.0
 40
0.0
 40
0.0
 40
0.0
 40
0.1782563534
 40
0.3442705431
 40
0.494652069
 40
0.6267534363
 40
0.6856007546
 40
0.7397572575
 40
0.8352144873
 40
0.8781931627
 40
0.9192616242
 40
0.9595076536
 40
1.0
 40
1.0
 40
1.0
 40
1.0
 10
7.0424204006
 20
4.5625336433
 30
0.0
 10
7.0419993272
 20
4.5623888591
 30
0.0
 10
7.0411787118
 20
4.5621299226
 30
0.0
 10
7.0399771238
 20
4.5618366947
 30
0.0
 10
7.0388678767
 20
4.5616682735
 30
0.0
 10
7.0380123457
 20
4.561640396
 30
0.0
 10
7.0374021201
 20
4.5617021521
 30
0.0
 10
7.0368916506
 20
4.5618063475
 30
0.0
 10
7.0364366637
 20
4.561985339
 30
0.0
 10
7.036071773
 20
4.5622494104
 30
0.0
 10
7.0358545342
 20
4.5624735989
 30
0.0
 10
7.0356850701
 20
4.5627282468
 30
0.0
 10
7.0356044059
 20
4.5629143319
 30
0.0
 10
7.0355716772
 20
4.563010037
 30
0.0
  0
LINE
  5
457
100
AcDbEntity
  8
0
100
AcDbLine
 62
7
  6
CONTINUOUS
 10
7.0355716772
 20
4.563010037
 11
7.0354558246
 21
4.5638218507
  0
SPLINE
  5
458
100
AcDbEntity
  8
0
100
AcDbSpline
 62
7
  6
CONTINUOUS
 70
0
 71
3
 72
14
 73
10
 74
0
 42
0.0000001
 43
0.0000001
 44
0.0000000001
 40
0.0
 40
0.0
 40
0.0
 40
0.0
 40
0.3068662028
 40
0.4488296733
 40
0.581269854
 40
0.7030451996
 40
0.8133441123
 40
0.9120847846
 40
1.0
 40
1.0
 40
1.0
 40
1.0
 10
7.3985777151
 20
4.3507375458
 30
0.0
 10
7.3991573429
 20
4.3505600625
 30
0.0
 10
7.3999972789
 20
4.3502714014
 30
0.0
 10
7.4010513728
 20
4.3498146484
 30
0.0
 10
7.4017488951
 20
4.3494583286
 30
0.0
 10
7.4023639768
 20
4.3490822834
 30
0.0
 10
7.4028867646
 20
4.3486878764
 30
0.0
 10
7.4033091531
 20
4.3482784707
 30
0.0
 10
7.4035327032
 20
4.3479823507
 30
0.0
 10
7.4036223904
 20
4.347833631
 30
0.0
  0
SPLINE
  5
459
100
AcDbEntity
  8
0
100
AcDbSpline
 62
7
  6
CONTINUOUS
 70
0
 71
3
 72
13
 73
9
 74
0
 42
0.0000001
 43
0.0000001
 44
0.0000000001
 40
0.0
 40
0.0
 40
0.0
 40
0.0
 40
0.2618310315
 40
0.3834146414
 40
0.5022591766
 40
0.6211814799
 40
0.7426883383
 40
1.0
 40
1.0
 40
1.0
 40
1.0
 10
7.4036223904
 20
4.347833631
 30
0.0
 10
7.4037301217
 20
4.3476549906
 30
0.0
 10
7.403855824
 20
4.3473697433
 30
0.0
 10
7.403920783
 20
4.3469732852
 30
0.0
 10
7.4039185805
 20
4.3466855378
 30
0.0
 10
7.4038678461
 20
4.3464024938
 30
0.0
 10
7.4037376396
 20
4.3460265921
 30
0.0
 10
7.4035786154
 20
4.3457652278
 30
0.0
 10
7.4034549862
 20
4.345601689
 30
0.0
  0
SPLINE
  5
45A
100
AcDbEntity
  8
0
100
AcDbSpline
 62
7
  6
CONTINUOUS
 70
0
 71
3
 72
13
 73
9
 74
0
 42
0.0000001
 43
0.0000001
 44
0.0000000001
 40
0.0
 40
0.0
 40
0.0
 40
0.0
 40
0.2573131703
 40
0.3788207719
 40
0.4977437313
 40
0.6165886982
 40
0.7381721411
 40
1.0
 40
1.0
 40
1.0
 40
1.0
 10
7.0388380244
 20
4.5769946492
 30
0.0
 10
7.0389333564
 20
4.5771761368
 30
0.0
 10
7.0391021287
 20
4.5774313008
 30
0.0
 10
7.0393868006
 20
4.5777091601
 30
0.0
 10
7.0396212923
 20
4.5778755786
 30
0.0
 10
7.039880702
 20
4.5780000903
 30
0.0
 10
7.0402670631
 20
4.5781101259
 30
0.0
 10
7.0405786672
 20
4.578117853
 30
0.0
 10
7.0407861651
 20
4.5780964463
 30
0.0
  0
SPLINE
  5
45B
100
AcDbEntity
  8
0
100
AcDbSpline
 62
7
  6
CONTINUOUS
 70
0
 71
3
 72
14
 73
10
 74
0
 42
0.0000001
 43
0.0000001
 44
0.0000000001
 40
0.0
 40
0.0
 40
0.0
 40
0.0
 40
0.0879138119
 40
0.1866531741
 40
0.2969512276
 40
0.4187261567
 40
0.5511665106
 40
0.6931308996
 40
1.0
 40
1.0
 40
1.0
 40
1.0
 10
7.0407861651
 20
4.5780964463
 30
0.0
 10
7.0409589186
 20
4.5780786241
 30
0.0
 10
7.0413220432
 20
4.5780024444
 30
0.0
 10
7.041872337
 20
4.5777945841
 30
0.0
 10
7.0424518094
 20
4.577489487
 30
0.0
 10
7.0430539677
 20
4.5770930579
 30
0.0
 10
7.0436733813
 20
4.5766136294
 30
0.0
 10
7.0445354984
 20
4.5758543166
 30
0.0
 10
7.0451543314
 20
4.5752172102
 30
0.0
 10
7.0455617276
 20
4.5747683038
 30
0.0
  0
SPLINE
  5
45C
100
AcDbEntity
  8
0
100
AcDbSpline
 62
7
  6
CONTINUOUS
 70
0
 71
3
 72
13
 73
9
 74
0
 42
0.0000001
 43
0.0000001
 44
0.0000000001
 40
0.0
 40
0.0
 40
0.0
 40
0.0
 40
0.2573131703
 40
0.3788207719
 40
0.4977437313
 40
0.6165886982
 40
0.7381721411
 40
1.0
 40
1.0
 40
1.0
 40
1.0
 10
7.3929759524
 20
4.3369326783
 30
0.0
 10
7.3927921514
 20
4.3368418865
 30
0.0
 10
7.3925056301
 20
4.3367346564
 30
0.0
 10
7.3921120042
 20
4.3366771894
 30
0.0
 10
7.391824478
 20
4.3366803848
 30
0.0
 10
7.391541425
 20
4.3367321299
 30
0.0
 10
7.391164175
 20
4.3368702066
 30
0.0
 10
7.3909075402
 20
4.3370471115
 30
0.0
 10
7.3907522534
 20
4.3371863941
 30
0.0
  0
SPLINE
  5
45D
100
AcDbEntity
  8
0
100
AcDbSpline
 62
7
  6
CONTINUOUS
 70
0
 71
3
 72
14
 73
10
 74
0
 42
0.0000001
 43
0.0000001
 44
0.0000000001
 40
0.0
 40
0.0
 40
0.0
 40
0.0
 40
0.0879138119
 40
0.1866531741
 40
0.2969512276
 40
0.4187261567
 40
0.5511665106
 40
0.6931308996
 40
1.0
 40
1.0
 40
1.0
 40
1.0
 10
7.3907522534
 20
4.3371863941
 30
0.0
 10
7.3906229685
 20
4.3373023545
 30
0.0
 10
7.3903739718
 20
4.3375774244
 30
0.0
 10
7.390050952
 20
4.3380690415
 30
0.0
 10
7.3897614806
 20
4.3386564756
 30
0.0
 10
7.3895073394
 20
4.3393311333
 30
0.0
 10
7.3892880243
 20
4.3400830813
 30
0.0
 10
7.3890368697
 20
4.3412041179
 30
0.0
 10
7.3889107051
 20
4.3420832888
 30
0.0
 10
7.3888449753
 20
4.3426859231
 30
0.0
  0
SPLINE
  5
45E
100
AcDbEntity
  8
0
100
AcDbSpline
 62
7
  6
CONTINUOUS
 70
0
 71
3
 72
18
 73
14
 74
0
 42
0.0000001
 43
0.0000001
 44
0.0000000001
 40
0.0
 40
0.0
 40
0.0
 40
0.0
 40
0.1782563534
 40
0.3442705431
 40
0.494652069
 40
0.6267534363
 40
0.6856007546
 40
0.7397572575
 40
0.8352144873
 40
0.8781931627
 40
0.9192616242
 40
0.9595076536
 40
1.0
 40
1.0
 40
1.0
 40
1.0
 10
7.0501165299
 20
4.5887865441
 30
0.0
 10
7.0496806305
 20
4.588695676
 30
0.0
 10
7.0488340325
 20
4.5885416317
 30
0.0
 10
7.0476051683
 20
4.5884013149
 30
0.0
 10
7.0464835591
 20
4.5883732473
 30
0.0
 10
7.0456312802
 20
4.5884528161
 30
0.0
 10
7.0450336065
 20
4.5885905668
 30
0.0
 10
7.0445402214
 20
4.5887579194
 30
0.0
 10
7.0441112558
 20
4.5889925245
 30
0.0
 10
7.0437823393
 20
4.5893002465
 30
0.0
 10
7.0435949118
 20
4.5895498945
 30
0.0
 10
7.0434586997
 20
4.5898237739
 30
0.0
 10
7.0434019943
 20
4.5900185015
 30
0.0
 10
7.0433815187
 20
4.590117554
 30
0.0
  0
LINE
  5
45F
100
AcDbEntity
  8
0
100
AcDbLine
 62
7
  6
CONTINUOUS
 10
7.0433815187
 20
4.590117554
 11
7.0433683268
 21
4.5909374864
  0
SPLINE
  5
460
100
AcDbEntity
  8
0
100
AcDbSpline
 62
7
  6
CONTINUOUS
 70
0
 71
3
 72
13
 73
9
 74
0
 42
0.0000001
 43
0.0000001
 44
0.0000000001
 40
0.0
 40
0.0
 40
0.0
 40
0.0
 40
0.2573131703
 40
0.3788207719
 40
0.4977437313
 40
0.6165886982
 40
0.7381721411
 40
1.0
 40
1.0
 40
1.0
 40
1.0
 10
7.0483748464
 20
4.6035825114
 30
0.0
 10
7.0484921731
 20
4.6037506197
 30
0.0
 10
7.0486915952
 20
4.6039826188
 30
0.0
 10
7.0490088473
 20
4.6042226083
 30
0.0
 10
7.0492623478
 20
4.6043583249
 30
0.0
 10
7.0495353174
 20
4.6044493422
 30
0.0
 10
7.049932423
 20
4.6045100862
 30
0.0
 10
7.0502425385
 20
4.604478698
 30
0.0
 10
7.0504457172
 20
4.6044314538
 30
0.0
  0
SPLINE
  5
461
100
AcDbEntity
  8
0
100
AcDbSpline
 62
7
  6
CONTINUOUS
 70
0
 71
3
 72
14
 73
10
 74
0
 42
0.0000001
 43
0.0000001
 44
0.0000000001
 40
0.0
 40
0.0
 40
0.0
 40
0.0
 40
0.0879138119
 40
0.1866531741
 40
0.2969512276
 40
0.4187261567
 40
0.5511665106
 40
0.6931308996
 40
1.0
 40
1.0
 40
1.0
 40
1.0
 10
7.0504457172
 20
4.6044314538
 30
0.0
 10
7.0506148748
 20
4.6043921203
 30
0.0
 10
7.0509655882
 20
4.6042710298
 30
0.0
 10
7.051485491
 20
4.6039958384
 30
0.0
 10
7.0520221552
 20
4.6036205199
 30
0.0
 10
7.0525698796
 20
4.6031517463
 30
0.0
 10
7.0531243206
 20
4.6025984652
 30
0.0
 10
7.0538844726
 20
4.6017370879
 30
0.0
 10
7.0544185753
 20
4.6010274448
 30
0.0
 10
7.0547664961
 20
4.600531018
 30
0.0
  0
SPLINE
  5
462
100
AcDbEntity
  8
0
100
AcDbSpline
 62
7
  6
CONTINUOUS
 70
0
 71
3
 72
14
 73
10
 74
0
 42
0.0000001
 43
0.0000001
 44
0.0000000001
 40
0.0
 40
0.0
 40
0.0
 40
0.0
 40
0.3068662028
 40
0.4488296734
 40
0.581269854
 40
0.7030451996
 40
0.8133441123
 40
0.9120847847
 40
1.0
 40
1.0
 40
1.0
 40
1.0
 10
7.3769203479
 20
4.3340221742
 30
0.0
 10
7.3774731606
 20
4.3337734438
 30
0.0
 10
7.3782702946
 20
4.333381787
 30
0.0
 10
7.3792588303
 20
4.3327965226
 30
0.0
 10
7.3799061937
 20
4.3323555897
 30
0.0
 10
7.3804692943
 20
4.3319054196
 30
0.0
 10
7.3809385275
 20
4.3314485999
 30
0.0
 10
7.3813062732
 20
4.3309894832
 30
0.0
 10
7.3814909468
 20
4.3306676799
 30
0.0
 10
7.3815612873
 20
4.3305088922
 30
0.0
  0
SPLINE
  5
463
100
AcDbEntity
  8
0
100
AcDbSpline
 62
7
  6
CONTINUOUS
 70
0
 71
3
 72
13
 73
9
 74
0
 42
0.0000001
 43
0.0000001
 44
0.0000000001
 40
0.0
 40
0.0
 40
0.0
 40
0.0
 40
0.2618310315
 40
0.3834146414
 40
0.5022591766
 40
0.6211814799
 40
0.7426883383
 40
1.0
 40
1.0
 40
1.0
 40
1.0
 10
7.3815612873
 20
4.3305088922
 30
0.0
 10
7.3816457795
 20
4.3303181581
 30
0.0
 10
7.3817347396
 20
4.3300194054
 30
0.0
 10
7.3817494971
 20
4.3296179319
 30
0.0
 10
7.3817112476
 20
4.3293327296
 30
0.0
 10
7.3816254385
 20
4.3290582762
 30
0.0
 10
7.3814491457
 20
4.3287016578
 30
0.0
 10
7.3812586178
 20
4.3284622854
 30
0.0
 10
7.3811154667
 20
4.328315531
 30
0.0
  0
SPLINE
  5
464
100
AcDbEntity
  8
0
100
AcDbSpline
 62
7
  6
CONTINUOUS
 70
0
 71
3
 72
18
 73
14
 74
0
 42
0.0000001
 43
0.0000001
 44
0.0000000001
 40
0.0
 40
0.0
 40
0.0
 40
0.0
 40
0.1782563534
 40
0.3442705431
 40
0.494652069
 40
0.6267534363
 40
0.6856007546
 40
0.7397572575
 40
0.8352144873
 40
0.8781931627
 40
0.9192616242
 40
0.9595076536
 40
1.0
 40
1.0
 40
1.0
 40
1.0
 10
7.0610423339
 20
4.6138678521
 30
0.0
 10
7.0605984828
 20
4.6138323333
 30
0.0
 10
7.0597392537
 20
4.6137856105
 30
0.0
 10
7.058502493
 20
4.6138004177
 30
0.0
 10
7.0573862103
 20
4.6139131464
 30
0.0
 10
7.0565506245
 20
4.6140989065
 30
0.0
 10
7.0559749284
 20
4.6143104794
 30
0.0
 10
7.0555064085
 20
4.6145383499
 30
0.0
 10
7.0551102293
 20
4.6148248687
 30
0.0
 10
7.0548224742
 20
4.6151713884
 30
0.0
 10
7.0546678138
 20
4.6154425588
 30
0.0
 10
7.054567002
 20
4.6157313504
 30
0.0
 10
7.0545351496
 20
4.6159316497
 30
0.0
 10
7.05452725
 20
4.6160324873
 30
0.0
  0
LINE
  5
465
100
AcDbEntity
  8
0
100
AcDbLine
 62
7
  6
CONTINUOUS
 10
7.05452725
 20
4.6160324873
 11
7.0546169269
 21
4.6168476078
  0
SPLINE
  5
466
100
AcDbEntity
  8
0
100
AcDbSpline
 62
7
  6
CONTINUOUS
 70
0
 71
3
 72
13
 73
9
 74
0
 42
0.0000001
 43
0.0000001
 44
0.0000000001
 40
0.0
 40
0.0
 40
0.0
 40
0.0
 40
0.2573131703
 40
0.3788207719
 40
0.4977437313
 40
0.6165886982
 40
0.7381721411
 40
1.0
 40
1.0
 40
1.0
 40
1.0
 10
7.369632548
 20
4.3210282492
 30
0.0
 10
7.3694388171
 20
4.3209612097
 30
0.0
 10
7.3691411157
 20
4.3208907358
 30
0.0
 10
7.368743391
 20
4.3208830563
 30
0.0
 10
7.3684585326
 20
4.3209222631
 30
0.0
 10
7.3681841969
 20
4.3210090762
 30
0.0
 10
7.3678272273
 20
4.321193346
 30
0.0
 10
7.3675947881
 20
4.3214010209
 30
0.0
 10
7.3674581825
 20
4.3215586678
 30
0.0
  0
SPLINE
  5
467
100
AcDbEntity
  8
0
100
AcDbSpline
 62
7
  6
CONTINUOUS
 70
0
 71
3
 72
14
 73
10
 74
0
 42
0.0000001
 43
0.0000001
 44
0.0000000001
 40
0.0
 40
0.0
 40
0.0
 40
0.0
 40
0.0879138119
 40
0.1866531741
 40
0.2969512276
 40
0.4187261567
 40
0.5511665106
 40
0.6931308996
 40
1.0
 40
1.0
 40
1.0
 40
1.0
 10
7.3674581825
 20
4.3215586678
 30
0.0
 10
7.3673444508
 20
4.3216899175
 30
0.0
 10
7.367131893
 20
4.321994026
 30
0.0
 10
7.3668730362
 20
4.3225222517
 30
0.0
 10
7.3666594723
 20
4.323141334
 30
0.0
 10
7.3664918922
 20
4.3238425241
 30
0.0
 10
7.3663685505
 20
4.3246160303
 30
0.0
 10
7.3662598795
 20
4.3257597053
 30
0.0
 10
7.3662448991
 20
4.3266477562
 30
0.0
 10
7.3662552176
 20
4.3272538767
 30
0.0
  0
SPLINE
  5
468
100
AcDbEntity
  8
0
100
AcDbSpline
 62
7
  6
CONTINUOUS
 70
0
 71
3
 72
13
 73
9
 74
0
 42
0.0000001
 43
0.0000001
 44
0.0000000001
 40
0.0
 40
0.0
 40
0.0
 40
0.0
 40
0.2573131703
 40
0.3788207719
 40
0.4977437313
 40
0.6165886982
 40
0.7381721411
 40
1.0
 40
1.0
 40
1.0
 40
1.0
 10
7.0611688105
 20
4.6287654397
 30
0.0
 10
7.0613062816
 20
4.6289175175
 30
0.0
 10
7.0615332083
 20
4.629122693
 30
0.0
 10
7.0618780375
 20
4.6293210279
 30
0.0
 10
7.0621465488
 20
4.6294239023
 30
0.0
 10
7.0624287735
 20
4.6294799896
 30
0.0
 10
7.0628303611
 20
4.6294904842
 30
0.0
 10
7.0631340972
 20
4.6294204757
 30
0.0
 10
7.0633297525
 20
4.629348139
 30
0.0
  0
SPLINE
  5
469
100
AcDbEntity
  8
0
100
AcDbSpline
 62
7
  6
CONTINUOUS
 70
0
 71
3
 72
14
 73
10
 74
0
 42
0.0000001
 43
0.0000001
 44
0.0000000001
 40
0.0
 40
0.0
 40
0.0
 40
0.0
 40
0.0879138119
 40
0.1866531741
 40
0.2969512276
 40
0.4187261567
 40
0.5511665106
 40
0.6931308996
 40
1.0
 40
1.0
 40
1.0
 40
1.0
 10
7.0633297525
 20
4.629348139
 30
0.0
 10
7.0634926465
 20
4.6292879146
 30
0.0
 10
7.0638254177
 20
4.6291238228
 30
0.0
 10
7.0643067303
 20
4.6287856404
 30
0.0
 10
7.0647921229
 20
4.6283460195
 30
0.0
 10
7.0652767754
 20
4.6278122942
 30
0.0
 10
7.0657575
 20
4.627193886
 30
0.0
 10
7.0664036987
 20
4.6262440286
 30
0.0
 10
7.066844648
 20
4.6254730405
 30
0.0
 10
7.0671276066
 20
4.6249369221
 30
0.0
  0
SPLINE
  5
46A
100
AcDbEntity
  8
0
100
AcDbSpline
 62
7
  6
CONTINUOUS
 70
0
 71
3
 72
18
 73
14
 74
0
 42
0.0000001
 43
0.0000001
 44
0.0000000001
 40
0.0
 40
0.0
 40
0.0
 40
0.0
 40
0.1782563534
 40
0.3442705431
 40
0.494652069
 40
0.6267534363
 40
0.6856007546
 40
0.7397572575
 40
0.8352144873
 40
0.8781931627
 40
0.9192616242
 40
0.9595076536
 40
1.0
 40
1.0
 40
1.0
 40
1.0
 10
7.075025506
 20
4.6373820202
 30
0.0
 10
7.0745807032
 20
4.6374024107
 30
0.0
 10
7.0737223934
 20
4.6374637464
 30
0.0
 10
7.0724972408
 20
4.637633444
 30
0.0
 10
7.0714038889
 20
4.6378851911
 30
0.0
 10
7.0705981739
 20
4.6381742132
 30
0.0
 10
7.0700535344
 20
4.6384562716
 30
0.0
 10
7.0696172688
 20
4.6387410664
 30
0.0
 10
7.0692601238
 20
4.6390749803
 30
0.0
 10
7.0690180682
 20
4.6394548329
 30
0.0
 10
7.068898614
 20
4.6397432491
 30
0.0
 10
7.0688347924
 20
4.6400423986
 30
0.0
 10
7.0688282952
 20
4.6402451106
 30
0.0
 10
7.0688330962
 20
4.6403461432
 30
0.0
  0
LINE
  5
46B
100
AcDbEntity
  8
0
100
AcDbLine
 62
7
  6
CONTINUOUS
 10
7.0688330962
 20
4.6403461432
 11
7.0690242277
 21
4.6411435966
  0
SPLINE
  5
46C
100
AcDbEntity
  8
0
100
AcDbSpline
 62
7
  6
CONTINUOUS
 70
0
 71
3
 72
14
 73
10
 74
0
 42
0.0000001
 43
0.0000001
 44
0.0000000001
 40
0.0
 40
0.0
 40
0.0
 40
0.0
 40
0.3068662028
 40
0.4488296734
 40
0.581269854
 40
0.7030451996
 40
0.8133441123
 40
0.9120847847
 40
1.0
 40
1.0
 40
1.0
 40
1.0
 10
7.3533387638
 20
4.3201529961
 30
0.0
 10
7.3538560432
 20
4.3198369413
 30
0.0
 10
7.354597804
 20
4.3193484654
 30
0.0
 10
7.3555051918
 20
4.3186439197
 30
0.0
 10
7.3560921869
 20
4.3181253275
 30
0.0
 10
7.3565944261
 20
4.3176081319
 30
0.0
 10
7.3570027045
 20
4.3170961039
 30
0.0
 10
7.3573100078
 20
4.3165945166
 30
0.0
 10
7.3574528926
 20
4.3162521051
 30
0.0
 10
7.357502777
 20
4.3160857535
 30
0.0
  0
SPLINE
  5
46D
100
AcDbEntity
  8
0
100
AcDbSpline
 62
7
  6
CONTINUOUS
 70
0
 71
3
 72
13
 73
9
 74
0
 42
0.0000001
 43
0.0000001
 44
0.0000000001
 40
0.0
 40
0.0
 40
0.0
 40
0.0
 40
0.2618310315
 40
0.3834146414
 40
0.5022591766
 40
0.6211814799
 40
0.7426883383
 40
1.0
 40
1.0
 40
1.0
 40
1.0
 10
7.357502777
 20
4.3160857535
 30
0.0
 10
7.3575626977
 20
4.3158859337
 30
0.0
 10
7.3576135127
 20
4.3155783871
 30
0.0
 10
7.3575778358
 20
4.3151782298
 30
0.0
 10
7.3575041426
 20
4.3149000702
 30
0.0
 10
7.357384612
 20
4.3146385357
 30
0.0
 10
7.3571650132
 20
4.3143068247
 30
0.0
 10
7.3569459864
 20
4.3140932193
 30
0.0
 10
7.3567855708
 20
4.3139655637
 30
0.0
  0
SPLINE
  5
46E
100
AcDbEntity
  8
0
100
AcDbSpline
 62
7
  6
CONTINUOUS
 70
0
 71
3
 72
13
 73
9
 74
0
 42
0.0000001
 43
0.0000001
 44
0.0000000001
 40
0.0
 40
0.0
 40
0.0
 40
0.0
 40
0.2573131703
 40
0.3788207719
 40
0.4977437313
 40
0.6165886982
 40
0.7381721411
 40
1.0
 40
1.0
 40
1.0
 40
1.0
 10
7.0770181481
 20
4.6521462842
 30
0.0
 10
7.0771735956
 20
4.652279933
 30
0.0
 10
7.0774244483
 20
4.6524550492
 30
0.0
 10
7.0777914163
 20
4.6526086016
 30
0.0
 10
7.078070704
 20
4.6526770115
 30
0.0
 10
7.0783577329
 20
4.6526972844
 30
0.0
 10
7.0787574691
 20
4.6526573639
 30
0.0
 10
7.0790500358
 20
4.6525498393
 30
0.0
 10
7.0792350821
 20
4.6524535508
 30
0.0
  0
SPLINE
  5
46F
100
AcDbEntity
  8
0
100
AcDbSpline
 62
7
  6
CONTINUOUS
 70
0
 71
3
 72
14
 73
10
 74
0
 42
0.0000001
 43
0.0000001
 44
0.0000000001
 40
0.0
 40
0.0
 40
0.0
 40
0.0
 40
0.0879138119
 40
0.1866531741
 40
0.2969512276
 40
0.4187261567
 40
0.5511665106
 40
0.6931308996
 40
1.0
 40
1.0
 40
1.0
 40
1.0
 10
7.0792350821
 20
4.6524535508
 30
0.0
 10
7.0793891435
 20
4.6523733853
 30
0.0
 10
7.0796987245
 20
4.6521688802
 30
0.0
 10
7.0801338564
 20
4.6517730399
 30
0.0
 10
7.0805603224
 20
4.6512760497
 30
0.0
 10
7.0809742597
 20
4.65068579
 30
0.0
 10
7.0813736866
 20
4.6500120073
 30
0.0
 10
7.0818957411
 20
4.6489886497
 30
0.0
 10
7.082236583
 20
4.6481684754
 30
0.0
 10
7.0824501169
 20
4.6476011204
 30
0.0
  0
SPLINE
  5
470
100
AcDbEntity
  8
0
100
AcDbSpline
 62
7
  6
CONTINUOUS
 70
0
 71
3
 72
13
 73
9
 74
0
 42
0.0000001
 43
0.0000001
 44
0.0000000001
 40
0.0
 40
0.0
 40
0.0
 40
0.0
 40
0.2573131703
 40
0.3788207719
 40
0.4977437313
 40
0.6165886982
 40
0.7381721411
 40
1.0
 40
1.0
 40
1.0
 40
1.0
 10
7.3567855708
 20
4.7150281517
 30
0.0
 10
7.3569459804
 20
4.7149005009
 30
0.0
 10
7.3571649999
 20
4.714686905
 30
0.0
 10
7.3573845954
 20
4.7143552099
 30
0.0
 10
7.3575041268
 20
4.7140936879
 30
0.0
 10
7.3575778245
 20
4.7138155419
 30
0.0
 10
7.3576135142
 20
4.7134154057
 30
0.0
 10
7.3575627156
 20
4.7131078731
 30
0.0
 10
7.3575028069
 20
4.7129080618
 30
0.0
  0
SPLINE
  5
471
100
AcDbEntity
  8
0
100
AcDbSpline
 62
7
  6
CONTINUOUS
 70
0
 71
3
 72
14
 73
10
 74
0
 42
0.0000001
 43
0.0000001
 44
0.0000000001
 40
0.0
 40
0.0
 40
0.0
 40
0.0
 40
0.0879138119
 40
0.1866531741
 40
0.2969512276
 40
0.4187261567
 40
0.5511665106
 40
0.6931308996
 40
1.0
 40
1.0
 40
1.0
 40
1.0
 10
7.3575028069
 20
4.7129080618
 30
0.0
 10
7.3574529296
 20
4.7127417077
 30
0.0
 10
7.3573100565
 20
4.7123992898
 30
0.0
 10
7.3570027632
 20
4.7118976923
 30
0.0
 10
7.3565944879
 20
4.7113856535
 30
0.0
 10
7.3560922474
 20
4.7108684444
 30
0.0
 10
7.3555052444
 20
4.7103498383
 30
0.0
 10
7.3545978365
 20
4.7096452726
 30
0.0
 10
7.3538560572
 20
4.7091567827
 30
0.0
 10
7.3533387638
 20
4.7088407194
 30
0.0
  0
LINE
  5
472
100
AcDbEntity
  8
0
100
AcDbLine
 62
7
  6
CONTINUOUS
 10
7.3444798598
 20
4.3081749357
 11
7.3432496747
 21
4.3082454585
  0
SPLINE
  5
473
100
AcDbEntity
  8
0
100
AcDbSpline
 62
7
  6
CONTINUOUS
 70
0
 71
3
 72
17
 73
13
 74
0
 42
0.0000001
 43
0.0000001
 44
0.0000000001
 40
0.0
 40
0.0
 40
0.0
 40
0.0
 40
0.0390854653
 40
0.0792026795
 40
0.1657423824
 40
0.2139160962
 40
0.2659474417
 40
0.3823971287
 40
0.5158148626
 40
0.6648333478
 40
0.8271593242
 40
1.0
 40
1.0
 40
1.0
 40
1.0
 10
7.3432496747
 20
4.3082454585
 30
0.0
 10
7.3431642225
 20
4.308279791
 30
0.0
 10
7.3429965188
 20
4.3083639477
 30
0.0
 10
7.3426796177
 20
4.3085946631
 30
0.0
 10
7.3424102656
 20
4.3089153905
 30
0.0
 10
7.3421956316
 20
4.3093000531
 30
0.0
 10
7.3419966228
 20
4.3097712152
 30
0.0
 10
7.3418168921
 20
4.3104631274
 30
0.0
 10
7.3417071037
 20
4.3113984234
 30
0.0
 10
7.3416890097
 20
4.3124475655
 30
0.0
 10
7.3417575334
 20
4.3135871466
 30
0.0
 10
7.3418515284
 20
4.3143716635
 30
0.0
 10
7.3419094387
 20
4.314774764
 30
0.0
  0
SPLINE
  5
474
100
AcDbEntity
  8
0
100
AcDbSpline
 62
7
  6
CONTINUOUS
 70
0
 71
3
 72
14
 73
10
 74
0
 42
0.0000001
 43
0.0000001
 44
0.0000000001
 40
0.0
 40
0.0
 40
0.0
 40
0.0
 40
0.3068662028
 40
0.4488296733
 40
0.581269854
 40
0.7030451996
 40
0.8133441123
 40
0.9120847846
 40
1.0
 40
1.0
 40
1.0
 40
1.0
 10
7.0918455234
 20
4.6589582159
 30
0.0
 10
7.0912482216
 20
4.659061653
 30
0.0
 10
7.09037873
 20
4.6592427661
 30
0.0
 10
7.0892757015
 20
4.6595638044
 30
0.0
 10
7.0885390207
 20
4.6598298919
 30
0.0
 10
7.0878816582
 20
4.6601258816
 30
0.0
 10
7.0873135604
 20
4.6604516559
 30
0.0
 10
7.0868431904
 20
4.6608048941
 30
0.0
 10
7.0865842894
 20
4.6610706608
 30
0.0
 10
7.0864766699
 20
4.661206967
 30
0.0
  0
SPLINE
  5
475
100
AcDbEntity
  8
0
100
AcDbSpline
 62
7
  6
CONTINUOUS
 70
0
 71
3
 72
13
 73
9
 74
0
 42
0.0000001
 43
0.0000001
 44
0.0000000001
 40
0.0
 40
0.0
 40
0.0
 40
0.0
 40
0.2618310315
 40
0.3834146414
 40
0.5022591766
 40
0.6211814799
 40
0.7426883383
 40
1.0
 40
1.0
 40
1.0
 40
1.0
 10
7.0864766699
 20
4.661206967
 30
0.0
 10
7.0863473985
 20
4.6613706965
 30
0.0
 10
7.0861869365
 20
4.6616379398
 30
0.0
 10
7.0860728003
 20
4.6620231302
 30
0.0
 10
7.0860389212
 20
4.6623088847
 30
0.0
 10
7.0860537806
 20
4.6625960555
 30
0.0
 10
7.0861358475
 20
4.6629853123
 30
0.0
 10
7.0862608601
 20
4.6632645467
 30
0.0
 10
7.0863630175
 20
4.6634422908
 30
0.0
  0
SPLINE
  5
476
100
AcDbEntity
  8
0
100
AcDbSpline
 62
7
  6
CONTINUOUS
 70
0
 71
3
 72
13
 73
9
 74
0
 42
0.0000001
 43
0.0000001
 44
0.0000000001
 40
0.0
 40
0.0
 40
0.0
 40
0.0
 40
0.2573131703
 40
0.3788207719
 40
0.4977437313
 40
0.6165886982
 40
0.7381721411
 40
1.0
 40
1.0
 40
1.0
 40
1.0
 10
7.0956729059
 20
4.6733563149
 30
0.0
 10
7.0958438783
 20
4.6734694272
 30
0.0
 10
7.0961147008
 20
4.6736117224
 30
0.0
 10
7.0964980204
 20
4.6737180707
 30
0.0
 10
7.0967836798
 20
4.6737509371
 30
0.0
 10
7.0970709862
 20
4.6737350759
 30
0.0
 10
7.0974625671
 20
4.67364537
 30
0.0
 10
7.0977393503
 20
4.6735020249
 30
0.0
 10
7.0979108694
 20
4.6733833032
 30
0.0
  0
SPLINE
  5
477
100
AcDbEntity
  8
0
100
AcDbSpline
 62
7
  6
CONTINUOUS
 70
0
 71
3
 72
14
 73
10
 74
0
 42
0.0000001
 43
0.0000001
 44
0.0000000001
 40
0.0
 40
0.0
 40
0.0
 40
0.0
 40
0.0879138119
 40
0.1866531741
 40
0.2969512276
 40
0.4187261567
 40
0.5511665106
 40
0.6931308996
 40
1.0
 40
1.0
 40
1.0
 40
1.0
 10
7.0979108694
 20
4.6733833032
 30
0.0
 10
7.0980536686
 20
4.6732844608
 30
0.0
 10
7.0983351772
 20
4.6730427675
 30
0.0
 10
7.0987172659
 20
4.672595512
 30
0.0
 10
7.0990780797
 20
4.6720489904
 30
0.0
 10
7.0994147739
 20
4.671411505
 30
0.0
 10
7.0997266038
 20
4.6706929738
 30
0.0
 10
7.1001162811
 20
4.6696122548
 30
0.0
 10
7.1003516402
 20
4.6687558291
 30
0.0
 10
7.1004923818
 20
4.6681661849
 30
0.0
  0
SPLINE
  5
478
100
AcDbEntity
  8
0
100
AcDbSpline
 62
7
  6
CONTINUOUS
 70
0
 71
3
 72
14
 73
10
 74
0
 42
0.0000001
 43
0.0000001
 44
0.0000000001
 40
0.0
 40
0.0
 40
0.0
 40
0.0
 40
0.3068662028
 40
0.4488296734
 40
0.581269854
 40
0.7030451996
 40
0.8133441123
 40
0.9120847847
 40
1.0
 40
1.0
 40
1.0
 40
1.0
 10
7.3282048587
 20
4.3093487369
 30
0.0
 10
7.328678447
 20
4.3089703419
 30
0.0
 10
7.3293531365
 20
4.3083927506
 30
0.0
 10
7.3301650662
 20
4.3075800345
 30
0.0
 10
7.330682436
 20
4.3069919616
 30
0.0
 10
7.331115893
 20
4.306415897
 30
0.0
 10
7.3314567779
 20
4.3058567356
 30
0.0
 10
7.3316987925
 20
4.3053205882
 30
0.0
 10
7.3317976351
 20
4.3049629685
 30
0.0
 10
7.3318262767
 20
4.3047916764
 30
0.0
  0
SPLINE
  5
479
100
AcDbEntity
  8
0
100
AcDbSpline
 62
7
  6
CONTINUOUS
 70
0
 71
3
 72
13
 73
9
 74
0
 42
0.0000001
 43
0.0000001
 44
0.0000000001
 40
0.0
 40
0.0
 40
0.0
 40
0.0
 40
0.2618310315
 40
0.3834146414
 40
0.5022591766
 40
0.6211814799
 40
0.7426883383
 40
1.0
 40
1.0
 40
1.0
 40
1.0
 10
7.3318262767
 20
4.3047916764
 30
0.0
 10
7.3318606808
 20
4.3045859222
 30
0.0
 10
7.3318725494
 20
4.3042744319
 30
0.0
 10
7.3317870008
 20
4.3038819014
 30
0.0
 10
7.331679026
 20
4.3036151715
 30
0.0
 10
7.331527659
 20
4.3033706804
 30
0.0
 10
7.3312682173
 20
4.3030691081
 30
0.0
 10
7.3310241458
 20
4.3028846384
 30
0.0
 10
7.3308489956
 20
4.3027780948
 30
0.0
  0
SPLINE
  5
47A
100
AcDbEntity
  8
0
100
AcDbSpline
 62
7
  6
CONTINUOUS
 70
0
 71
3
 72
14
 73
10
 74
0
 42
0.0000001
 43
0.0000001
 44
0.0000000001
 40
0.0
 40
0.0
 40
0.0
 40
0.0
 40
0.3068662028
 40
0.4488296733
 40
0.581269854
 40
0.7030451996
 40
0.8133441123
 40
0.9120847846
 40
1.0
 40
1.0
 40
1.0
 40
1.0
 10
7.3662552176
 20
4.7017398388
 30
0.0
 10
7.3662448994
 20
4.7023459429
 30
0.0
 10
7.3662598779
 20
4.7032339707
 30
0.0
 10
7.3663685429
 20
4.704377618
 30
0.0
 10
7.366491877
 20
4.70515111
 30
0.0
 10
7.3666594465
 20
4.7058522918
 30
0.0
 10
7.3668729995
 20
4.706471371
 30
0.0
 10
7.3671318423
 20
4.7069995997
 30
0.0
 10
7.3673443884
 20
4.7073037145
 30
0.0
 10
7.3674581143
 20
4.707434969
 30
0.0
  0
SPLINE
  5
47B
100
AcDbEntity
  8
0
100
AcDbSpline
 62
7
  6
CONTINUOUS
 70
0
 71
3
 72
13
 73
9
 74
0
 42
0.0000001
 43
0.0000001
 44
0.0000000001
 40
0.0
 40
0.0
 40
0.0
 40
0.0
 40
0.2618310315
 40
0.3834146414
 40
0.5022591766
 40
0.6211814799
 40
0.7426883383
 40
1.0
 40
1.0
 40
1.0
 40
1.0
 10
7.3674581143
 20
4.707434969
 30
0.0
 10
7.3675947207
 20
4.7075926305
 30
0.0
 10
7.3678271628
 20
4.7078003268
 30
0.0
 10
7.3681841434
 20
4.7079846188
 30
0.0
 10
7.3684584881
 20
4.7080714429
 30
0.0
 10
7.3687433567
 20
4.708110657
 30
0.0
 10
7.3691410964
 20
4.7081029833
 30
0.0
 10
7.3694388099
 20
4.7080325083
 30
0.0
 10
7.369632548
 20
4.7079654662
 30
0.0
  0
SPLINE
  5
47C
100
AcDbEntity
  8
0
100
AcDbSpline
 62
7
  6
CONTINUOUS
 70
0
 71
3
 72
14
 73
10
 74
0
 42
0.0000001
 43
0.0000001
 44
0.0000000001
 40
0.0
 40
0.0
 40
0.0
 40
0.0
 40
0.3068662028
 40
0.4488296733
 40
0.581269854
 40
0.7030451996
 40
0.8133441123
 40
0.9120847846
 40
1.0
 40
1.0
 40
1.0
 40
1.0
 10
7.1112371243
 20
4.6782561697
 30
0.0
 10
7.1106574965
 20
4.6784336529
 30
0.0
 10
7.1098175606
 20
4.6787223141
 30
0.0
 10
7.1087634666
 20
4.6791790671
 30
0.0
 10
7.1080659444
 20
4.6795353869
 30
0.0
 10
7.1074508626
 20
4.6799114321
 30
0.0
 10
7.1069280748
 20
4.6803058391
 30
0.0
 10
7.1065056864
 20
4.6807152448
 30
0.0
 10
7.1062821363
 20
4.6810113648
 30
0.0
 10
7.1061924491
 20
4.6811600844
 30
0.0
  0
SPLINE
  5
47D
100
AcDbEntity
  8
0
100
AcDbSpline
 62
7
  6
CONTINUOUS
 70
0
 71
3
 72
13
 73
9
 74
0
 42
0.0000001
 43
0.0000001
 44
0.0000000001
 40
0.0
 40
0.0
 40
0.0
 40
0.0
 40
0.2618310315
 40
0.3834146414
 40
0.5022591766
 40
0.6211814799
 40
0.7426883383
 40
1.0
 40
1.0
 40
1.0
 40
1.0
 10
7.1061924491
 20
4.6811600844
 30
0.0
 10
7.1060847178
 20
4.6813387249
 30
0.0
 10
7.1059590155
 20
4.6816239722
 30
0.0
 10
7.1058940565
 20
4.6820204303
 30
0.0
 10
7.105896259
 20
4.6823081777
 30
0.0
 10
7.1059469933
 20
4.6825912217
 30
0.0
 10
7.1060771999
 20
4.6829671234
 30
0.0
 10
7.1062362241
 20
4.6832284877
 30
0.0
 10
7.1063598532
 20
4.6833920265
 30
0.0
  0
LINE
  5
47E
100
AcDbEntity
  8
0
100
AcDbLine
 62
7
  6
CONTINUOUS
 10
7.3179145607
 20
4.2985754421
 11
7.3167029149
 21
4.2987995919
  0
SPLINE
  5
47F
100
AcDbEntity
  8
0
100
AcDbSpline
 62
7
  6
CONTINUOUS
 70
0
 71
3
 72
17
 73
13
 74
0
 42
0.0000001
 43
0.0000001
 44
0.0000000001
 40
0.0
 40
0.0
 40
0.0
 40
0.0
 40
0.0390854653
 40
0.0792026795
 40
0.1657423824
 40
0.2139160962
 40
0.2659474417
 40
0.3823971287
 40
0.5158148626
 40
0.6648333478
 40
0.8271593242
 40
1.0
 40
1.0
 40
1.0
 40
1.0
 10
7.3167029149
 20
4.2987995919
 30
0.0
 10
7.3166224394
 20
4.2988443636
 30
0.0
 10
7.3164666058
 20
4.2989488756
 30
0.0
 10
7.3161811198
 20
4.29921749
 30
0.0
 10
7.3159540894
 20
4.2995694472
 30
0.0
 10
7.3157893589
 20
4.2999779773
 30
0.0
 10
7.3156509717
 20
4.3004703666
 30
0.0
 10
7.3155593777
 20
4.3011793491
 30
0.0
 10
7.3155676788
 20
4.3021210301
 30
0.0
 10
7.3156812198
 20
4.3031641672
 30
0.0
 10
7.3158920306
 20
4.3042861741
 30
0.0
 10
7.3160836104
 20
4.3050527242
 30
0.0
 10
7.316191586
 20
4.305445388
 30
0.0
  0
SPLINE
  5
480
100
AcDbEntity
  8
0
100
AcDbSpline
 62
7
  6
CONTINUOUS
 70
0
 71
3
 72
13
 73
9
 74
0
 42
0.0000001
 43
0.0000001
 44
0.0000000001
 40
0.0
 40
0.0
 40
0.0
 40
0.0
 40
0.2573131703
 40
0.3788207719
 40
0.4977437313
 40
0.6165886982
 40
0.7381721411
 40
1.0
 40
1.0
 40
1.0
 40
1.0
 10
7.116838887
 20
4.6920610372
 30
0.0
 10
7.117022688
 20
4.692151829
 30
0.0
 10
7.1173092093
 20
4.6922590591
 30
0.0
 10
7.1177028353
 20
4.6923165261
 30
0.0
 10
7.1179903614
 20
4.6923133307
 30
0.0
 10
7.1182734144
 20
4.6922615856
 30
0.0
 10
7.1186506644
 20
4.6921235089
 30
0.0
 10
7.1189072993
 20
4.691946604
 30
0.0
 10
7.1190625861
 20
4.6918073214
 30
0.0
  0
SPLINE
  5
481
100
AcDbEntity
  8
0
100
AcDbSpline
 62
7
  6
CONTINUOUS
 70
0
 71
3
 72
14
 73
10
 74
0
 42
0.0000001
 43
0.0000001
 44
0.0000000001
 40
0.0
 40
0.0
 40
0.0
 40
0.0
 40
0.0879138119
 40
0.1866531741
 40
0.2969512276
 40
0.4187261567
 40
0.5511665106
 40
0.6931308996
 40
1.0
 40
1.0
 40
1.0
 40
1.0
 10
7.1190625861
 20
4.6918073214
 30
0.0
 10
7.119191871
 20
4.691691361
 30
0.0
 10
7.1194408676
 20
4.6914162911
 30
0.0
 10
7.1197638875
 20
4.690924674
 30
0.0
 10
7.1200533589
 20
4.6903372399
 30
0.0
 10
7.1203075
 20
4.6896625822
 30
0.0
 10
7.1205268152
 20
4.6889106342
 30
0.0
 10
7.1207779697
 20
4.6877895975
 30
0.0
 10
7.1209041343
 20
4.6869104267
 30
0.0
 10
7.1209698642
 20
4.6863077924
 30
0.0
  0
SPLINE
  5
482
100
AcDbEntity
  8
0
100
AcDbSpline
 62
7
  6
CONTINUOUS
 70
0
 71
3
 72
13
 73
9
 74
0
 42
0.0000001
 43
0.0000001
 44
0.0000000001
 40
0.0
 40
0.0
 40
0.0
 40
0.0
 40
0.2573131703
 40
0.3788207719
 40
0.4977437313
 40
0.6165886982
 40
0.7381721411
 40
1.0
 40
1.0
 40
1.0
 40
1.0
 10
7.3811154667
 20
4.7006781845
 30
0.0
 10
7.3812586125
 20
4.7005314356
 30
0.0
 10
7.3814491343
 20
4.7002920736
 30
0.0
 10
7.3816254258
 20
4.6999354713
 30
0.0
 10
7.3817112372
 20
4.6996610303
 30
0.0
 10
7.3817494929
 20
4.6993758407
 30
0.0
 10
7.3817347508
 20
4.6989743866
 30
0.0
 10
7.3816458088
 20
4.6986756458
 30
0.0
 10
7.3815613294
 20
4.6984849185
 30
0.0
  0
SPLINE
  5
483
100
AcDbEntity
  8
0
100
AcDbSpline
 62
7
  6
CONTINUOUS
 70
0
 71
3
 72
14
 73
10
 74
0
 42
0.0000001
 43
0.0000001
 44
0.0000000001
 40
0.0
 40
0.0
 40
0.0
 40
0.0
 40
0.0879138119
 40
0.1866531741
 40
0.2969512276
 40
0.4187261567
 40
0.5511665106
 40
0.6931308996
 40
1.0
 40
1.0
 40
1.0
 40
1.0
 10
7.3815613294
 20
4.6984849185
 30
0.0
 10
7.3814909957
 20
4.6983261276
 30
0.0
 10
7.3813063329
 20
4.6980043164
 30
0.0
 10
7.3809385959
 20
4.6975451882
 30
0.0
 10
7.3804693644
 20
4.6970883574
 30
0.0
 10
7.3799062608
 20
4.6966381742
 30
0.0
 10
7.3792588878
 20
4.6961972284
 30
0.0
 10
7.3782703296
 20
4.6956119468
 30
0.0
 10
7.3774731755
 20
4.6952202784
 30
0.0
 10
7.3769203479
 20
4.6949715413
 30
0.0
  0
SPLINE
  5
484
100
AcDbEntity
  8
0
100
AcDbSpline
 62
7
  6
CONTINUOUS
 70
0
 71
3
 72
14
 73
10
 74
0
 42
0.0000001
 43
0.0000001
 44
0.0000000001
 40
0.0
 40
0.0
 40
0.0
 40
0.0
 40
0.3068662028
 40
0.4488296734
 40
0.581269854
 40
0.7030451996
 40
0.8133441123
 40
0.9120847847
 40
1.0
 40
1.0
 40
1.0
 40
1.0
 10
7.1328944916
 20
4.6949715413
 30
0.0
 10
7.1323416789
 20
4.6952202717
 30
0.0
 10
7.1315445449
 20
4.6956119285
 30
0.0
 10
7.1305560091
 20
4.6961971929
 30
0.0
 10
7.1299086458
 20
4.6966381257
 30
0.0
 10
7.1293455451
 20
4.6970882959
 30
0.0
 10
7.128876312
 20
4.6975451155
 30
0.0
 10
7.1285085663
 20
4.6980042323
 30
0.0
 10
7.1283238926
 20
4.6983260356
 30
0.0
 10
7.1282535522
 20
4.6984848233
 30
0.0
  0
SPLINE
  5
485
100
AcDbEntity
  8
0
100
AcDbSpline
 62
7
  6
CONTINUOUS
 70
0
 71
3
 72
13
 73
9
 74
0
 42
0.0000001
 43
0.0000001
 44
0.0000000001
 40
0.0
 40
0.0
 40
0.0
 40
0.0
 40
0.2618310315
 40
0.3834146414
 40
0.5022591766
 40
0.6211814799
 40
0.7426883383
 40
1.0
 40
1.0
 40
1.0
 40
1.0
 10
7.1282535522
 20
4.6984848233
 30
0.0
 10
7.12816906
 20
4.6986755574
 30
0.0
 10
7.1280800998
 20
4.6989743101
 30
0.0
 10
7.1280653424
 20
4.6993757836
 30
0.0
 10
7.1281035919
 20
4.6996609859
 30
0.0
 10
7.128189401
 20
4.6999354393
 30
0.0
 10
7.1283656938
 20
4.7002920577
 30
0.0
 10
7.1285562216
 20
4.7005314301
 30
0.0
 10
7.1286993728
 20
4.7006781845
 30
0.0
  0
SPLINE
  5
486
100
AcDbEntity
  8
0
100
AcDbSpline
 62
7
  6
CONTINUOUS
 70
0
 71
3
 72
14
 73
10
 74
0
 42
0.0000001
 43
0.0000001
 44
0.0000000001
 40
0.0
 40
0.0
 40
0.0
 40
0.0
 40
0.3068662028
 40
0.4488296734
 40
0.581269854
 40
0.7030451996
 40
0.8133441123
 40
0.9120847847
 40
1.0
 40
1.0
 40
1.0
 40
1.0
 10
7.3019150091
 20
4.3017797861
 30
0.0
 10
7.3023374376
 20
4.3013450185
 30
0.0
 10
7.3029344156
 20
4.3006874206
 30
0.0
 10
7.3036380827
 20
4.2997793513
 30
0.0
 10
7.3040776677
 20
4.2991310719
 30
0.0
 10
7.3044355068
 20
4.2985052231
 30
0.0
 10
7.3047036222
 20
4.2979077467
 30
0.0
 10
7.3048765313
 20
4.2973454945
 30
0.0
 10
7.3049297729
 20
4.2969783065
 30
0.0
 10
7.3049367201
 20
4.2968047754
 30
0.0
  0
SPLINE
  5
487
100
AcDbEntity
  8
0
100
AcDbSpline
 62
7
  6
CONTINUOUS
 70
0
 71
3
 72
13
 73
9
 74
0
 42
0.0000001
 43
0.0000001
 44
0.0000000001
 40
0.0
 40
0.0
 40
0.0
 40
0.0
 40
0.2618310315
 40
0.3834146414
 40
0.5022591766
 40
0.6211814799
 40
0.7426883383
 40
1.0
 40
1.0
 40
1.0
 40
1.0
 10
7.3049367201
 20
4.2968047754
 30
0.0
 10
7.3049450651
 20
4.2965963316
 30
0.0
 10
7.3049177999
 20
4.29628581
 30
0.0
 10
7.3047837288
 20
4.2959070968
 30
0.0
 10
7.3046431753
 20
4.2956560029
 30
0.0
 10
7.304462359
 20
4.295432411
 30
0.0
 10
7.3041671661
 20
4.2951657334
 30
0.0
 10
7.303901899
 20
4.2950133085
 30
0.0
 10
7.3037147765
 20
4.2949295572
 30
0.0
  0
SPLINE
  5
488
100
AcDbEntity
  8
0
100
AcDbSpline
 62
7
  6
CONTINUOUS
 70
0
 71
3
 72
13
 73
9
 74
0
 42
0.0000001
 43
0.0000001
 44
0.0000000001
 40
0.0
 40
0.0
 40
0.0
 40
0.0
 40
0.2573131703
 40
0.3788207719
 40
0.4977437313
 40
0.6165886982
 40
0.7381721411
 40
1.0
 40
1.0
 40
1.0
 40
1.0
 10
7.1401822914
 20
4.7079654662
 30
0.0
 10
7.1403760223
 20
4.7080325058
 30
0.0
 10
7.1406737238
 20
4.7081029797
 30
0.0
 10
7.1410714484
 20
4.7081106592
 30
0.0
 10
7.1413563069
 20
4.7080714524
 30
0.0
 10
7.1416306425
 20
4.7079846393
 30
0.0
 10
7.1419876122
 20
4.7078003694
 30
0.0
 10
7.1422200513
 20
4.7075926946
 30
0.0
 10
7.1423566569
 20
4.7074350477
 30
0.0
  0
SPLINE
  5
489
100
AcDbEntity
  8
0
100
AcDbSpline
 62
7
  6
CONTINUOUS
 70
0
 71
3
 72
14
 73
10
 74
0
 42
0.0000001
 43
0.0000001
 44
0.0000000001
 40
0.0
 40
0.0
 40
0.0
 40
0.0
 40
0.0879138119
 40
0.1866531741
 40
0.2969512276
 40
0.4187261567
 40
0.5511665106
 40
0.6931308996
 40
1.0
 40
1.0
 40
1.0
 40
1.0
 10
7.1423566569
 20
4.7074350477
 30
0.0
 10
7.1424703887
 20
4.707303798
 30
0.0
 10
7.1426829465
 20
4.7069996895
 30
0.0
 10
7.1429418033
 20
4.7064714638
 30
0.0
 10
7.1431553671
 20
4.7058523814
 30
0.0
 10
7.1433229472
 20
4.7051511913
 30
0.0
 10
7.1434462889
 20
4.7043776852
 30
0.0
 10
7.1435549599
 20
4.7032340102
 30
0.0
 10
7.1435699404
 20
4.7023459593
 30
0.0
 10
7.1435596218
 20
4.7017398388
 30
0.0
  0
LINE
  5
48A
100
AcDbEntity
  8
0
100
AcDbLine
 62
7
  6
CONTINUOUS
 10
7.2903556014
 20
4.2923811583
 11
7.2891816031
 21
4.2927554
  0
SPLINE
  5
48B
100
AcDbEntity
  8
0
100
AcDbSpline
 62
7
  6
CONTINUOUS
 70
0
 71
3
 72
17
 73
13
 74
0
 42
0.0000001
 43
0.0000001
 44
0.0000000001
 40
0.0
 40
0.0
 40
0.0
 40
0.0
 40
0.0390854653
 40
0.0792026795
 40
0.1657423824
 40
0.2139160962
 40
0.2659474417
 40
0.3823971287
 40
0.5158148626
 40
0.6648333478
 40
0.8271593242
 40
1.0
 40
1.0
 40
1.0
 40
1.0
 10
7.2891816031
 20
4.2927554
 30
0.0
 10
7.2891073736
 20
4.292809905
 30
0.0
 10
7.2889658676
 20
4.292933124
 30
0.0
 10
7.2887162991
 20
4.2932354012
 30
0.0
 10
7.2885351709
 20
4.2936130375
 30
0.0
 10
7.2884229417
 20
4.2940389925
 30
0.0
 10
7.2883473584
 20
4.2945448437
 30
0.0
 10
7.2883453458
 20
4.2952597154
 30
0.0
 10
7.2884716053
 20
4.2961929305
 30
0.0
 10
7.2887149908
 20
4.2972136118
 30
0.0
 10
7.289064764
 20
4.2983003497
 30
0.0
 10
7.2893509074
 20
4.2990368439
 30
0.0
 10
7.2895072453
 20
4.2994128785
 30
0.0
  0
SPLINE
  5
48C
100
AcDbEntity
  8
0
100
AcDbSpline
 62
7
  6
CONTINUOUS
 70
0
 71
3
 72
14
 73
10
 74
0
 42
0.0000001
 43
0.0000001
 44
0.0000000001
 40
0.0
 40
0.0
 40
0.0
 40
0.0
 40
0.3068662028
 40
0.4488296734
 40
0.581269854
 40
0.7030451996
 40
0.8133441123
 40
0.9120847847
 40
1.0
 40
1.0
 40
1.0
 40
1.0
 10
7.1564760757
 20
4.7088407194
 30
0.0
 10
7.1559587962
 20
4.7091567742
 30
0.0
 10
7.1552170355
 20
4.7096452501
 30
0.0
 10
7.1543096477
 20
4.7103497958
 30
0.0
 10
7.1537226525
 20
4.710868388
 30
0.0
 10
7.1532204134
 20
4.7113855836
 30
0.0
 10
7.1528121349
 20
4.7118976116
 30
0.0
 10
7.1525048316
 20
4.7123991988
 30
0.0
 10
7.1523619468
 20
4.7127416103
 30
0.0
 10
7.1523120624
 20
4.712907962
 30
0.0
  0
SPLINE
  5
48D
100
AcDbEntity
  8
0
100
AcDbSpline
 62
7
  6
CONTINUOUS
 70
0
 71
3
 72
13
 73
9
 74
0
 42
0.0000001
 43
0.0000001
 44
0.0000000001
 40
0.0
 40
0.0
 40
0.0
 40
0.0
 40
0.2618310315
 40
0.3834146414
 40
0.5022591766
 40
0.6211814799
 40
0.7426883383
 40
1.0
 40
1.0
 40
1.0
 40
1.0
 10
7.1523120624
 20
4.712907962
 30
0.0
 10
7.1522521418
 20
4.7131077818
 30
0.0
 10
7.1522013267
 20
4.7134153284
 30
0.0
 10
7.1522370036
 20
4.7138154857
 30
0.0
 10
7.1523106969
 20
4.7140936452
 30
0.0
 10
7.1524302275
 20
4.7143551798
 30
0.0
 10
7.1526498263
 20
4.7146868907
 30
0.0
 10
7.1528688531
 20
4.7149004961
 30
0.0
 10
7.1530292687
 20
4.7150281517
 30
0.0
  0
SPLINE
  5
48E
100
AcDbEntity
  8
0
100
AcDbSpline
 62
7
  6
CONTINUOUS
 70
0
 71
3
 72
14
 73
10
 74
0
 42
0.0000001
 43
0.0000001
 44
0.0000000001
 40
0.0
 40
0.0
 40
0.0
 40
0.0
 40
0.3068662028
 40
0.4488296733
 40
0.581269854
 40
0.7030451996
 40
0.8133441123
 40
0.9120847846
 40
1.0
 40
1.0
 40
1.0
 40
1.0
 10
7.3888449753
 20
4.6863077924
 30
0.0
 10
7.3889107034
 20
4.6869104104
 30
0.0
 10
7.3890368632
 20
4.6877895585
 30
0.0
 10
7.3892880083
 20
4.6889105685
 30
0.0
 10
7.3895073141
 20
4.6896625034
 30
0.0
 10
7.3897614437
 20
4.6903371542
 30
0.0
 10
7.390050904
 20
4.6909245865
 30
0.0
 10
7.3903739103
 20
4.6914162083
 30
0.0
 10
7.3906228961
 20
4.691691286
 30
0.0
 10
7.3907521758
 20
4.6918072519
 30
0.0
  0
SPLINE
  5
48F
100
AcDbEntity
  8
0
100
AcDbSpline
 62
7
  6
CONTINUOUS
 70
0
 71
3
 72
13
 73
9
 74
0
 42
0.0000001
 43
0.0000001
 44
0.0000000001
 40
0.0
 40
0.0
 40
0.0
 40
0.0
 40
0.2618310315
 40
0.3834146414
 40
0.5022591766
 40
0.6211814799
 40
0.7426883383
 40
1.0
 40
1.0
 40
1.0
 40
1.0
 10
7.3907521758
 20
4.6918072519
 30
0.0
 10
7.3909074652
 20
4.6919465489
 30
0.0
 10
7.3911641057
 20
4.6921234746
 30
0.0
 10
7.3915413694
 20
4.6922615719
 30
0.0
 10
7.3918244327
 20
4.6923133269
 30
0.0
 10
7.3921119698
 20
4.6923165283
 30
0.0
 10
7.3925056115
 20
4.692259065
 30
0.0
 10
7.3927921445
 20
4.6921518324
 30
0.0
 10
7.3929759524
 20
4.6920610372
 30
0.0
  0
LINE
  5
490
100
AcDbEntity
  8
0
100
AcDbLine
 62
7
  6
CONTINUOUS
 10
7.1653349796
 20
4.7208187798
 11
7.1665651647
 21
4.720748257
  0
SPLINE
  5
491
100
AcDbEntity
  8
0
100
AcDbSpline
 62
7
  6
CONTINUOUS
 70
0
 71
3
 72
17
 73
13
 74
0
 42
0.0000001
 43
0.0000001
 44
0.0000000001
 40
0.0
 40
0.0
 40
0.0
 40
0.0
 40
0.0390854653
 40
0.0792026795
 40
0.1657423824
 40
0.2139160962
 40
0.2659474417
 40
0.3823971287
 40
0.5158148626
 40
0.6648333478
 40
0.8271593242
 40
1.0
 40
1.0
 40
1.0
 40
1.0
 10
7.1665651647
 20
4.720748257
 30
0.0
 10
7.166650617
 20
4.7207139245
 30
0.0
 10
7.1668183206
 20
4.7206297678
 30
0.0
 10
7.1671352218
 20
4.7203990524
 30
0.0
 10
7.1674045739
 20
4.720078325
 30
0.0
 10
7.1676192079
 20
4.7196936624
 30
0.0
 10
7.1678182166
 20
4.7192225003
 30
0.0
 10
7.1679979474
 20
4.7185305881
 30
0.0
 10
7.1681077357
 20
4.7175952921
 30
0.0
 10
7.1681258298
 20
4.71654615
 30
0.0
 10
7.168057306
 20
4.7154065688
 30
0.0
 10
7.1679633111
 20
4.714622052
 30
0.0
 10
7.1679054008
 20
4.7142189515
 30
0.0
  0
SPLINE
  5
492
100
AcDbEntity
  8
0
100
AcDbSpline
 62
7
  6
CONTINUOUS
 70
0
 71
3
 72
14
 73
10
 74
0
 42
0.0000001
 43
0.0000001
 44
0.0000000001
 40
0.0
 40
0.0
 40
0.0
 40
0.0
 40
0.3068662028
 40
0.4488296734
 40
0.581269854
 40
0.7030451996
 40
0.8133441123
 40
0.9120847847
 40
1.0
 40
1.0
 40
1.0
 40
1.0
 10
7.2748838218
 20
4.2975655105
 30
0.0
 10
7.2752484285
 20
4.2970812269
 30
0.0
 10
7.2757582802
 20
4.2963539932
 30
0.0
 10
7.2763425875
 20
4.2953648914
 30
0.0
 10
7.2766974553
 20
4.2946666293
 30
0.0
 10
7.276974033
 20
4.2940008664
 30
0.0
 10
7.2771651506
 20
4.2933744974
 30
0.0
 10
7.2772662274
 20
4.2927950075
 30
0.0
 10
7.2772730283
 20
4.292424042
 30
0.0
 10
7.2772581715
 20
4.2922510085
 30
0.0
  0
SPLINE
  5
493
100
AcDbEntity
  8
0
100
AcDbSpline
 62
7
  6
CONTINUOUS
 70
0
 71
3
 72
13
 73
9
 74
0
 42
0.0000001
 43
0.0000001
 44
0.0000000001
 40
0.0
 40
0.0
 40
0.0
 40
0.0
 40
0.2618310315
 40
0.3834146414
 40
0.5022591766
 40
0.6211814799
 40
0.7426883383
 40
1.0
 40
1.0
 40
1.0
 40
1.0
 10
7.2772581715
 20
4.2922510085
 30
0.0
 10
7.2772403257
 20
4.2920431624
 30
0.0
 10
7.2771743569
 20
4.2917385066
 30
0.0
 10
7.2769938776
 20
4.2913795833
 30
0.0
 10
7.2768229621
 20
4.2911480854
 30
0.0
 10
7.2766155481
 20
4.2909489188
 30
0.0
 10
7.2762892593
 20
4.2907213415
 30
0.0
 10
7.2760069799
 20
4.2906033654
 30
0.0
 10
7.2758108361
 20
4.2905437271
 30
0.0
  0
SPLINE
  5
494
100
AcDbEntity
  8
0
100
AcDbSpline
 62
7
  6
CONTINUOUS
 70
0
 71
3
 72
14
 73
10
 74
0
 42
0.0000001
 43
0.0000001
 44
0.0000000001
 40
0.0
 40
0.0
 40
0.0
 40
0.0
 40
0.3068662028
 40
0.4488296734
 40
0.581269854
 40
0.7030451996
 40
0.8133441123
 40
0.9120847847
 40
1.0
 40
1.0
 40
1.0
 40
1.0
 10
7.1816099808
 20
4.7196449786
 30
0.0
 10
7.1811363925
 20
4.7200233736
 30
0.0
 10
7.180461703
 20
4.7206009649
 30
0.0
 10
7.1796497732
 20
4.721413681
 30
0.0
 10
7.1791324035
 20
4.7220017539
 30
0.0
 10
7.1786989464
 20
4.7225778185
 30
0.0
 10
7.1783580615
 20
4.7231369799
 30
0.0
 10
7.178116047
 20
4.7236731273
 30
0.0
 10
7.1780172044
 20
4.724030747
 30
0.0
 10
7.1779885627
 20
4.724202039
 30
0.0
  0
SPLINE
  5
495
100
AcDbEntity
  8
0
100
AcDbSpline
 62
7
  6
CONTINUOUS
 70
0
 71
3
 72
13
 73
9
 74
0
 42
0.0000001
 43
0.0000001
 44
0.0000000001
 40
0.0
 40
0.0
 40
0.0
 40
0.0
 40
0.2618310315
 40
0.3834146414
 40
0.5022591766
 40
0.6211814799
 40
0.7426883383
 40
1.0
 40
1.0
 40
1.0
 40
1.0
 10
7.1779885627
 20
4.724202039
 30
0.0
 10
7.1779541586
 20
4.7244077933
 30
0.0
 10
7.1779422901
 20
4.7247192836
 30
0.0
 10
7.1780278387
 20
4.725111814
 30
0.0
 10
7.1781358134
 20
4.725378544
 30
0.0
 10
7.1782871805
 20
4.7256230351
 30
0.0
 10
7.1785466221
 20
4.7259246074
 30
0.0
 10
7.1787906937
 20
4.7261090771
 30
0.0
 10
7.1789658438
 20
4.7262156207
 30
0.0
  0
SPLINE
  5
496
100
AcDbEntity
  8
0
100
AcDbSpline
 62
7
  6
CONTINUOUS
 70
0
 71
3
 72
13
 73
9
 74
0
 42
0.0000001
 43
0.0000001
 44
0.0000000001
 40
0.0
 40
0.0
 40
0.0
 40
0.0
 40
0.2573131703
 40
0.3788207719
 40
0.4977437313
 40
0.6165886982
 40
0.7381721411
 40
1.0
 40
1.0
 40
1.0
 40
1.0
 10
7.4034549862
 20
4.6833920265
 30
0.0
 10
7.4035786108
 20
4.6832284938
 30
0.0
 10
7.4037376302
 20
4.6829671405
 30
0.0
 10
7.4038678375
 20
4.682591255
 30
0.0
 10
7.4039185757
 20
4.682308223
 30
0.0
 10
7.403920786
 20
4.6820204875
 30
0.0
 10
7.4038558446
 20
4.6816240467
 30
0.0
 10
7.4037301618
 20
4.6813388089
 30
0.0
 10
7.4036224441
 20
4.6811601737
 30
0.0
  0
SPLINE
  5
497
100
AcDbEntity
  8
0
100
AcDbSpline
 62
7
  6
CONTINUOUS
 70
0
 71
3
 72
14
 73
10
 74
0
 42
0.0000001
 43
0.0000001
 44
0.0000000001
 40
0.0
 40
0.0
 40
0.0
 40
0.0
 40
0.0879138119
 40
0.1866531741
 40
0.2969512276
 40
0.4187261567
 40
0.5511665106
 40
0.6931308996
 40
1.0
 40
1.0
 40
1.0
 40
1.0
 10
7.4036224441
 20
4.6811601737
 30
0.0
 10
7.4035327632
 20
4.68101145
 30
0.0
 10
7.4033092229
 20
4.6807153208
 30
0.0
 10
7.4028868415
 20
4.6803059026
 30
0.0
 10
7.4023640541
 20
4.6799114844
 30
0.0
 10
7.4017489677
 20
4.6795354265
 30
0.0
 10
7.4010514344
 20
4.6791790951
 30
0.0
 10
7.399997316
 20
4.6787223278
 30
0.0
 10
7.3991573586
 20
4.6784336577
 30
0.0
 10
7.3985777151
 20
4.6782561697
 30
0.0
  0
LINE
  5
498
100
AcDbEntity
  8
0
100
AcDbLine
 62
7
  6
CONTINUOUS
 10
7.262237603
 20
4.2896897717
 11
7.261119767
 21
4.2902082034
  0
SPLINE
  5
499
100
AcDbEntity
  8
0
100
AcDbSpline
 62
7
  6
CONTINUOUS
 70
0
 71
3
 72
17
 73
13
 74
0
 42
0.0000001
 43
0.0000001
 44
0.0000000001
 40
0.0
 40
0.0
 40
0.0
 40
0.0
 40
0.0390854653
 40
0.0792026795
 40
0.1657423824
 40
0.2139160962
 40
0.2659474417
 40
0.3823971287
 40
0.5158148626
 40
0.6648333478
 40
0.8271593242
 40
1.0
 40
1.0
 40
1.0
 40
1.0
 10
7.261119767
 20
4.2902082034
 30
0.0
 10
7.2610529542
 20
4.290271582
 30
0.0
 10
7.2609280074
 20
4.2904115648
 30
0.0
 10
7.2607182922
 20
4.2907427377
 30
0.0
 10
7.2605859226
 20
4.2911400976
 30
0.0
 10
7.2605279647
 20
4.2915767598
 30
0.0
 10
7.2605163774
 20
4.2920880953
 30
0.0
 10
7.2606039778
 20
4.2927975823
 30
0.0
 10
7.2608462046
 20
4.2937076143
 30
0.0
 10
7.2612155961
 20
4.2946897429
 30
0.0
 10
7.2616988157
 20
4.2957240733
 30
0.0
 10
7.2620750099
 20
4.2964188968
 30
0.0
 10
7.2622772448
 20
4.2967723719
 30
0.0
  0
LINE
  5
49A
100
AcDbEntity
  8
0
100
AcDbLine
 62
7
  6
CONTINUOUS
 10
7.1919002787
 20
4.7304182734
 11
7.1931119246
 21
4.7301941236
  0
SPLINE
  5
49B
100
AcDbEntity
  8
0
100
AcDbSpline
 62
7
  6
CONTINUOUS
 70
0
 71
3
 72
17
 73
13
 74
0
 42
0.0000001
 43
0.0000001
 44
0.0000000001
 40
0.0
 40
0.0
 40
0.0
 40
0.0
 40
0.0390854653
 40
0.0792026795
 40
0.1657423824
 40
0.2139160962
 40
0.2659474417
 40
0.3823971287
 40
0.5158148626
 40
0.6648333478
 40
0.8271593242
 40
1.0
 40
1.0
 40
1.0
 40
1.0
 10
7.1931119246
 20
4.7301941236
 30
0.0
 10
7.1931924
 20
4.7301493518
 30
0.0
 10
7.1933482337
 20
4.7300448399
 30
0.0
 10
7.1936337196
 20
4.7297762254
 30
0.0
 10
7.19386075
 20
4.7294242683
 30
0.0
 10
7.1940254805
 20
4.7290157381
 30
0.0
 10
7.1941638678
 20
4.7285233489
 30
0.0
 10
7.1942554617
 20
4.7278143663
 30
0.0
 10
7.1942471607
 20
4.7268726854
 30
0.0
 10
7.1941336197
 20
4.7258295482
 30
0.0
 10
7.1939228089
 20
4.7247075414
 30
0.0
 10
7.193731229
 20
4.7239409913
 30
0.0
 10
7.1936232535
 20
4.7235483275
 30
0.0
  0
SPLINE
  5
49C
100
AcDbEntity
  8
0
100
AcDbSpline
 62
7
  6
CONTINUOUS
 70
0
 71
3
 72
18
 73
14
 74
0
 42
0.0000001
 43
0.0000001
 44
0.0000000001
 40
0.0
 40
0.0
 40
0.0
 40
0.0
 40
0.1782563096
 40
0.3442704546
 40
0.4946519597
 40
0.6267533252
 40
0.6856006576
 40
0.7397571721
 40
0.8352144119
 40
0.8781931266
 40
0.9192616256
 40
0.9595076686
 40
1.0
 40
1.0
 40
1.0
 40
1.0
 10
7.2622772448
 20
4.7322213436
 30
0.0
 10
7.2620561239
 20
4.7326078286
 30
0.0
 10
7.2616480061
 20
4.7333653883
 30
0.0
 10
7.2611348172
 20
4.7344907468
 30
0.0
 10
7.260761527
 20
4.7355487867
 30
0.0
 10
7.2605738327
 20
4.7363839398
 30
0.0
 10
7.2605201496
 20
4.7369949284
 30
0.0
 10
7.2605268464
 20
4.7375158803
 30
0.0
 10
7.2606174116
 20
4.7379963478
 30
0.0
 10
7.2608084314
 20
4.7384042575
 30
0.0
 10
7.2609879421
 20
4.7386596575
 30
0.0
 10
7.2612063246
 20
4.7388738368
 30
0.0
 10
7.2613739985
 20
4.7389879412
 30
0.0
 10
7.2614618755
 20
4.7390380236
 30
0.0
  0
LINE
  5
49D
100
AcDbEntity
  8
0
100
AcDbLine
 62
7
  6
CONTINUOUS
 10
7.2614618755
 20
4.7390380236
 11
7.262237603
 21
4.7393039438
  0
SPLINE
  5
49E
100
AcDbEntity
  8
0
100
AcDbSpline
 62
7
  6
CONTINUOUS
 70
0
 71
3
 72
14
 73
10
 74
0
 42
0.0000001
 43
0.0000001
 44
0.0000000001
 40
0.0
 40
0.0
 40
0.0
 40
0.0
 40
0.3068662028
 40
0.4488296733
 40
0.581269854
 40
0.7030451996
 40
0.8133441123
 40
0.9120847846
 40
1.0
 40
1.0
 40
1.0
 40
1.0
 10
7.4093224576
 20
4.6681661849
 30
0.0
 10
7.4094631955
 20
4.6687558132
 30
0.0
 10
7.409698547
 20
4.6696122169
 30
0.0
 10
7.4100882116
 20
4.6706929106
 30
0.0
 10
7.4104000305
 20
4.67141143
 30
0.0
 10
7.4107367124
 20
4.6720489101
 30
0.0
 10
7.411097515
 20
4.6725954313
 30
0.0
 10
7.4114795908
 20
4.6730426931
 30
0.0
 10
7.4117610897
 20
4.6732843956
 30
0.0
 10
7.4119038844
 20
4.6733832439
 30
0.0
  0
SPLINE
  5
49F
100
AcDbEntity
  8
0
100
AcDbSpline
 62
7
  6
CONTINUOUS
 70
0
 71
3
 72
13
 73
9
 74
0
 42
0.0000001
 43
0.0000001
 44
0.0000000001
 40
0.0
 40
0.0
 40
0.0
 40
0.0
 40
0.2618310315
 40
0.3834146414
 40
0.5022591766
 40
0.6211814799
 40
0.7426883383
 40
1.0
 40
1.0
 40
1.0
 40
1.0
 10
7.4119038844
 20
4.6733832439
 30
0.0
 10
7.4120754078
 20
4.6735019796
 30
0.0
 10
7.4123521993
 20
4.6736453447
 30
0.0
 10
7.4127437963
 20
4.6737350693
 30
0.0
 10
7.4130311142
 20
4.6737509389
 30
0.0
 10
7.4133167853
 20
4.6737180772
 30
0.0
 10
7.4137001209
 20
4.6736117306
 30
0.0
 10
7.4139709547
 20
4.6734694315
 30
0.0
 10
7.4141419336
 20
4.6733563149
 30
0.0
  0
SPLINE
  5
4A0
100
AcDbEntity
  8
0
100
AcDbSpline
 62
7
  6
CONTINUOUS
 70
0
 71
3
 72
13
 73
9
 74
0
 42
0.0000001
 43
0.0000001
 44
0.0000000001
 40
0.0
 40
0.0
 40
0.0
 40
0.0
 40
0.2573157132
 40
0.3788247149
 40
0.4977487868
 40
0.6165941672
 40
0.7381770172
 40
1.0
 40
1.0
 40
1.0
 40
1.0
 10
7.2758108361
 20
4.7384499884
 30
0.0
 10
7.2760069619
 20
4.7383903556
 30
0.0
 10
7.2762892159
 20
4.7382723936
 30
0.0
 10
7.2766154826
 20
4.7380448489
 30
0.0
 10
7.2768228875
 20
4.7378457125
 30
0.0
 10
7.2769938022
 20
4.737614251
 30
0.0
 10
7.2771742916
 20
4.7372553886
 30
0.0
 10
7.2772402845
 20
4.7369507801
 30
0.0
 10
7.2772581493
 20
4.7367429646
 30
0.0
  0
SPLINE
  5
4A1
100
AcDbEntity
  8
0
100
AcDbSpline
 62
7
  6
CONTINUOUS
 70
0
 71
3
 72
14
 73
10
 74
0
 42
0.0000001
 43
0.0000001
 44
0.0000000001
 40
0.0
 40
0.0
 40
0.0
 40
0.0
 40
0.0879120261
 40
0.1866498189
 40
0.2969468101
 40
0.4187213754
 40
0.5511620767
 40
0.693127457
 40
1.0
 40
1.0
 40
1.0
 40
1.0
 10
7.2772581493
 20
4.7367429646
 30
0.0
 10
7.2772730241
 20
4.7365699314
 30
0.0
 10
7.277266255
 20
4.7361989604
 30
0.0
 10
7.2771652103
 20
4.7356194544
 30
0.0
 10
7.276974111
 20
4.7349930612
 30
0.0
 10
7.2766975403
 20
4.7343272659
 30
0.0
 10
7.2763426666
 20
4.7336289647
 30
0.0
 10
7.2757583332
 20
4.7326398
 30
0.0
 10
7.2752484519
 20
4.7319125196
 30
0.0
 10
7.2748838218
 20
4.731428205
 30
0.0
  0
SPLINE
  5
4A2
100
AcDbEntity
  8
0
100
AcDbSpline
 62
7
  6
CONTINUOUS
 70
0
 71
3
 72
13
 73
9
 74
0
 42
0.0000001
 43
0.0000001
 44
0.0000000001
 40
0.0
 40
0.0
 40
0.0
 40
0.0
 40
0.2573131703
 40
0.3788207719
 40
0.4977437313
 40
0.6165886982
 40
0.7381721411
 40
1.0
 40
1.0
 40
1.0
 40
1.0
 10
7.4234518219
 20
4.6634422908
 30
0.0
 10
7.4235539756
 20
4.6632645534
 30
0.0
 10
7.4236789849
 20
4.6629853305
 30
0.0
 10
7.4237610545
 20
4.6625960896
 30
0.0
 10
7.4237759193
 20
4.6623089302
 30
0.0
 10
7.4237420493
 20
4.6620231866
 30
0.0
 10
7.4236279328
 20
4.6616380112
 30
0.0
 10
7.4234674912
 20
4.6613707748
 30
0.0
 10
7.423338234
 20
4.6612070488
 30
0.0
  0
SPLINE
  5
4A3
100
AcDbEntity
  8
0
100
AcDbSpline
 62
7
  6
CONTINUOUS
 70
0
 71
3
 72
14
 73
10
 74
0
 42
0.0000001
 43
0.0000001
 44
0.0000000001
 40
0.0
 40
0.0
 40
0.0
 40
0.0
 40
0.0879138119
 40
0.1866531741
 40
0.2969512276
 40
0.4187261567
 40
0.5511665106
 40
0.6931308996
 40
1.0
 40
1.0
 40
1.0
 40
1.0
 10
7.423338234
 20
4.6612070488
 30
0.0
 10
7.4232306203
 20
4.6610707378
 30
0.0
 10
7.4229717278
 20
4.6608049607
 30
0.0
 10
7.4225013634
 20
4.6604517093
 30
0.0
 10
7.4219332645
 20
4.6601259239
 30
0.0
 10
7.4212758958
 20
4.6598299221
 30
0.0
 10
7.4205392025
 20
4.6595638245
 30
0.0
 10
7.419436148
 20
4.6592427751
 30
0.0
 10
7.418566634
 20
4.6590616558
 30
0.0
 10
7.417969316
 20
4.6589582159
 30
0.0
  0
SPLINE
  5
4A4
100
AcDbEntity
  8
0
100
AcDbSpline
 62
7
  6
CONTINUOUS
 70
0
 71
3
 72
18
 73
14
 74
0
 42
0.0000001
 43
0.0000001
 44
0.0000000001
 40
0.0
 40
0.0
 40
0.0
 40
0.0
 40
0.1782563096
 40
0.3442704546
 40
0.4946519597
 40
0.6267533252
 40
0.6856006576
 40
0.7397571721
 40
0.8352144119
 40
0.8781931266
 40
0.9192616256
 40
0.9595076686
 40
1.0
 40
1.0
 40
1.0
 40
1.0
 10
7.2895072453
 20
4.7295808369
 30
0.0
 10
7.2893363075
 20
4.7299919882
 30
0.0
 10
7.2890263552
 20
4.7307947251
 30
0.0
 10
7.2886582578
 20
4.7319755294
 30
0.0
 10
7.2884205187
 20
4.733072012
 30
0.0
 10
7.2883389768
 20
4.733924104
 30
0.0
 10
7.2883622942
 20
4.7345370031
 30
0.0
 10
7.2884342308
 20
4.7350530078
 30
0.0
 10
7.2885843004
 20
4.7355183358
 30
0.0
 10
7.2888249386
 20
4.7358990879
 30
0.0
 10
7.2890350439
 20
4.7361299754
 30
0.0
 10
7.2892785482
 20
4.7363150951
 30
0.0
 10
7.2894592009
 20
4.7364072847
 30
0.0
 10
7.289552662
 20
4.7364459583
 30
0.0
  0
LINE
  5
4A5
100
AcDbEntity
  8
0
100
AcDbLine
 62
7
  6
CONTINUOUS
 10
7.289552662
 20
4.7364459583
 11
7.2903556014
 21
4.7366125572
  0
SPLINE
  5
4A6
100
AcDbEntity
  8
0
100
AcDbSpline
 62
7
  6
CONTINUOUS
 70
0
 71
3
 72
13
 73
9
 74
0
 42
0.0000001
 43
0.0000001
 44
0.0000000001
 40
0.0
 40
0.0
 40
0.0
 40
0.0
 40
0.2573157132
 40
0.3788247149
 40
0.4977487868
 40
0.6165941672
 40
0.7381770172
 40
1.0
 40
1.0
 40
1.0
 40
1.0
 10
7.3037147765
 20
4.7340641583
 30
0.0
 10
7.3039018818
 20
4.7339804146
 30
0.0
 10
7.3041671255
 20
4.733828007
 30
0.0
 10
7.3044623006
 20
4.7335613645
 30
0.0
 10
7.3046431117
 20
4.7333378036
 30
0.0
 10
7.3047836689
 20
4.7330867459
 30
0.0
 10
7.3049177576
 20
4.732708092
 30
0.0
 10
7.3049450526
 20
4.7323976143
 30
0.0
 10
7.3049367303
 20
4.7321891985
 30
0.0
  0
SPLINE
  5
4A7
100
AcDbEntity
  8
0
100
AcDbSpline
 62
7
  6
CONTINUOUS
 70
0
 71
3
 72
14
 73
10
 74
0
 42
0.0000001
 43
0.0000001
 44
0.0000000001
 40
0.0
 40
0.0
 40
0.0
 40
0.0
 40
0.0879120261
 40
0.1866498189
 40
0.2969468101
 40
0.4187213754
 40
0.5511620767
 40
0.693127457
 40
1.0
 40
1.0
 40
1.0
 40
1.0
 10
7.3049367303
 20
4.7321891985
 30
0.0
 10
7.304929801
 20
4.7320156654
 30
0.0
 10
7.3048765903
 20
4.731648468
 30
0.0
 10
7.3047037111
 20
4.7310861958
 30
0.0
 10
7.3044356107
 20
4.730488693
 30
0.0
 10
7.3040777745
 20
4.7298628112
 30
0.0
 10
7.3036381788
 20
4.7292144938
 30
0.0
 10
7.3029344779
 20
4.7283063653
 30
0.0
 10
7.3023374647
 20
4.7276487249
 30
0.0
 10
7.3019150091
 20
4.7272139294
 30
0.0
  0
SPLINE
  5
4A8
100
AcDbEntity
  8
0
100
AcDbSpline
 62
7
  6
CONTINUOUS
 70
0
 71
3
 72
14
 73
10
 74
0
 42
0.0000001
 43
0.0000001
 44
0.0000000001
 40
0.0
 40
0.0
 40
0.0
 40
0.0
 40
0.3068662028
 40
0.4488296733
 40
0.581269854
 40
0.7030451996
 40
0.8133441123
 40
0.9120847846
 40
1.0
 40
1.0
 40
1.0
 40
1.0
 10
7.4273647226
 20
4.6476011204
 30
0.0
 10
7.4275782507
 20
4.6481684601
 30
0.0
 10
7.4279190823
 20
4.6489886135
 30
0.0
 10
7.4284411211
 20
4.6500119477
 30
0.0
 10
7.4288405356
 20
4.65068572
 30
0.0
 10
7.42925446
 20
4.6512759759
 30
0.0
 10
7.4296809149
 20
4.6517729671
 30
0.0
 10
7.4301160347
 20
4.6521688153
 30
0.0
 10
7.4304256072
 20
4.6523733307
 30
0.0
 10
7.4305796649
 20
4.6524535027
 30
0.0
  0
SPLINE
  5
4A9
100
AcDbEntity
  8
0
100
AcDbSpline
 62
7
  6
CONTINUOUS
 70
0
 71
3
 72
13
 73
9
 74
0
 42
0.0000001
 43
0.0000001
 44
0.0000000001
 40
0.0
 40
0.0
 40
0.0
 40
0.0
 40
0.2618310315
 40
0.3834146414
 40
0.5022591766
 40
0.6211814799
 40
0.7426883383
 40
1.0
 40
1.0
 40
1.0
 40
1.0
 10
7.4305796649
 20
4.6524535027
 30
0.0
 10
7.4307647174
 20
4.6525498045
 30
0.0
 10
7.4310572947
 20
4.652657348
 30
0.0
 10
7.4314570493
 20
4.652697285
 30
0.0
 10
7.4317440906
 20
4.652677019
 30
0.0
 10
7.4320233904
 20
4.6526086123
 30
0.0
 10
7.4323903746
 20
4.6524550596
 30
0.0
 10
7.432641238
 20
4.6522799381
 30
0.0
 10
7.4327966913
 20
4.6521462842
 30
0.0
  0
SPLINE
  5
4AA
100
AcDbEntity
  8
0
100
AcDbSpline
 62
7
  6
CONTINUOUS
 70
0
 71
3
 72
18
 73
14
 74
0
 42
0.0000001
 43
0.0000001
 44
0.0000000001
 40
0.0
 40
0.0
 40
0.0
 40
0.0
 40
0.1782563096
 40
0.3442704546
 40
0.4946519597
 40
0.6267533252
 40
0.6856006576
 40
0.7397571721
 40
0.8352144119
 40
0.8781931266
 40
0.9192616256
 40
0.9595076686
 40
1.0
 40
1.0
 40
1.0
 40
1.0
 10
7.316191586
 20
4.7235483275
 30
0.0
 10
7.3160735269
 20
4.7239776609
 30
0.0
 10
7.3158666284
 20
4.7248129153
 30
0.0
 10
7.3156494275
 20
4.7260305435
 30
0.0
 10
7.3155509887
 20
4.7271481765
 30
0.0
 10
7.3155768853
 20
4.7280037695
 30
0.0
 10
7.3156768355
 20
4.7286089132
 30
0.0
 10
7.3158128773
 20
4.729111833
 30
0.0
 10
7.3160200846
 20
4.7295546831
 30
0.0
 10
7.3163065463
 20
4.7299022729
 30
0.0
 10
7.3165439327
 20
4.7301050066
 30
0.0
 10
7.3168087185
 20
4.7302581474
 30
0.0
 10
7.3169995012
 20
4.7303269683
 30
0.0
 10
7.3170970724
 20
4.7303536231
 30
0.0
  0
LINE
  5
4AB
100
AcDbEntity
  8
0
100
AcDbLine
 62
7
  6
CONTINUOUS
 10
7.3170970724
 20
4.7303536231
 11
7.3179145607
 21
4.7304182734
  0
ELLIPSE
  5
4AC
100
AcDbEntity
  8
0
100
AcDbEllipse
 62
7
  6
CONTINUOUS
 10
5.5528145991
 20
4.5144968577
 30
0.0
 11
0.0
 21
0.0625
 31
0.0
 40
0.75
 41
-3.1415926536
 42
-0.0
  0
ELLIPSE
  5
4AD
100
AcDbEntity
  8
0
100
AcDbEllipse
 62
7
  6
CONTINUOUS
 10
6.3914471626
 20
4.5144968577
 30
0.0
 11
0.0
 21
0.03125
 31
0.0
 40
0.5675675676
 41
0.0
 42
6.2831853072
  0
ELLIPSE
  5
4AE
100
AcDbEntity
  8
0
100
AcDbEllipse
 62
7
  6
CONTINUOUS
 10
6.3914471626
 20
4.5144968577
 30
0.0
 11
-0.0
 21
0.0625
 31
0.0
 40
0.5675675676
 41
0.0
 42
6.2831853072
  0
ENDSEC
  0
SECTION
  2
OBJECTS
  0
DICTIONARY
  5
C
100
AcDbDictionary
280
0
281
1
  3
ACAD_GROUP
350
D
  3
ACAD_MLINESTYLE
350
17
  3
ACAD_LAYOUT
350
1A
  3
ACAD_PLOTSETTINGS
350
19
  3
ACAD_PLOTSTYLENAME
350
E
  0
DICTIONARY
  5
D
102
{ACAD_REACTORS
330
C
102
}
100
AcDbDictionary
280
0
281
1
  0
ACDBDICTIONARYWDFLT
  5
E
102
{ACAD_REACTORS
330
C
102
}
100
AcDbDictionary
281
1
  3
Normal
350
F
100
AcDbDictionaryWithDefault
340
F
  0
DICTIONARY
  5
17
102
{ACAD_REACTORS
330
C
102
}
100
AcDbDictionary
280
0
281
1
  3
Standard
350
18
  0
DICTIONARY
  5
19
102
{ACAD_REACTORS
330
C
102
}
100
AcDbDictionary
281
1
  0
DICTIONARY
  5
1A
102
{ACAD_REACTORS
330
C
102
}
100
AcDbDictionary
281
1
  3
Model
350
4AF
  3
Layout1
350
4B0
  0
ACDBPLACEHOLDER
  5
F
102
{ACAD_REACTORS
330
E
102
}
  0
MLINESTYLE
  5
18
102
{ACAD_REACTORS
330
17
102
}
100
AcDbMlineStyle
  2
STANDARD
 70
0
  3

 62
256
 51
90.0
 52
90.0
 71
2
 49
0.5
 62
256
  6
BYLAYER
 49
-0.5
 62
256
  6
BYLAYER
  0
LAYOUT
  5
4AF
102
{ACAD_REACTORS
330
1A
102
}
100
AcDbPlotSettings
  1

  2
none_device
  4
ANSI_A_(11.00_x_8.50_Inches)
  6

 40
0.0
 41
0.0
 42
0.0
 43
0.0
 44
279.4
 45
215.9
 46
0.0
 47
0.0
 48
0.0
 49
0.0
140
0.0
141
0.0
142
1.0
143
1.0
 70
1024
 72
0
 73
0
 74
0
  7

 75
0
147
1.0
148
0.0
149
0.0
100
AcDbLayout
  1
Model
 70
0
 71
0
 10
0.0
 20
0.0
 11
11.0
 21
8.5
 12
0.0
 22
0.0
 32
0.0
 14
0.0
 24
0.0
 34
0.0
 15
0.0
 25
0.0
 35
0.0
146
0.0
 13
0.0
 23
0.0
 33
0.0
 16
1.0
 26
0.0
 36
0.0
 17
0.0
 27
1.0
 37
0.0
 76
0
330
203
345
0
346
0
  0
LAYOUT
  5
4B0
102
{ACAD_REACTORS
330
1A
102
}
100
AcDbPlotSettings
  1

  2
none_device
  4
ANSI_A_(11.00_x_8.50_Inches)
  6

 40
0.0
 41
0.0
 42
0.0
 43
0.0
 44
279.4
 45
215.9
 46
0.0
 47
0.0
 48
0.0
 49
0.0
140
0.0
141
0.0
142
1.0
143
1.0
 70
0
 72
0
 73
0
 74
0
  7

 75
0
147
1.0
148
0.0
149
0.0
100
AcDbLayout
  1
Layout1
 70
0
 71
1
 10
0.0
 20
0.0
 11
11.0
 21
8.5
 12
0.0
 22
0.0
 32
0.0
 14
0.0
 24
0.0
 34
0.0
 15
0.0
 25
0.0
 35
0.0
146
0.0
 13
0.0
 23
0.0
 33
0.0
 16
1.0
 26
0.0
 36
0.0
 17
0.0
 27
1.0
 37
0.0
 76
0
330
204
345
0
346
0
  0
ENDSEC
  0
EOF
