999
DXF file: 3290-5811_top.dxf
999
Pro/ENGINEER 2018400 by Parametric Technology Corporation
  0
SECTION
  2
HEADER
  9
$ACADVER
  1
AC1027
  9
$DWGCODEPAGE
  3
ANSI_1252
  9
$EXTMAX
 10
11.0
 20
8.5
 30
0.0
  9
$EXTMIN
 10
0.0
 20
0.0
 30
0.0
  9
$LIMMIN
 10
0.0
 20
0.0
  9
$LIMMAX
 10
11.0
 20
8.5
  9
$VIEWCTR
 10
5.5
 20
4.25
  9
$VIEWSIZE
 40
8.5
  9
$CLAYER
  8
0
  9
$LTSCALE
 40
0.605
  9
$CELTYPE
  6
BYLAYER
  9
$DIMSCALE
 40
1.0
  9
$DIMASZ
 40
0.1
  9
$DIMEXO
 40
0.0625
  9
$DIMDLI
 40
0.418
  9
$DIMEXE
 40
0.125
  9
$DIMCEN
 40
0.099
  9
$DIMLFAC
 40
1.0
  9
$DIMBLK
  1
_FILLED
  9
$DIMALT
 70
1
  9
$DIMALTD
 70
1
  9
$DIMALTTD
 70
2
  9
$DIMALTF
 40
25.4
  9
$DIMTXT
 40
0.08
  9
$DIMTOL
 70
1
  9
$DIMLIM
 70
0
  9
$DIMTFAC
 40
1.0
  9
$DIMTP
 40
0.01
  9
$DIMTM
 40
0.01
  9
$DIMGAP
 40
0.09
  9
$DIMDSEP
 70
46
  9
$AUNITS
 70
0
  9
$PDMODE
 70
3
  9
$PDSIZE
 40
0.3125
  9
$HANDSEED
  5
499
  9
$TILEMODE
 70
1
  9
$MEASUREMENT
 70
0
  9
$INSUNITS
 70
1
  0
ENDSEC
  0
SECTION
  2
CLASSES
  0
CLASS
  1
ACDBDICTIONARYWDFLT
  2
AcDbDictionaryWithDefault
  3
AutoCAD 2000
 90
0
 91
1
280
0
281
0
  0
CLASS
  1
ACDBPLACEHOLDER
  2
AcDbPlaceHolder
  3
AutoCAD 2000
 90
0
 91
1
280
0
281
0
  0
CLASS
  1
LAYOUT
  2
AcDbLayout
  3
AutoCAD 2000
 90
0
 91
0
280
0
281
0
  0
ENDSEC
  0
SECTION
  2
TABLES
  0
TABLE
  2
VPORT
  5
8
100
AcDbSymbolTable
 70
2
  0
VPORT
  5
1F4
100
AcDbSymbolTableRecord
100
AcDbViewportTableRecord
  2
*ACTIVE
 70
0
 10
0.0
 20
0.0
 11
1.0
 21
1.0
 12
5.5
 22
4.25
 13
0.0
 23
0.0
 14
1.0
 24
1.0
 15
0.0
 25
0.0
 16
0.0
 26
0.0
 36
1.0
 17
0.0
 27
0.0
 37
0.0
 40
8.5
 41
1.2941176471
 42
50.0
 43
0.0
 44
0.0
 50
0.0
 51
0.0
 71
0
 72
100
 73
1
 74
1
 75
0
 76
0
 77
0
 78
0
  0
ENDTAB
  0
TABLE
  2
LTYPE
  5
5
100
AcDbSymbolTable
 70
6
  0
LTYPE
  5
14
100
AcDbSymbolTableRecord
100
AcDbLinetypeTableRecord
  2
BYBLOCK
 70
0
  3

 72
65
 73
0
 40
0.0
  0
LTYPE
  5
15
100
AcDbSymbolTableRecord
100
AcDbLinetypeTableRecord
  2
BYLAYER
 70
0
  3

 72
65
 73
0
 40
0.0
  0
LTYPE
  5
16
100
AcDbSymbolTableRecord
100
AcDbLinetypeTableRecord
  2
CONTINUOUS
 70
64
  3
Solid line
 72
65
 73
0
 40
0.0
  0
LTYPE
  5
1F5
100
AcDbSymbolTableRecord
100
AcDbLinetypeTableRecord
  2
CENTER
 70
64
  3
____ _ ____ _ ____ _ ____ _ ____ _ ____ _ ____
 72
65
 73
4
 40
0.6
 49
0.375
 74
0
 49
-0.075
 74
0
 49
0.075
 74
0
 49
-0.075
 74
0
  0
LTYPE
  5
1F6
100
AcDbSymbolTableRecord
100
AcDbLinetypeTableRecord
  2
HIDDEN
 70
64
  3
- - - - - - - - - - - - - - - - - - - -
 72
65
 73
2
 40
0.2
 49
0.1
 74
0
 49
-0.1
 74
0
  0
LTYPE
  5
1F7
100
AcDbSymbolTableRecord
100
AcDbLinetypeTableRecord
  2
PHANTOM
 70
64
  3
_____ _ _ _____ _ _ _____ _ _ _____
 72
65
 73
6
 40
0.8
 49
0.45
 74
0
 49
-0.05
 74
0
 49
0.1
 74
0
 49
-0.05
 74
0
 49
0.1
 74
0
 49
-0.05
 74
0
  0
LTYPE
  5
1F8
100
AcDbSymbolTableRecord
100
AcDbLinetypeTableRecord
  2
DOT
 70
64
  3
. . . . . . . . . . . . . . . . . . . .
 72
65
 73
2
 40
0.2
 49
0.1
 74
0
 49
-0.1
 74
0
  0
LTYPE
  5
1F9
100
AcDbSymbolTableRecord
100
AcDbLinetypeTableRecord
  2
DASHED
 70
64
  3
- - - - - - - - - - - - - - - - - - - -
 72
65
 73
2
 40
0.2
 49
0.1
 74
0
 49
-0.1
 74
0
  0
ENDTAB
  0
TABLE
  2
LAYER
  5
2
100
AcDbSymbolTable
 70
36
  0
LAYER
  5
10
100
AcDbSymbolTableRecord
100
AcDbLayerTableRecord
  2
0
 70
0
 62
7
  6
CONTINUOUS
370
-3
390
F
  0
LAYER
  5
1FA
100
AcDbSymbolTableRecord
100
AcDbLayerTableRecord
  2
DEFAULT_1
 70
0
 62
7
  6
CENTER
370
-3
390
F
  0
LAYER
  5
1FB
100
AcDbSymbolTableRecord
100
AcDbLayerTableRecord
  2
DEFAULT_2
 70
0
 62
8
  6
HIDDEN
370
-3
390
F
  0
LAYER
  5
1FC
100
AcDbSymbolTableRecord
100
AcDbLayerTableRecord
  2
DEFAULT_3
 70
0
 62
7
  6
PHANTOM
370
-3
390
F
  0
LAYER
  5
1FD
100
AcDbSymbolTableRecord
100
AcDbLayerTableRecord
  2
DEFAULT_COORDINATE_SYSTEM
 70
0
 62
7
  6
CONTINUOUS
370
-3
390
F
  0
LAYER
  5
1FE
100
AcDbSymbolTableRecord
100
AcDbLayerTableRecord
  2
DEFAULT_DATUM_AXES
 70
0
 62
7
  6
CONTINUOUS
370
-3
390
F
  0
LAYER
  5
1FF
100
AcDbSymbolTableRecord
100
AcDbLayerTableRecord
  2
DEFAULT_DATUM_PLANES
 70
0
 62
7
  6
CONTINUOUS
370
-3
390
F
  0
ENDTAB
  0
TABLE
  2
STYLE
  5
3
100
AcDbSymbolTable
 70
1
  0
STYLE
  5
11
100
AcDbSymbolTableRecord
100
AcDbTextStyleTableRecord
  2
STANDARD
 70
0
 40
0.0
 41
0.8
 50
0.0
 71
0
 42
0.2
  3
txt
  4

  0
STYLE
  5
200
100
AcDbSymbolTableRecord
100
AcDbTextStyleTableRecord
  2
TEXTSTYLE_1
 70
0
 40
0.0
 41
0.8
 50
0.0
 71
0
 42
0.2
  3
gdt
  4

  0
ENDTAB
  0
TABLE
  2
VIEW
  5
6
100
AcDbSymbolTable
 70
0
  0
ENDTAB
  0
TABLE
  2
UCS
  5
7
100
AcDbSymbolTable
 70
0
  0
ENDTAB
  0
TABLE
  2
APPID
  5
9
100
AcDbSymbolTable
 70
1
  0
APPID
  5
201
100
AcDbSymbolTableRecord
100
AcDbRegAppTableRecord
  2
ACAD
 70
0
  0
ENDTAB
  0
TABLE
  2
BLOCK_RECORD
  5
1
100
AcDbSymbolTable
 70
0
  0
BLOCK_RECORD
  5
202
100
AcDbSymbolTableRecord
100
AcDbBlockTableRecord
  2
*Model_Space
  0
BLOCK_RECORD
  5
203
100
AcDbSymbolTableRecord
100
AcDbBlockTableRecord
  2
*Paper_Space
  0
BLOCK_RECORD
  5
204
100
AcDbSymbolTableRecord
100
AcDbBlockTableRecord
  2
_FILLED
  0
ENDTAB
  0
TABLE
  2
DIMSTYLE
  5
A
100
AcDbSymbolTable
 70
1
100
AcDbDimStyleTable
 71
0
  0
DIMSTYLE
105
205
100
AcDbSymbolTableRecord
100
AcDbDimStyleTableRecord
  2
STANDARD
 70
0
  3

  4

 40
1.0
 41
0.1
 42
0.0625
 43
0.38
 44
0.125
 45
0.0
 46
0.0
 47
0.01
 48
0.01
140
0.08
141
0.09
142
0.0
143
25.4
144
1.0
145
0.0
146
1.0
147
0.09
 71
1.0
 72
0.0
 73
1
 74
1
 75
0
 76
0
 77
0
 78
4
 79
1
170
1
171
1
172
0
173
0
174
0
175
0
176
0
177
0
178
0
270
2
179
2
271
2
272
2
273
2
274
2
275
0
280
0
281
0
282
0
283
1
284
4
285
0
286
0
287
3
288
0
340
11
278
46
341
204
342
204
343
204
344
204
  0
ENDTAB
  0
ENDSEC
  0
SECTION
  2
BLOCKS
  0
BLOCK
  5
20
100
AcDbEntity
  8
0
100
AcDbBlockBegin
  2
*Model_Space
 70
0
 10
0.0
 20
0.0
 30
0.0
  3
*Model_Space
  1

  0
ENDBLK
  5
21
100
AcDbEntity
  8
0
100
AcDbBlockEnd
  0
BLOCK
  5
1C
100
AcDbEntity
  8
0
100
AcDbBlockBegin
  2
*Paper_Space
 70
0
 10
0.0
 20
0.0
 30
0.0
  3
*Paper_Space
  1

  0
ENDBLK
  5
1D
100
AcDbEntity
  8
0
100
AcDbBlockEnd
  0
BLOCK
  5
206
100
AcDbEntity
  8
0
100
AcDbBlockBegin
  2
_FILLED
 70
64
 10
0.0
 20
0.0
  3
_FILLED
  1

  0
SOLID
  5
207
100
AcDbEntity
  8
0
  6
BYBLOCK
 62
0
100
AcDbTrace
 10
0.0
 20
0.0
 11
-1.0
 21
0.2
 12
-1.0
 22
-0.2
 13
-1.0
 23
-0.2
  0
ENDBLK
  5
208
100
AcDbEntity
  8
0
  6
BYBLOCK
 62
0
100
AcDbBlockEnd
  0
ENDSEC
  0
SECTION
  2
ENTITIES
  0
MTEXT
  5
209
100
AcDbEntity
  8
0
100
AcDbMText
 62
2
  6
CONTINUOUS
  7
STANDARD
 71
3
 72
1
 10
5.2011540888
 20
3.2943206378
 30
0.0
 11
1.0
 21
0.0
 31
0.0
 73
2
 44
0.9
  1
SCALE  .500
 40
0.08
 41
0.704
  0
LINE
  5
20A
100
AcDbEntity
  8
0
100
AcDbLine
 62
7
  6
CONTINUOUS
 10
0.0
 20
0.0
 11
0.0
 21
8.5
  0
LINE
  5
20B
100
AcDbEntity
  8
0
100
AcDbLine
 62
7
  6
CONTINUOUS
 10
0.0
 20
0.0
 11
11.0
 21
0.0
  0
LINE
  5
20C
100
AcDbEntity
  8
0
100
AcDbLine
 62
7
  6
CONTINUOUS
 10
0.0
 20
8.5
 11
11.0
 21
8.5
  0
LINE
  5
20D
100
AcDbEntity
  8
0
100
AcDbLine
 62
7
  6
CONTINUOUS
 10
11.0
 20
0.0
 11
11.0
 21
8.5
  0
LINE
  5
20E
100
AcDbEntity
  8
0
100
AcDbLine
 62
7
  6
CONTINUOUS
 10
2.0601506211
 20
4.1069992257
 11
2.0601506211
 21
4.1969992257
  0
LINE
  5
20F
100
AcDbEntity
  8
0
100
AcDbLine
 62
7
  6
CONTINUOUS
 10
2.1151506211
 20
4.0419992257
 11
2.1151506211
 21
4.0109992257
  0
LINE
  5
210
100
AcDbEntity
  8
0
100
AcDbLine
 62
7
  6
CONTINUOUS
 10
2.1151506211
 20
4.2619992257
 11
2.1151506211
 21
4.2929992257
  0
LINE
  5
211
100
AcDbEntity
  8
0
100
AcDbLine
 62
7
  6
CONTINUOUS
 10
2.1451506211
 20
4.2619992257
 11
2.1451506211
 21
4.2929992257
  0
LINE
  5
212
100
AcDbEntity
  8
0
100
AcDbLine
 62
7
  6
CONTINUOUS
 10
2.162325624
 20
4.0109992257
 11
2.162325624
 21
4.0419992257
  0
LINE
  5
213
100
AcDbEntity
  8
0
100
AcDbLine
 62
7
  6
CONTINUOUS
 10
2.4351506211
 20
3.7169992257
 11
2.4351506211
 21
4.5869992257
  0
LINE
  5
214
100
AcDbEntity
  8
0
100
AcDbLine
 62
7
  6
CONTINUOUS
 10
2.4976506211
 20
3.6544992257
 11
2.4976506211
 21
4.6494992257
  0
LINE
  5
215
100
AcDbEntity
  8
0
100
AcDbLine
 62
7
  6
CONTINUOUS
 10
2.4351506211
 20
4.5869992257
 11
2.4976506211
 21
4.6494992257
  0
LINE
  5
216
100
AcDbEntity
  8
0
100
AcDbLine
 62
7
  6
CONTINUOUS
 10
2.4351506211
 20
3.7169992257
 11
2.4976506211
 21
3.6544992257
  0
LINE
  5
217
100
AcDbEntity
  8
0
100
AcDbLine
 62
7
  6
CONTINUOUS
 10
3.2071506211
 20
4.6494992257
 11
3.2071506211
 21
4.2144992257
  0
LINE
  5
218
100
AcDbEntity
  8
0
100
AcDbLine
 62
7
  6
CONTINUOUS
 10
3.2071506211
 20
4.0894992257
 11
3.2071506211
 21
3.6544992257
  0
LINE
  5
219
100
AcDbEntity
  8
0
100
AcDbLine
 62
7
  6
CONTINUOUS
 10
3.2851506211
 20
4.5714992257
 11
3.2851506211
 21
4.2144992257
  0
LINE
  5
21A
100
AcDbEntity
  8
0
100
AcDbLine
 62
7
  6
CONTINUOUS
 10
3.2851506211
 20
4.0894992257
 11
3.2851506211
 21
3.7324992257
  0
LINE
  5
21B
100
AcDbEntity
  8
0
100
AcDbLine
 62
7
  6
CONTINUOUS
 10
3.2901506211
 20
4.4708119953
 11
3.2901506211
 21
4.3853467616
  0
LINE
  5
21C
100
AcDbEntity
  8
0
100
AcDbLine
 62
7
  6
CONTINUOUS
 10
3.2901506211
 20
4.3678153982
 11
3.2901506211
 21
4.3546669007
  0
LINE
  5
21D
100
AcDbEntity
  8
0
100
AcDbLine
 62
7
  6
CONTINUOUS
 10
3.2901506211
 20
4.3420567694
 11
3.2901506211
 21
4.2144992257
  0
LINE
  5
21E
100
AcDbEntity
  8
0
100
AcDbLine
 62
7
  6
CONTINUOUS
 10
3.2901506211
 20
4.0894992257
 11
3.2901506211
 21
3.9536377461
  0
LINE
  5
21F
100
AcDbEntity
  8
0
100
AcDbLine
 62
7
  6
CONTINUOUS
 10
3.2901506211
 20
3.936106414
 11
3.2901506211
 21
3.8572154291
  0
LINE
  5
220
100
AcDbEntity
  8
0
100
AcDbLine
 62
7
  6
CONTINUOUS
 10
2.4976506211
 20
3.6544992257
 11
3.2071506211
 21
3.6544992257
  0
LINE
  5
221
100
AcDbEntity
  8
0
100
AcDbLine
 62
7
  6
CONTINUOUS
 10
3.7016506211
 20
4.2144992257
 11
3.7016506211
 21
4.0894992257
  0
LINE
  5
222
100
AcDbEntity
  8
0
100
AcDbLine
 62
7
  6
CONTINUOUS
 10
5.9195818323
 20
4.2079544502
 11
5.916841127
 21
4.2072507567
  0
LINE
  5
223
100
AcDbEntity
  8
0
100
AcDbLine
 62
7
  6
CONTINUOUS
 10
5.48371941
 20
4.0960440011
 11
5.4864601153
 21
4.0967476946
  0
LINE
  5
224
100
AcDbEntity
  8
0
100
AcDbLine
 62
7
  6
CONTINUOUS
 10
3.2851506211
 20
3.8572154291
 11
3.2901506211
 21
3.8572154291
  0
LINE
  5
225
100
AcDbEntity
  8
0
100
AcDbLine
 62
7
  6
CONTINUOUS
 10
3.2851506211
 20
3.8703639266
 11
3.2901506211
 21
3.8703639266
  0
LINE
  5
226
100
AcDbEntity
  8
0
100
AcDbLine
 62
7
  6
CONTINUOUS
 10
5.9248764288
 20
4.1801992032
 11
5.9220691386
 21
4.17984456
  0
LINE
  5
227
100
AcDbEntity
  8
0
100
AcDbLine
 62
7
  6
CONTINUOUS
 10
5.4784248134
 20
4.1237992481
 11
5.4812321036
 21
4.1241538913
  0
LINE
  5
228
100
AcDbEntity
  8
0
100
AcDbLine
 62
7
  6
CONTINUOUS
 10
3.2851506211
 20
3.936106414
 11
3.2901506211
 21
3.936106414
  0
LINE
  5
229
100
AcDbEntity
  8
0
100
AcDbLine
 62
7
  6
CONTINUOUS
 10
3.2851506211
 20
3.9536377461
 11
3.2901506211
 21
3.9536377461
  0
LINE
  5
22A
100
AcDbEntity
  8
0
100
AcDbLine
 62
7
  6
CONTINUOUS
 10
2.4351506211
 20
4.0109992257
 11
2.1151506211
 21
4.0109992257
  0
LINE
  5
22B
100
AcDbEntity
  8
0
100
AcDbLine
 62
7
  6
CONTINUOUS
 10
3.2851506211
 20
4.0325287248
 11
3.2901506211
 21
4.0325287248
  0
LINE
  5
22C
100
AcDbEntity
  8
0
100
AcDbLine
 62
7
  6
CONTINUOUS
 10
2.4351506211
 20
4.0419992257
 11
2.1151506211
 21
4.0419992257
  0
LINE
  5
22D
100
AcDbEntity
  8
0
100
AcDbLine
 62
7
  6
CONTINUOUS
 10
3.2851506211
 20
4.0500600631
 11
3.2901506211
 21
4.0500600631
  0
LINE
  5
22E
100
AcDbEntity
  8
0
100
AcDbLine
 62
7
  6
CONTINUOUS
 10
3.2851506211
 20
4.052251471
 11
3.2901506211
 21
4.052251471
  0
LINE
  5
22F
100
AcDbEntity
  8
0
100
AcDbLine
 62
7
  6
CONTINUOUS
 10
3.2851506211
 20
4.0566343119
 11
3.2901506211
 21
4.0566343119
  0
LINE
  5
230
100
AcDbEntity
  8
0
100
AcDbLine
 62
7
  6
CONTINUOUS
 10
3.2851506211
 20
4.0653999685
 11
3.2901506211
 21
4.0653999685
  0
LINE
  5
231
100
AcDbEntity
  8
0
100
AcDbLine
 62
7
  6
CONTINUOUS
 10
3.2851506211
 20
4.0741656377
 11
3.2901506211
 21
4.0741656377
  0
LINE
  5
232
100
AcDbEntity
  8
0
100
AcDbLine
 62
7
  6
CONTINUOUS
 10
3.2851506211
 20
4.0851227273
 11
3.2901506211
 21
4.0851227273
  0
LINE
  5
233
100
AcDbEntity
  8
0
100
AcDbLine
 62
7
  6
CONTINUOUS
 10
3.2016506211
 20
4.0894992257
 11
3.9995578004
 21
4.0894992257
  0
LINE
  5
234
100
AcDbEntity
  8
0
100
AcDbLine
 62
7
  6
CONTINUOUS
 10
4.838190364
 20
4.0894992257
 11
5.2359068541
 21
4.0894992257
  0
LINE
  5
235
100
AcDbEntity
  8
0
100
AcDbLine
 62
7
  6
CONTINUOUS
 10
2.4351506211
 20
4.1069992257
 11
2.0601506211
 21
4.1069992257
  0
LINE
  5
236
100
AcDbEntity
  8
0
100
AcDbLine
 62
7
  6
CONTINUOUS
 10
5.926650621
 20
4.1519992257
 11
5.9238210185
 21
4.1519992257
  0
LINE
  5
237
100
AcDbEntity
  8
0
100
AcDbLine
 62
7
  6
CONTINUOUS
 10
5.4766506212
 20
4.1519992257
 11
5.4794802237
 21
4.1519992257
  0
LINE
  5
238
100
AcDbEntity
  8
0
100
AcDbLine
 62
7
  6
CONTINUOUS
 10
2.4351506211
 20
4.1969992257
 11
2.0601506211
 21
4.1969992257
  0
LINE
  5
239
100
AcDbEntity
  8
0
100
AcDbLine
 62
7
  6
CONTINUOUS
 10
3.2016506211
 20
4.2144992257
 11
3.9995578004
 21
4.2144992257
  0
LINE
  5
23A
100
AcDbEntity
  8
0
100
AcDbLine
 62
7
  6
CONTINUOUS
 10
4.838190364
 20
4.2144992257
 11
5.2359068541
 21
4.2144992257
  0
LINE
  5
23B
100
AcDbEntity
  8
0
100
AcDbLine
 62
7
  6
CONTINUOUS
 10
3.2851506211
 20
4.2363304484
 11
3.2901506211
 21
4.2363304484
  0
LINE
  5
23C
100
AcDbEntity
  8
0
100
AcDbLine
 62
7
  6
CONTINUOUS
 10
3.2851506211
 20
4.2538617616
 11
3.2901506211
 21
4.2538617616
  0
LINE
  5
23D
100
AcDbEntity
  8
0
100
AcDbLine
 62
7
  6
CONTINUOUS
 10
2.1151506211
 20
4.2619992257
 11
2.4351506211
 21
4.2619992257
  0
LINE
  5
23E
100
AcDbEntity
  8
0
100
AcDbLine
 62
7
  6
CONTINUOUS
 10
2.1151506211
 20
4.2929992257
 11
2.4351506211
 21
4.2929992257
  0
LINE
  5
23F
100
AcDbEntity
  8
0
100
AcDbLine
 62
7
  6
CONTINUOUS
 10
3.2851506211
 20
4.3064557767
 11
3.2901506211
 21
4.3064557767
  0
LINE
  5
240
100
AcDbEntity
  8
0
100
AcDbLine
 62
7
  6
CONTINUOUS
 10
3.2851506211
 20
4.3174128412
 11
3.2901506211
 21
4.3174128412
  0
LINE
  5
241
100
AcDbEntity
  8
0
100
AcDbLine
 62
7
  6
CONTINUOUS
 10
3.2851506211
 20
4.3261785229
 11
3.2901506211
 21
4.3261785229
  0
LINE
  5
242
100
AcDbEntity
  8
0
100
AcDbLine
 62
7
  6
CONTINUOUS
 10
3.2851506211
 20
4.3327527716
 11
3.2901506211
 21
4.3327527716
  0
LINE
  5
243
100
AcDbEntity
  8
0
100
AcDbLine
 62
7
  6
CONTINUOUS
 10
3.2851506211
 20
4.3349441545
 11
3.2901506211
 21
4.3349441545
  0
LINE
  5
244
100
AcDbEntity
  8
0
100
AcDbLine
 62
7
  6
CONTINUOUS
 10
3.2851506211
 20
4.3371355874
 11
3.2901506211
 21
4.3371355874
  0
LINE
  5
245
100
AcDbEntity
  8
0
100
AcDbLine
 62
7
  6
CONTINUOUS
 10
3.2851506211
 20
4.3404380297
 11
3.2901506211
 21
4.3404380297
  0
LINE
  5
246
100
AcDbEntity
  8
0
100
AcDbLine
 62
7
  6
CONTINUOUS
 10
3.2851506211
 20
4.3420567694
 11
3.2901506211
 21
4.3420567694
  0
LINE
  5
247
100
AcDbEntity
  8
0
100
AcDbLine
 62
7
  6
CONTINUOUS
 10
3.2851506211
 20
4.3546669007
 11
3.2901506211
 21
4.3546669007
  0
LINE
  5
248
100
AcDbEntity
  8
0
100
AcDbLine
 62
7
  6
CONTINUOUS
 10
3.2851506211
 20
4.3678153982
 11
3.2901506211
 21
4.3678153982
  0
LINE
  5
249
100
AcDbEntity
  8
0
100
AcDbLine
 62
7
  6
CONTINUOUS
 10
3.2851506211
 20
4.3853467616
 11
3.2901506211
 21
4.3853467616
  0
LINE
  5
24A
100
AcDbEntity
  8
0
100
AcDbLine
 62
7
  6
CONTINUOUS
 10
3.2851506211
 20
4.3875381444
 11
3.2901506211
 21
4.3875381444
  0
LINE
  5
24B
100
AcDbEntity
  8
0
100
AcDbLine
 62
7
  6
CONTINUOUS
 10
3.2851506211
 20
4.3919210103
 11
3.2901506211
 21
4.3919210103
  0
LINE
  5
24C
100
AcDbEntity
  8
0
100
AcDbLine
 62
7
  6
CONTINUOUS
 10
3.2851506211
 20
4.4006866419
 11
3.2901506211
 21
4.4006866419
  0
LINE
  5
24D
100
AcDbEntity
  8
0
100
AcDbLine
 62
7
  6
CONTINUOUS
 10
3.2851506211
 20
4.4094523236
 11
3.2901506211
 21
4.4094523236
  0
LINE
  5
24E
100
AcDbEntity
  8
0
100
AcDbLine
 62
7
  6
CONTINUOUS
 10
3.2851506211
 20
4.4204093881
 11
3.2901506211
 21
4.4204093881
  0
LINE
  5
24F
100
AcDbEntity
  8
0
100
AcDbLine
 62
7
  6
CONTINUOUS
 10
3.2851506211
 20
4.4401321344
 11
3.2901506211
 21
4.4401321344
  0
LINE
  5
250
100
AcDbEntity
  8
0
100
AcDbLine
 62
7
  6
CONTINUOUS
 10
3.2851506211
 20
4.451089249
 11
3.2901506211
 21
4.451089249
  0
LINE
  5
251
100
AcDbEntity
  8
0
100
AcDbLine
 62
7
  6
CONTINUOUS
 10
5.9248764288
 20
4.1237992481
 11
5.9220691386
 21
4.1241538913
  0
LINE
  5
252
100
AcDbEntity
  8
0
100
AcDbLine
 62
7
  6
CONTINUOUS
 10
5.4784248134
 20
4.1801992032
 11
5.4812321036
 21
4.17984456
  0
LINE
  5
253
100
AcDbEntity
  8
0
100
AcDbLine
 62
7
  6
CONTINUOUS
 10
3.2851506211
 20
4.4598548806
 11
3.2901506211
 21
4.4598548806
  0
LINE
  5
254
100
AcDbEntity
  8
0
100
AcDbLine
 62
7
  6
CONTINUOUS
 10
3.2851506211
 20
4.4686205623
 11
3.2901506211
 21
4.4686205623
  0
LINE
  5
255
100
AcDbEntity
  8
0
100
AcDbLine
 62
7
  6
CONTINUOUS
 10
3.2851506211
 20
4.4708119953
 11
3.2901506211
 21
4.4708119953
  0
LINE
  5
256
100
AcDbEntity
  8
0
100
AcDbLine
 62
7
  6
CONTINUOUS
 10
5.9195818323
 20
4.0960440011
 11
5.916841127
 21
4.0967476946
  0
LINE
  5
257
100
AcDbEntity
  8
0
100
AcDbLine
 62
7
  6
CONTINUOUS
 10
5.48371941
 20
4.2079544502
 11
5.4864601153
 21
4.2072507567
  0
LINE
  5
258
100
AcDbEntity
  8
0
100
AcDbLine
 62
7
  6
CONTINUOUS
 10
3.2071506211
 20
4.6494992257
 11
2.4976506211
 21
4.6494992257
  0
LINE
  5
259
100
AcDbEntity
  8
0
100
AcDbLine
 62
7
  6
CONTINUOUS
 10
5.9108503303
 20
4.23482725
 11
5.9082199173
 21
4.2337857978
  0
LINE
  5
25A
100
AcDbEntity
  8
0
100
AcDbLine
 62
7
  6
CONTINUOUS
 10
5.4924509119
 20
4.0691712013
 11
5.4950813249
 21
4.0702126535
  0
LINE
  5
25B
100
AcDbEntity
  8
0
100
AcDbLine
 62
7
  6
CONTINUOUS
 10
5.9108503303
 20
4.0691712013
 11
5.9082194325
 21
4.0702128475
  0
LINE
  5
25C
100
AcDbEntity
  8
0
100
AcDbLine
 62
7
  6
CONTINUOUS
 10
5.4924509119
 20
4.23482725
 11
5.4950818097
 21
4.2337856038
  0
LINE
  5
25D
100
AcDbEntity
  8
0
100
AcDbLine
 62
7
  6
CONTINUOUS
 10
5.898819624
 20
4.2603938023
 11
5.8963404812
 21
4.2590308841
  0
LINE
  5
25E
100
AcDbEntity
  8
0
100
AcDbLine
 62
7
  6
CONTINUOUS
 10
5.5044816182
 20
4.043604649
 11
5.5069607611
 21
4.0449675672
  0
LINE
  5
25F
100
AcDbEntity
  8
0
100
AcDbLine
 62
7
  6
CONTINUOUS
 10
5.898819624
 20
4.043604649
 11
5.8963400245
 21
4.0449678204
  0
LINE
  5
260
100
AcDbEntity
  8
0
100
AcDbLine
 62
7
  6
CONTINUOUS
 10
5.5044816182
 20
4.2603938023
 11
5.5069612177
 21
4.2590306309
  0
LINE
  5
261
100
AcDbEntity
  8
0
100
AcDbLine
 62
7
  6
CONTINUOUS
 10
5.8836794448
 20
4.2842509074
 11
5.8813906696
 21
4.2825880172
  0
LINE
  5
262
100
AcDbEntity
  8
0
100
AcDbLine
 62
7
  6
CONTINUOUS
 10
5.5196217975
 20
4.019747544
 11
5.5219105726
 21
4.0214104341
  0
LINE
  5
263
100
AcDbEntity
  8
0
100
AcDbLine
 62
7
  6
CONTINUOUS
 10
5.8836794448
 20
4.019747544
 11
5.8813902483
 21
4.0214107426
  0
LINE
  5
264
100
AcDbEntity
  8
0
100
AcDbLine
 62
7
  6
CONTINUOUS
 10
5.5196217975
 20
4.2842509074
 11
5.521910994
 21
4.2825877088
  0
LINE
  5
265
100
AcDbEntity
  8
0
100
AcDbLine
 62
7
  6
CONTINUOUS
 10
5.2016506211
 20
4.2144992257
 11
5.2016506211
 21
4.0894992257
  0
LINE
  5
266
100
AcDbEntity
  8
0
100
AcDbLine
 62
7
  6
CONTINUOUS
 10
5.8656685622
 20
4.3060223244
 11
5.8636062501
 21
4.3040856871
  0
LINE
  5
267
100
AcDbEntity
  8
0
100
AcDbLine
 62
7
  6
CONTINUOUS
 10
5.53763268
 20
3.9979761269
 11
5.5396949921
 21
3.9999127642
  0
LINE
  5
268
100
AcDbEntity
  8
0
100
AcDbLine
 62
7
  6
CONTINUOUS
 10
5.8656685622
 20
3.9979761269
 11
5.8636058708
 21
3.9999131231
  0
LINE
  5
269
100
AcDbEntity
  8
0
100
AcDbLine
 62
7
  6
CONTINUOUS
 10
5.53763268
 20
4.3060223244
 11
5.5396953715
 21
4.3040853282
  0
LINE
  5
26A
100
AcDbEntity
  8
0
100
AcDbLine
 62
7
  6
CONTINUOUS
 10
5.8450710187
 20
4.3253647052
 11
5.8432676936
 21
4.3231848626
  0
LINE
  5
26B
100
AcDbEntity
  8
0
100
AcDbLine
 62
7
  6
CONTINUOUS
 10
5.5582302235
 20
3.9786337461
 11
5.5600335486
 21
3.9808135887
  0
LINE
  5
26C
100
AcDbEntity
  8
0
100
AcDbLine
 62
7
  6
CONTINUOUS
 10
5.8450710187
 20
3.9786337461
 11
5.8432673623
 21
3.9808139923
  0
LINE
  5
26D
100
AcDbEntity
  8
0
100
AcDbLine
 62
7
  6
CONTINUOUS
 10
5.5582302235
 20
4.3253647052
 11
5.56003388
 21
4.323184459
  0
LINE
  5
26E
100
AcDbEntity
  8
0
100
AcDbLine
 62
7
  6
CONTINUOUS
 10
5.8222116499
 20
4.3419730088
 11
5.8206957513
 21
4.3395843383
  0
LINE
  5
26F
100
AcDbEntity
  8
0
100
AcDbLine
 62
7
  6
CONTINUOUS
 10
5.5810895923
 20
3.9620254425
 11
5.5826054909
 21
3.964414113
  0
LINE
  5
270
100
AcDbEntity
  8
0
100
AcDbLine
 62
7
  6
CONTINUOUS
 10
5.5810895923
 20
4.3419730088
 11
5.5826057691
 21
4.3395838964
  0
LINE
  5
271
100
AcDbEntity
  8
0
100
AcDbLine
 62
7
  6
CONTINUOUS
 10
5.8222116499
 20
3.9620254425
 11
5.8206954731
 21
3.9644145549
  0
LINE
  5
272
100
AcDbEntity
  8
0
100
AcDbLine
 62
7
  6
CONTINUOUS
 10
5.6594898254
 20
3.9309845944
 11
5.660019944
 21
3.9337635635
  0
LINE
  5
273
100
AcDbEntity
  8
0
100
AcDbLine
 62
7
  6
CONTINUOUS
 10
5.7432812022
 20
4.3702343745
 11
5.7438114168
 21
4.3730138567
  0
LINE
  5
274
100
AcDbEntity
  8
0
100
AcDbLine
 62
7
  6
CONTINUOUS
 10
5.6321217974
 20
3.9380115096
 11
5.6329960331
 21
3.9407021243
  0
LINE
  5
275
100
AcDbEntity
  8
0
100
AcDbLine
 62
7
  6
CONTINUOUS
 10
5.7703050496
 20
4.3632958299
 11
5.7711794447
 21
4.3659869414
  0
LINE
  5
276
100
AcDbEntity
  8
0
100
AcDbLine
 62
7
  6
CONTINUOUS
 10
5.7974509617
 20
4.3555853124
 11
5.7962463962
 21
4.3530254848
  0
LINE
  5
277
100
AcDbEntity
  8
0
100
AcDbLine
 62
7
  6
CONTINUOUS
 10
5.6058502806
 20
3.948413139
 11
5.6070548461
 21
3.9509729665
  0
LINE
  5
278
100
AcDbEntity
  8
0
100
AcDbLine
 62
7
  6
CONTINUOUS
 10
5.6058502806
 20
4.3555853124
 11
5.6070550667
 21
4.3530250115
  0
LINE
  5
279
100
AcDbEntity
  8
0
100
AcDbLine
 62
7
  6
CONTINUOUS
 10
5.7974509617
 20
3.948413139
 11
5.7962461755
 21
3.9509734398
  0
LINE
  5
27A
100
AcDbEntity
  8
0
100
AcDbLine
 62
7
  6
CONTINUOUS
 10
5.6321217974
 20
4.3659869417
 11
5.6329961927
 21
4.3632958299
  0
LINE
  5
27B
100
AcDbEntity
  8
0
100
AcDbLine
 62
7
  6
CONTINUOUS
 10
5.7711794448
 20
3.9380115096
 11
5.7703050496
 21
3.9407026215
  0
LINE
  5
27C
100
AcDbEntity
  8
0
100
AcDbLine
 62
7
  6
CONTINUOUS
 10
5.660019944
 20
4.3702348878
 11
5.6594898254
 21
4.373013857
  0
LINE
  5
27D
100
AcDbEntity
  8
0
100
AcDbLine
 62
7
  6
CONTINUOUS
 10
5.7438114169
 20
3.9309845944
 11
5.7432812023
 21
3.9337640768
  0
LINE
  5
27E
100
AcDbEntity
  8
0
100
AcDbLine
 62
7
  6
CONTINUOUS
 10
5.715778488
 20
3.9274432119
 11
5.7156008158
 21
3.9302672308
  0
LINE
  5
27F
100
AcDbEntity
  8
0
100
AcDbLine
 62
7
  6
CONTINUOUS
 10
5.6877004264
 20
4.3737312205
 11
5.6875227542
 21
4.3765552392
  0
LINE
  5
280
100
AcDbEntity
  8
0
100
AcDbLine
 62
7
  6
CONTINUOUS
 10
5.6875227542
 20
3.9274432119
 11
5.6877004264
 21
3.9302672308
  0
LINE
  5
281
100
AcDbEntity
  8
0
100
AcDbLine
 62
7
  6
CONTINUOUS
 10
5.7156008158
 20
4.3737312205
 11
5.715778488
 21
4.3765552392
  0
ARC
  5
282
100
AcDbEntity
  8
0
100
AcDbCircle
 62
7
  6
CONTINUOUS
 10
3.2071506211
 20
3.7324992257
 40
0.078
100
AcDbArc
 50
270.0
 51
360.0
  0
ARC
  5
283
100
AcDbEntity
  8
0
100
AcDbCircle
 62
7
  6
CONTINUOUS
 10
3.2071506211
 20
4.5714992257
 40
0.078
100
AcDbArc
 50
0.0
 51
90.0
  0
ARC
  5
284
100
AcDbEntity
  8
0
100
AcDbCircle
 62
7
  6
CONTINUOUS
 10
3.2016506211
 20
4.1519992257
 40
0.0625
100
AcDbArc
 50
90.0
 51
270.0
  0
ARC
  5
285
100
AcDbEntity
  8
0
100
AcDbCircle
 62
7
  6
CONTINUOUS
 10
2.0601506211
 20
4.1519992257
 40
0.045
100
AcDbArc
 50
90.0
 51
270.0
  0
ARC
  5
286
100
AcDbEntity
  8
0
100
AcDbCircle
 62
7
  6
CONTINUOUS
 10
5.384791053
 20
3.6941230287
 40
0.6851803369
100
AcDbArc
 50
38.1181780354
 51
38.6203113299
  0
ARC
  5
287
100
AcDbEntity
  8
0
100
AcDbCircle
 62
7
  6
CONTINUOUS
 10
5.3112582329
 20
3.7549546679
 40
0.6851803368
100
AcDbArc
 50
62.1796886761
 51
62.6818219647
  0
ARC
  5
288
100
AcDbEntity
  8
0
100
AcDbCircle
 62
7
  6
CONTINUOUS
 10
5.3640994718
 20
3.7091563425
 40
0.6851803368
100
AcDbArc
 50
69.3796886761
 51
69.8818219647
  0
ARC
  5
289
100
AcDbEntity
  8
0
100
AcDbCircle
 62
7
  6
CONTINUOUS
 10
5.6191934801
 20
3.6013165425
 40
0.6851803368
100
AcDbArc
 50
98.1796886761
 51
98.6818219647
  0
ARC
  5
28A
100
AcDbEntity
  8
0
100
AcDbCircle
 62
7
  6
CONTINUOUS
 10
5.6445680051
 20
3.5981109946
 40
0.6851803368
100
AcDbArc
 50
66.9181780353
 51
67.4203113299
  0
ARC
  5
28B
100
AcDbEntity
  8
0
100
AcDbCircle
 62
7
  6
CONTINUOUS
 10
5.2384865752
 20
3.8429204911
 40
0.6851803368
100
AcDbArc
 50
16.5181780353
 51
17.0203113299
  0
ARC
  5
28C
100
AcDbEntity
  8
0
100
AcDbCircle
 62
7
  6
CONTINUOUS
 10
5.4848348085
 20
3.6391235088
 40
0.6851803368
100
AcDbArc
 50
83.7796886761
 51
84.2818219647
  0
ARC
  5
28D
100
AcDbEntity
  8
0
100
AcDbCircle
 62
7
  6
CONTINUOUS
 10
5.550824838
 20
3.6159934601
 40
0.6851803368
100
AcDbArc
 50
90.9796886761
 51
91.4818219647
  0
ARC
  5
28E
100
AcDbEntity
  8
0
100
AcDbCircle
 62
7
  6
CONTINUOUS
 10
5.5755975155
 20
3.6096329176
 40
0.6851803368
100
AcDbArc
 50
59.7181780353
 51
60.22031133
  0
ARC
  5
28F
100
AcDbEntity
  8
0
100
AcDbCircle
 62
7
  6
CONTINUOUS
 10
5.3299024811
 20
3.7374465536
 40
0.6851803368
100
AcDbArc
 50
30.9181780353
 51
31.42031133
  0
ARC
  5
290
100
AcDbEntity
  8
0
100
AcDbCircle
 62
7
  6
CONTINUOUS
 10
5.4222640939
 20
3.6703419139
 40
0.6851803367
100
AcDbArc
 50
76.5796886761
 51
77.0818219647
  0
ARC
  5
291
100
AcDbEntity
  8
0
100
AcDbCircle
 62
7
  6
CONTINUOUS
 10
5.5086149588
 20
3.6297082813
 40
0.6851803368
100
AcDbArc
 50
52.5181780353
 51
53.02031133
  0
ARC
  5
292
100
AcDbEntity
  8
0
100
AcDbCircle
 62
7
  6
CONTINUOUS
 10
5.4446766897
 20
3.6580204851
 40
0.6851803367
100
AcDbArc
 50
45.3181780353
 51
45.82031133
  0
ARC
  5
293
100
AcDbEntity
  8
0
100
AcDbCircle
 62
7
  6
CONTINUOUS
 10
5.2808765993
 20
3.7873078217
 40
0.6851803367
100
AcDbArc
 50
23.7181780353
 51
24.22031133
  0
ARC
  5
294
100
AcDbEntity
  8
0
100
AcDbCircle
 62
7
  6
CONTINUOUS
 10
5.2645737153
 20
3.8070146233
 40
0.6851803367
100
AcDbArc
 50
54.9796886776
 51
55.4818219647
  0
ARC
  5
295
100
AcDbEntity
  8
0
100
AcDbCircle
 62
7
  6
CONTINUOUS
 10
5.6888625206
 20
3.5953242199
 40
0.6851803367
100
AcDbArc
 50
105.3796886761
 51
105.8818219647
  0
ARC
  5
296
100
AcDbEntity
  8
0
100
AcDbCircle
 62
7
  6
CONTINUOUS
 10
5.168269489
 20
3.9921393948
 40
0.6851803369
100
AcDbArc
 50
33.3796886777
 51
33.8818219646
  0
ARC
  5
297
100
AcDbEntity
  8
0
100
AcDbCircle
 62
7
  6
CONTINUOUS
 10
5.2247821614
 20
3.8645151918
 40
0.6851803369
100
AcDbArc
 50
47.7796886777
 51
48.2818219646
  0
ARC
  5
298
100
AcDbEntity
  8
0
100
AcDbCircle
 62
7
  6
CONTINUOUS
 10
5.2034009248
 20
3.9034075168
 40
0.6851803369
100
AcDbArc
 50
9.3181780354
 51
9.8203113299
  0
ARC
  5
299
100
AcDbEntity
  8
0
100
AcDbCircle
 62
7
  6
CONTINUOUS
 10
5.1452711148
 20
4.1298081789
 40
0.6851803368
100
AcDbArc
 50
18.9796886761
 51
19.4818219647
  0
ARC
  5
29A
100
AcDbEntity
  8
0
100
AcDbCircle
 62
7
  6
CONTINUOUS
 10
5.1572321112
 20
4.0351271432
 40
0.6851803368
100
AcDbArc
 50
354.9181780353
 51
355.4203113299
  0
ARC
  5
29B
100
AcDbEntity
  8
0
100
AcDbCircle
 62
7
  6
CONTINUOUS
 10
5.1468770578
 20
4.1042824468
 40
0.6851803368
100
AcDbArc
 50
347.7181780353
 51
348.2203113299
  0
ARC
  5
29C
100
AcDbEntity
  8
0
100
AcDbCircle
 62
7
  6
CONTINUOUS
 10
5.1524396091
 20
4.0602503194
 40
0.6851803368
100
AcDbArc
 50
26.1796886776
 51
26.6818219647
  0
ARC
  5
29D
100
AcDbEntity
  8
0
100
AcDbCircle
 62
7
  6
CONTINUOUS
 10
5.1925111082
 20
3.9265495554
 40
0.6851803367
100
AcDbArc
 50
40.5796886776
 51
41.0818219647
  0
ARC
  5
29E
100
AcDbEntity
  8
0
100
AcDbCircle
 62
7
  6
CONTINUOUS
 10
5.1761729699
 20
3.9678149822
 40
0.6851803367
100
AcDbArc
 50
2.1181780353
 51
2.62031133
  0
ARC
  5
29F
100
AcDbEntity
  8
0
100
AcDbCircle
 62
7
  6
CONTINUOUS
 10
6.0392017705
 20
3.7091563424
 40
0.6851803369
100
AcDbArc
 50
110.1181780354
 51
110.6203113299
  0
ARC
  5
2A0
100
AcDbEntity
  8
0
100
AcDbCircle
 62
7
  6
CONTINUOUS
 10
5.7587332372
 20
3.5981109946
 40
0.6851803368
100
AcDbArc
 50
112.5796886761
 51
113.0818219647
  0
ARC
  5
2A1
100
AcDbEntity
  8
0
100
AcDbCircle
 62
7
  6
CONTINUOUS
 10
6.0920430093
 20
3.7549546679
 40
0.6851803368
100
AcDbArc
 50
117.3181780353
 51
117.8203113318
  0
ARC
  5
2A2
100
AcDbEntity
  8
0
100
AcDbCircle
 62
7
  6
CONTINUOUS
 10
5.9810371483
 20
3.6703419139
 40
0.6851803368
100
AcDbArc
 50
102.9181780353
 51
103.4203113299
  0
ARC
  5
2A3
100
AcDbEntity
  8
0
100
AcDbCircle
 62
7
  6
CONTINUOUS
 10
5.8946862835
 20
3.6297082812
 40
0.6851803368
100
AcDbArc
 50
126.9796886761
 51
127.4818219647
  0
ARC
  5
2A4
100
AcDbEntity
  8
0
100
AcDbCircle
 62
7
  6
CONTINUOUS
 10
5.8524764043
 20
3.6159934601
 40
0.6851803368
100
AcDbArc
 50
88.5181780353
 51
89.0203113299
  0
ARC
  5
2A5
100
AcDbEntity
  8
0
100
AcDbCircle
 62
7
  6
CONTINUOUS
 10
6.0733987612
 20
3.7374465536
 40
0.6851803368
100
AcDbArc
 50
148.5796886761
 51
149.0818219647
  0
ARC
  5
2A6
100
AcDbEntity
  8
0
100
AcDbCircle
 62
7
  6
CONTINUOUS
 10
5.8277037267
 20
3.6096329176
 40
0.6851803368
100
AcDbArc
 50
119.7796886761
 51
120.2818219647
  0
ARC
  5
2A7
100
AcDbEntity
  8
0
100
AcDbCircle
 62
7
  6
CONTINUOUS
 10
5.7841077621
 20
3.6013165426
 40
0.6851803368
100
AcDbArc
 50
81.3181780353
 51
81.82031133
  0
ARC
  5
2A8
100
AcDbEntity
  8
0
100
AcDbCircle
 62
7
  6
CONTINUOUS
 10
6.138727527
 20
3.8070146233
 40
0.6851803368
100
AcDbArc
 50
124.5181780353
 51
125.0203113318
  0
ARC
  5
2A9
100
AcDbEntity
  8
0
100
AcDbCircle
 62
7
  6
CONTINUOUS
 10
5.9586245525
 20
3.6580204851
 40
0.6851803368
100
AcDbArc
 50
134.1796886761
 51
134.6818219647
  0
ARC
  5
2AA
100
AcDbEntity
  8
0
100
AcDbCircle
 62
7
  6
CONTINUOUS
 10
6.1224246429
 20
3.7873078217
 40
0.6851803368
100
AcDbArc
 50
155.7796886761
 51
156.2818219647
  0
ARC
  5
2AB
100
AcDbEntity
  8
0
100
AcDbCircle
 62
7
  6
CONTINUOUS
 10
6.164814667
 20
3.8429204911
 40
0.6851803367
100
AcDbArc
 50
162.9796886761
 51
163.4818219647
  0
ARC
  5
2AC
100
AcDbEntity
  8
0
100
AcDbCircle
 62
7
  6
CONTINUOUS
 10
5.9184664337
 20
3.6391235088
 40
0.6851803367
100
AcDbArc
 50
95.7181780353
 51
96.22031133
  0
ARC
  5
2AD
100
AcDbEntity
  8
0
100
AcDbCircle
 62
7
  6
CONTINUOUS
 10
6.0185101892
 20
3.6941230288
 40
0.6851803367
100
AcDbArc
 50
141.3796886761
 51
141.8818219647
  0
ARC
  5
2AE
100
AcDbEntity
  8
0
100
AcDbCircle
 62
7
  6
CONTINUOUS
 10
5.7144387216
 20
3.59532422
 40
0.6851803367
100
AcDbArc
 50
74.1181780353
 51
74.62031133
  0
ARC
  5
2AF
100
AcDbEntity
  8
0
100
AcDbCircle
 62
7
  6
CONTINUOUS
 10
6.2271282725
 20
3.9678149822
 40
0.6851803368
100
AcDbArc
 50
177.3796886761
 51
177.8818219647
  0
ARC
  5
2B0
100
AcDbEntity
  8
0
100
AcDbCircle
 62
7
  6
CONTINUOUS
 10
6.1785190808
 20
3.8645151918
 40
0.6851803368
100
AcDbArc
 50
131.7181780353
 51
132.2203113318
  0
ARC
  5
2B1
100
AcDbEntity
  8
0
100
AcDbCircle
 62
7
  6
CONTINUOUS
 10
6.246069131
 20
4.0351271432
 40
0.6851803368
100
AcDbArc
 50
184.5796886761
 51
185.0818219647
  0
ARC
  5
2B2
100
AcDbEntity
  8
0
100
AcDbCircle
 62
7
  6
CONTINUOUS
 10
6.2508616332
 20
4.0602503193
 40
0.6851803368
100
AcDbArc
 50
153.3181780353
 51
153.8203113299
  0
ARC
  5
2B3
100
AcDbEntity
  8
0
100
AcDbCircle
 62
7
  6
CONTINUOUS
 10
6.2580301274
 20
4.1298081789
 40
0.6851803368
100
AcDbArc
 50
160.5181780353
 51
161.0203113299
  0
ARC
  5
2B4
100
AcDbEntity
  8
0
100
AcDbCircle
 62
7
  6
CONTINUOUS
 10
6.2350317532
 20
3.9921393948
 40
0.6851803368
100
AcDbArc
 50
146.1181780353
 51
146.6203113318
  0
ARC
  5
2B5
100
AcDbEntity
  8
0
100
AcDbCircle
 62
7
  6
CONTINUOUS
 10
6.2564241844
 20
4.1042824468
 40
0.6851803368
100
AcDbArc
 50
191.7796886761
 51
192.2818219647
  0
ARC
  5
2B6
100
AcDbEntity
  8
0
100
AcDbCircle
 62
7
  6
CONTINUOUS
 10
6.2107901341
 20
3.9265495554
 40
0.6851803367
100
AcDbArc
 50
138.9181780353
 51
139.4203113318
  0
ARC
  5
2B7
100
AcDbEntity
  8
0
100
AcDbCircle
 62
7
  6
CONTINUOUS
 10
6.1999003174
 20
3.9034075168
 40
0.6851803368
100
AcDbArc
 50
170.1796886761
 51
170.6818219647
  0
ARC
  5
2B8
100
AcDbEntity
  8
0
100
AcDbCircle
 62
7
  6
CONTINUOUS
 10
5.2034009248
 20
4.4005909345
 40
0.6851803369
100
AcDbArc
 50
350.1796886761
 51
350.6818219646
  0
ARC
  5
2B9
100
AcDbEntity
  8
0
100
AcDbCircle
 62
7
  6
CONTINUOUS
 10
5.1468770578
 20
4.1997160046
 40
0.6851803368
100
AcDbArc
 50
11.7796886761
 51
12.2818219647
  0
ARC
  5
2BA
100
AcDbEntity
  8
0
100
AcDbCircle
 62
7
  6
CONTINUOUS
 10
5.1524396091
 20
4.243748132
 40
0.6851803368
100
AcDbArc
 50
333.3181780353
 51
333.8203113299
  0
ARC
  5
2BB
100
AcDbEntity
  8
0
100
AcDbCircle
 62
7
  6
CONTINUOUS
 10
5.1452711149
 20
4.1741902724
 40
0.6851803368
100
AcDbArc
 50
340.5181780353
 51
341.02031133
  0
ARC
  5
2BC
100
AcDbEntity
  8
0
100
AcDbCircle
 62
7
  6
CONTINUOUS
 10
5.1761729698
 20
4.3361834691
 40
0.6851803367
100
AcDbArc
 50
357.3796886761
 51
357.8818219647
  0
ARC
  5
2BD
100
AcDbEntity
  8
0
100
AcDbCircle
 62
7
  6
CONTINUOUS
 10
5.1572321113
 20
4.2688713081
 40
0.6851803367
100
AcDbArc
 50
4.579688676
 51
5.0818219647
  0
ARC
  5
2BE
100
AcDbEntity
  8
0
100
AcDbCircle
 62
7
  6
CONTINUOUS
 10
5.1682694891
 20
4.3118590564
 40
0.6851803367
100
AcDbArc
 50
326.1181780353
 51
326.62031133
  0
ARC
  5
2BF
100
AcDbEntity
  8
0
100
AcDbCircle
 62
7
  6
CONTINUOUS
 10
5.1925111082
 20
4.3774488959
 40
0.6851803367
100
AcDbArc
 50
318.9181780353
 51
319.42031133
  0
ARC
  5
2C0
100
AcDbEntity
  8
0
100
AcDbCircle
 62
7
  6
CONTINUOUS
 10
5.5086149587
 20
4.6742901701
 40
0.6851803368
100
AcDbArc
 50
306.9796886761
 51
307.4818219646
  0
ARC
  5
2C1
100
AcDbEntity
  8
0
100
AcDbCircle
 62
7
  6
CONTINUOUS
 10
5.4222640939
 20
4.6336565375
 40
0.6851803368
100
AcDbArc
 50
282.9181780353
 51
283.4203113299
  0
ARC
  5
2C2
100
AcDbEntity
  8
0
100
AcDbCircle
 62
7
  6
CONTINUOUS
 10
5.3112582329
 20
4.5490437834
 40
0.6851803368
100
AcDbArc
 50
297.3181780353
 51
297.8203113299
  0
ARC
  5
2C3
100
AcDbEntity
  8
0
100
AcDbCircle
 62
7
  6
CONTINUOUS
 10
5.329902481
 20
4.5665518977
 40
0.6851803368
100
AcDbArc
 50
328.5796886761
 51
329.0818219647
  0
ARC
  5
2C4
100
AcDbEntity
  8
0
100
AcDbCircle
 62
7
  6
CONTINUOUS
 10
5.4446766897
 20
4.6459779662
 40
0.6851803368
100
AcDbArc
 50
314.1796886761
 51
314.6818219647
  0
ARC
  5
2C5
100
AcDbEntity
  8
0
100
AcDbCircle
 62
7
  6
CONTINUOUS
 10
5.550824838
 20
4.6880049912
 40
0.6851803368
100
AcDbArc
 50
268.5181780353
 51
269.0203113299
  0
ARC
  5
2C6
100
AcDbEntity
  8
0
100
AcDbCircle
 62
7
  6
CONTINUOUS
 10
5.2645737152
 20
4.4969838281
 40
0.6851803368
100
AcDbArc
 50
304.5181780353
 51
305.0203113299
  0
ARC
  5
2C7
100
AcDbEntity
  8
0
100
AcDbCircle
 62
7
  6
CONTINUOUS
 10
5.2384865752
 20
4.4610779602
 40
0.6851803368
100
AcDbArc
 50
342.9796886761
 51
343.4818219647
  0
ARC
  5
2C8
100
AcDbEntity
  8
0
100
AcDbCircle
 62
7
  6
CONTINUOUS
 10
5.2808765993
 20
4.5166906296
 40
0.6851803368
100
AcDbArc
 50
335.7796886761
 51
336.2818219647
  0
ARC
  5
2C9
100
AcDbEntity
  8
0
100
AcDbCircle
 62
7
  6
CONTINUOUS
 10
5.384791053
 20
4.6098754225
 40
0.6851803368
100
AcDbArc
 50
321.3796886761
 51
321.8818219647
  0
ARC
  5
2CA
100
AcDbEntity
  8
0
100
AcDbCircle
 62
7
  6
CONTINUOUS
 10
5.5755975155
 20
4.6943655337
 40
0.6851803368
100
AcDbArc
 50
299.7796886761
 51
300.2818219647
  0
ARC
  5
2CB
100
AcDbEntity
  8
0
100
AcDbCircle
 62
7
  6
CONTINUOUS
 10
5.3640994718
 20
4.5948421088
 40
0.6851803368
100
AcDbArc
 50
290.1181780353
 51
290.6203113299
  0
ARC
  5
2CC
100
AcDbEntity
  8
0
100
AcDbCircle
 62
7
  6
CONTINUOUS
 10
5.6445680051
 20
4.7058874567
 40
0.6851803368
100
AcDbArc
 50
292.5796886761
 51
293.0818219647
  0
ARC
  5
2CD
100
AcDbEntity
  8
0
100
AcDbCircle
 62
7
  6
CONTINUOUS
 10
5.2247821614
 20
4.4394832595
 40
0.6851803368
100
AcDbArc
 50
311.7181780353
 51
312.2203113299
  0
ARC
  5
2CE
100
AcDbEntity
  8
0
100
AcDbCircle
 62
7
  6
CONTINUOUS
 10
5.6888625206
 20
4.7086742314
 40
0.6851803367
100
AcDbArc
 50
254.1181780353
 51
254.62031133
  0
ARC
  5
2CF
100
AcDbEntity
  8
0
100
AcDbCircle
 62
7
  6
CONTINUOUS
 10
5.6191934801
 20
4.7026819087
 40
0.6851803367
100
AcDbArc
 50
261.3181780353
 51
261.82031133
  0
ARC
  5
2D0
100
AcDbEntity
  8
0
100
AcDbCircle
 62
7
  6
CONTINUOUS
 10
5.4848348085
 20
4.6648749425
 40
0.6851803367
100
AcDbArc
 50
275.7181780353
 51
276.22031133
  0
CIRCLE
  5
2D1
100
AcDbEntity
  8
0
100
AcDbCircle
 62
7
  6
CONTINUOUS
 10
5.7016506211
 20
4.1519992257
 40
0.47
  0
CIRCLE
  5
2D2
100
AcDbEntity
  8
0
100
AcDbCircle
 62
7
  6
CONTINUOUS
 10
5.7016506211
 20
4.1519992257
 40
0.46875
  0
CIRCLE
  5
2D3
100
AcDbEntity
  8
0
100
AcDbCircle
 62
7
  6
CONTINUOUS
 10
5.7016506211
 20
4.1519992257
 40
0.45375
  0
CIRCLE
  5
2D4
100
AcDbEntity
  8
0
100
AcDbCircle
 62
7
  6
CONTINUOUS
 10
5.7016506211
 20
4.1519992257
 40
0.44625
  0
CIRCLE
  5
2D5
100
AcDbEntity
  8
0
100
AcDbCircle
 62
7
  6
CONTINUOUS
 10
5.7016506211
 20
4.1519992257
 40
0.43125
  0
CIRCLE
  5
2D6
100
AcDbEntity
  8
0
100
AcDbCircle
 62
7
  6
CONTINUOUS
 10
5.7016506211
 20
4.1519992257
 40
0.41625
  0
CIRCLE
  5
2D7
100
AcDbEntity
  8
0
100
AcDbCircle
 62
7
  6
CONTINUOUS
 10
5.7016506211
 20
4.1519992257
 40
0.235
  0
ARC
  5
2D8
100
AcDbEntity
  8
0
100
AcDbCircle
 62
7
  6
CONTINUOUS
 10
5.7016506211
 20
4.1519992257
 40
0.225
100
AcDbArc
 50
95.567804288
 51
109.9554001873
  0
ARC
  5
2D9
100
AcDbEntity
  8
0
100
AcDbCircle
 62
7
  6
CONTINUOUS
 10
5.7016506211
 20
4.1519992257
 40
0.225
100
AcDbArc
 50
109.967804288
 51
124.3554001873
  0
ARC
  5
2DA
100
AcDbEntity
  8
0
100
AcDbCircle
 62
7
  6
CONTINUOUS
 10
5.7016506211
 20
4.1519992257
 40
0.225
100
AcDbArc
 50
124.367804288
 51
131.5554001872
  0
ARC
  5
2DB
100
AcDbEntity
  8
0
100
AcDbCircle
 62
7
  6
CONTINUOUS
 10
5.7016506211
 20
4.1519992257
 40
0.225
100
AcDbArc
 50
131.567804288
 51
138.7554001873
  0
ARC
  5
2DC
100
AcDbEntity
  8
0
100
AcDbCircle
 62
7
  6
CONTINUOUS
 10
5.7016506211
 20
4.1519992257
 40
0.225
100
AcDbArc
 50
138.767804288
 51
203.5554001873
  0
ARC
  5
2DD
100
AcDbEntity
  8
0
100
AcDbCircle
 62
7
  6
CONTINUOUS
 10
5.7016506211
 20
4.1519992257
 40
0.225
100
AcDbArc
 50
203.567804288
 51
225.1554001873
  0
ARC
  5
2DE
100
AcDbEntity
  8
0
100
AcDbCircle
 62
7
  6
CONTINUOUS
 10
5.7016506211
 20
4.1519992257
 40
0.225
100
AcDbArc
 50
225.167804288
 51
239.5554001873
  0
ARC
  5
2DF
100
AcDbEntity
  8
0
100
AcDbCircle
 62
7
  6
CONTINUOUS
 10
5.7016506211
 20
4.1519992257
 40
0.225
100
AcDbArc
 50
239.567804288
 51
246.7554001873
  0
ARC
  5
2E0
100
AcDbEntity
  8
0
100
AcDbCircle
 62
7
  6
CONTINUOUS
 10
5.7016506211
 20
4.1519992257
 40
0.225
100
AcDbArc
 50
246.767804288
 51
261.1554001873
  0
ARC
  5
2E1
100
AcDbEntity
  8
0
100
AcDbCircle
 62
7
  6
CONTINUOUS
 10
5.7016506211
 20
4.1519992257
 40
0.225
100
AcDbArc
 50
261.167804288
 51
304.3554001873
  0
ARC
  5
2E2
100
AcDbEntity
  8
0
100
AcDbCircle
 62
7
  6
CONTINUOUS
 10
5.7016506211
 20
4.1519992257
 40
0.225
100
AcDbArc
 50
304.367804288
 51
311.5554001873
  0
ARC
  5
2E3
100
AcDbEntity
  8
0
100
AcDbCircle
 62
7
  6
CONTINUOUS
 10
5.7016506211
 20
4.1519992257
 40
0.225
100
AcDbArc
 50
311.567804288
 51
340.3554001873
  0
ARC
  5
2E4
100
AcDbEntity
  8
0
100
AcDbCircle
 62
7
  6
CONTINUOUS
 10
5.7016506211
 20
4.1519992257
 40
0.225
100
AcDbArc
 50
340.367804288
 51
347.5554001873
  0
ARC
  5
2E5
100
AcDbEntity
  8
0
100
AcDbCircle
 62
7
  6
CONTINUOUS
 10
5.7016506211
 20
4.1519992257
 40
0.225
100
AcDbArc
 50
347.567804288
 51
1.9554001873
  0
ARC
  5
2E6
100
AcDbEntity
  8
0
100
AcDbCircle
 62
7
  6
CONTINUOUS
 10
5.7016506211
 20
4.1519992257
 40
0.225
100
AcDbArc
 50
1.967804288
 51
45.1554001873
  0
ARC
  5
2E7
100
AcDbEntity
  8
0
100
AcDbCircle
 62
7
  6
CONTINUOUS
 10
5.7016506211
 20
4.1519992257
 40
0.225
100
AcDbArc
 50
45.167804288
 51
73.9554001869
  0
ARC
  5
2E8
100
AcDbEntity
  8
0
100
AcDbCircle
 62
7
  6
CONTINUOUS
 10
5.7016506211
 20
4.1519992257
 40
0.225
100
AcDbArc
 50
73.967804288
 51
91.632195712
  0
ARC
  5
2E9
100
AcDbEntity
  8
0
100
AcDbCircle
 62
7
  6
CONTINUOUS
 10
5.7016506211
 20
4.1519992257
 40
0.225
100
AcDbArc
 50
91.644599811
 51
95.555400183
  0
CIRCLE
  5
2EA
100
AcDbEntity
  8
0
100
AcDbCircle
 62
7
  6
CONTINUOUS
 10
5.7016506211
 20
4.1519992257
 40
0.2137333333
  0
ARC
  5
2EB
100
AcDbEntity
  8
0
100
AcDbCircle
 62
7
  6
CONTINUOUS
 10
6.2564241845
 20
4.1997160046
 40
0.6851803368
100
AcDbArc
 50
167.7181780353
 51
168.2203113299
  0
ARC
  5
2EC
100
AcDbEntity
  8
0
100
AcDbCircle
 62
7
  6
CONTINUOUS
 10
6.2508616332
 20
4.243748132
 40
0.6851803368
100
AcDbArc
 50
206.1796886761
 51
206.6818219647
  0
ARC
  5
2ED
100
AcDbEntity
  8
0
100
AcDbCircle
 62
7
  6
CONTINUOUS
 10
6.2580301274
 20
4.1741902724
 40
0.6851803368
100
AcDbArc
 50
198.9796886761
 51
199.4818219647
  0
ARC
  5
2EE
100
AcDbEntity
  8
0
100
AcDbCircle
 62
7
  6
CONTINUOUS
 10
6.2460691309
 20
4.2688713081
 40
0.6851803367
100
AcDbArc
 50
174.9181780353
 51
175.42031133
  0
ARC
  5
2EF
100
AcDbEntity
  8
0
100
AcDbCircle
 62
7
  6
CONTINUOUS
 10
6.2107901342
 20
4.3774488961
 40
0.6851803369
100
AcDbArc
 50
220.5796886761
 51
221.0818219646
  0
ARC
  5
2F0
100
AcDbEntity
  8
0
100
AcDbCircle
 62
7
  6
CONTINUOUS
 10
6.1999003174
 20
4.4005909345
 40
0.6851803368
100
AcDbArc
 50
189.3181780353
 51
189.82031133
  0
ARC
  5
2F1
100
AcDbEntity
  8
0
100
AcDbCircle
 62
7
  6
CONTINUOUS
 10
6.2271282724
 20
4.3361834691
 40
0.6851803367
100
AcDbArc
 50
182.1181780353
 51
182.62031133
  0
ARC
  5
2F2
100
AcDbEntity
  8
0
100
AcDbCircle
 62
7
  6
CONTINUOUS
 10
6.2350317531
 20
4.3118590564
 40
0.6851803367
100
AcDbArc
 50
213.379688676
 51
213.8818219647
  0
ARC
  5
2F3
100
AcDbEntity
  8
0
100
AcDbCircle
 62
7
  6
CONTINUOUS
 10
6.0392017705
 20
4.5948421088
 40
0.6851803368
100
AcDbArc
 50
249.3796886761
 51
249.8818219647
  0
ARC
  5
2F4
100
AcDbEntity
  8
0
100
AcDbCircle
 62
7
  6
CONTINUOUS
 10
6.138727527
 20
4.4969838281
 40
0.6851803368
100
AcDbArc
 50
234.9796886761
 51
235.4818219647
  0
ARC
  5
2F5
100
AcDbEntity
  8
0
100
AcDbCircle
 62
7
  6
CONTINUOUS
 10
6.122424643
 20
4.5166906296
 40
0.6851803368
100
AcDbArc
 50
203.7181780353
 51
204.2203113299
  0
ARC
  5
2F6
100
AcDbEntity
  8
0
100
AcDbCircle
 62
7
  6
CONTINUOUS
 10
6.0185101892
 20
4.6098754225
 40
0.6851803368
100
AcDbArc
 50
218.1181780353
 51
218.6203113299
  0
ARC
  5
2F7
100
AcDbEntity
  8
0
100
AcDbCircle
 62
7
  6
CONTINUOUS
 10
5.7841077621
 20
4.7026819088
 40
0.6851803368
100
AcDbArc
 50
278.1796886761
 51
278.6818219647
  0
ARC
  5
2F8
100
AcDbEntity
  8
0
100
AcDbCircle
 62
7
  6
CONTINUOUS
 10
5.8524764043
 20
4.6880049912
 40
0.6851803368
100
AcDbArc
 50
270.9796886761
 51
271.4818219647
  0
ARC
  5
2F9
100
AcDbEntity
  8
0
100
AcDbCircle
 62
7
  6
CONTINUOUS
 10
6.0920430093
 20
4.5490437834
 40
0.6851803368
100
AcDbArc
 50
242.1796886761
 51
242.6818219647
  0
ARC
  5
2FA
100
AcDbEntity
  8
0
100
AcDbCircle
 62
7
  6
CONTINUOUS
 10
6.0733987612
 20
4.5665518977
 40
0.6851803368
100
AcDbArc
 50
210.9181780353
 51
211.42031133
  0
ARC
  5
2FB
100
AcDbEntity
  8
0
100
AcDbCircle
 62
7
  6
CONTINUOUS
 10
5.7587332371
 20
4.7058874567
 40
0.6851803368
100
AcDbArc
 50
246.9181780353
 51
247.42031133
  0
ARC
  5
2FC
100
AcDbEntity
  8
0
100
AcDbCircle
 62
7
  6
CONTINUOUS
 10
5.9810371483
 20
4.6336565374
 40
0.6851803368
100
AcDbArc
 50
256.5796886761
 51
257.0818219647
  0
ARC
  5
2FD
100
AcDbEntity
  8
0
100
AcDbCircle
 62
7
  6
CONTINUOUS
 10
6.164814667
 20
4.4610779602
 40
0.6851803368
100
AcDbArc
 50
196.5181780353
 51
197.02031133
  0
ARC
  5
2FE
100
AcDbEntity
  8
0
100
AcDbCircle
 62
7
  6
CONTINUOUS
 10
5.8946862835
 20
4.6742901701
 40
0.6851803368
100
AcDbArc
 50
232.5181780353
 51
233.02031133
  0
ARC
  5
2FF
100
AcDbEntity
  8
0
100
AcDbCircle
 62
7
  6
CONTINUOUS
 10
5.8277037267
 20
4.6943655337
 40
0.6851803368
100
AcDbArc
 50
239.7181780353
 51
240.22031133
  0
ARC
  5
300
100
AcDbEntity
  8
0
100
AcDbCircle
 62
7
  6
CONTINUOUS
 10
5.9184664337
 20
4.6648749425
 40
0.6851803368
100
AcDbArc
 50
263.7796886761
 51
264.2818219647
  0
ARC
  5
301
100
AcDbEntity
  8
0
100
AcDbCircle
 62
7
  6
CONTINUOUS
 10
6.1785190808
 20
4.4394832595
 40
0.6851803367
100
AcDbArc
 50
227.7796886761
 51
228.2818219647
  0
ARC
  5
302
100
AcDbEntity
  8
0
100
AcDbCircle
 62
7
  6
CONTINUOUS
 10
5.9586245525
 20
4.6459779662
 40
0.6851803367
100
AcDbArc
 50
225.3181780353
 51
225.82031133
  0
ARC
  5
303
100
AcDbEntity
  8
0
100
AcDbCircle
 62
7
  6
CONTINUOUS
 10
5.7144387216
 20
4.7086742314
 40
0.6851803367
100
AcDbArc
 50
285.3796886761
 51
285.8818219647
  0
LINE
  5
304
100
AcDbEntity
  8
0
100
AcDbLine
 62
7
  6
CONTINUOUS
 10
5.8043851875
 20
4.35217567
 11
5.8035287722
 21
4.3525305197
  0
LINE
  5
305
100
AcDbEntity
  8
0
100
AcDbLine
 62
7
  6
CONTINUOUS
 10
5.8163757494
 20
4.3454678342
 11
5.8156172496
 21
4.3460007916
  0
SPLINE
  5
306
100
AcDbEntity
  8
0
100
AcDbSpline
 62
7
  6
CONTINUOUS
 70
0
 71
3
 72
9
 73
5
 74
0
 42
0.0000001
 43
0.0000001
 44
0.0000000001
 40
0.0
 40
0.0
 40
0.0
 40
0.0
 40
0.4838122253
 40
1.0
 40
1.0
 40
1.0
 40
1.0
 10
5.8206957535
 20
4.3395843383
 30
0.0
 10
5.8194533172
 20
4.3396368844
 30
0.0
 10
5.8168792763
 20
4.339616152
 30
0.0
 10
5.8143160257
 20
4.3393978031
 30
0.0
 10
5.812998419
 20
4.3392422067
 30
0.0
  0
SPLINE
  5
307
100
AcDbEntity
  8
0
100
AcDbSpline
 62
7
  6
CONTINUOUS
 70
0
 71
3
 72
9
 73
5
 74
0
 42
0.0000001
 43
0.0000001
 44
0.0000000001
 40
0.0
 40
0.0
 40
0.0
 40
0.0
 40
0.516187774
 40
1.0
 40
1.0
 40
1.0
 40
1.0
 10
5.8236635492
 20
4.3324739092
 30
0.0
 10
5.8232433275
 20
4.3337323652
 30
0.0
 10
5.8223495164
 20
4.3361446321
 30
0.0
 10
5.8212723023
 20
4.3384825213
 30
0.0
 10
5.8206957535
 20
4.3395843383
 30
0.0
  0
LINE
  5
308
100
AcDbEntity
  8
0
100
AcDbLine
 62
7
  6
CONTINUOUS
 10
5.8286638559
 20
4.3377211635
 11
5.827858668
 21
4.3381805524
  0
LINE
  5
309
100
AcDbEntity
  8
0
100
AcDbLine
 62
7
  6
CONTINUOUS
 10
5.8397191538
 20
4.3295634051
 11
5.8390334323
 21
4.3301872252
  0
SPLINE
  5
30A
100
AcDbEntity
  8
0
100
AcDbSpline
 62
7
  6
CONTINUOUS
 70
0
 71
3
 72
9
 73
5
 74
0
 42
0.0000001
 43
0.0000001
 44
0.0000000001
 40
0.0
 40
0.0
 40
0.0
 40
0.0
 40
0.4838122253
 40
1.0
 40
1.0
 40
1.0
 40
1.0
 10
5.8432676958
 20
4.3231848622
 30
0.0
 10
5.8420416423
 20
4.3233927125
 30
0.0
 10
5.8394853
 20
4.3236947565
 30
0.0
 10
5.8369148951
 20
4.3237993899
 30
0.0
 10
5.8355881766
 20
4.3238101603
 30
0.0
  0
SPLINE
  5
30B
100
AcDbEntity
  8
0
100
AcDbSpline
 62
7
  6
CONTINUOUS
 70
0
 71
3
 72
9
 73
5
 74
0
 42
0.0000001
 43
0.0000001
 44
0.0000000001
 40
0.0
 40
0.0
 40
0.0
 40
0.0
 40
0.516187774
 40
1.0
 40
1.0
 40
1.0
 40
1.0
 10
5.8453209165
 20
4.3157585376
 30
0.0
 10
5.8450617347
 20
4.3170597381
 30
0.0
 10
5.8444773088
 20
4.3195650077
 30
0.0
 10
5.8437016041
 20
4.3220194727
 30
0.0
 10
5.8432676958
 20
4.3231848622
 30
0.0
  0
LINE
  5
30C
100
AcDbEntity
  8
0
100
AcDbLine
 62
7
  6
CONTINUOUS
 10
5.8509394496
 20
4.3203377111
 11
5.8501981876
 21
4.3208943944
  0
LINE
  5
30D
100
AcDbEntity
  8
0
100
AcDbLine
 62
7
  6
CONTINUOUS
 10
5.860885135
 20
4.3108586829
 11
5.860283006
 21
4.3115635277
  0
SPLINE
  5
30E
100
AcDbEntity
  8
0
100
AcDbSpline
 62
7
  6
CONTINUOUS
 70
0
 71
3
 72
9
 73
5
 74
0
 42
0.0000001
 43
0.0000001
 44
0.0000000001
 40
0.0
 40
0.0
 40
0.0
 40
0.0
 40
0.4838122253
 40
1.0
 40
1.0
 40
1.0
 40
1.0
 10
5.8636062522
 20
4.3040856865
 30
0.0
 10
5.8624159171
 20
4.3044455631
 30
0.0
 10
5.8599175884
 20
4.30506562
 30
0.0
 10
5.857380566
 20
4.3054915855
 30
0.0
 10
5.856065659
 20
4.3056685528
 30
0.0
  0
SPLINE
  5
30F
100
AcDbEntity
  8
0
100
AcDbSpline
 62
7
  6
CONTINUOUS
 70
0
 71
3
 72
9
 73
5
 74
0
 42
0.0000001
 43
0.0000001
 44
0.0000000001
 40
0.0
 40
0.0
 40
0.0
 40
0.0
 40
0.516187774
 40
1.0
 40
1.0
 40
1.0
 40
1.0
 10
5.8647125174
 20
4.2964605839
 30
0.0
 10
5.864618463
 20
4.297784008
 30
0.0
 10
5.864352639
 20
4.3003427709
 30
0.0
 10
5.863890677
 20
4.3028751033
 30
0.0
 10
5.8636062522
 20
4.3040856865
 30
0.0
  0
LINE
  5
310
100
AcDbEntity
  8
0
100
AcDbLine
 62
7
  6
CONTINUOUS
 10
5.8708606693
 20
4.3002994603
 11
5.8701950233
 21
4.3009446587
  0
LINE
  5
311
100
AcDbEntity
  8
0
100
AcDbLine
 62
7
  6
CONTINUOUS
 10
5.8795398927
 20
4.2896486521
 11
5.8790308522
 21
4.2904234058
  0
SPLINE
  5
312
100
AcDbEntity
  8
0
100
AcDbSpline
 62
7
  6
CONTINUOUS
 70
0
 71
3
 72
9
 73
5
 74
0
 42
0.0000001
 43
0.0000001
 44
0.0000000001
 40
0.0
 40
0.0
 40
0.0
 40
0.0
 40
0.4838122253
 40
1.0
 40
1.0
 40
1.0
 40
1.0
 10
5.8813906716
 20
4.2825880163
 30
0.0
 10
5.8802548271
 20
4.2830942438
 30
0.0
 10
5.8778539123
 20
4.284022535
 30
0.0
 10
5.8753902826
 20
4.2847631148
 30
0.0
 10
5.874107924
 20
4.2851034883
 30
0.0
  0
SPLINE
  5
313
100
AcDbEntity
  8
0
100
AcDbSpline
 62
7
  6
CONTINUOUS
 70
0
 71
3
 72
9
 73
5
 74
0
 42
0.0000001
 43
0.0000001
 44
0.0000000001
 40
0.0
 40
0.0
 40
0.0
 40
0.0
 40
0.516187774
 40
1.0
 40
1.0
 40
1.0
 40
1.0
 10
5.8815325348
 20
4.2748843882
 30
0.0
 10
5.881605091
 20
4.2762091649
 30
0.0
 10
5.8816620612
 20
4.2787810677
 30
0.0
 10
5.8815211273
 20
4.2813513311
 30
0.0
 10
5.8813906716
 20
4.2825880163
 30
0.0
  0
LINE
  5
314
100
AcDbEntity
  8
0
100
AcDbLine
 62
7
  6
CONTINUOUS
 10
5.8881133455
 20
4.2779224262
 11
5.8875338131
 21
4.2786459646
  0
LINE
  5
315
100
AcDbEntity
  8
0
100
AcDbLine
 62
7
  6
CONTINUOUS
 10
5.8953892304
 20
4.2662678076
 11
5.8949813062
 21
4.2671002518
  0
SPLINE
  5
316
100
AcDbEntity
  8
0
100
AcDbSpline
 62
7
  6
CONTINUOUS
 70
0
 71
3
 72
9
 73
5
 74
0
 42
0.0000001
 43
0.0000001
 44
0.0000000001
 40
0.0
 40
0.0
 40
0.0
 40
0.0
 40
0.4838122253
 40
1.0
 40
1.0
 40
1.0
 40
1.0
 10
5.8963404831
 20
4.259030883
 30
0.0
 10
5.8952770421
 20
4.2596754777
 30
0.0
 10
5.893011405
 20
4.2608973635
 30
0.0
 10
5.890660021
 20
4.2619408783
 30
0.0
 10
5.8894304343
 20
4.26243929
 30
0.0
  0
SPLINE
  5
317
100
AcDbEntity
  8
0
100
AcDbSpline
 62
7
  6
CONTINUOUS
 70
0
 71
3
 72
9
 73
5
 74
0
 42
0.0000001
 43
0.0000001
 44
0.0000000001
 40
0.0
 40
0.0
 40
0.0
 40
0.0
 40
0.516187774
 40
1.0
 40
1.0
 40
1.0
 40
1.0
 10
5.895515707
 20
4.25137022
 30
0.0
 10
5.8957537296
 20
4.2526754568
 30
0.0
 10
5.8961325954
 20
4.2552199391
 30
0.0
 10
5.8963149122
 20
4.257787599
 30
0.0
 10
5.8963404831
 20
4.259030883
 30
0.0
  0
LINE
  5
318
100
AcDbEntity
  8
0
100
AcDbLine
 62
7
  6
CONTINUOUS
 10
5.9024253931
 20
4.2535595079
 11
5.9019411139
 21
4.2543499757
  0
LINE
  5
319
100
AcDbEntity
  8
0
100
AcDbLine
 62
7
  6
CONTINUOUS
 10
5.9081831945
 20
4.2410848793
 11
5.9078828198
 21
4.241961886
  0
SPLINE
  5
31A
100
AcDbEntity
  8
0
100
AcDbSpline
 62
7
  6
CONTINUOUS
 70
0
 71
3
 72
9
 73
5
 74
0
 42
0.0000001
 43
0.0000001
 44
0.0000000001
 40
0.0
 40
0.0
 40
0.0
 40
0.0
 40
0.4838122253
 40
1.0
 40
1.0
 40
1.0
 40
1.0
 10
5.9082199191
 20
4.2337857965
 30
0.0
 10
5.9072456528
 20
4.2345585929
 30
0.0
 10
5.9051510238
 20
4.2360548033
 30
0.0
 10
5.9029489683
 20
4.2373847963
 30
0.0
 10
5.9017915447
 20
4.2380333859
 30
0.0
  0
SPLINE
  5
31B
100
AcDbEntity
  8
0
100
AcDbSpline
 62
7
  6
CONTINUOUS
 70
0
 71
3
 72
9
 73
5
 74
0
 42
0.0000001
 43
0.0000001
 44
0.0000000001
 40
0.0
 40
0.0
 40
0.0
 40
0.0
 40
0.516187774
 40
1.0
 40
1.0
 40
1.0
 40
1.0
 10
5.9064415109
 20
4.226288912
 30
0.0
 10
5.9068412462
 20
4.2275540244
 30
0.0
 10
5.9075360327
 20
4.2300309583
 30
0.0
 10
5.9080387251
 20
4.232555521
 30
0.0
 10
5.9082199191
 20
4.2337857965
 30
0.0
  0
LINE
  5
31C
100
AcDbEntity
  8
0
100
AcDbLine
 62
7
  6
CONTINUOUS
 10
5.9135711026
 20
4.2275949234
 11
5.913189714
 21
4.2284398543
  0
LINE
  5
31D
100
AcDbEntity
  8
0
100
AcDbLine
 62
7
  6
CONTINUOUS
 10
5.9177200165
 20
4.2144970171
 11
5.9175319284
 21
4.2154047552
  0
SPLINE
  5
31E
100
AcDbEntity
  8
0
100
AcDbSpline
 62
7
  6
CONTINUOUS
 70
0
 71
3
 72
9
 73
5
 74
0
 42
0.0000001
 43
0.0000001
 44
0.0000000001
 40
0.0
 40
0.0
 40
0.0
 40
0.0
 40
0.4838122253
 40
1.0
 40
1.0
 40
1.0
 40
1.0
 10
5.9168416338
 20
4.2072508869
 30
0.0
 10
5.915971907
 20
4.2081396975
 30
0.0
 10
5.9140813197
 20
4.2098866365
 30
0.0
 10
5.9120633204
 20
4.2114821328
 30
0.0
 10
5.9109963133
 20
4.2122706717
 30
0.0
  0
SPLINE
  5
31F
100
AcDbEntity
  8
0
100
AcDbSpline
 62
7
  6
CONTINUOUS
 70
0
 71
3
 72
9
 73
5
 74
0
 42
0.0000001
 43
0.0000001
 44
0.0000000001
 40
0.0
 40
0.0
 40
0.0
 40
0.0
 40
0.516187774
 40
1.0
 40
1.0
 40
1.0
 40
1.0
 10
5.9141376402
 20
4.2000360112
 30
0.0
 10
5.9146927841
 20
4.2012410477
 30
0.0
 10
5.9156925341
 20
4.2036113704
 30
0.0
 10
5.9165076742
 20
4.2060530221
 30
0.0
 10
5.9168416338
 20
4.2072508869
 30
0.0
  0
LINE
  5
320
100
AcDbEntity
  8
0
100
AcDbLine
 62
7
  6
CONTINUOUS
 10
5.9213746996
 20
4.2004381495
 11
5.9211022163
 21
4.2013242186
  0
LINE
  5
321
100
AcDbEntity
  8
0
100
AcDbLine
 62
7
  6
CONTINUOUS
 10
5.923849295
 20
4.1869235274
 11
5.9237764598
 21
4.1878476813
  0
SPLINE
  5
322
100
AcDbEntity
  8
0
100
AcDbSpline
 62
7
  6
CONTINUOUS
 70
0
 71
3
 72
9
 73
5
 74
0
 42
0.0000001
 43
0.0000001
 44
0.0000000001
 40
0.0
 40
0.0
 40
0.0
 40
0.0
 40
0.4838122253
 40
1.0
 40
1.0
 40
1.0
 40
1.0
 10
5.9220696578
 20
4.1798446256
 30
0.0
 10
5.9213181865
 20
4.1808354333
 30
0.0
 10
5.9196614565
 20
4.1828055506
 30
0.0
 10
5.9178593385
 20
4.1846413883
 30
0.0
 10
5.9168995752
 20
4.1855574409
 30
0.0
  0
SPLINE
  5
323
100
AcDbEntity
  8
0
100
AcDbSpline
 62
7
  6
CONTINUOUS
 70
0
 71
3
 72
9
 73
5
 74
0
 42
0.0000001
 43
0.0000001
 44
0.0000000001
 40
0.0
 40
0.0
 40
0.0
 40
0.0
 40
0.516187774
 40
1.0
 40
1.0
 40
1.0
 40
1.0
 10
5.9184827223
 20
4.1730255416
 30
0.0
 10
5.9191845198
 20
4.1741514981
 30
0.0
 10
5.9204734667
 20
4.1763778281
 30
0.0
 10
5.9215881993
 20
4.1786980625
 30
0.0
 10
5.9220696578
 20
4.1798446256
 30
0.0
  0
LINE
  5
324
100
AcDbEntity
  8
0
100
AcDbLine
 62
7
  6
CONTINUOUS
 10
5.9257131165
 20
4.1725174649
 11
5.9255538357
 21
4.1734306983
  0
LINE
  5
325
100
AcDbEntity
  8
0
100
AcDbLine
 62
7
  6
CONTINUOUS
 10
5.9264743678
 20
4.1587992605
 11
5.9265179341
 21
4.1597252559
  0
SPLINE
  5
326
100
AcDbEntity
  8
0
100
AcDbSpline
 62
7
  6
CONTINUOUS
 70
0
 71
3
 72
9
 73
5
 74
0
 42
0.0000001
 43
0.0000001
 44
0.0000000001
 40
0.0
 40
0.0
 40
0.0
 40
0.0
 40
0.4838122253
 40
1.0
 40
1.0
 40
1.0
 40
1.0
 10
5.9238215418
 20
4.1519992257
 30
0.0
 10
5.9232001773
 20
4.1530764049
 30
0.0
 10
5.9218034323
 20
4.1552386306
 30
0.0
 10
5.920245616
 20
4.1572858575
 30
0.0
 10
5.9194082325
 20
4.1583149769
 30
0.0
  0
SPLINE
  5
327
100
AcDbEntity
  8
0
100
AcDbSpline
 62
7
  6
CONTINUOUS
 70
0
 71
3
 72
9
 73
5
 74
0
 42
0.0000001
 43
0.0000001
 44
0.0000000001
 40
0.0
 40
0.0
 40
0.0
 40
0.0
 40
0.516187774
 40
1.0
 40
1.0
 40
1.0
 40
1.0
 10
5.9194082325
 20
4.1456834744
 30
0.0
 10
5.920245616
 20
4.1467125939
 30
0.0
 10
5.9218034323
 20
4.1487598207
 30
0.0
 10
5.9232001773
 20
4.1509220464
 30
0.0
 10
5.9238215418
 20
4.1519992257
 30
0.0
  0
LINE
  5
328
100
AcDbEntity
  8
0
100
AcDbLine
 62
7
  6
CONTINUOUS
 10
5.9265179341
 20
4.1442731954
 11
5.9264743678
 21
4.1451991908
  0
LINE
  5
329
100
AcDbEntity
  8
0
100
AcDbLine
 62
7
  6
CONTINUOUS
 10
5.9255538357
 20
4.1305677531
 11
5.9257131165
 21
4.1314809864
  0
SPLINE
  5
32A
100
AcDbEntity
  8
0
100
AcDbSpline
 62
7
  6
CONTINUOUS
 70
0
 71
3
 72
9
 73
5
 74
0
 42
0.0000001
 43
0.0000001
 44
0.0000000001
 40
0.0
 40
0.0
 40
0.0
 40
0.0
 40
0.4838122253
 40
1.0
 40
1.0
 40
1.0
 40
1.0
 10
5.9220696578
 20
4.1241538258
 30
0.0
 10
5.9215881993
 20
4.1253003888
 30
0.0
 10
5.9204734667
 20
4.1276206232
 30
0.0
 10
5.9191845198
 20
4.1298469532
 30
0.0
 10
5.9184827223
 20
4.1309729097
 30
0.0
  0
SPLINE
  5
32B
100
AcDbEntity
  8
0
100
AcDbSpline
 62
7
  6
CONTINUOUS
 70
0
 71
3
 72
9
 73
5
 74
0
 42
0.0000001
 43
0.0000001
 44
0.0000000001
 40
0.0
 40
0.0
 40
0.0
 40
0.0
 40
0.516187774
 40
1.0
 40
1.0
 40
1.0
 40
1.0
 10
5.9168995752
 20
4.1184410105
 30
0.0
 10
5.9178593385
 20
4.119357063
 30
0.0
 10
5.9196614565
 20
4.1211929007
 30
0.0
 10
5.9213181865
 20
4.123163018
 30
0.0
 10
5.9220696578
 20
4.1241538258
 30
0.0
  0
LINE
  5
32C
100
AcDbEntity
  8
0
100
AcDbLine
 62
7
  6
CONTINUOUS
 10
5.9237764598
 20
4.11615077
 11
5.923849295
 21
4.117074924
  0
LINE
  5
32D
100
AcDbEntity
  8
0
100
AcDbLine
 62
7
  6
CONTINUOUS
 10
5.9211022163
 20
4.1026742327
 11
5.9213746996
 21
4.1035603018
  0
SPLINE
  5
32E
100
AcDbEntity
  8
0
100
AcDbSpline
 62
7
  6
CONTINUOUS
 70
0
 71
3
 72
9
 73
5
 74
0
 42
0.0000001
 43
0.0000001
 44
0.0000000001
 40
0.0
 40
0.0
 40
0.0
 40
0.0
 40
0.4838122253
 40
1.0
 40
1.0
 40
1.0
 40
1.0
 10
5.9168416338
 20
4.0967475645
 30
0.0
 10
5.9165076742
 20
4.0979454292
 30
0.0
 10
5.9156925341
 20
4.1003870809
 30
0.0
 10
5.9146927841
 20
4.1027574036
 30
0.0
 10
5.9141376402
 20
4.1039624401
 30
0.0
  0
SPLINE
  5
32F
100
AcDbEntity
  8
0
100
AcDbSpline
 62
7
  6
CONTINUOUS
 70
0
 71
3
 72
9
 73
5
 74
0
 42
0.0000001
 43
0.0000001
 44
0.0000000001
 40
0.0
 40
0.0
 40
0.0
 40
0.0
 40
0.516187774
 40
1.0
 40
1.0
 40
1.0
 40
1.0
 10
5.9109963133
 20
4.0917277796
 30
0.0
 10
5.9120633204
 20
4.0925163185
 30
0.0
 10
5.9140813197
 20
4.0941118148
 30
0.0
 10
5.915971907
 20
4.0958587538
 30
0.0
 10
5.9168416338
 20
4.0967475645
 30
0.0
  0
LINE
  5
330
100
AcDbEntity
  8
0
100
AcDbLine
 62
7
  6
CONTINUOUS
 10
5.9175319284
 20
4.0885936961
 11
5.9177200165
 21
4.0895014342
  0
LINE
  5
331
100
AcDbEntity
  8
0
100
AcDbLine
 62
7
  6
CONTINUOUS
 10
5.913189714
 20
4.075558597
 11
5.9135711026
 21
4.0764035279
  0
SPLINE
  5
332
100
AcDbEntity
  8
0
100
AcDbSpline
 62
7
  6
CONTINUOUS
 70
0
 71
3
 72
9
 73
5
 74
0
 42
0.0000001
 43
0.0000001
 44
0.0000000001
 40
0.0
 40
0.0
 40
0.0
 40
0.0
 40
0.4838122253
 40
1.0
 40
1.0
 40
1.0
 40
1.0
 10
5.9082199191
 20
4.0702126548
 30
0.0
 10
5.9080387251
 20
4.0714429303
 30
0.0
 10
5.9075360327
 20
4.073967493
 30
0.0
 10
5.9068412462
 20
4.0764444269
 30
0.0
 10
5.9064415109
 20
4.0777095393
 30
0.0
  0
SPLINE
  5
333
100
AcDbEntity
  8
0
100
AcDbSpline
 62
7
  6
CONTINUOUS
 70
0
 71
3
 72
9
 73
5
 74
0
 42
0.0000001
 43
0.0000001
 44
0.0000000001
 40
0.0
 40
0.0
 40
0.0
 40
0.0
 40
0.516187774
 40
1.0
 40
1.0
 40
1.0
 40
1.0
 10
5.9017915447
 20
4.0659650654
 30
0.0
 10
5.9029489683
 20
4.066613655
 30
0.0
 10
5.9051510238
 20
4.067943648
 30
0.0
 10
5.9072456528
 20
4.0694398584
 30
0.0
 10
5.9082199191
 20
4.0702126548
 30
0.0
  0
LINE
  5
334
100
AcDbEntity
  8
0
100
AcDbLine
 62
7
  6
CONTINUOUS
 10
5.9078828198
 20
4.0620365654
 11
5.9081831945
 21
4.062913572
  0
LINE
  5
335
100
AcDbEntity
  8
0
100
AcDbLine
 62
7
  6
CONTINUOUS
 10
5.9019411139
 20
4.0496484756
 11
5.9024253931
 21
4.0504389434
  0
SPLINE
  5
336
100
AcDbEntity
  8
0
100
AcDbSpline
 62
7
  6
CONTINUOUS
 70
0
 71
3
 72
9
 73
5
 74
0
 42
0.0000001
 43
0.0000001
 44
0.0000000001
 40
0.0
 40
0.0
 40
0.0
 40
0.0
 40
0.4838122253
 40
1.0
 40
1.0
 40
1.0
 40
1.0
 10
5.8963404831
 20
4.0449675683
 30
0.0
 10
5.8963149122
 20
4.0462108524
 30
0.0
 10
5.8961325954
 20
4.0487785122
 30
0.0
 10
5.8957537296
 20
4.0513229945
 30
0.0
 10
5.895515707
 20
4.0526282313
 30
0.0
  0
SPLINE
  5
337
100
AcDbEntity
  8
0
100
AcDbSpline
 62
7
  6
CONTINUOUS
 70
0
 71
3
 72
9
 73
5
 74
0
 42
0.0000001
 43
0.0000001
 44
0.0000000001
 40
0.0
 40
0.0
 40
0.0
 40
0.0
 40
0.516187774
 40
1.0
 40
1.0
 40
1.0
 40
1.0
 10
5.8894304343
 20
4.0415591613
 30
0.0
 10
5.890660021
 20
4.042057573
 30
0.0
 10
5.893011405
 20
4.0431010878
 30
0.0
 10
5.8952770421
 20
4.0443229736
 30
0.0
 10
5.8963404831
 20
4.0449675683
 30
0.0
  0
LINE
  5
338
100
AcDbEntity
  8
0
100
AcDbLine
 62
7
  6
CONTINUOUS
 10
5.8949813062
 20
4.0368981995
 11
5.8953892304
 21
4.0377306437
  0
LINE
  5
339
100
AcDbEntity
  8
0
100
AcDbLine
 62
7
  6
CONTINUOUS
 10
5.8875338131
 20
4.0253524868
 11
5.8881133455
 21
4.0260760251
  0
SPLINE
  5
33A
100
AcDbEntity
  8
0
100
AcDbSpline
 62
7
  6
CONTINUOUS
 70
0
 71
3
 72
9
 73
5
 74
0
 42
0.0000001
 43
0.0000001
 44
0.0000000001
 40
0.0
 40
0.0
 40
0.0
 40
0.0
 40
0.4838122253
 40
1.0
 40
1.0
 40
1.0
 40
1.0
 10
5.8813906716
 20
4.021410435
 30
0.0
 10
5.8815211273
 20
4.0226471202
 30
0.0
 10
5.8816620612
 20
4.0252173836
 30
0.0
 10
5.881605091
 20
4.0277892864
 30
0.0
 10
5.8815325348
 20
4.0291140632
 30
0.0
  0
SPLINE
  5
33B
100
AcDbEntity
  8
0
100
AcDbSpline
 62
7
  6
CONTINUOUS
 70
0
 71
3
 72
9
 73
5
 74
0
 42
0.0000001
 43
0.0000001
 44
0.0000000001
 40
0.0
 40
0.0
 40
0.0
 40
0.0
 40
0.516187774
 40
1.0
 40
1.0
 40
1.0
 40
1.0
 10
5.874107924
 20
4.018894963
 30
0.0
 10
5.8753902826
 20
4.0192353365
 30
0.0
 10
5.8778539123
 20
4.0199759164
 30
0.0
 10
5.8802548271
 20
4.0209042075
 30
0.0
 10
5.8813906716
 20
4.021410435
 30
0.0
  0
LINE
  5
33C
100
AcDbEntity
  8
0
100
AcDbLine
 62
7
  6
CONTINUOUS
 10
5.8790308522
 20
4.0135750456
 11
5.8795398927
 21
4.0143497992
  0
LINE
  5
33D
100
AcDbEntity
  8
0
100
AcDbLine
 62
7
  6
CONTINUOUS
 10
5.8701950233
 20
4.0030537926
 11
5.8708606693
 21
4.003698991
  0
SPLINE
  5
33E
100
AcDbEntity
  8
0
100
AcDbSpline
 62
7
  6
CONTINUOUS
 70
0
 71
3
 72
9
 73
5
 74
0
 42
0.0000001
 43
0.0000001
 44
0.0000000001
 40
0.0
 40
0.0
 40
0.0
 40
0.0
 40
0.4838122253
 40
1.0
 40
1.0
 40
1.0
 40
1.0
 10
5.8636062522
 20
3.9999127649
 30
0.0
 10
5.863890677
 20
4.001123348
 30
0.0
 10
5.864352639
 20
4.0036556805
 30
0.0
 10
5.864618463
 20
4.0062144433
 30
0.0
 10
5.8647125174
 20
4.0075378675
 30
0.0
  0
SPLINE
  5
33F
100
AcDbEntity
  8
0
100
AcDbSpline
 62
7
  6
CONTINUOUS
 70
0
 71
3
 72
9
 73
5
 74
0
 42
0.0000001
 43
0.0000001
 44
0.0000000001
 40
0.0
 40
0.0
 40
0.0
 40
0.0
 40
0.516187774
 40
1.0
 40
1.0
 40
1.0
 40
1.0
 10
5.856065659
 20
3.9983298985
 30
0.0
 10
5.857380566
 20
3.9985068658
 30
0.0
 10
5.8599175884
 20
3.9989328313
 30
0.0
 10
5.8624159171
 20
3.9995528882
 30
0.0
 10
5.8636062522
 20
3.9999127649
 30
0.0
  0
LINE
  5
340
100
AcDbEntity
  8
0
100
AcDbLine
 62
7
  6
CONTINUOUS
 10
5.860283006
 20
3.9924349236
 11
5.860885135
 21
3.9931397685
  0
LINE
  5
341
100
AcDbEntity
  8
0
100
AcDbLine
 62
7
  6
CONTINUOUS
 10
5.8501981876
 20
3.9831040569
 11
5.8509394496
 21
3.9836607402
  0
SPLINE
  5
342
100
AcDbEntity
  8
0
100
AcDbSpline
 62
7
  6
CONTINUOUS
 70
0
 71
3
 72
9
 73
5
 74
0
 42
0.0000001
 43
0.0000001
 44
0.0000000001
 40
0.0
 40
0.0
 40
0.0
 40
0.0
 40
0.4838122253
 40
1.0
 40
1.0
 40
1.0
 40
1.0
 10
5.8432676958
 20
3.9808135891
 30
0.0
 10
5.8437016041
 20
3.9819789786
 30
0.0
 10
5.8444773088
 20
3.9844334436
 30
0.0
 10
5.8450617347
 20
3.9869387133
 30
0.0
 10
5.8453209165
 20
3.9882399137
 30
0.0
  0
SPLINE
  5
343
100
AcDbEntity
  8
0
100
AcDbSpline
 62
7
  6
CONTINUOUS
 70
0
 71
3
 72
9
 73
5
 74
0
 42
0.0000001
 43
0.0000001
 44
0.0000000001
 40
0.0
 40
0.0
 40
0.0
 40
0.0
 40
0.516187774
 40
1.0
 40
1.0
 40
1.0
 40
1.0
 10
5.8355881766
 20
3.980188291
 30
0.0
 10
5.8369148951
 20
3.9801990614
 30
0.0
 10
5.8394853
 20
3.9803036948
 30
0.0
 10
5.8420416423
 20
3.9806057388
 30
0.0
 10
5.8432676958
 20
3.9808135891
 30
0.0
  0
LINE
  5
344
100
AcDbEntity
  8
0
100
AcDbLine
 62
7
  6
CONTINUOUS
 10
5.8390334323
 20
3.9738112261
 11
5.8397191538
 21
3.9744350462
  0
LINE
  5
345
100
AcDbEntity
  8
0
100
AcDbLine
 62
7
  6
CONTINUOUS
 10
5.827858668
 20
3.9658178989
 11
5.8286638559
 21
3.9662772878
  0
SPLINE
  5
346
100
AcDbEntity
  8
0
100
AcDbSpline
 62
7
  6
CONTINUOUS
 70
0
 71
3
 72
9
 73
5
 74
0
 42
0.0000001
 43
0.0000001
 44
0.0000000001
 40
0.0
 40
0.0
 40
0.0
 40
0.0
 40
0.4838122253
 40
1.0
 40
1.0
 40
1.0
 40
1.0
 10
5.8206957535
 20
3.9644141131
 30
0.0
 10
5.8212723023
 20
3.96551593
 30
0.0
 10
5.8223495164
 20
3.9678538193
 30
0.0
 10
5.8232433275
 20
3.9702660861
 30
0.0
 10
5.8236635492
 20
3.9715245421
 30
0.0
  0
SPLINE
  5
347
100
AcDbEntity
  8
0
100
AcDbSpline
 62
7
  6
CONTINUOUS
 70
0
 71
3
 72
9
 73
5
 74
0
 42
0.0000001
 43
0.0000001
 44
0.0000000001
 40
0.0
 40
0.0
 40
0.0
 40
0.0
 40
0.516187774
 40
1.0
 40
1.0
 40
1.0
 40
1.0
 10
5.812998419
 20
3.9647562446
 30
0.0
 10
5.8143160257
 20
3.9646006482
 30
0.0
 10
5.8168792763
 20
3.9643822993
 30
0.0
 10
5.8194533172
 20
3.964361567
 30
0.0
 10
5.8206957535
 20
3.9644141131
 30
0.0
  0
LINE
  5
348
100
AcDbEntity
  8
0
100
AcDbLine
 62
7
  6
CONTINUOUS
 10
5.8156172496
 20
3.9579976597
 11
5.8163757494
 21
3.9585306172
  0
LINE
  5
349
100
AcDbEntity
  8
0
100
AcDbLine
 62
7
  6
CONTINUOUS
 10
5.8035287722
 20
3.9514679317
 11
5.8043851875
 21
3.9518227813
  0
SPLINE
  5
34A
100
AcDbEntity
  8
0
100
AcDbSpline
 62
7
  6
CONTINUOUS
 70
0
 71
3
 72
9
 73
5
 74
0
 42
0.0000001
 43
0.0000001
 44
0.0000000001
 40
0.0
 40
0.0
 40
0.0
 40
0.0
 40
0.4838122253
 40
1.0
 40
1.0
 40
1.0
 40
1.0
 10
5.7962463983
 20
3.9509729663
 30
0.0
 10
5.7969564951
 20
3.9519938344
 30
0.0
 10
5.7983182303
 20
3.954178278
 30
0.0
 10
5.7995073306
 20
3.9564594991
 30
0.0
 10
5.8000819652
 20
3.957655364
 30
0.0
  0
SPLINE
  5
34B
100
AcDbEntity
  8
0
100
AcDbSpline
 62
7
  6
CONTINUOUS
 70
0
 71
3
 72
9
 73
5
 74
0
 42
0.0000001
 43
0.0000001
 44
0.0000000001
 40
0.0
 40
0.0
 40
0.0
 40
0.0
 40
0.516187774
 40
1.0
 40
1.0
 40
1.0
 40
1.0
 10
5.7886526401
 20
3.9522771319
 30
0.0
 10
5.7899403557
 20
3.9519576225
 30
0.0
 10
5.7924560279
 20
3.9514197349
 30
0.0
 10
5.7950071733
 20
3.9510765531
 30
0.0
 10
5.7962463983
 20
3.9509729663
 30
0.0
  0
LINE
  5
34C
100
AcDbEntity
  8
0
100
AcDbLine
 62
7
  6
CONTINUOUS
 10
5.7904037451
 20
3.9452436139
 11
5.7912230612
 21
3.9456773036
  0
LINE
  5
34D
100
AcDbEntity
  8
0
100
AcDbLine
 62
7
  6
CONTINUOUS
 10
5.777592197
 20
3.9402804627
 11
5.7784863338
 21
3.940525177
  0
SPLINE
  5
34E
100
AcDbEntity
  8
0
100
AcDbSpline
 62
7
  6
CONTINUOUS
 70
0
 71
3
 72
9
 73
5
 74
0
 42
0.0000001
 43
0.0000001
 44
0.0000000001
 40
0.0
 40
0.0
 40
0.0
 40
0.0
 40
0.4838122253
 40
1.0
 40
1.0
 40
1.0
 40
1.0
 10
5.7703052113
 20
3.9407021238
 30
0.0
 10
5.7711376574
 20
3.9416259433
 30
0.0
 10
5.7727624383
 20
3.9436224912
 30
0.0
 10
5.774228075
 20
3.9457366905
 30
0.0
 10
5.77494806
 20
3.9468511048
 30
0.0
  0
SPLINE
  5
34F
100
AcDbEntity
  8
0
100
AcDbSpline
 62
7
  6
CONTINUOUS
 70
0
 71
3
 72
9
 73
5
 74
0
 42
0.0000001
 43
0.0000001
 44
0.0000000001
 40
0.0
 40
0.0
 40
0.0
 40
0.0
 40
0.516187774
 40
1.0
 40
1.0
 40
1.0
 40
1.0
 10
5.7629347874
 20
3.9429477559
 30
0.0
 10
5.7641723038
 20
3.9424693723
 30
0.0
 10
5.766600724
 20
3.9416204288
 30
0.0
 10
5.7690887407
 20
3.9409602099
 30
0.0
 10
5.7703052113
 20
3.9407021238
 30
0.0
  0
LINE
  5
350
100
AcDbEntity
  8
0
100
AcDbLine
 62
7
  6
CONTINUOUS
 10
5.7637905509
 20
3.9357502277
 11
5.7646577621
 21
3.93607781
  0
LINE
  5
351
100
AcDbEntity
  8
0
100
AcDbLine
 62
7
  6
CONTINUOUS
 10
5.7504579779
 20
3.9324319251
 11
5.7513757349
 21
3.9325626447
  0
SPLINE
  5
352
100
AcDbEntity
  8
0
100
AcDbSpline
 62
7
  6
CONTINUOUS
 70
0
 71
3
 72
9
 73
5
 74
0
 42
0.0000001
 43
0.0000001
 44
0.0000000001
 40
0.0
 40
0.0
 40
0.0
 40
0.0
 40
0.4838122253
 40
1.0
 40
1.0
 40
1.0
 40
1.0
 10
5.7432813003
 20
3.9337635628
 30
0.0
 10
5.7442229677
 20
3.9345757645
 30
0.0
 10
5.7460851704
 20
3.93635293
 30
0.0
 10
5.7478042296
 20
3.9382667652
 30
0.0
 10
5.7486582105
 20
3.939282154
 30
0.0
  0
SPLINE
  5
353
100
AcDbEntity
  8
0
100
AcDbSpline
 62
7
  6
CONTINUOUS
 70
0
 71
3
 72
9
 73
5
 74
0
 42
0.0000001
 43
0.0000001
 44
0.0000000001
 40
0.0
 40
0.0
 40
0.0
 40
0.0
 40
0.516187774
 40
1.0
 40
1.0
 40
1.0
 40
1.0
 10
5.7362504467
 20
3.9369152464
 30
0.0
 10
5.7374182476
 20
3.9362855331
 30
0.0
 10
5.7397211181
 20
3.9351389221
 30
0.0
 10
5.7421067687
 20
3.9341720779
 30
0.0
 10
5.7432813003
 20
3.9337635628
 30
0.0
  0
LINE
  5
354
100
AcDbEntity
  8
0
100
AcDbLine
 62
7
  6
CONTINUOUS
 10
5.7361973728
 20
3.9296672173
 11
5.7370988028
 21
3.9298835262
  0
LINE
  5
355
100
AcDbEntity
  8
0
100
AcDbLine
 62
7
  6
CONTINUOUS
 10
5.7225540375
 20
3.928046095
 11
5.7234809412
 21
3.9280607584
  0
SPLINE
  5
356
100
AcDbEntity
  8
0
100
AcDbSpline
 62
7
  6
CONTINUOUS
 70
0
 71
3
 72
9
 73
5
 74
0
 42
0.0000001
 43
0.0000001
 44
0.0000000001
 40
0.0
 40
0.0
 40
0.0
 40
0.0
 40
0.4838122253
 40
1.0
 40
1.0
 40
1.0
 40
1.0
 10
5.7156008487
 20
3.9302667085
 30
0.0
 10
5.7166368866
 20
3.9309544835
 30
0.0
 10
5.7187071432
 20
3.9324842397
 30
0.0
 10
5.7206525142
 20
3.9341675285
 30
0.0
 10
5.7216270232
 20
3.9350678784
 30
0.0
  0
SPLINE
  5
357
100
AcDbEntity
  8
0
100
AcDbSpline
 62
7
  6
CONTINUOUS
 70
0
 71
3
 72
9
 73
5
 74
0
 42
0.0000001
 43
0.0000001
 44
0.0000000001
 40
0.0
 40
0.0
 40
0.0
 40
0.0
 40
0.516187774
 40
1.0
 40
1.0
 40
1.0
 40
1.0
 10
5.7090204462
 20
3.9342747398
 30
0.0
 10
5.7101001146
 20
3.9335036278
 30
0.0
 10
5.7122411178
 20
3.9320774318
 30
0.0
 10
5.7144867791
 20
3.9308192103
 30
0.0
 10
5.7156008487
 20
3.9302667085
 30
0.0
  0
LINE
  5
358
100
AcDbEntity
  8
0
100
AcDbLine
 62
7
  6
CONTINUOUS
 10
5.7080593718
 20
3.9270905155
 11
5.7089808044
 21
3.9271921396
  0
LINE
  5
359
100
AcDbEntity
  8
0
100
AcDbLine
 62
7
  6
CONTINUOUS
 10
5.7089808044
 20
4.3768063117
 11
5.7080593718
 21
4.3769079358
  0
SPLINE
  5
35A
100
AcDbEntity
  8
0
100
AcDbSpline
 62
7
  6
CONTINUOUS
 70
0
 71
3
 72
9
 73
5
 74
0
 42
0.0000001
 43
0.0000001
 44
0.0000000001
 40
0.0
 40
0.0
 40
0.0
 40
0.0
 40
0.483812225
 40
1.0
 40
1.0
 40
1.0
 40
1.0
 10
5.7156008487
 20
4.3737317428
 30
0.0
 10
5.7144867791
 20
4.3731792411
 30
0.0
 10
5.7122411178
 20
4.3719210195
 30
0.0
 10
5.7101001146
 20
4.3704948236
 30
0.0
 10
5.7090204462
 20
4.3697237115
 30
0.0
  0
SPLINE
  5
35B
100
AcDbEntity
  8
0
100
AcDbSpline
 62
7
  6
CONTINUOUS
 70
0
 71
3
 72
9
 73
5
 74
0
 42
0.0000001
 43
0.0000001
 44
0.0000000001
 40
0.0
 40
0.0
 40
0.0
 40
0.0
 40
0.5161877737
 40
1.0
 40
1.0
 40
1.0
 40
1.0
 10
5.7216270232
 20
4.3689305729
 30
0.0
 10
5.7206525143
 20
4.3698309229
 30
0.0
 10
5.7187071432
 20
4.3715142116
 30
0.0
 10
5.7166368866
 20
4.3730439678
 30
0.0
 10
5.7156008487
 20
4.3737317428
 30
0.0
  0
LINE
  5
35C
100
AcDbEntity
  8
0
100
AcDbLine
 62
7
  6
CONTINUOUS
 10
5.7234809412
 20
4.3759376929
 11
5.7225540375
 21
4.3759523563
  0
LINE
  5
35D
100
AcDbEntity
  8
0
100
AcDbLine
 62
7
  6
CONTINUOUS
 10
5.7370988028
 20
4.3741149251
 11
5.7361973728
 21
4.374331234
  0
SPLINE
  5
35E
100
AcDbEntity
  8
0
100
AcDbSpline
 62
7
  6
CONTINUOUS
 70
0
 71
3
 72
9
 73
5
 74
0
 42
0.0000001
 43
0.0000001
 44
0.0000000001
 40
0.0
 40
0.0
 40
0.0
 40
0.0
 40
0.483812225
 40
1.0
 40
1.0
 40
1.0
 40
1.0
 10
5.7432813003
 20
4.3702348886
 30
0.0
 10
5.7421067687
 20
4.3698263734
 30
0.0
 10
5.7397211181
 20
4.3688595292
 30
0.0
 10
5.7374182476
 20
4.3677129182
 30
0.0
 10
5.7362504467
 20
4.3670832049
 30
0.0
  0
SPLINE
  5
35F
100
AcDbEntity
  8
0
100
AcDbSpline
 62
7
  6
CONTINUOUS
 70
0
 71
3
 72
9
 73
5
 74
0
 42
0.0000001
 43
0.0000001
 44
0.0000000001
 40
0.0
 40
0.0
 40
0.0
 40
0.0
 40
0.5161877737
 40
1.0
 40
1.0
 40
1.0
 40
1.0
 10
5.7486582105
 20
4.3647162973
 30
0.0
 10
5.7478042296
 20
4.3657316861
 30
0.0
 10
5.7460851704
 20
4.3676455213
 30
0.0
 10
5.7442229677
 20
4.3694226868
 30
0.0
 10
5.7432813003
 20
4.3702348886
 30
0.0
  0
LINE
  5
360
100
AcDbEntity
  8
0
100
AcDbLine
 62
7
  6
CONTINUOUS
 10
5.7513757349
 20
4.3714358066
 11
5.7504579779
 21
4.3715665262
  0
LINE
  5
361
100
AcDbEntity
  8
0
100
AcDbLine
 62
7
  6
CONTINUOUS
 10
5.7646577621
 20
4.3679206413
 11
5.7637905509
 21
4.3682482236
  0
SPLINE
  5
362
100
AcDbEntity
  8
0
100
AcDbSpline
 62
7
  6
CONTINUOUS
 70
0
 71
3
 72
9
 73
5
 74
0
 42
0.0000001
 43
0.0000001
 44
0.0000000001
 40
0.0
 40
0.0
 40
0.0
 40
0.0
 40
0.483812225
 40
1.0
 40
1.0
 40
1.0
 40
1.0
 10
5.7703052113
 20
4.3632963275
 30
0.0
 10
5.7690887407
 20
4.3630382415
 30
0.0
 10
5.766600724
 20
4.3623780225
 30
0.0
 10
5.7641723038
 20
4.361529079
 30
0.0
 10
5.7629347874
 20
4.3610506954
 30
0.0
  0
SPLINE
  5
363
100
AcDbEntity
  8
0
100
AcDbSpline
 62
7
  6
CONTINUOUS
 70
0
 71
3
 72
9
 73
5
 74
0
 42
0.0000001
 43
0.0000001
 44
0.0000000001
 40
0.0
 40
0.0
 40
0.0
 40
0.0
 40
0.5161877737
 40
1.0
 40
1.0
 40
1.0
 40
1.0
 10
5.77494806
 20
4.3571473465
 30
0.0
 10
5.774228075
 20
4.3582617609
 30
0.0
 10
5.7727624383
 20
4.3603759601
 30
0.0
 10
5.7711376574
 20
4.3623725081
 30
0.0
 10
5.7703052113
 20
4.3632963275
 30
0.0
  0
LINE
  5
364
100
AcDbEntity
  8
0
100
AcDbLine
 62
7
  6
CONTINUOUS
 10
5.7784863338
 20
4.3634732743
 11
5.777592197
 21
4.3637179886
  0
LINE
  5
365
100
AcDbEntity
  8
0
100
AcDbLine
 62
7
  6
CONTINUOUS
 10
5.7912230612
 20
4.3583211477
 11
5.7904037451
 21
4.3587548374
  0
SPLINE
  5
366
100
AcDbEntity
  8
0
100
AcDbSpline
 62
7
  6
CONTINUOUS
 70
0
 71
3
 72
9
 73
5
 74
0
 42
0.0000001
 43
0.0000001
 44
0.0000000001
 40
0.0
 40
0.0
 40
0.0
 40
0.0
 40
0.4838122253
 40
1.0
 40
1.0
 40
1.0
 40
1.0
 10
5.7962463983
 20
4.353025485
 30
0.0
 10
5.7950071733
 20
4.3529218982
 30
0.0
 10
5.7924560279
 20
4.3525787164
 30
0.0
 10
5.7899403557
 20
4.3520408289
 30
0.0
 10
5.7886526401
 20
4.3517213194
 30
0.0
  0
SPLINE
  5
367
100
AcDbEntity
  8
0
100
AcDbSpline
 62
7
  6
CONTINUOUS
 70
0
 71
3
 72
9
 73
5
 74
0
 42
0.0000001
 43
0.0000001
 44
0.0000000001
 40
0.0
 40
0.0
 40
0.0
 40
0.0
 40
0.516187774
 40
1.0
 40
1.0
 40
1.0
 40
1.0
 10
5.8000819652
 20
4.3463430873
 30
0.0
 10
5.7995073306
 20
4.3475389522
 30
0.0
 10
5.7983182303
 20
4.3498201734
 30
0.0
 10
5.7969564952
 20
4.3520046169
 30
0.0
 10
5.7962463983
 20
4.353025485
 30
0.0
  0
SPLINE
  5
368
100
AcDbEntity
  8
0
100
AcDbSpline
 62
7
  6
CONTINUOUS
 70
0
 71
3
 72
9
 73
5
 74
0
 42
0.0000001
 43
0.0000001
 44
0.0000000001
 40
0.0
 40
0.0
 40
0.0
 40
0.0
 40
0.483812225
 40
1.0
 40
1.0
 40
1.0
 40
1.0
 10
5.6600199419
 20
4.3702348886
 30
0.0
 10
5.6590782746
 20
4.3694226868
 30
0.0
 10
5.6572160718
 20
4.3676455213
 30
0.0
 10
5.6554970126
 20
4.3657316861
 30
0.0
 10
5.6546430317
 20
4.3647162973
 30
0.0
  0
SPLINE
  5
369
100
AcDbEntity
  8
0
100
AcDbSpline
 62
7
  6
CONTINUOUS
 70
0
 71
3
 72
9
 73
5
 74
0
 42
0.0000001
 43
0.0000001
 44
0.0000000001
 40
0.0
 40
0.0
 40
0.0
 40
0.0
 40
0.5161877737
 40
1.0
 40
1.0
 40
1.0
 40
1.0
 10
5.6670507955
 20
4.3670832049
 30
0.0
 10
5.6658829946
 20
4.3677129182
 30
0.0
 10
5.6635801241
 20
4.3688595292
 30
0.0
 10
5.6611944735
 20
4.3698263734
 30
0.0
 10
5.6600199419
 20
4.3702348886
 30
0.0
  0
LINE
  5
36A
100
AcDbEntity
  8
0
100
AcDbLine
 62
7
  6
CONTINUOUS
 10
5.6671038694
 20
4.374331234
 11
5.6662024395
 21
4.3741149251
  0
LINE
  5
36B
100
AcDbEntity
  8
0
100
AcDbLine
 62
7
  6
CONTINUOUS
 10
5.6807472047
 20
4.3759523563
 11
5.679820301
 21
4.3759376929
  0
SPLINE
  5
36C
100
AcDbEntity
  8
0
100
AcDbSpline
 62
7
  6
CONTINUOUS
 70
0
 71
3
 72
9
 73
5
 74
0
 42
0.0000001
 43
0.0000001
 44
0.0000000001
 40
0.0
 40
0.0
 40
0.0
 40
0.0
 40
0.483812225
 40
1.0
 40
1.0
 40
1.0
 40
1.0
 10
5.6877003936
 20
4.3737317428
 30
0.0
 10
5.6866643557
 20
4.3730439678
 30
0.0
 10
5.684594099
 20
4.3715142116
 30
0.0
 10
5.682648728
 20
4.3698309229
 30
0.0
 10
5.681674219
 20
4.3689305729
 30
0.0
  0
SPLINE
  5
36D
100
AcDbEntity
  8
0
100
AcDbSpline
 62
7
  6
CONTINUOUS
 70
0
 71
3
 72
9
 73
5
 74
0
 42
0.0000001
 43
0.0000001
 44
0.0000000001
 40
0.0
 40
0.0
 40
0.0
 40
0.0
 40
0.5161877737
 40
1.0
 40
1.0
 40
1.0
 40
1.0
 10
5.6942807961
 20
4.3697237115
 30
0.0
 10
5.6932011277
 20
4.3704948236
 30
0.0
 10
5.6910601244
 20
4.3719210195
 30
0.0
 10
5.6888144631
 20
4.3731792411
 30
0.0
 10
5.6877003936
 20
4.3737317428
 30
0.0
  0
LINE
  5
36E
100
AcDbEntity
  8
0
100
AcDbLine
 62
7
  6
CONTINUOUS
 10
5.6952418704
 20
4.3769079358
 11
5.6943204378
 21
4.3768063117
  0
LINE
  5
36F
100
AcDbEntity
  8
0
100
AcDbLine
 62
7
  6
CONTINUOUS
 10
5.6943204378
 20
3.9271921396
 11
5.6952418704
 21
3.9270905155
  0
SPLINE
  5
370
100
AcDbEntity
  8
0
100
AcDbSpline
 62
7
  6
CONTINUOUS
 70
0
 71
3
 72
9
 73
5
 74
0
 42
0.0000001
 43
0.0000001
 44
0.0000000001
 40
0.0
 40
0.0
 40
0.0
 40
0.0
 40
0.4838122253
 40
1.0
 40
1.0
 40
1.0
 40
1.0
 10
5.6877003936
 20
3.9302667085
 30
0.0
 10
5.6888144631
 20
3.9308192103
 30
0.0
 10
5.6910601244
 20
3.9320774318
 30
0.0
 10
5.6932011277
 20
3.9335036277
 30
0.0
 10
5.6942807961
 20
3.9342747398
 30
0.0
  0
SPLINE
  5
371
100
AcDbEntity
  8
0
100
AcDbSpline
 62
7
  6
CONTINUOUS
 70
0
 71
3
 72
9
 73
5
 74
0
 42
0.0000001
 43
0.0000001
 44
0.0000000001
 40
0.0
 40
0.0
 40
0.0
 40
0.0
 40
0.516187774
 40
1.0
 40
1.0
 40
1.0
 40
1.0
 10
5.681674219
 20
3.9350678784
 30
0.0
 10
5.682648728
 20
3.9341675285
 30
0.0
 10
5.684594099
 20
3.9324842397
 30
0.0
 10
5.6866643557
 20
3.9309544835
 30
0.0
 10
5.6877003936
 20
3.9302667085
 30
0.0
  0
LINE
  5
372
100
AcDbEntity
  8
0
100
AcDbLine
 62
7
  6
CONTINUOUS
 10
5.679820301
 20
3.9280607584
 11
5.6807472047
 21
3.928046095
  0
LINE
  5
373
100
AcDbEntity
  8
0
100
AcDbLine
 62
7
  6
CONTINUOUS
 10
5.6662024395
 20
3.9298835262
 11
5.6671038694
 21
3.9296672173
  0
SPLINE
  5
374
100
AcDbEntity
  8
0
100
AcDbSpline
 62
7
  6
CONTINUOUS
 70
0
 71
3
 72
9
 73
5
 74
0
 42
0.0000001
 43
0.0000001
 44
0.0000000001
 40
0.0
 40
0.0
 40
0.0
 40
0.0
 40
0.4838122253
 40
1.0
 40
1.0
 40
1.0
 40
1.0
 10
5.6600199419
 20
3.9337635628
 30
0.0
 10
5.6611944735
 20
3.9341720779
 30
0.0
 10
5.6635801241
 20
3.9351389221
 30
0.0
 10
5.6658829946
 20
3.9362855331
 30
0.0
 10
5.6670507955
 20
3.9369152464
 30
0.0
  0
SPLINE
  5
375
100
AcDbEntity
  8
0
100
AcDbSpline
 62
7
  6
CONTINUOUS
 70
0
 71
3
 72
9
 73
5
 74
0
 42
0.0000001
 43
0.0000001
 44
0.0000000001
 40
0.0
 40
0.0
 40
0.0
 40
0.0
 40
0.516187774
 40
1.0
 40
1.0
 40
1.0
 40
1.0
 10
5.6546430317
 20
3.939282154
 30
0.0
 10
5.6554970126
 20
3.9382667652
 30
0.0
 10
5.6572160718
 20
3.93635293
 30
0.0
 10
5.6590782746
 20
3.9345757645
 30
0.0
 10
5.6600199419
 20
3.9337635628
 30
0.0
  0
LINE
  5
376
100
AcDbEntity
  8
0
100
AcDbLine
 62
7
  6
CONTINUOUS
 10
5.6519255074
 20
3.9325626447
 11
5.6528432644
 21
3.9324319251
  0
LINE
  5
377
100
AcDbEntity
  8
0
100
AcDbLine
 62
7
  6
CONTINUOUS
 10
5.6386434801
 20
3.93607781
 11
5.6395106914
 21
3.9357502277
  0
SPLINE
  5
378
100
AcDbEntity
  8
0
100
AcDbSpline
 62
7
  6
CONTINUOUS
 70
0
 71
3
 72
9
 73
5
 74
0
 42
0.0000001
 43
0.0000001
 44
0.0000000001
 40
0.0
 40
0.0
 40
0.0
 40
0.0
 40
0.4838122253
 40
1.0
 40
1.0
 40
1.0
 40
1.0
 10
5.632996031
 20
3.9407021238
 30
0.0
 10
5.6342125015
 20
3.9409602099
 30
0.0
 10
5.6367005183
 20
3.9416204288
 30
0.0
 10
5.6391289384
 20
3.9424693723
 30
0.0
 10
5.6403664549
 20
3.9429477559
 30
0.0
  0
SPLINE
  5
379
100
AcDbEntity
  8
0
100
AcDbSpline
 62
7
  6
CONTINUOUS
 70
0
 71
3
 72
9
 73
5
 74
0
 42
0.0000001
 43
0.0000001
 44
0.0000000001
 40
0.0
 40
0.0
 40
0.0
 40
0.0
 40
0.516187774
 40
1.0
 40
1.0
 40
1.0
 40
1.0
 10
5.6283531822
 20
3.9468511048
 30
0.0
 10
5.6290731672
 20
3.9457366905
 30
0.0
 10
5.6305388039
 20
3.9436224912
 30
0.0
 10
5.6321635848
 20
3.9416259433
 30
0.0
 10
5.632996031
 20
3.9407021238
 30
0.0
  0
LINE
  5
37A
100
AcDbEntity
  8
0
100
AcDbLine
 62
7
  6
CONTINUOUS
 10
5.6248149085
 20
3.940525177
 11
5.6257090452
 21
3.9402804627
  0
LINE
  5
37B
100
AcDbEntity
  8
0
100
AcDbLine
 62
7
  6
CONTINUOUS
 10
5.612078181
 20
3.9456773036
 11
5.6128974971
 21
3.9452436139
  0
SPLINE
  5
37C
100
AcDbEntity
  8
0
100
AcDbSpline
 62
7
  6
CONTINUOUS
 70
0
 71
3
 72
9
 73
5
 74
0
 42
0.0000001
 43
0.0000001
 44
0.0000000001
 40
0.0
 40
0.0
 40
0.0
 40
0.0
 40
0.4838122253
 40
1.0
 40
1.0
 40
1.0
 40
1.0
 10
5.6070548439
 20
3.9509729663
 30
0.0
 10
5.608294069
 20
3.9510765531
 30
0.0
 10
5.6108452143
 20
3.9514197349
 30
0.0
 10
5.6133608865
 20
3.9519576225
 30
0.0
 10
5.6146486021
 20
3.9522771319
 30
0.0
  0
SPLINE
  5
37D
100
AcDbEntity
  8
0
100
AcDbSpline
 62
7
  6
CONTINUOUS
 70
0
 71
3
 72
9
 73
5
 74
0
 42
0.0000001
 43
0.0000001
 44
0.0000000001
 40
0.0
 40
0.0
 40
0.0
 40
0.0
 40
0.516187774
 40
1.0
 40
1.0
 40
1.0
 40
1.0
 10
5.603219277
 20
3.957655364
 30
0.0
 10
5.6037939116
 20
3.9564594991
 30
0.0
 10
5.6049830119
 20
3.954178278
 30
0.0
 10
5.6063447471
 20
3.9519938344
 30
0.0
 10
5.6070548439
 20
3.9509729663
 30
0.0
  0
LINE
  5
37E
100
AcDbEntity
  8
0
100
AcDbLine
 62
7
  6
CONTINUOUS
 10
5.5989160547
 20
3.9518227813
 11
5.59977247
 21
3.9514679317
  0
LINE
  5
37F
100
AcDbEntity
  8
0
100
AcDbLine
 62
7
  6
CONTINUOUS
 10
5.5869254928
 20
3.9585306172
 11
5.5876839926
 21
3.9579976597
  0
SPLINE
  5
380
100
AcDbEntity
  8
0
100
AcDbSpline
 62
7
  6
CONTINUOUS
 70
0
 71
3
 72
9
 73
5
 74
0
 42
0.0000001
 43
0.0000001
 44
0.0000000001
 40
0.0
 40
0.0
 40
0.0
 40
0.0
 40
0.4838122253
 40
1.0
 40
1.0
 40
1.0
 40
1.0
 10
5.5826054887
 20
3.9644141131
 30
0.0
 10
5.583847925
 20
3.964361567
 30
0.0
 10
5.5864219659
 20
3.9643822993
 30
0.0
 10
5.5889852165
 20
3.9646006482
 30
0.0
 10
5.5903028232
 20
3.9647562446
 30
0.0
  0
SPLINE
  5
381
100
AcDbEntity
  8
0
100
AcDbSpline
 62
7
  6
CONTINUOUS
 70
0
 71
3
 72
9
 73
5
 74
0
 42
0.0000001
 43
0.0000001
 44
0.0000000001
 40
0.0
 40
0.0
 40
0.0
 40
0.0
 40
0.516187774
 40
1.0
 40
1.0
 40
1.0
 40
1.0
 10
5.579637693
 20
3.9715245421
 30
0.0
 10
5.5800579148
 20
3.9702660861
 30
0.0
 10
5.5809517259
 20
3.9678538193
 30
0.0
 10
5.5820289399
 20
3.96551593
 30
0.0
 10
5.5826054887
 20
3.9644141131
 30
0.0
  0
LINE
  5
382
100
AcDbEntity
  8
0
100
AcDbLine
 62
7
  6
CONTINUOUS
 10
5.5746373864
 20
3.9662772878
 11
5.5754425742
 21
3.9658178989
  0
LINE
  5
383
100
AcDbEntity
  8
0
100
AcDbLine
 62
7
  6
CONTINUOUS
 10
5.5635820884
 20
3.9744350462
 11
5.5642678099
 21
3.9738112261
  0
SPLINE
  5
384
100
AcDbEntity
  8
0
100
AcDbSpline
 62
7
  6
CONTINUOUS
 70
0
 71
3
 72
9
 73
5
 74
0
 42
0.0000001
 43
0.0000001
 44
0.0000000001
 40
0.0
 40
0.0
 40
0.0
 40
0.0
 40
0.4838122253
 40
1.0
 40
1.0
 40
1.0
 40
1.0
 10
5.5600335464
 20
3.9808135891
 30
0.0
 10
5.5612596
 20
3.9806057388
 30
0.0
 10
5.5638159422
 20
3.9803036948
 30
0.0
 10
5.5663863472
 20
3.9801990614
 30
0.0
 10
5.5677130656
 20
3.980188291
 30
0.0
  0
SPLINE
  5
385
100
AcDbEntity
  8
0
100
AcDbSpline
 62
7
  6
CONTINUOUS
 70
0
 71
3
 72
9
 73
5
 74
0
 42
0.0000001
 43
0.0000001
 44
0.0000000001
 40
0.0
 40
0.0
 40
0.0
 40
0.0
 40
0.516187774
 40
1.0
 40
1.0
 40
1.0
 40
1.0
 10
5.5579803257
 20
3.9882399137
 30
0.0
 10
5.5582395076
 20
3.9869387133
 30
0.0
 10
5.5588239335
 20
3.9844334436
 30
0.0
 10
5.5595996382
 20
3.9819789786
 30
0.0
 10
5.5600335464
 20
3.9808135891
 30
0.0
  0
LINE
  5
386
100
AcDbEntity
  8
0
100
AcDbLine
 62
7
  6
CONTINUOUS
 10
5.5523617927
 20
3.9836607402
 11
5.5531030546
 21
3.9831040569
  0
LINE
  5
387
100
AcDbEntity
  8
0
100
AcDbLine
 62
7
  6
CONTINUOUS
 10
5.5424161073
 20
3.9931397685
 11
5.5430182363
 21
3.9924349236
  0
SPLINE
  5
388
100
AcDbEntity
  8
0
100
AcDbSpline
 62
7
  6
CONTINUOUS
 70
0
 71
3
 72
9
 73
5
 74
0
 42
0.0000001
 43
0.0000001
 44
0.0000000001
 40
0.0
 40
0.0
 40
0.0
 40
0.0
 40
0.4838122253
 40
1.0
 40
1.0
 40
1.0
 40
1.0
 10
5.53969499
 20
3.9999127649
 30
0.0
 10
5.5408853252
 20
3.9995528882
 30
0.0
 10
5.5433836538
 20
3.9989328313
 30
0.0
 10
5.5459206763
 20
3.9985068658
 30
0.0
 10
5.5472355832
 20
3.9983298985
 30
0.0
  0
SPLINE
  5
389
100
AcDbEntity
  8
0
100
AcDbSpline
 62
7
  6
CONTINUOUS
 70
0
 71
3
 72
9
 73
5
 74
0
 42
0.0000001
 43
0.0000001
 44
0.0000000001
 40
0.0
 40
0.0
 40
0.0
 40
0.0
 40
0.516187774
 40
1.0
 40
1.0
 40
1.0
 40
1.0
 10
5.5385887248
 20
4.0075378675
 30
0.0
 10
5.5386827793
 20
4.0062144433
 30
0.0
 10
5.5389486033
 20
4.0036556805
 30
0.0
 10
5.5394105653
 20
4.001123348
 30
0.0
 10
5.53969499
 20
3.9999127649
 30
0.0
  0
LINE
  5
38A
100
AcDbEntity
  8
0
100
AcDbLine
 62
7
  6
CONTINUOUS
 10
5.5324405729
 20
4.003698991
 11
5.5331062189
 21
4.0030537926
  0
LINE
  5
38B
100
AcDbEntity
  8
0
100
AcDbLine
 62
7
  6
CONTINUOUS
 10
5.5237613495
 20
4.0143497992
 11
5.5242703901
 21
4.0135750456
  0
SPLINE
  5
38C
100
AcDbEntity
  8
0
100
AcDbSpline
 62
7
  6
CONTINUOUS
 70
0
 71
3
 72
9
 73
5
 74
0
 42
0.0000001
 43
0.0000001
 44
0.0000000001
 40
0.0
 40
0.0
 40
0.0
 40
0.0
 40
0.4838122253
 40
1.0
 40
1.0
 40
1.0
 40
1.0
 10
5.5219105706
 20
4.021410435
 30
0.0
 10
5.5230464151
 20
4.0209042075
 30
0.0
 10
5.5254473299
 20
4.0199759164
 30
0.0
 10
5.5279109596
 20
4.0192353365
 30
0.0
 10
5.5291933182
 20
4.018894963
 30
0.0
  0
SPLINE
  5
38D
100
AcDbEntity
  8
0
100
AcDbSpline
 62
7
  6
CONTINUOUS
 70
0
 71
3
 72
9
 73
5
 74
0
 42
0.0000001
 43
0.0000001
 44
0.0000000001
 40
0.0
 40
0.0
 40
0.0
 40
0.0
 40
0.516187774
 40
1.0
 40
1.0
 40
1.0
 40
1.0
 10
5.5217687074
 20
4.0291140632
 30
0.0
 10
5.5216961512
 20
4.0277892864
 30
0.0
 10
5.5216391811
 20
4.0252173836
 30
0.0
 10
5.521780115
 20
4.0226471202
 30
0.0
 10
5.5219105706
 20
4.021410435
 30
0.0
  0
LINE
  5
38E
100
AcDbEntity
  8
0
100
AcDbLine
 62
7
  6
CONTINUOUS
 10
5.5151878968
 20
4.0260760251
 11
5.5157674291
 21
4.0253524868
  0
LINE
  5
38F
100
AcDbEntity
  8
0
100
AcDbLine
 62
7
  6
CONTINUOUS
 10
5.5079120119
 20
4.0377306437
 11
5.5083199361
 21
4.0368981995
  0
SPLINE
  5
390
100
AcDbEntity
  8
0
100
AcDbSpline
 62
7
  6
CONTINUOUS
 70
0
 71
3
 72
9
 73
5
 74
0
 42
0.0000001
 43
0.0000001
 44
0.0000000001
 40
0.0
 40
0.0
 40
0.0
 40
0.0
 40
0.4838122253
 40
1.0
 40
1.0
 40
1.0
 40
1.0
 10
5.5069607592
 20
4.0449675683
 30
0.0
 10
5.5080242001
 20
4.0443229736
 30
0.0
 10
5.5102898373
 20
4.0431010878
 30
0.0
 10
5.5126412212
 20
4.042057573
 30
0.0
 10
5.513870808
 20
4.0415591613
 30
0.0
  0
SPLINE
  5
391
100
AcDbEntity
  8
0
100
AcDbSpline
 62
7
  6
CONTINUOUS
 70
0
 71
3
 72
9
 73
5
 74
0
 42
0.0000001
 43
0.0000001
 44
0.0000000001
 40
0.0
 40
0.0
 40
0.0
 40
0.0
 40
0.516187774
 40
1.0
 40
1.0
 40
1.0
 40
1.0
 10
5.5077855353
 20
4.0526282313
 30
0.0
 10
5.5075475126
 20
4.0513229945
 30
0.0
 10
5.5071686468
 20
4.0487785122
 30
0.0
 10
5.50698633
 20
4.0462108524
 30
0.0
 10
5.5069607592
 20
4.0449675683
 30
0.0
  0
LINE
  5
392
100
AcDbEntity
  8
0
100
AcDbLine
 62
7
  6
CONTINUOUS
 10
5.5008758491
 20
4.0504389434
 11
5.5013601283
 21
4.0496484756
  0
LINE
  5
393
100
AcDbEntity
  8
0
100
AcDbLine
 62
7
  6
CONTINUOUS
 10
5.4951180478
 20
4.062913572
 11
5.4954184225
 21
4.0620365654
  0
SPLINE
  5
394
100
AcDbEntity
  8
0
100
AcDbSpline
 62
7
  6
CONTINUOUS
 70
0
 71
3
 72
9
 73
5
 74
0
 42
0.0000001
 43
0.0000001
 44
0.0000000001
 40
0.0
 40
0.0
 40
0.0
 40
0.0
 40
0.4838122253
 40
1.0
 40
1.0
 40
1.0
 40
1.0
 10
5.4950813232
 20
4.0702126548
 30
0.0
 10
5.4960555894
 20
4.0694398584
 30
0.0
 10
5.4981502185
 20
4.067943648
 30
0.0
 10
5.5003522739
 20
4.066613655
 30
0.0
 10
5.5015096975
 20
4.0659650654
 30
0.0
  0
SPLINE
  5
395
100
AcDbEntity
  8
0
100
AcDbSpline
 62
7
  6
CONTINUOUS
 70
0
 71
3
 72
9
 73
5
 74
0
 42
0.0000001
 43
0.0000001
 44
0.0000000001
 40
0.0
 40
0.0
 40
0.0
 40
0.0
 40
0.516187774
 40
1.0
 40
1.0
 40
1.0
 40
1.0
 10
5.4968597313
 20
4.0777095393
 30
0.0
 10
5.496459996
 20
4.0764444269
 30
0.0
 10
5.4957652095
 20
4.073967493
 30
0.0
 10
5.4952625172
 20
4.0714429303
 30
0.0
 10
5.4950813232
 20
4.0702126548
 30
0.0
  0
LINE
  5
396
100
AcDbEntity
  8
0
100
AcDbLine
 62
7
  6
CONTINUOUS
 10
5.4897301396
 20
4.0764035279
 11
5.4901115282
 21
4.075558597
  0
LINE
  5
397
100
AcDbEntity
  8
0
100
AcDbLine
 62
7
  6
CONTINUOUS
 10
5.4855812258
 20
4.0895014342
 11
5.4857693139
 21
4.0885936961
  0
SPLINE
  5
398
100
AcDbEntity
  8
0
100
AcDbSpline
 62
7
  6
CONTINUOUS
 70
0
 71
3
 72
9
 73
5
 74
0
 42
0.0000001
 43
0.0000001
 44
0.0000000001
 40
0.0
 40
0.0
 40
0.0
 40
0.0
 40
0.4838122253
 40
1.0
 40
1.0
 40
1.0
 40
1.0
 10
5.4864596084
 20
4.0967475645
 30
0.0
 10
5.4873293352
 20
4.0958587538
 30
0.0
 10
5.4892199226
 20
4.0941118148
 30
0.0
 10
5.4912379219
 20
4.0925163185
 30
0.0
 10
5.4923049289
 20
4.0917277796
 30
0.0
  0
SPLINE
  5
399
100
AcDbEntity
  8
0
100
AcDbSpline
 62
7
  6
CONTINUOUS
 70
0
 71
3
 72
9
 73
5
 74
0
 42
0.0000001
 43
0.0000001
 44
0.0000000001
 40
0.0
 40
0.0
 40
0.0
 40
0.0
 40
0.516187774
 40
1.0
 40
1.0
 40
1.0
 40
1.0
 10
5.489163602
 20
4.1039624401
 30
0.0
 10
5.4886084581
 20
4.1027574036
 30
0.0
 10
5.4876087081
 20
4.1003870809
 30
0.0
 10
5.486793568
 20
4.0979454292
 30
0.0
 10
5.4864596084
 20
4.0967475645
 30
0.0
  0
LINE
  5
39A
100
AcDbEntity
  8
0
100
AcDbLine
 62
7
  6
CONTINUOUS
 10
5.4819265427
 20
4.1035603018
 11
5.482199026
 21
4.1026742327
  0
LINE
  5
39B
100
AcDbEntity
  8
0
100
AcDbLine
 62
7
  6
CONTINUOUS
 10
5.4794519472
 20
4.117074924
 11
5.4795247824
 21
4.11615077
  0
SPLINE
  5
39C
100
AcDbEntity
  8
0
100
AcDbSpline
 62
7
  6
CONTINUOUS
 70
0
 71
3
 72
9
 73
5
 74
0
 42
0.0000001
 43
0.0000001
 44
0.0000000001
 40
0.0
 40
0.0
 40
0.0
 40
0.0
 40
0.4838122253
 40
1.0
 40
1.0
 40
1.0
 40
1.0
 10
5.4812315845
 20
4.1241538258
 30
0.0
 10
5.4819830557
 20
4.123163018
 30
0.0
 10
5.4836397857
 20
4.1211929007
 30
0.0
 10
5.4854419038
 20
4.119357063
 30
0.0
 10
5.486401667
 20
4.1184410105
 30
0.0
  0
SPLINE
  5
39D
100
AcDbEntity
  8
0
100
AcDbSpline
 62
7
  6
CONTINUOUS
 70
0
 71
3
 72
9
 73
5
 74
0
 42
0.0000001
 43
0.0000001
 44
0.0000000001
 40
0.0
 40
0.0
 40
0.0
 40
0.0
 40
0.516187774
 40
1.0
 40
1.0
 40
1.0
 40
1.0
 10
5.48481852
 20
4.1309729097
 30
0.0
 10
5.4841167224
 20
4.1298469532
 30
0.0
 10
5.4828277755
 20
4.1276206232
 30
0.0
 10
5.481713043
 20
4.1253003888
 30
0.0
 10
5.4812315845
 20
4.1241538258
 30
0.0
  0
LINE
  5
39E
100
AcDbEntity
  8
0
100
AcDbLine
 62
7
  6
CONTINUOUS
 10
5.4775881257
 20
4.1314809864
 11
5.4777474065
 21
4.1305677531
  0
LINE
  5
39F
100
AcDbEntity
  8
0
100
AcDbLine
 62
7
  6
CONTINUOUS
 10
5.4768268745
 20
4.1451991908
 11
5.4767833081
 21
4.1442731954
  0
SPLINE
  5
3A0
100
AcDbEntity
  8
0
100
AcDbSpline
 62
7
  6
CONTINUOUS
 70
0
 71
3
 72
9
 73
5
 74
0
 42
0.0000001
 43
0.0000001
 44
0.0000000001
 40
0.0
 40
0.0
 40
0.0
 40
0.0
 40
0.4838122253
 40
1.0
 40
1.0
 40
1.0
 40
1.0
 10
5.4794797004
 20
4.1519992257
 30
0.0
 10
5.4801010649
 20
4.1509220464
 30
0.0
 10
5.4814978099
 20
4.1487598207
 30
0.0
 10
5.4830556263
 20
4.1467125939
 30
0.0
 10
5.4838930097
 20
4.1456834744
 30
0.0
  0
SPLINE
  5
3A1
100
AcDbEntity
  8
0
100
AcDbSpline
 62
7
  6
CONTINUOUS
 70
0
 71
3
 72
9
 73
5
 74
0
 42
0.0000001
 43
0.0000001
 44
0.0000000001
 40
0.0
 40
0.0
 40
0.0
 40
0.0
 40
0.516187774
 40
1.0
 40
1.0
 40
1.0
 40
1.0
 10
5.4838930097
 20
4.1583149769
 30
0.0
 10
5.4830556263
 20
4.1572858575
 30
0.0
 10
5.4814978099
 20
4.1552386306
 30
0.0
 10
5.4801010649
 20
4.1530764049
 30
0.0
 10
5.4794797004
 20
4.1519992257
 30
0.0
  0
LINE
  5
3A2
100
AcDbEntity
  8
0
100
AcDbLine
 62
7
  6
CONTINUOUS
 10
5.4767833081
 20
4.1597252559
 11
5.4768268745
 21
4.1587992605
  0
LINE
  5
3A3
100
AcDbEntity
  8
0
100
AcDbLine
 62
7
  6
CONTINUOUS
 10
5.4777474065
 20
4.1734306983
 11
5.4775881257
 21
4.1725174649
  0
SPLINE
  5
3A4
100
AcDbEntity
  8
0
100
AcDbSpline
 62
7
  6
CONTINUOUS
 70
0
 71
3
 72
9
 73
5
 74
0
 42
0.0000001
 43
0.0000001
 44
0.0000000001
 40
0.0
 40
0.0
 40
0.0
 40
0.0
 40
0.4838122253
 40
1.0
 40
1.0
 40
1.0
 40
1.0
 10
5.4812315845
 20
4.1798446256
 30
0.0
 10
5.481713043
 20
4.1786980625
 30
0.0
 10
5.4828277755
 20
4.1763778281
 30
0.0
 10
5.4841167224
 20
4.1741514981
 30
0.0
 10
5.48481852
 20
4.1730255416
 30
0.0
  0
SPLINE
  5
3A5
100
AcDbEntity
  8
0
100
AcDbSpline
 62
7
  6
CONTINUOUS
 70
0
 71
3
 72
9
 73
5
 74
0
 42
0.0000001
 43
0.0000001
 44
0.0000000001
 40
0.0
 40
0.0
 40
0.0
 40
0.0
 40
0.516187774
 40
1.0
 40
1.0
 40
1.0
 40
1.0
 10
5.486401667
 20
4.1855574409
 30
0.0
 10
5.4854419038
 20
4.1846413883
 30
0.0
 10
5.4836397857
 20
4.1828055506
 30
0.0
 10
5.4819830557
 20
4.1808354333
 30
0.0
 10
5.4812315845
 20
4.1798446256
 30
0.0
  0
LINE
  5
3A6
100
AcDbEntity
  8
0
100
AcDbLine
 62
7
  6
CONTINUOUS
 10
5.4795247824
 20
4.1878476813
 11
5.4794519472
 21
4.1869235274
  0
LINE
  5
3A7
100
AcDbEntity
  8
0
100
AcDbLine
 62
7
  6
CONTINUOUS
 10
5.482199026
 20
4.2013242186
 11
5.4819265427
 21
4.2004381495
  0
SPLINE
  5
3A8
100
AcDbEntity
  8
0
100
AcDbSpline
 62
7
  6
CONTINUOUS
 70
0
 71
3
 72
9
 73
5
 74
0
 42
0.0000001
 43
0.0000001
 44
0.0000000001
 40
0.0
 40
0.0
 40
0.0
 40
0.0
 40
0.4838122253
 40
1.0
 40
1.0
 40
1.0
 40
1.0
 10
5.4864596084
 20
4.2072508869
 30
0.0
 10
5.486793568
 20
4.2060530221
 30
0.0
 10
5.4876087081
 20
4.2036113704
 30
0.0
 10
5.4886084581
 20
4.2012410477
 30
0.0
 10
5.489163602
 20
4.2000360112
 30
0.0
  0
SPLINE
  5
3A9
100
AcDbEntity
  8
0
100
AcDbSpline
 62
7
  6
CONTINUOUS
 70
0
 71
3
 72
9
 73
5
 74
0
 42
0.0000001
 43
0.0000001
 44
0.0000000001
 40
0.0
 40
0.0
 40
0.0
 40
0.0
 40
0.516187774
 40
1.0
 40
1.0
 40
1.0
 40
1.0
 10
5.4923049289
 20
4.2122706717
 30
0.0
 10
5.4912379219
 20
4.2114821328
 30
0.0
 10
5.4892199226
 20
4.2098866365
 30
0.0
 10
5.4873293352
 20
4.2081396975
 30
0.0
 10
5.4864596084
 20
4.2072508869
 30
0.0
  0
LINE
  5
3AA
100
AcDbEntity
  8
0
100
AcDbLine
 62
7
  6
CONTINUOUS
 10
5.4857693139
 20
4.2154047552
 11
5.4855812258
 21
4.2144970171
  0
LINE
  5
3AB
100
AcDbEntity
  8
0
100
AcDbLine
 62
7
  6
CONTINUOUS
 10
5.4901115282
 20
4.2284398543
 11
5.4897301396
 21
4.2275949234
  0
SPLINE
  5
3AC
100
AcDbEntity
  8
0
100
AcDbSpline
 62
7
  6
CONTINUOUS
 70
0
 71
3
 72
9
 73
5
 74
0
 42
0.0000001
 43
0.0000001
 44
0.0000000001
 40
0.0
 40
0.0
 40
0.0
 40
0.0
 40
0.4838122253
 40
1.0
 40
1.0
 40
1.0
 40
1.0
 10
5.4950813232
 20
4.2337857965
 30
0.0
 10
5.4952625172
 20
4.232555521
 30
0.0
 10
5.4957652095
 20
4.2300309583
 30
0.0
 10
5.496459996
 20
4.2275540244
 30
0.0
 10
5.4968597313
 20
4.226288912
 30
0.0
  0
SPLINE
  5
3AD
100
AcDbEntity
  8
0
100
AcDbSpline
 62
7
  6
CONTINUOUS
 70
0
 71
3
 72
9
 73
5
 74
0
 42
0.0000001
 43
0.0000001
 44
0.0000000001
 40
0.0
 40
0.0
 40
0.0
 40
0.0
 40
0.516187774
 40
1.0
 40
1.0
 40
1.0
 40
1.0
 10
5.5015096975
 20
4.2380333859
 30
0.0
 10
5.5003522739
 20
4.2373847963
 30
0.0
 10
5.4981502185
 20
4.2360548033
 30
0.0
 10
5.4960555894
 20
4.2345585929
 30
0.0
 10
5.4950813232
 20
4.2337857965
 30
0.0
  0
LINE
  5
3AE
100
AcDbEntity
  8
0
100
AcDbLine
 62
7
  6
CONTINUOUS
 10
5.4954184225
 20
4.241961886
 11
5.4951180478
 21
4.2410848793
  0
LINE
  5
3AF
100
AcDbEntity
  8
0
100
AcDbLine
 62
7
  6
CONTINUOUS
 10
5.5013601283
 20
4.2543499757
 11
5.5008758491
 21
4.2535595079
  0
SPLINE
  5
3B0
100
AcDbEntity
  8
0
100
AcDbSpline
 62
7
  6
CONTINUOUS
 70
0
 71
3
 72
9
 73
5
 74
0
 42
0.0000001
 43
0.0000001
 44
0.0000000001
 40
0.0
 40
0.0
 40
0.0
 40
0.0
 40
0.4838122253
 40
1.0
 40
1.0
 40
1.0
 40
1.0
 10
5.5069607592
 20
4.259030883
 30
0.0
 10
5.50698633
 20
4.257787599
 30
0.0
 10
5.5071686468
 20
4.2552199391
 30
0.0
 10
5.5075475126
 20
4.2526754568
 30
0.0
 10
5.5077855353
 20
4.25137022
 30
0.0
  0
SPLINE
  5
3B1
100
AcDbEntity
  8
0
100
AcDbSpline
 62
7
  6
CONTINUOUS
 70
0
 71
3
 72
9
 73
5
 74
0
 42
0.0000001
 43
0.0000001
 44
0.0000000001
 40
0.0
 40
0.0
 40
0.0
 40
0.0
 40
0.516187774
 40
1.0
 40
1.0
 40
1.0
 40
1.0
 10
5.513870808
 20
4.26243929
 30
0.0
 10
5.5126412212
 20
4.2619408783
 30
0.0
 10
5.5102898373
 20
4.2608973635
 30
0.0
 10
5.5080242001
 20
4.2596754777
 30
0.0
 10
5.5069607592
 20
4.259030883
 30
0.0
  0
LINE
  5
3B2
100
AcDbEntity
  8
0
100
AcDbLine
 62
7
  6
CONTINUOUS
 10
5.5083199361
 20
4.2671002518
 11
5.5079120119
 21
4.2662678076
  0
LINE
  5
3B3
100
AcDbEntity
  8
0
100
AcDbLine
 62
7
  6
CONTINUOUS
 10
5.5157674291
 20
4.2786459646
 11
5.5151878968
 21
4.2779224262
  0
SPLINE
  5
3B4
100
AcDbEntity
  8
0
100
AcDbSpline
 62
7
  6
CONTINUOUS
 70
0
 71
3
 72
9
 73
5
 74
0
 42
0.0000001
 43
0.0000001
 44
0.0000000001
 40
0.0
 40
0.0
 40
0.0
 40
0.0
 40
0.4838122253
 40
1.0
 40
1.0
 40
1.0
 40
1.0
 10
5.5219105706
 20
4.2825880163
 30
0.0
 10
5.521780115
 20
4.2813513311
 30
0.0
 10
5.5216391811
 20
4.2787810677
 30
0.0
 10
5.5216961512
 20
4.2762091649
 30
0.0
 10
5.5217687074
 20
4.2748843882
 30
0.0
  0
SPLINE
  5
3B5
100
AcDbEntity
  8
0
100
AcDbSpline
 62
7
  6
CONTINUOUS
 70
0
 71
3
 72
9
 73
5
 74
0
 42
0.0000001
 43
0.0000001
 44
0.0000000001
 40
0.0
 40
0.0
 40
0.0
 40
0.0
 40
0.516187774
 40
1.0
 40
1.0
 40
1.0
 40
1.0
 10
5.5291933182
 20
4.2851034883
 30
0.0
 10
5.5279109596
 20
4.2847631148
 30
0.0
 10
5.52544733
 20
4.284022535
 30
0.0
 10
5.5230464151
 20
4.2830942438
 30
0.0
 10
5.5219105706
 20
4.2825880163
 30
0.0
  0
LINE
  5
3B6
100
AcDbEntity
  8
0
100
AcDbLine
 62
7
  6
CONTINUOUS
 10
5.5242703901
 20
4.2904234058
 11
5.5237613495
 21
4.2896486521
  0
LINE
  5
3B7
100
AcDbEntity
  8
0
100
AcDbLine
 62
7
  6
CONTINUOUS
 10
5.5331062189
 20
4.3009446587
 11
5.5324405729
 21
4.3002994603
  0
SPLINE
  5
3B8
100
AcDbEntity
  8
0
100
AcDbSpline
 62
7
  6
CONTINUOUS
 70
0
 71
3
 72
9
 73
5
 74
0
 42
0.0000001
 43
0.0000001
 44
0.0000000001
 40
0.0
 40
0.0
 40
0.0
 40
0.0
 40
0.4838122253
 40
1.0
 40
1.0
 40
1.0
 40
1.0
 10
5.53969499
 20
4.3040856865
 30
0.0
 10
5.5394105653
 20
4.3028751033
 30
0.0
 10
5.5389486033
 20
4.3003427709
 30
0.0
 10
5.5386827793
 20
4.297784008
 30
0.0
 10
5.5385887248
 20
4.2964605839
 30
0.0
  0
SPLINE
  5
3B9
100
AcDbEntity
  8
0
100
AcDbSpline
 62
7
  6
CONTINUOUS
 70
0
 71
3
 72
9
 73
5
 74
0
 42
0.0000001
 43
0.0000001
 44
0.0000000001
 40
0.0
 40
0.0
 40
0.0
 40
0.0
 40
0.516187774
 40
1.0
 40
1.0
 40
1.0
 40
1.0
 10
5.5472355832
 20
4.3056685528
 30
0.0
 10
5.5459206763
 20
4.3054915855
 30
0.0
 10
5.5433836538
 20
4.30506562
 30
0.0
 10
5.5408853252
 20
4.3044455631
 30
0.0
 10
5.53969499
 20
4.3040856865
 30
0.0
  0
LINE
  5
3BA
100
AcDbEntity
  8
0
100
AcDbLine
 62
7
  6
CONTINUOUS
 10
5.5430182363
 20
4.3115635277
 11
5.5424161073
 21
4.3108586829
  0
LINE
  5
3BB
100
AcDbEntity
  8
0
100
AcDbLine
 62
7
  6
CONTINUOUS
 10
5.5531030546
 20
4.3208943944
 11
5.5523617927
 21
4.3203377111
  0
SPLINE
  5
3BC
100
AcDbEntity
  8
0
100
AcDbSpline
 62
7
  6
CONTINUOUS
 70
0
 71
3
 72
9
 73
5
 74
0
 42
0.0000001
 43
0.0000001
 44
0.0000000001
 40
0.0
 40
0.0
 40
0.0
 40
0.0
 40
0.4838122253
 40
1.0
 40
1.0
 40
1.0
 40
1.0
 10
5.5600335464
 20
4.3231848622
 30
0.0
 10
5.5595996382
 20
4.3220194727
 30
0.0
 10
5.5588239335
 20
4.3195650077
 30
0.0
 10
5.5582395076
 20
4.3170597381
 30
0.0
 10
5.5579803257
 20
4.3157585376
 30
0.0
  0
SPLINE
  5
3BD
100
AcDbEntity
  8
0
100
AcDbSpline
 62
7
  6
CONTINUOUS
 70
0
 71
3
 72
9
 73
5
 74
0
 42
0.0000001
 43
0.0000001
 44
0.0000000001
 40
0.0
 40
0.0
 40
0.0
 40
0.0
 40
0.516187774
 40
1.0
 40
1.0
 40
1.0
 40
1.0
 10
5.5677130656
 20
4.3238101603
 30
0.0
 10
5.5663863472
 20
4.3237993899
 30
0.0
 10
5.5638159423
 20
4.3236947565
 30
0.0
 10
5.5612596
 20
4.3233927126
 30
0.0
 10
5.5600335464
 20
4.3231848622
 30
0.0
  0
LINE
  5
3BE
100
AcDbEntity
  8
0
100
AcDbLine
 62
7
  6
CONTINUOUS
 10
5.5642678099
 20
4.3301872252
 11
5.5635820884
 21
4.3295634051
  0
LINE
  5
3BF
100
AcDbEntity
  8
0
100
AcDbLine
 62
7
  6
CONTINUOUS
 10
5.5754425742
 20
4.3381805524
 11
5.5746373864
 21
4.3377211635
  0
SPLINE
  5
3C0
100
AcDbEntity
  8
0
100
AcDbSpline
 62
7
  6
CONTINUOUS
 70
0
 71
3
 72
9
 73
5
 74
0
 42
0.0000001
 43
0.0000001
 44
0.0000000001
 40
0.0
 40
0.0
 40
0.0
 40
0.0
 40
0.4838122253
 40
1.0
 40
1.0
 40
1.0
 40
1.0
 10
5.5826054887
 20
4.3395843383
 30
0.0
 10
5.58202894
 20
4.3384825213
 30
0.0
 10
5.5809517259
 20
4.3361446321
 30
0.0
 10
5.5800579148
 20
4.3337323652
 30
0.0
 10
5.579637693
 20
4.3324739092
 30
0.0
  0
SPLINE
  5
3C1
100
AcDbEntity
  8
0
100
AcDbSpline
 62
7
  6
CONTINUOUS
 70
0
 71
3
 72
9
 73
5
 74
0
 42
0.0000001
 43
0.0000001
 44
0.0000000001
 40
0.0
 40
0.0
 40
0.0
 40
0.0
 40
0.516187774
 40
1.0
 40
1.0
 40
1.0
 40
1.0
 10
5.5903028232
 20
4.3392422067
 30
0.0
 10
5.5889852165
 20
4.3393978031
 30
0.0
 10
5.5864219659
 20
4.339616152
 30
0.0
 10
5.583847925
 20
4.3396368844
 30
0.0
 10
5.5826054887
 20
4.3395843383
 30
0.0
  0
LINE
  5
3C2
100
AcDbEntity
  8
0
100
AcDbLine
 62
7
  6
CONTINUOUS
 10
5.5876839926
 20
4.3460007916
 11
5.5869254928
 21
4.3454678342
  0
LINE
  5
3C3
100
AcDbEntity
  8
0
100
AcDbLine
 62
7
  6
CONTINUOUS
 10
5.59977247
 20
4.3525305197
 11
5.5989160547
 21
4.35217567
  0
SPLINE
  5
3C4
100
AcDbEntity
  8
0
100
AcDbSpline
 62
7
  6
CONTINUOUS
 70
0
 71
3
 72
9
 73
5
 74
0
 42
0.0000001
 43
0.0000001
 44
0.0000000001
 40
0.0
 40
0.0
 40
0.0
 40
0.0
 40
0.4838122253
 40
1.0
 40
1.0
 40
1.0
 40
1.0
 10
5.6070548439
 20
4.353025485
 30
0.0
 10
5.6063447471
 20
4.3520046169
 30
0.0
 10
5.6049830119
 20
4.3498201734
 30
0.0
 10
5.6037939116
 20
4.3475389522
 30
0.0
 10
5.603219277
 20
4.3463430873
 30
0.0
  0
SPLINE
  5
3C5
100
AcDbEntity
  8
0
100
AcDbSpline
 62
7
  6
CONTINUOUS
 70
0
 71
3
 72
9
 73
5
 74
0
 42
0.0000001
 43
0.0000001
 44
0.0000000001
 40
0.0
 40
0.0
 40
0.0
 40
0.0
 40
0.516187774
 40
1.0
 40
1.0
 40
1.0
 40
1.0
 10
5.6146486021
 20
4.3517213194
 30
0.0
 10
5.6133608865
 20
4.3520408289
 30
0.0
 10
5.6108452143
 20
4.3525787164
 30
0.0
 10
5.608294069
 20
4.3529218982
 30
0.0
 10
5.6070548439
 20
4.353025485
 30
0.0
  0
LINE
  5
3C6
100
AcDbEntity
  8
0
100
AcDbLine
 62
7
  6
CONTINUOUS
 10
5.6128974971
 20
4.3587548374
 11
5.612078181
 21
4.3583211477
  0
LINE
  5
3C7
100
AcDbEntity
  8
0
100
AcDbLine
 62
7
  6
CONTINUOUS
 10
5.6257090452
 20
4.3637179886
 11
5.6248149085
 21
4.3634732743
  0
SPLINE
  5
3C8
100
AcDbEntity
  8
0
100
AcDbSpline
 62
7
  6
CONTINUOUS
 70
0
 71
3
 72
9
 73
5
 74
0
 42
0.0000001
 43
0.0000001
 44
0.0000000001
 40
0.0
 40
0.0
 40
0.0
 40
0.0
 40
0.4838122253
 40
1.0
 40
1.0
 40
1.0
 40
1.0
 10
5.632996031
 20
4.3632963275
 30
0.0
 10
5.6321635848
 20
4.3623725081
 30
0.0
 10
5.6305388039
 20
4.3603759601
 30
0.0
 10
5.6290731672
 20
4.3582617609
 30
0.0
 10
5.6283531822
 20
4.3571473465
 30
0.0
  0
SPLINE
  5
3C9
100
AcDbEntity
  8
0
100
AcDbSpline
 62
7
  6
CONTINUOUS
 70
0
 71
3
 72
9
 73
5
 74
0
 42
0.0000001
 43
0.0000001
 44
0.0000000001
 40
0.0
 40
0.0
 40
0.0
 40
0.0
 40
0.516187774
 40
1.0
 40
1.0
 40
1.0
 40
1.0
 10
5.6403664549
 20
4.3610506954
 30
0.0
 10
5.6391289384
 20
4.361529079
 30
0.0
 10
5.6367005183
 20
4.3623780225
 30
0.0
 10
5.6342125015
 20
4.3630382415
 30
0.0
 10
5.632996031
 20
4.3632963275
 30
0.0
  0
LINE
  5
3CA
100
AcDbEntity
  8
0
100
AcDbLine
 62
7
  6
CONTINUOUS
 10
5.6395106914
 20
4.3682482236
 11
5.6386434801
 21
4.3679206413
  0
LINE
  5
3CB
100
AcDbEntity
  8
0
100
AcDbLine
 62
7
  6
CONTINUOUS
 10
5.6528432644
 20
4.3715665262
 11
5.6519255074
 21
4.3714358066
  0
SPLINE
  5
3CC
100
AcDbEntity
  8
0
100
AcDbSpline
 62
7
  6
CONTINUOUS
 70
0
 71
3
 72
13
 73
9
 74
0
 42
0.0000001
 43
0.0000001
 44
0.0000000001
 40
0.0
 40
0.0
 40
0.0
 40
0.0
 40
0.2978699162
 40
0.5685431632
 40
0.6911311863
 40
0.8040987844
 40
0.9069977172
 40
1.0
 40
1.0
 40
1.0
 40
1.0
 10
5.856065659
 20
4.3056685528
 30
0.0
 10
5.8561923816
 20
4.3061994635
 30
0.0
 10
5.8564657796
 20
4.3072056902
 30
0.0
 10
5.8569029561
 20
4.3083972149
 30
0.0
 10
5.8573057465
 20
4.3092336118
 30
0.0
 10
5.8576173084
 20
4.3097707895
 30
0.0
 10
5.857947679
 20
4.3102315211
 30
0.0
 10
5.8581904767
 20
4.3104976169
 30
0.0
 10
5.8583145531
 20
4.3106144414
 30
0.0
  0
SPLINE
  5
3CD
100
AcDbEntity
  8
0
100
AcDbSpline
 62
7
  6
CONTINUOUS
 70
0
 71
3
 72
13
 73
9
 74
0
 42
0.0000001
 43
0.0000001
 44
0.0000000001
 40
0.0
 40
0.0
 40
0.0
 40
0.0
 40
0.2758453704
 40
0.3990829314
 40
0.5167987499
 40
0.6326788483
 40
0.7502437435
 40
1.0
 40
1.0
 40
1.0
 40
1.0
 10
5.8583145531
 20
4.3106144414
 30
0.0
 10
5.8585031628
 20
4.3107920275
 30
0.0
 10
5.8588105651
 20
4.3110203747
 30
0.0
 10
5.85926639
 20
4.3111941248
 30
0.0
 10
5.8595986423
 20
4.3112523002
 30
0.0
 10
5.8599304741
 20
4.3112438286
 30
0.0
 10
5.8603759945
 20
4.3111470552
 30
0.0
 10
5.8606895151
 20
4.3109881014
 30
0.0
 10
5.860885135
 20
4.3108586829
 30
0.0
  0
SPLINE
  5
3CE
100
AcDbEntity
  8
0
100
AcDbSpline
 62
7
  6
CONTINUOUS
 70
0
 71
3
 72
13
 73
9
 74
0
 42
0.0000001
 43
0.0000001
 44
0.0000000001
 40
0.0
 40
0.0
 40
0.0
 40
0.0
 40
0.2497597195
 40
0.3673262733
 40
0.4832077341
 40
0.6009241445
 40
0.7241609928
 40
1.0
 40
1.0
 40
1.0
 40
1.0
 10
5.8701950233
 20
4.3009446587
 30
0.0
 10
5.8703118972
 20
4.3007413095
 30
0.0
 10
5.870450846
 20
4.3004184459
 30
0.0
 10
5.8705194616
 20
4.2999677545
 30
0.0
 10
5.8705070929
 20
4.2996360643
 30
0.0
 10
5.8704281912
 20
4.2993081379
 30
0.0
 10
5.8702262048
 20
4.2988641461
 30
0.0
 10
5.8699790463
 20
4.2985716972
 30
0.0
 10
5.8697899952
 20
4.2983946154
 30
0.0
  0
SPLINE
  5
3CF
100
AcDbEntity
  8
0
100
AcDbSpline
 62
7
  6
CONTINUOUS
 70
0
 71
3
 72
13
 73
9
 74
0
 42
0.0000001
 43
0.0000001
 44
0.0000000001
 40
0.0
 40
0.0
 40
0.0
 40
0.0
 40
0.0929998357
 40
0.1958968639
 40
0.308863252
 40
0.4314508327
 40
0.7021259175
 40
1.0
 40
1.0
 40
1.0
 40
1.0
 10
5.8697899952
 20
4.2983946154
 30
0.0
 10
5.8696656161
 20
4.298278111
 30
0.0
 10
5.8693848071
 20
4.2980524843
 30
0.0
 10
5.8689042419
 20
4.2977516748
 30
0.0
 10
5.8683485539
 20
4.2974744378
 30
0.0
 10
5.8674884916
 20
4.2971249335
 30
0.0
 10
5.8662718172
 20
4.2967634135
 30
0.0
 10
5.8652503635
 20
4.2965537248
 30
0.0
 10
5.8647125174
 20
4.2964605839
 30
0.0
  0
SPLINE
  5
3D0
100
AcDbEntity
  8
0
100
AcDbSpline
 62
7
  6
CONTINUOUS
 70
0
 71
3
 72
13
 73
9
 74
0
 42
0.0000001
 43
0.0000001
 44
0.0000000001
 40
0.0
 40
0.0
 40
0.0
 40
0.0
 40
0.2978699162
 40
0.5685431632
 40
0.6911311863
 40
0.8040987844
 40
0.9069977172
 40
1.0
 40
1.0
 40
1.0
 40
1.0
 10
5.874107924
 20
4.2851034883
 30
0.0
 10
5.8743001881
 20
4.28561433
 30
0.0
 10
5.8746975439
 20
4.2865783564
 30
0.0
 10
5.8752806107
 20
4.2877056929
 30
0.0
 10
5.8757850534
 20
4.2884850115
 30
0.0
 10
5.8761614848
 20
4.2889789043
 30
0.0
 10
5.8765469953
 20
4.2893945965
 30
0.0
 10
5.8768212291
 20
4.2896281634
 30
0.0
 10
5.8769589691
 20
4.2897285159
 30
0.0
  0
SPLINE
  5
3D1
100
AcDbEntity
  8
0
100
AcDbSpline
 62
7
  6
CONTINUOUS
 70
0
 71
3
 72
13
 73
9
 74
0
 42
0.0000001
 43
0.0000001
 44
0.0000000001
 40
0.0
 40
0.0
 40
0.0
 40
0.0
 40
0.2758453704
 40
0.3990829314
 40
0.5167987499
 40
0.6326788483
 40
0.7502437435
 40
1.0
 40
1.0
 40
1.0
 40
1.0
 10
5.8769589691
 20
4.2897285159
 30
0.0
 10
5.8771683489
 20
4.2898810626
 30
0.0
 10
5.8775019468
 20
4.2900690815
 30
0.0
 10
5.8779759541
 20
4.2901843315
 30
0.0
 10
5.8783128777
 20
4.290200406
 30
0.0
 10
5.8786410312
 20
4.2901504116
 30
0.0
 10
5.8790709096
 20
4.2899985627
 30
0.0
 10
5.8793620359
 20
4.2898015678
 30
0.0
 10
5.8795398927
 20
4.2896486521
 30
0.0
  0
SPLINE
  5
3D2
100
AcDbEntity
  8
0
100
AcDbSpline
 62
7
  6
CONTINUOUS
 70
0
 71
3
 72
13
 73
9
 74
0
 42
0.0000001
 43
0.0000001
 44
0.0000000001
 40
0.0
 40
0.0
 40
0.0
 40
0.0
 40
0.2573131703
 40
0.3788207719
 40
0.4977437313
 40
0.6165886982
 40
0.7381721411
 40
1.0
 40
1.0
 40
1.0
 40
1.0
 10
5.8875338131
 20
4.2786459646
 30
0.0
 10
5.8876128848
 20
4.2784568254
 30
0.0
 10
5.8877019125
 20
4.2781641365
 30
0.0
 10
5.8877345501
 20
4.2777676788
 30
0.0
 10
5.8877133071
 20
4.2774809207
 30
0.0
 10
5.8876438911
 20
4.2772016753
 30
0.0
 10
5.8874823991
 20
4.2768338397
 30
0.0
 10
5.887289729
 20
4.2765888192
 30
0.0
 10
5.8871409708
 20
4.2764425844
 30
0.0
  0
SPLINE
  5
3D3
100
AcDbEntity
  8
0
100
AcDbSpline
 62
7
  6
CONTINUOUS
 70
0
 71
3
 72
14
 73
10
 74
0
 42
0.0000001
 43
0.0000001
 44
0.0000000001
 40
0.0
 40
0.0
 40
0.0
 40
0.0
 40
0.0879138119
 40
0.1866531741
 40
0.2969512276
 40
0.4187261567
 40
0.5511665106
 40
0.6931308996
 40
1.0
 40
1.0
 40
1.0
 40
1.0
 10
5.8871409708
 20
4.2764425844
 30
0.0
 10
5.8870171213
 20
4.2763208359
 30
0.0
 10
5.8867269595
 20
4.2760896023
 30
0.0
 10
5.8862160299
 20
4.2757980888
 30
0.0
 10
5.885611579
 20
4.2755460739
 30
0.0
 10
5.8849222949
 20
4.2753347963
 30
0.0
 10
5.8841580598
 20
4.2751631292
 30
0.0
 10
5.8830234651
 20
4.2749828607
 30
0.0
 10
5.8821381072
 20
4.2749121486
 30
0.0
 10
5.8815325348
 20
4.2748843882
 30
0.0
  0
SPLINE
  5
3D4
100
AcDbEntity
  8
0
100
AcDbSpline
 62
7
  6
CONTINUOUS
 70
0
 71
3
 72
13
 73
9
 74
0
 42
0.0000001
 43
0.0000001
 44
0.0000000001
 40
0.0
 40
0.0
 40
0.0
 40
0.0
 40
0.2978699162
 40
0.5685431632
 40
0.6911311863
 40
0.8040987844
 40
0.9069977173
 40
1.0
 40
1.0
 40
1.0
 40
1.0
 10
5.8894304343
 20
4.26243929
 30
0.0
 10
5.8896852078
 20
4.2629220064
 30
0.0
 10
5.8902002548
 20
4.2638286294
 30
0.0
 10
5.8909200168
 20
4.2648739988
 30
0.0
 10
5.8915181563
 20
4.2655839488
 30
0.0
 10
5.8919535205
 20
4.2660267678
 30
0.0
 10
5.8923880912
 20
4.2663908648
 30
0.0
 10
5.8926894363
 20
4.2665882194
 30
0.0
 10
5.8928386677
 20
4.2666705172
 30
0.0
  0
SPLINE
  5
3D5
100
AcDbEntity
  8
0
100
AcDbSpline
 62
7
  6
CONTINUOUS
 70
0
 71
3
 72
13
 73
9
 74
0
 42
0.0000001
 43
0.0000001
 44
0.0000000001
 40
0.0
 40
0.0
 40
0.0
 40
0.0
 40
0.2758453703
 40
0.3990829314
 40
0.5167987499
 40
0.6326788483
 40
0.7502437435
 40
1.0
 40
1.0
 40
1.0
 40
1.0
 10
5.8928386677
 20
4.2666705172
 30
0.0
 10
5.8930655157
 20
4.2667956187
 30
0.0
 10
5.893420048
 20
4.2669403441
 30
0.0
 10
5.8939047623
 20
4.2669952765
 30
0.0
 10
5.8942410439
 20
4.2669689965
 30
0.0
 10
5.8945603438
 20
4.2668782678
 30
0.0
 10
5.8949678007
 20
4.2666737383
 30
0.0
 10
5.8952319414
 20
4.2664418089
 30
0.0
 10
5.8953892304
 20
4.2662678076
 30
0.0
  0
SPLINE
  5
3D6
100
AcDbEntity
  8
0
100
AcDbSpline
 62
7
  6
CONTINUOUS
 70
0
 71
3
 72
11
 73
7
 74
0
 42
0.0000001
 43
0.0000001
 44
0.0000000001
 40
0.0
 40
0.0
 40
0.0
 40
0.0
 40
0.2628960293
 40
0.5089761999
 40
0.7494336689
 40
1.0
 40
1.0
 40
1.0
 40
1.0
 10
5.9019411139
 20
4.2543499757
 30
0.0
 10
5.9019877354
 20
4.2541817264
 30
0.0
 10
5.9020503347
 20
4.2538469218
 30
0.0
 10
5.9020290105
 20
4.2533443685
 30
0.0
 10
5.9018724218
 20
4.2528734513
 30
0.0
 10
5.9016812998
 20
4.252603079
 30
0.0
 10
5.9015690479
 20
4.2524802425
 30
0.0
  0
SPLINE
  5
3D7
100
AcDbEntity
  8
0
100
AcDbSpline
 62
7
  6
CONTINUOUS
 70
0
 71
3
 72
15
 73
11
 74
0
 42
0.0000001
 43
0.0000001
 44
0.0000000001
 40
0.0
 40
0.0
 40
0.0
 40
0.0
 40
0.0833792535
 40
0.1778572119
 40
0.2851290998
 40
0.4057161323
 40
0.5389682232
 40
0.6835692281
 40
0.837875599
 40
1.0
 40
1.0
 40
1.0
 40
1.0
 10
5.9015690479
 20
4.2524802425
 30
0.0
 10
5.9014504989
 20
4.2523505152
 30
0.0
 10
5.9011602858
 20
4.2521069985
 30
0.0
 10
5.9006279671
 20
4.2518219002
 30
0.0
 10
5.8999846438
 20
4.2515968068
 30
0.0
 10
5.8992394316
 20
4.2514352131
 30
0.0
 10
5.8984048722
 20
4.2513337506
 30
0.0
 10
5.8974943584
 20
4.2512909688
 30
0.0
 10
5.8965222934
 20
4.2513028701
 30
0.0
 10
5.8958563224
 20
4.2513429625
 30
0.0
 10
5.895515707
 20
4.25137022
 30
0.0
  0
SPLINE
  5
3D8
100
AcDbEntity
  8
0
100
AcDbSpline
 62
7
  6
CONTINUOUS
 70
0
 71
3
 72
13
 73
9
 74
0
 42
0.0000001
 43
0.0000001
 44
0.0000000001
 40
0.0
 40
0.0
 40
0.0
 40
0.0
 40
0.2978699162
 40
0.5685431632
 40
0.6911311863
 40
0.8040987844
 40
0.9069977173
 40
1.0
 40
1.0
 40
1.0
 40
1.0
 10
5.9017915447
 20
4.2380333859
 30
0.0
 10
5.9021048097
 20
4.2384803644
 30
0.0
 10
5.9027294254
 20
4.2393152859
 30
0.0
 10
5.9035745314
 20
4.2402622022
 30
0.0
 10
5.9042569347
 20
4.2408915872
 30
0.0
 10
5.9047443659
 20
4.2412763489
 30
0.0
 10
5.9052211433
 20
4.2415831087
 30
0.0
 10
5.9055448473
 20
4.2417411386
 30
0.0
 10
5.9057032166
 20
4.2418040837
 30
0.0
  0
SPLINE
  5
3D9
100
AcDbEntity
  8
0
100
AcDbSpline
 62
7
  6
CONTINUOUS
 70
0
 71
3
 72
13
 73
9
 74
0
 42
0.0000001
 43
0.0000001
 44
0.0000000001
 40
0.0
 40
0.0
 40
0.0
 40
0.0
 40
0.2758453703
 40
0.3990829314
 40
0.5167987499
 40
0.6326788483
 40
0.7502437435
 40
1.0
 40
1.0
 40
1.0
 40
1.0
 10
5.9057032166
 20
4.2418040837
 30
0.0
 10
5.9059439552
 20
4.2418997672
 30
0.0
 10
5.9063138309
 20
4.2419989167
 30
0.0
 10
5.9068016079
 20
4.2419926652
 30
0.0
 10
5.907131944
 20
4.2419244451
 30
0.0
 10
5.9074373549
 20
4.2417944129
 30
0.0
 10
5.9078159645
 20
4.2415404282
 30
0.0
 10
5.9080489539
 20
4.2412772221
 30
0.0
 10
5.9081831945
 20
4.2410848793
 30
0.0
  0
SPLINE
  5
3DA
100
AcDbEntity
  8
0
100
AcDbSpline
 62
7
  6
CONTINUOUS
 70
0
 71
3
 72
11
 73
7
 74
0
 42
0.0000001
 43
0.0000001
 44
0.0000000001
 40
0.0
 40
0.0
 40
0.0
 40
0.0
 40
0.2628960293
 40
0.5089761999
 40
0.7494336689
 40
1.0
 40
1.0
 40
1.0
 40
1.0
 10
5.913189714
 20
4.2284398543
 30
0.0
 10
5.9132148806
 20
4.2282670885
 30
0.0
 10
5.9132350242
 20
4.2279270782
 30
0.0
 10
5.9131508815
 20
4.2274311603
 30
0.0
 10
5.912936506
 20
4.2269835822
 30
0.0
 10
5.9127130044
 20
4.2267392958
 30
0.0
 10
5.9125862421
 20
4.2266314968
 30
0.0
  0
SPLINE
  5
3DB
100
AcDbEntity
  8
0
100
AcDbSpline
 62
7
  6
CONTINUOUS
 70
0
 71
3
 72
15
 73
11
 74
0
 42
0.0000001
 43
0.0000001
 44
0.0000000001
 40
0.0
 40
0.0
 40
0.0
 40
0.0
 40
0.0833792535
 40
0.1778572119
 40
0.2851290998
 40
0.4057161323
 40
0.5389682232
 40
0.6835692281
 40
0.837875599
 40
1.0
 40
1.0
 40
1.0
 40
1.0
 10
5.9125862421
 20
4.2266314968
 30
0.0
 10
5.9124523688
 20
4.2265176505
 30
0.0
 10
5.9121339234
 20
4.2263124274
 30
0.0
 10
5.9115700699
 20
4.2260962944
 30
0.0
 10
5.9109036077
 20
4.2259536058
 30
0.0
 10
5.9101440187
 20
4.2258866861
 30
0.0
 10
5.9093033234
 20
4.2258906217
 30
0.0
 10
5.9083946272
 20
4.2259622949
 30
0.0
 10
5.9074317189
 20
4.2260959344
 30
0.0
 10
5.9067760242
 20
4.226219179
 30
0.0
 10
5.9064415109
 20
4.226288912
 30
0.0
  0
SPLINE
  5
3DC
100
AcDbEntity
  8
0
100
AcDbSpline
 62
7
  6
CONTINUOUS
 70
0
 71
3
 72
13
 73
9
 74
0
 42
0.0000001
 43
0.0000001
 44
0.0000000001
 40
0.0
 40
0.0
 40
0.0
 40
0.0
 40
0.2978699162
 40
0.5685431632
 40
0.6911311863
 40
0.8040987844
 40
0.9069977173
 40
1.0
 40
1.0
 40
1.0
 40
1.0
 10
5.9109963133
 20
4.2122706717
 30
0.0
 10
5.9113631293
 20
4.2126748632
 30
0.0
 10
5.9120874632
 20
4.2134249159
 30
0.0
 10
5.9130445853
 20
4.2142584456
 30
0.0
 10
5.9138004905
 20
4.21479734
 30
0.0
 10
5.9143323016
 20
4.2151179763
 30
0.0
 10
5.9148437667
 20
4.2153625612
 30
0.0
 10
5.9151847246
 20
4.2154787741
 30
0.0
 10
5.9153497342
 20
4.215521374
 30
0.0
  0
SPLINE
  5
3DD
100
AcDbEntity
  8
0
100
AcDbSpline
 62
7
  6
CONTINUOUS
 70
0
 71
3
 72
13
 73
9
 74
0
 42
0.0000001
 43
0.0000001
 44
0.0000000001
 40
0.0
 40
0.0
 40
0.0
 40
0.0
 40
0.2758453703
 40
0.3990829314
 40
0.5167987499
 40
0.6326788483
 40
0.7502437435
 40
1.0
 40
1.0
 40
1.0
 40
1.0
 10
5.9153497342
 20
4.215521374
 30
0.0
 10
5.9156005668
 20
4.2155861304
 30
0.0
 10
5.9159799526
 20
4.2156381404
 30
0.0
 10
5.9164630999
 20
4.2155708035
 30
0.0
 10
5.9167822809
 20
4.2154617192
 30
0.0
 10
5.9170689862
 20
4.2152944343
 30
0.0
 10
5.9174127776
 20
4.214995
 30
0.0
 10
5.9176109414
 20
4.214704668
 30
0.0
 10
5.9177200165
 20
4.2144970171
 30
0.0
  0
SPLINE
  5
3DE
100
AcDbEntity
  8
0
100
AcDbSpline
 62
7
  6
CONTINUOUS
 70
0
 71
3
 72
11
 73
7
 74
0
 42
0.0000001
 43
0.0000001
 44
0.0000000001
 40
0.0
 40
0.0
 40
0.0
 40
0.0
 40
0.2628960293
 40
0.5089761999
 40
0.7494336689
 40
1.0
 40
1.0
 40
1.0
 40
1.0
 10
5.9211022163
 20
4.2013242186
 30
0.0
 10
5.9211055311
 20
4.2011496609
 30
0.0
 10
5.9210829013
 20
4.200809807
 30
0.0
 10
5.920937267
 20
4.2003283454
 30
0.0
 10
5.9206684856
 20
4.199911165
 30
0.0
 10
5.9204161292
 20
4.1996968171
 30
0.0
 10
5.9202768556
 20
4.1996057556
 30
0.0
  0
SPLINE
  5
3DF
100
AcDbEntity
  8
0
100
AcDbSpline
 62
7
  6
CONTINUOUS
 70
0
 71
3
 72
15
 73
11
 74
0
 42
0.0000001
 43
0.0000001
 44
0.0000000001
 40
0.0
 40
0.0
 40
0.0
 40
0.0
 40
0.0833792535
 40
0.1778572119
 40
0.2851290998
 40
0.4057161323
 40
0.5389682232
 40
0.6835692281
 40
0.837875599
 40
1.0
 40
1.0
 40
1.0
 40
1.0
 10
5.9202768556
 20
4.1996057556
 30
0.0
 10
5.9201297692
 20
4.1995095858
 30
0.0
 10
5.9197881136
 20
4.1993458927
 30
0.0
 10
5.9192016176
 20
4.1992021336
 30
0.0
 10
5.918522527
 20
4.1991440999
 30
0.0
 10
5.9177605403
 20
4.1991729097
 30
0.0
 10
5.9169269674
 20
4.1992821814
 30
0.0
 10
5.9160344196
 20
4.1994671792
 30
0.0
 10
5.9150958536
 20
4.1997204493
 30
0.0
 10
5.9144607759
 20
4.1999249024
 30
0.0
 10
5.9141376402
 20
4.2000360112
 30
0.0
  0
SPLINE
  5
3E0
100
AcDbEntity
  8
0
100
AcDbSpline
 62
7
  6
CONTINUOUS
 70
0
 71
3
 72
13
 73
9
 74
0
 42
0.0000001
 43
0.0000001
 44
0.0000000001
 40
0.0
 40
0.0
 40
0.0
 40
0.0
 40
0.2978699162
 40
0.5685431632
 40
0.6911311863
 40
0.8040987844
 40
0.9069977173
 40
1.0
 40
1.0
 40
1.0
 40
1.0
 10
5.9168995752
 20
4.1855574409
 30
0.0
 10
5.9173141574
 20
4.1859124709
 30
0.0
 10
5.9181267862
 20
4.1865658261
 30
0.0
 10
5.9191808301
 20
4.187272824
 30
0.0
 10
5.9199983162
 20
4.187712729
 30
0.0
 10
5.9205661202
 20
4.1879641834
 30
0.0
 10
5.9211042068
 20
4.1881427361
 30
0.0
 10
5.9214570414
 20
4.1882152992
 30
0.0
 10
5.9216260891
 20
4.188236882
 30
0.0
  0
SPLINE
  5
3E1
100
AcDbEntity
  8
0
100
AcDbSpline
 62
7
  6
CONTINUOUS
 70
0
 71
3
 72
13
 73
9
 74
0
 42
0.0000001
 43
0.0000001
 44
0.0000000001
 40
0.0
 40
0.0
 40
0.0
 40
0.0
 40
0.2758453703
 40
0.3990829314
 40
0.5167987499
 40
0.6326788483
 40
0.7502437435
 40
1.0
 40
1.0
 40
1.0
 40
1.0
 10
5.9216260891
 20
4.188236882
 30
0.0
 10
5.92188306
 20
4.1882696901
 30
0.0
 10
5.9222659728
 20
4.1882737404
 30
0.0
 10
5.9227368707
 20
4.18814638
 30
0.0
 10
5.9230398631
 20
4.1879981519
 30
0.0
 10
5.9233033412
 20
4.1877962524
 30
0.0
 10
5.9236068927
 20
4.1874560907
 30
0.0
 10
5.9237671056
 20
4.1871432116
 30
0.0
 10
5.923849295
 20
4.1869235274
 30
0.0
  0
SPLINE
  5
3E2
100
AcDbEntity
  8
0
100
AcDbSpline
 62
7
  6
CONTINUOUS
 70
0
 71
3
 72
11
 73
7
 74
0
 42
0.0000001
 43
0.0000001
 44
0.0000000001
 40
0.0
 40
0.0
 40
0.0
 40
0.0
 40
0.2653296265
 40
0.5157061213
 40
0.7574525131
 40
1.0
 40
1.0
 40
1.0
 40
1.0
 10
5.9255538357
 20
4.1734306983
 30
0.0
 10
5.9255385888
 20
4.1732883136
 30
0.0
 10
5.9254893315
 20
4.1730129808
 30
0.0
 10
5.9253466271
 20
4.172627218
 30
0.0
 10
5.9251326286
 20
4.1722895727
 30
0.0
 10
5.9249427846
 20
4.1721057761
 30
0.0
 10
5.9248390115
 20
4.1720259841
 30
0.0
  0
SPLINE
  5
3E3
100
AcDbEntity
  8
0
100
AcDbSpline
 62
7
  6
CONTINUOUS
 70
0
 71
3
 72
15
 73
11
 74
0
 42
0.0000001
 43
0.0000001
 44
0.0000000001
 40
0.0
 40
0.0
 40
0.0
 40
0.0
 40
0.0802029249
 40
0.1704823328
 40
0.2743743234
 40
0.3932515171
 40
0.5269284074
 40
0.6739784003
 40
0.8324396163
 40
1.0
 40
1.0
 40
1.0
 40
1.0
 10
5.9248390115
 20
4.1720259841
 30
0.0
 10
5.9246970829
 20
4.1719168539
 30
0.0
 10
5.9243577726
 20
4.1717314477
 30
0.0
 10
5.9237571221
 20
4.1715876564
 30
0.0
 10
5.9230552745
 20
4.1715626432
 30
0.0
 10
5.9222626606
 20
4.1716543455
 30
0.0
 10
5.9213924125
 20
4.1718565488
 30
0.0
 10
5.920459096
 20
4.1721597094
 30
0.0
 10
5.9194786001
 20
4.1725535417
 30
0.0
 10
5.9188184027
 20
4.1728605461
 30
0.0
 10
5.9184827223
 20
4.1730255416
 30
0.0
  0
SPLINE
  5
3E4
100
AcDbEntity
  8
0
100
AcDbSpline
 62
7
  6
CONTINUOUS
 70
0
 71
3
 72
20
 73
16
 74
0
 42
0.0000001
 43
0.0000001
 44
0.0000000001
 40
0.0
 40
0.0
 40
0.0
 40
0.0
 40
0.1819491328
 40
0.3501595373
 40
0.4278852065
 40
0.5007819761
 40
0.6308163765
 40
0.6879879965
 40
0.7402091347
 40
0.7880187235
 40
0.8323834953
 40
0.8745134232
 40
0.9156888402
 40
0.9571680284
 40
1.0
 40
1.0
 40
1.0
 40
1.0
 10
5.9194082325
 20
4.1583149769
 30
0.0
 10
5.9198065326
 20
4.1585773611
 30
0.0
 10
5.920587093
 20
4.1590615335
 30
0.0
 10
5.9215817884
 20
4.1595831254
 30
0.0
 10
5.9223501046
 20
4.1599134314
 30
0.0
 10
5.9230420196
 20
4.1601636302
 30
0.0
 10
5.9237071098
 20
4.1603314745
 30
0.0
 10
5.9243334004
 20
4.1603880004
 30
0.0
 10
5.9247465205
 20
4.1603751941
 30
0.0
 10
5.9251206174
 20
4.160307808
 30
0.0
 10
5.9254532734
 20
4.1601869098
 30
0.0
 10
5.9257429278
 20
4.1600151764
 30
0.0
 10
5.925987955
 20
4.1597953043
 30
0.0
 10
5.9261876748
 20
4.1595317109
 30
0.0
 10
5.9262896537
 20
4.1593344062
 30
0.0
 10
5.926333838
 20
4.1592311866
 30
0.0
  0
LINE
  5
3E5
100
AcDbEntity
  8
0
100
AcDbLine
 62
7
  6
CONTINUOUS
 10
5.926333838
 20
4.1592311866
 11
5.9264743678
 21
4.1587992605
  0
SPLINE
  5
3E6
100
AcDbEntity
  8
0
100
AcDbSpline
 62
7
  6
CONTINUOUS
 70
0
 71
3
 72
13
 73
9
 74
0
 42
0.0000001
 43
0.0000001
 44
0.0000000001
 40
0.0
 40
0.0
 40
0.0
 40
0.0
 40
0.2573131703
 40
0.3788207719
 40
0.4977437313
 40
0.6165886982
 40
0.7381721411
 40
1.0
 40
1.0
 40
1.0
 40
1.0
 10
5.9264743678
 20
4.1451991908
 30
0.0
 10
5.926427165
 20
4.1449996968
 30
0.0
 10
5.9263271516
 20
4.1447105774
 30
0.0
 10
5.9261205241
 20
4.1443706525
 30
0.0
 10
5.9259347859
 20
4.1441511466
 30
0.0
 10
5.9257144908
 20
4.1439660341
 30
0.0
 10
5.9253676327
 20
4.1437633714
 30
0.0
 10
5.9250677399
 20
4.1436783943
 30
0.0
 10
5.9248614373
 20
4.1436475258
 30
0.0
  0
SPLINE
  5
3E7
100
AcDbEntity
  8
0
100
AcDbSpline
 62
7
  6
CONTINUOUS
 70
0
 71
3
 72
14
 73
10
 74
0
 42
0.0000001
 43
0.0000001
 44
0.0000000001
 40
0.0
 40
0.0
 40
0.0
 40
0.0
 40
0.0879138119
 40
0.1866531741
 40
0.2969512276
 40
0.4187261567
 40
0.5511665106
 40
0.6931308996
 40
1.0
 40
1.0
 40
1.0
 40
1.0
 10
5.9248614373
 20
4.1436475258
 30
0.0
 10
5.924689679
 20
4.143621826
 30
0.0
 10
5.9243190175
 20
4.143605307
 30
0.0
 10
5.9237343194
 20
4.1436697844
 30
0.0
 10
5.9230971777
 20
4.1438211875
 30
0.0
 10
5.9224153494
 20
4.1440554113
 30
0.0
 10
5.9216961667
 20
4.1443657358
 30
0.0
 10
5.9206723012
 20
4.1448867935
 30
0.0
 10
5.919914468
 20
4.1453499866
 30
0.0
 10
5.9194082325
 20
4.1456834744
 30
0.0
  0
SPLINE
  5
3E8
100
AcDbEntity
  8
0
100
AcDbSpline
 62
7
  6
CONTINUOUS
 70
0
 71
3
 72
20
 73
16
 74
0
 42
0.0000001
 43
0.0000001
 44
0.0000000001
 40
0.0
 40
0.0
 40
0.0
 40
0.0
 40
0.1819491328
 40
0.3501595373
 40
0.4278852065
 40
0.5007819761
 40
0.6308163765
 40
0.6879879965
 40
0.7402091347
 40
0.7880187235
 40
0.8323834953
 40
0.8745134232
 40
0.9156888402
 40
0.9571680284
 40
1.0
 40
1.0
 40
1.0
 40
1.0
 10
5.9184827223
 20
4.1309729097
 30
0.0
 10
5.9189107671
 20
4.1311833048
 30
0.0
 10
5.9197458554
 20
4.1315658291
 30
0.0
 10
5.9207980801
 20
4.1319586397
 30
0.0
 10
5.9216017362
 20
4.1321900456
 30
0.0
 10
5.9223195535
 20
4.1323515516
 30
0.0
 10
5.9230004358
 20
4.1324347145
 30
0.0
 10
5.9236288724
 20
4.1324122997
 30
0.0
 10
5.9240371299
 20
4.1323478167
 30
0.0
 10
5.9243998312
 20
4.1322340751
 30
0.0
 10
5.9247147116
 20
4.1320724374
 30
0.0
 10
5.924980558
 20
4.1318657548
 30
0.0
 10
5.9251960958
 20
4.1316169064
 30
0.0
 10
5.9253612038
 20
4.13133036
 30
0.0
 10
5.9254376497
 20
4.1311218297
 30
0.0
 10
5.9254685488
 20
4.1310138863
 30
0.0
  0
LINE
  5
3E9
100
AcDbEntity
  8
0
100
AcDbLine
 62
7
  6
CONTINUOUS
 10
5.9254685488
 20
4.1310138863
 11
5.9255538357
 21
4.1305677531
  0
SPLINE
  5
3EA
100
AcDbEntity
  8
0
100
AcDbSpline
 62
7
  6
CONTINUOUS
 70
0
 71
3
 72
13
 73
9
 74
0
 42
0.0000001
 43
0.0000001
 44
0.0000000001
 40
0.0
 40
0.0
 40
0.0
 40
0.0
 40
0.2497597195
 40
0.3673262733
 40
0.4832077341
 40
0.6009241445
 40
0.7241609928
 40
1.0
 40
1.0
 40
1.0
 40
1.0
 10
5.923849295
 20
4.117074924
 30
0.0
 10
5.92376711
 20
4.1168552514
 30
0.0
 10
5.9236069087
 20
4.1165423885
 30
0.0
 10
5.9233033822
 20
4.1162022378
 30
0.0
 10
5.9230399263
 20
4.1160003407
 30
0.0
 10
5.9227369609
 20
4.1158521073
 30
0.0
 10
5.9222661083
 20
4.1157247295
 30
0.0
 10
5.9218832278
 20
4.1157287545
 30
0.0
 10
5.9216262782
 20
4.1157615447
 30
0.0
  0
SPLINE
  5
3EB
100
AcDbEntity
  8
0
100
AcDbSpline
 62
7
  6
CONTINUOUS
 70
0
 71
3
 72
13
 73
9
 74
0
 42
0.0000001
 43
0.0000001
 44
0.0000000001
 40
0.0
 40
0.0
 40
0.0
 40
0.0
 40
0.0929998357
 40
0.1958968639
 40
0.308863252
 40
0.4314508327
 40
0.7021259175
 40
1.0
 40
1.0
 40
1.0
 40
1.0
 10
5.9216262782
 20
4.1157615447
 30
0.0
 10
5.9214572279
 20
4.1157831177
 30
0.0
 10
5.9211043851
 20
4.1158556649
 30
0.0
 10
5.9205662836
 20
4.1160342036
 30
0.0
 10
5.91999846
 20
4.116285651
 30
0.0
 10
5.9191809379
 20
4.116725558
 30
0.0
 10
5.9181268446
 20
4.1174325802
 30
0.0
 10
5.9173141775
 20
4.1180859632
 30
0.0
 10
5.9168995752
 20
4.1184410105
 30
0.0
  0
SPLINE
  5
3EC
100
AcDbEntity
  8
0
100
AcDbSpline
 62
7
  6
CONTINUOUS
 70
0
 71
3
 72
20
 73
16
 74
0
 42
0.0000001
 43
0.0000001
 44
0.0000000001
 40
0.0
 40
0.0
 40
0.0
 40
0.0
 40
0.1819491328
 40
0.3501595373
 40
0.4278852065
 40
0.5007819761
 40
0.6308163765
 40
0.6879879965
 40
0.7402091347
 40
0.7880187235
 40
0.8323834953
 40
0.8745134232
 40
0.9156888402
 40
0.9571680284
 40
1.0
 40
1.0
 40
1.0
 40
1.0
 10
5.9141376402
 20
4.1039624401
 30
0.0
 10
5.9145886793
 20
4.1041175279
 30
0.0
 10
5.9154651257
 20
4.1043923716
 30
0.0
 10
5.9165582855
 20
4.104650206
 30
0.0
 10
5.9173846074
 20
4.1047790624
 30
0.0
 10
5.9181170066
 20
4.1048493285
 30
0.0
 10
5.9188029429
 20
4.1048464985
 30
0.0
 10
5.9194236148
 20
4.1047454964
 30
0.0
 10
5.9198205712
 20
4.1046303536
 30
0.0
 10
5.9201661569
 20
4.1044720504
 30
0.0
 10
5.9204582958
 20
4.1042722223
 30
0.0
 10
5.9206961418
 20
4.1040338501
 30
0.0
 10
5.920878791
 20
4.1037599499
 30
0.0
 10
5.9210066832
 20
4.1034549695
 30
0.0
 10
5.9210563906
 20
4.1032385023
 30
0.0
 10
5.9210735172
 20
4.1031275374
 30
0.0
  0
LINE
  5
3ED
100
AcDbEntity
  8
0
100
AcDbLine
 62
7
  6
CONTINUOUS
 10
5.9210735172
 20
4.1031275374
 11
5.9211022163
 21
4.1026742327
  0
SPLINE
  5
3EE
100
AcDbEntity
  8
0
100
AcDbSpline
 62
7
  6
CONTINUOUS
 70
0
 71
3
 72
13
 73
9
 74
0
 42
0.0000001
 43
0.0000001
 44
0.0000000001
 40
0.0
 40
0.0
 40
0.0
 40
0.0
 40
0.2497597195
 40
0.3673262733
 40
0.4832077341
 40
0.6009241445
 40
0.7241609928
 40
1.0
 40
1.0
 40
1.0
 40
1.0
 10
5.9177200165
 20
4.0895014342
 30
0.0
 10
5.9176109472
 20
4.0892937944
 30
0.0
 10
5.917412797
 20
4.089003477
 30
0.0
 10
5.9170690317
 20
4.0887040505
 30
0.0
 10
5.9167823489
 20
4.0885367652
 30
0.0
 10
5.9164631938
 20
4.0884276723
 30
0.0
 10
5.9159800894
 20
4.0883603124
 30
0.0
 10
5.9156007325
 20
4.0884122933
 30
0.0
 10
5.9153499188
 20
4.0884770292
 30
0.0
  0
SPLINE
  5
3EF
100
AcDbEntity
  8
0
100
AcDbSpline
 62
7
  6
CONTINUOUS
 70
0
 71
3
 72
13
 73
9
 74
0
 42
0.0000001
 43
0.0000001
 44
0.0000000001
 40
0.0
 40
0.0
 40
0.0
 40
0.0
 40
0.0929998357
 40
0.1958968639
 40
0.308863252
 40
0.4314508327
 40
0.7021259175
 40
1.0
 40
1.0
 40
1.0
 40
1.0
 10
5.9153499188
 20
4.0884770292
 30
0.0
 10
5.9151849052
 20
4.0885196198
 30
0.0
 10
5.9148439373
 20
4.0886358178
 30
0.0
 10
5.9143324557
 20
4.0888803907
 30
0.0
 10
5.9138006243
 20
4.0892010225
 30
0.0
 10
5.9130446836
 20
4.0897399234
 30
0.0
 10
5.9120875154
 20
4.0905734835
 30
0.0
 10
5.9113631471
 20
4.0913235685
 30
0.0
 10
5.9109963133
 20
4.0917277796
 30
0.0
  0
SPLINE
  5
3F0
100
AcDbEntity
  8
0
100
AcDbSpline
 62
7
  6
CONTINUOUS
 70
0
 71
3
 72
20
 73
16
 74
0
 42
0.0000001
 43
0.0000001
 44
0.0000000001
 40
0.0
 40
0.0
 40
0.0
 40
0.0
 40
0.1819491328
 40
0.3501595373
 40
0.4278852065
 40
0.5007819761
 40
0.6308163765
 40
0.6879879965
 40
0.7402091347
 40
0.7880187235
 40
0.8323834953
 40
0.8745134232
 40
0.9156888402
 40
0.9571680284
 40
1.0
 40
1.0
 40
1.0
 40
1.0
 10
5.9064415109
 20
4.0777095393
 30
0.0
 10
5.9069084311
 20
4.077806874
 30
0.0
 10
5.9078124135
 20
4.0779697027
 30
0.0
 10
5.9089292686
 20
4.0780884947
 30
0.0
 10
5.9097652247
 20
4.0781127694
 30
0.0
 10
5.9105006554
 20
4.0780906875
 30
0.0
 10
5.9111808282
 20
4.0780019091
 30
0.0
 10
5.9117839471
 20
4.0778239127
 30
0.0
 10
5.9121633421
 20
4.077659926
 30
0.0
 10
5.9124863621
 20
4.0774595577
 30
0.0
 10
5.9127511522
 20
4.0772246906
 30
0.0
 10
5.9129572468
 20
4.076958388
 30
0.0
 10
5.913104127
 20
4.0766637556
 30
0.0
 10
5.9131927866
 20
4.0763451509
 30
0.0
 10
5.9132149715
 20
4.0761241606
 30
0.0
 10
5.9132180554
 20
4.0760119242
 30
0.0
  0
LINE
  5
3F1
100
AcDbEntity
  8
0
100
AcDbLine
 62
7
  6
CONTINUOUS
 10
5.9132180554
 20
4.0760119242
 11
5.913189714
 21
4.075558597
  0
SPLINE
  5
3F2
100
AcDbEntity
  8
0
100
AcDbSpline
 62
7
  6
CONTINUOUS
 70
0
 71
3
 72
13
 73
9
 74
0
 42
0.0000001
 43
0.0000001
 44
0.0000000001
 40
0.0
 40
0.0
 40
0.0
 40
0.0
 40
0.2497597195
 40
0.3673262733
 40
0.4832077341
 40
0.6009241445
 40
0.7241609928
 40
1.0
 40
1.0
 40
1.0
 40
1.0
 10
5.9081831945
 20
4.062913572
 30
0.0
 10
5.9080489611
 20
4.0627212395
 30
0.0
 10
5.9078159869
 20
4.0624580462
 30
0.0
 10
5.9074374042
 20
4.0622040659
 30
0.0
 10
5.9071320156
 20
4.0620740306
 30
0.0
 10
5.9068017042
 20
4.0620057987
 30
0.0
 10
5.9063139667
 20
4.0619995189
 30
0.0
 10
5.9059441161
 20
4.0620986359
 30
0.0
 10
5.9057033937
 20
4.0621942967
 30
0.0
  0
SPLINE
  5
3F3
100
AcDbEntity
  8
0
100
AcDbSpline
 62
7
  6
CONTINUOUS
 70
0
 71
3
 72
13
 73
9
 74
0
 42
0.0000001
 43
0.0000001
 44
0.0000000001
 40
0.0
 40
0.0
 40
0.0
 40
0.0
 40
0.0929998357
 40
0.1958968639
 40
0.308863252
 40
0.4314508327
 40
0.7021259175
 40
1.0
 40
1.0
 40
1.0
 40
1.0
 10
5.9057033937
 20
4.0621942967
 30
0.0
 10
5.9055450194
 20
4.0622572331
 30
0.0
 10
5.9052213035
 20
4.0624152496
 30
0.0
 10
5.9047445082
 20
4.0627219995
 30
0.0
 10
5.9042570563
 20
4.0631067592
 30
0.0
 10
5.9035746186
 20
4.0637361552
 30
0.0
 10
5.9027294708
 20
4.0646831074
 30
0.0
 10
5.9021048249
 20
4.0655180652
 30
0.0
 10
5.9017915447
 20
4.0659650654
 30
0.0
  0
SPLINE
  5
3F4
100
AcDbEntity
  8
0
100
AcDbSpline
 62
7
  6
CONTINUOUS
 70
0
 71
3
 72
20
 73
16
 74
0
 42
0.0000001
 43
0.0000001
 44
0.0000000001
 40
0.0
 40
0.0
 40
0.0
 40
0.0
 40
0.1819491328
 40
0.3501595373
 40
0.4278852065
 40
0.5007819761
 40
0.6308163765
 40
0.6879879965
 40
0.7402091347
 40
0.7880187235
 40
0.8323834953
 40
0.8745134232
 40
0.9156888402
 40
0.9571680284
 40
1.0
 40
1.0
 40
1.0
 40
1.0
 10
5.895515707
 20
4.0526282313
 30
0.0
 10
5.8959911446
 20
4.0526662778
 30
0.0
 10
5.8969084067
 20
4.0527145235
 30
0.0
 10
5.8980313437
 20
4.0526923997
 30
0.0
 10
5.8988637504
 20
4.05261171
 30
0.0
 10
5.8995906144
 20
4.0524976282
 30
0.0
 10
5.900254297
 20
4.0523243017
 30
0.0
 10
5.9008303512
 20
4.052072118
 30
0.0
 10
5.9011862016
 20
4.0518618736
 30
0.0
 10
5.9014815617
 20
4.0516226001
 30
0.0
 10
5.9017148272
 20
4.0513563979
 30
0.0
 10
5.9018859201
 20
4.0510663647
 30
0.0
 10
5.9019947149
 20
4.0507556466
 30
0.0
 10
5.9020427436
 20
4.0504284422
 30
0.0
 10
5.9020370561
 20
4.050206414
 30
0.0
 10
5.9020260488
 20
4.0500946761
 30
0.0
  0
LINE
  5
3F5
100
AcDbEntity
  8
0
100
AcDbLine
 62
7
  6
CONTINUOUS
 10
5.9020260488
 20
4.0500946761
 11
5.9019411139
 21
4.0496484756
  0
SPLINE
  5
3F6
100
AcDbEntity
  8
0
100
AcDbSpline
 62
7
  6
CONTINUOUS
 70
0
 71
3
 72
13
 73
9
 74
0
 42
0.0000001
 43
0.0000001
 44
0.0000000001
 40
0.0
 40
0.0
 40
0.0
 40
0.0
 40
0.2497597195
 40
0.3673262733
 40
0.4832077341
 40
0.6009241445
 40
0.7241609928
 40
1.0
 40
1.0
 40
1.0
 40
1.0
 10
5.8953892304
 20
4.0377306437
 30
0.0
 10
5.8952319498
 20
4.0375566517
 30
0.0
 10
5.8949678259
 20
4.0373247332
 30
0.0
 10
5.8945603962
 20
4.0371202046
 30
0.0
 10
5.8942411179
 20
4.03702947
 30
0.0
 10
5.8939048594
 20
4.0370031751
 30
0.0
 10
5.8934201809
 20
4.0370580746
 30
0.0
 10
5.8930656693
 20
4.0372027646
 30
0.0
 10
5.8928388345
 20
4.0373278416
 30
0.0
  0
SPLINE
  5
3F7
100
AcDbEntity
  8
0
100
AcDbSpline
 62
7
  6
CONTINUOUS
 70
0
 71
3
 72
13
 73
9
 74
0
 42
0.0000001
 43
0.0000001
 44
0.0000000001
 40
0.0
 40
0.0
 40
0.0
 40
0.0
 40
0.0929998357
 40
0.1958968639
 40
0.308863252
 40
0.4314508327
 40
0.7021259175
 40
1.0
 40
1.0
 40
1.0
 40
1.0
 10
5.8928388345
 20
4.0373278416
 30
0.0
 10
5.892689597
 20
4.0374101313
 30
0.0
 10
5.8923882384
 20
4.0376074741
 30
0.0
 10
5.8919536488
 20
4.0379715635
 30
0.0
 10
5.8915182637
 20
4.0384143832
 30
0.0
 10
5.8909200915
 20
4.0391243483
 30
0.0
 10
5.8902002925
 20
4.0401697586
 30
0.0
 10
5.8896852202
 20
4.0410764214
 30
0.0
 10
5.8894304343
 20
4.0415591613
 30
0.0
  0
SPLINE
  5
3F8
100
AcDbEntity
  8
0
100
AcDbSpline
 62
7
  6
CONTINUOUS
 70
0
 71
3
 72
20
 73
16
 74
0
 42
0.0000001
 43
0.0000001
 44
0.0000000001
 40
0.0
 40
0.0
 40
0.0
 40
0.0
 40
0.1819491328
 40
0.3501595373
 40
0.4278852065
 40
0.5007819761
 40
0.6308163765
 40
0.6879879965
 40
0.7402091347
 40
0.7880187235
 40
0.8323834953
 40
0.8745134232
 40
0.9156888402
 40
0.9571680284
 40
1.0
 40
1.0
 40
1.0
 40
1.0
 10
5.8815325348
 20
4.0291140632
 30
0.0
 10
5.882008992
 20
4.0290922216
 30
0.0
 10
5.8829250679
 20
4.0290251234
 30
0.0
 10
5.8840363774
 20
4.0288624327
 30
0.0
 10
5.8848521073
 20
4.028678051
 30
0.0
 10
5.8855589415
 20
4.0284737686
 30
0.0
 10
5.8861956672
 20
4.0282186274
 30
0.0
 10
5.886735572
 20
4.0278962334
 30
0.0
 10
5.8870622658
 20
4.027643047
 30
0.0
 10
5.887325308
 20
4.0273686418
 30
0.0
 10
5.8875233702
 20
4.0270753028
 30
0.0
 10
5.8876567631
 20
4.026766113
 30
0.0
 10
5.8877257567
 20
4.0264442094
 30
0.0
 10
5.8877323971
 20
4.0261135655
 30
0.0
 10
5.887698927
 20
4.0258940009
 30
0.0
 10
5.8876740019
 20
4.0257845236
 30
0.0
  0
LINE
  5
3F9
100
AcDbEntity
  8
0
100
AcDbLine
 62
7
  6
CONTINUOUS
 10
5.8876740019
 20
4.0257845236
 11
5.8875338131
 21
4.0253524868
  0
SPLINE
  5
3FA
100
AcDbEntity
  8
0
100
AcDbSpline
 62
7
  6
CONTINUOUS
 70
0
 71
3
 72
13
 73
9
 74
0
 42
0.0000001
 43
0.0000001
 44
0.0000000001
 40
0.0
 40
0.0
 40
0.0
 40
0.0
 40
0.2497597195
 40
0.3673262733
 40
0.4832077341
 40
0.6009241445
 40
0.7241609928
 40
1.0
 40
1.0
 40
1.0
 40
1.0
 10
5.8795398927
 20
4.0143497992
 30
0.0
 10
5.8793620454
 20
4.0141968917
 30
0.0
 10
5.879070937
 20
4.0139999054
 30
0.0
 10
5.8786410859
 20
4.0138480541
 30
0.0
 10
5.8783129531
 20
4.0137980511
 30
0.0
 10
5.8779760505
 20
4.013814108
 30
0.0
 10
5.8775020745
 20
4.0139293209
 30
0.0
 10
5.8771684928
 20
4.0141173021
 30
0.0
 10
5.876959123
 20
4.0142698227
 30
0.0
  0
SPLINE
  5
3FB
100
AcDbEntity
  8
0
100
AcDbSpline
 62
7
  6
CONTINUOUS
 70
0
 71
3
 72
13
 73
9
 74
0
 42
0.0000001
 43
0.0000001
 44
0.0000000001
 40
0.0
 40
0.0
 40
0.0
 40
0.0
 40
0.0929998357
 40
0.1958968639
 40
0.308863252
 40
0.4314508327
 40
0.7021259175
 40
1.0
 40
1.0
 40
1.0
 40
1.0
 10
5.876959123
 20
4.0142698227
 30
0.0
 10
5.8768213759
 20
4.0143701679
 30
0.0
 10
5.8765471272
 20
4.0146037249
 30
0.0
 10
5.876161597
 20
4.0150194118
 30
0.0
 10
5.8757851451
 20
4.015513308
 30
0.0
 10
5.8752806719
 20
4.0162926457
 30
0.0
 10
5.8746975734
 20
4.0174200273
 30
0.0
 10
5.8743001974
 20
4.0183840965
 30
0.0
 10
5.874107924
 20
4.018894963
 30
0.0
  0
SPLINE
  5
3FC
100
AcDbEntity
  8
0
100
AcDbSpline
 62
7
  6
CONTINUOUS
 70
0
 71
3
 72
20
 73
16
 74
0
 42
0.0000001
 43
0.0000001
 44
0.0000000001
 40
0.0
 40
0.0
 40
0.0
 40
0.0
 40
0.1819491328
 40
0.3501595373
 40
0.4278852065
 40
0.5007819761
 40
0.6308163765
 40
0.6879879965
 40
0.7402091347
 40
0.7880187235
 40
0.8323834953
 40
0.8745134232
 40
0.9156888402
 40
0.9571680284
 40
1.0
 40
1.0
 40
1.0
 40
1.0
 10
5.8647125174
 20
4.0075378675
 30
0.0
 10
5.8651824801
 20
4.0074564822
 30
0.0
 10
5.8660829229
 20
4.0072750983
 30
0.0
 10
5.8671650788
 20
4.0069744065
 30
0.0
 10
5.8679512673
 20
4.0066892407
 30
0.0
 10
5.8686269245
 20
4.0063979793
 30
0.0
 10
5.8692266517
 20
4.006065047
 30
0.0
 10
5.8697218926
 20
4.0056775272
 30
0.0
 10
5.8700142776
 20
4.0053853917
 30
0.0
 10
5.8702408536
 20
4.0050801823
 30
0.0
 10
5.8704005888
 20
4.0047643326
 30
0.0
 10
5.8704941782
 20
4.0044408623
 30
0.0
 10
5.8705222825
 20
4.0041128497
 30
0.0
 10
5.8704874299
 20
4.0037839808
 30
0.0
 10
5.870426705
 20
4.0035703425
 30
0.0
 10
5.8703882553
 20
4.0034648524
 30
0.0
  0
LINE
  5
3FD
100
AcDbEntity
  8
0
100
AcDbLine
 62
7
  6
CONTINUOUS
 10
5.8703882553
 20
4.0034648524
 11
5.8701950233
 21
4.0030537926
  0
SPLINE
  5
3FE
100
AcDbEntity
  8
0
100
AcDbSpline
 62
7
  6
CONTINUOUS
 70
0
 71
3
 72
13
 73
9
 74
0
 42
0.0000001
 43
0.0000001
 44
0.0000000001
 40
0.0
 40
0.0
 40
0.0
 40
0.0
 40
0.2497597195
 40
0.3673262733
 40
0.4832077341
 40
0.6009241445
 40
0.7241609928
 40
1.0
 40
1.0
 40
1.0
 40
1.0
 10
5.860885135
 20
3.9931397685
 30
0.0
 10
5.8606895256
 20
3.9930103568
 30
0.0
 10
5.8603760238
 20
3.9928514094
 30
0.0
 10
5.8599305301
 20
3.9927546301
 30
0.0
 10
5.8595987178
 20
3.9927461473
 30
0.0
 10
5.8592664841
 20
3.9928043027
 30
0.0
 10
5.8588106856
 20
3.992978012
 30
0.0
 10
5.8585032946
 20
3.9932063198
 30
0.0
 10
5.8583146916
 20
3.9933838788
 30
0.0
  0
SPLINE
  5
3FF
100
AcDbEntity
  8
0
100
AcDbSpline
 62
7
  6
CONTINUOUS
 70
0
 71
3
 72
13
 73
9
 74
0
 42
0.0000001
 43
0.0000001
 44
0.0000000001
 40
0.0
 40
0.0
 40
0.0
 40
0.0
 40
0.0929998357
 40
0.1958968639
 40
0.308863252
 40
0.4314508327
 40
0.7021259175
 40
1.0
 40
1.0
 40
1.0
 40
1.0
 10
5.8583146916
 20
3.9933838788
 30
0.0
 10
5.8581906074
 20
3.993500697
 30
0.0
 10
5.8579477937
 20
3.9937667848
 30
0.0
 10
5.8576174028
 20
3.9942275137
 30
0.0
 10
5.8573058209
 20
3.9947646973
 30
0.0
 10
5.8569030026
 20
3.9956011169
 30
0.0
 10
5.8564658004
 20
3.9967926904
 30
0.0
 10
5.8561923878
 20
3.9977989621
 30
0.0
 10
5.856065659
 20
3.9983298985
 30
0.0
  0
SPLINE
  5
400
100
AcDbEntity
  8
0
100
AcDbSpline
 62
7
  6
CONTINUOUS
 70
0
 71
3
 72
13
 73
9
 74
0
 42
0.0000001
 43
0.0000001
 44
0.0000000001
 40
0.0
 40
0.0
 40
0.0
 40
0.0
 40
0.2978699162
 40
0.5685431632
 40
0.6911311863
 40
0.8040987844
 40
0.9069977172
 40
1.0
 40
1.0
 40
1.0
 40
1.0
 10
5.8453209165
 20
3.9882399137
 30
0.0
 10
5.8458428225
 20
3.988080105
 30
0.0
 10
5.8468298969
 20
3.987744065
 30
0.0
 10
5.8479916199
 20
3.9872329347
 30
0.0
 10
5.8488010749
 20
3.9867784213
 30
0.0
 10
5.8493176295
 20
3.9864337445
 30
0.0
 10
5.8497567078
 20
3.9860750963
 30
0.0
 10
5.8500070331
 20
3.9858160694
 30
0.0
 10
5.8501158363
 20
3.9856849024
 30
0.0
  0
SPLINE
  5
401
100
AcDbEntity
  8
0
100
AcDbSpline
 62
7
  6
CONTINUOUS
 70
0
 71
3
 72
13
 73
9
 74
0
 42
0.0000001
 43
0.0000001
 44
0.0000000001
 40
0.0
 40
0.0
 40
0.0
 40
0.0
 40
0.2758453704
 40
0.3990829314
 40
0.5167987499
 40
0.6326788483
 40
0.7502437435
 40
1.0
 40
1.0
 40
1.0
 40
1.0
 10
5.8501158363
 20
3.9856849024
 30
0.0
 10
5.850281229
 20
3.9854855142
 30
0.0
 10
5.8504898237
 20
3.9851643804
 30
0.0
 10
5.8506346095
 20
3.9846985451
 30
0.0
 10
5.8506718078
 20
3.9843632956
 30
0.0
 10
5.850642517
 20
3.9840326504
 30
0.0
 10
5.8505179601
 20
3.9835940857
 30
0.0
 10
5.8503396339
 20
3.9832911645
 30
0.0
 10
5.8501981876
 20
3.9831040569
 30
0.0
  0
SPLINE
  5
402
100
AcDbEntity
  8
0
100
AcDbSpline
 62
7
  6
CONTINUOUS
 70
0
 71
3
 72
13
 73
9
 74
0
 42
0.0000001
 43
0.0000001
 44
0.0000000001
 40
0.0
 40
0.0
 40
0.0
 40
0.0
 40
0.2573131703
 40
0.3788207719
 40
0.4977437313
 40
0.6165886982
 40
0.7381721411
 40
1.0
 40
1.0
 40
1.0
 40
1.0
 10
5.8397191538
 20
3.9744350462
 30
0.0
 10
5.8395353528
 20
3.9743442544
 30
0.0
 10
5.8392488315
 20
3.9742370243
 30
0.0
 10
5.8388552056
 20
3.9741795573
 30
0.0
 10
5.8385676794
 20
3.9741827527
 30
0.0
 10
5.8382846264
 20
3.9742344978
 30
0.0
 10
5.8379073764
 20
3.9743725745
 30
0.0
 10
5.8376507416
 20
3.9745494794
 30
0.0
 10
5.8374954548
 20
3.974688762
 30
0.0
  0
SPLINE
  5
403
100
AcDbEntity
  8
0
100
AcDbSpline
 62
7
  6
CONTINUOUS
 70
0
 71
3
 72
14
 73
10
 74
0
 42
0.0000001
 43
0.0000001
 44
0.0000000001
 40
0.0
 40
0.0
 40
0.0
 40
0.0
 40
0.0879138119
 40
0.1866531741
 40
0.2969512276
 40
0.4187261567
 40
0.5511665106
 40
0.6931308996
 40
1.0
 40
1.0
 40
1.0
 40
1.0
 10
5.8374954548
 20
3.974688762
 30
0.0
 10
5.8373661699
 20
3.9748047224
 30
0.0
 10
5.8371171732
 20
3.9750797923
 30
0.0
 10
5.8367941534
 20
3.9755714094
 30
0.0
 10
5.836504682
 20
3.9761588435
 30
0.0
 10
5.8362505408
 20
3.9768335012
 30
0.0
 10
5.8360312257
 20
3.9775854492
 30
0.0
 10
5.8357800711
 20
3.9787064859
 30
0.0
 10
5.8356539065
 20
3.9795856567
 30
0.0
 10
5.8355881766
 20
3.980188291
 30
0.0
  0
SPLINE
  5
404
100
AcDbEntity
  8
0
100
AcDbSpline
 62
7
  6
CONTINUOUS
 70
0
 71
3
 72
13
 73
9
 74
0
 42
0.0000001
 43
0.0000001
 44
0.0000000001
 40
0.0
 40
0.0
 40
0.0
 40
0.0
 40
0.2978699162
 40
0.5685431632
 40
0.6911311863
 40
0.8040987844
 40
0.9069977173
 40
1.0
 40
1.0
 40
1.0
 40
1.0
 10
5.8236635492
 20
3.9715245421
 30
0.0
 10
5.8241613105
 20
3.9713005813
 30
0.0
 10
5.8250984845
 20
3.9708434779
 30
0.0
 10
5.8261869854
 20
3.9701907756
 30
0.0
 10
5.826933092
 20
3.9696383945
 30
0.0
 10
5.8274023739
 20
3.9692316942
 30
0.0
 10
5.8277930394
 20
3.9688208428
 30
0.0
 10
5.8280089261
 20
3.9685324844
 30
0.0
 10
5.8281004318
 20
3.968388715
 30
0.0
  0
SPLINE
  5
405
100
AcDbEntity
  8
0
100
AcDbSpline
 62
7
  6
CONTINUOUS
 70
0
 71
3
 72
13
 73
9
 74
0
 42
0.0000001
 43
0.0000001
 44
0.0000000001
 40
0.0
 40
0.0
 40
0.0
 40
0.0
 40
0.2758453703
 40
0.3990829314
 40
0.5167987499
 40
0.6326788483
 40
0.7502437435
 40
1.0
 40
1.0
 40
1.0
 40
1.0
 10
5.8281004318
 20
3.968388715
 30
0.0
 10
5.8282395304
 20
3.9681701698
 30
0.0
 10
5.8284062315
 20
3.9678254244
 30
0.0
 10
5.828491491
 20
3.9673451159
 30
0.0
 10
5.8284863781
 20
3.9670078477
 30
0.0
 10
5.8284158774
 20
3.9666834809
 30
0.0
 10
5.8282373359
 20
3.9662639856
 30
0.0
 10
5.8280224498
 20
3.9659858031
 30
0.0
 10
5.827858668
 20
3.9658178989
 30
0.0
  0
SPLINE
  5
406
100
AcDbEntity
  8
0
100
AcDbSpline
 62
7
  6
CONTINUOUS
 70
0
 71
3
 72
13
 73
9
 74
0
 42
0.0000001
 43
0.0000001
 44
0.0000000001
 40
0.0
 40
0.0
 40
0.0
 40
0.0
 40
0.2573131703
 40
0.3788207719
 40
0.4977437313
 40
0.6165886982
 40
0.7381721411
 40
1.0
 40
1.0
 40
1.0
 40
1.0
 10
5.8163757494
 20
3.9585306172
 30
0.0
 10
5.8161820185
 20
3.9584635776
 30
0.0
 10
5.815884317
 20
3.9583931037
 30
0.0
 10
5.8154865924
 20
3.9583854242
 30
0.0
 10
5.815201734
 20
3.958424631
 30
0.0
 10
5.8149273983
 20
3.9585114441
 30
0.0
 10
5.8145704287
 20
3.958695714
 30
0.0
 10
5.8143379895
 20
3.9589033888
 30
0.0
 10
5.8142013839
 20
3.9590610357
 30
0.0
  0
SPLINE
  5
407
100
AcDbEntity
  8
0
100
AcDbSpline
 62
7
  6
CONTINUOUS
 70
0
 71
3
 72
14
 73
10
 74
0
 42
0.0000001
 43
0.0000001
 44
0.0000000001
 40
0.0
 40
0.0
 40
0.0
 40
0.0
 40
0.0879138119
 40
0.1866531741
 40
0.2969512276
 40
0.4187261567
 40
0.5511665106
 40
0.6931308996
 40
1.0
 40
1.0
 40
1.0
 40
1.0
 10
5.8142013839
 20
3.9590610357
 30
0.0
 10
5.8140876522
 20
3.9591922854
 30
0.0
 10
5.8138750943
 20
3.9594963939
 30
0.0
 10
5.8136162375
 20
3.9600246196
 30
0.0
 10
5.8134026737
 20
3.960643702
 30
0.0
 10
5.8132350936
 20
3.9613448921
 30
0.0
 10
5.8131117519
 20
3.9621183982
 30
0.0
 10
5.8130030809
 20
3.9632620732
 30
0.0
 10
5.8129881005
 20
3.9641501241
 30
0.0
 10
5.812998419
 20
3.9647562446
 30
0.0
  0
SPLINE
  5
408
100
AcDbEntity
  8
0
100
AcDbSpline
 62
7
  6
CONTINUOUS
 70
0
 71
3
 72
13
 73
9
 74
0
 42
0.0000001
 43
0.0000001
 44
0.0000000001
 40
0.0
 40
0.0
 40
0.0
 40
0.0
 40
0.2978699162
 40
0.5685431632
 40
0.6911311863
 40
0.8040987844
 40
0.9069977173
 40
1.0
 40
1.0
 40
1.0
 40
1.0
 10
5.8000819652
 20
3.957655364
 30
0.0
 10
5.8005477317
 20
3.9573707833
 30
0.0
 10
5.8014202256
 20
3.9567998252
 30
0.0
 10
5.802418338
 20
3.9560158443
 30
0.0
 10
5.8030893296
 20
3.9553743069
 30
0.0
 10
5.8035039381
 20
3.9549119969
 30
0.0
 10
5.8038400297
 20
3.9544554219
 30
0.0
 10
5.8040180732
 20
3.9541422795
 30
0.0
 10
5.8040908383
 20
3.953988175
 30
0.0
  0
SPLINE
  5
409
100
AcDbEntity
  8
0
100
AcDbSpline
 62
7
  6
CONTINUOUS
 70
0
 71
3
 72
13
 73
9
 74
0
 42
0.0000001
 43
0.0000001
 44
0.0000000001
 40
0.0
 40
0.0
 40
0.0
 40
0.0
 40
0.2758453703
 40
0.3990829314
 40
0.5167987499
 40
0.6326788483
 40
0.7502437435
 40
1.0
 40
1.0
 40
1.0
 40
1.0
 10
5.8040908383
 20
3.953988175
 30
0.0
 10
5.804201449
 20
3.9537539195
 30
0.0
 10
5.8043236276
 20
3.9533909993
 30
0.0
 10
5.8043480162
 20
3.9529037923
 30
0.0
 10
5.8043006727
 20
3.9525698245
 30
0.0
 10
5.804190074
 20
3.9522568515
 30
0.0
 10
5.8039603636
 20
3.9518630411
 30
0.0
 10
5.8037123064
 20
3.9516139846
 30
0.0
 10
5.8035287722
 20
3.9514679317
 30
0.0
  0
SPLINE
  5
40A
100
AcDbEntity
  8
0
100
AcDbSpline
 62
7
  6
CONTINUOUS
 70
0
 71
3
 72
11
 73
7
 74
0
 42
0.0000001
 43
0.0000001
 44
0.0000000001
 40
0.0
 40
0.0
 40
0.0
 40
0.0
 40
0.2628960293
 40
0.5089761999
 40
0.7494336689
 40
1.0
 40
1.0
 40
1.0
 40
1.0
 10
5.7912230612
 20
3.9456773036
 30
0.0
 10
5.7910522165
 20
3.9456413386
 30
0.0
 10
5.790714142
 20
3.9455998853
 30
0.0
 10
5.7902139193
 20
3.9456527231
 30
0.0
 10
5.7897537637
 20
3.9458385719
 30
0.0
 10
5.7894959255
 20
3.9460462936
 30
0.0
 10
5.7893803798
 20
3.946166037
 30
0.0
  0
SPLINE
  5
40B
100
AcDbEntity
  8
0
100
AcDbSpline
 62
7
  6
CONTINUOUS
 70
0
 71
3
 72
15
 73
11
 74
0
 42
0.0000001
 43
0.0000001
 44
0.0000000001
 40
0.0
 40
0.0
 40
0.0
 40
0.0
 40
0.0833792535
 40
0.1778572119
 40
0.2851290998
 40
0.4057161323
 40
0.5389682232
 40
0.6835692281
 40
0.837875599
 40
1.0
 40
1.0
 40
1.0
 40
1.0
 10
5.7893803798
 20
3.946166037
 30
0.0
 10
5.7892583522
 20
3.9462924977
 30
0.0
 10
5.7890335386
 20
3.9465974286
 30
0.0
 10
5.7887824275
 20
3.9471465984
 30
0.0
 10
5.7885981729
 20
3.947802786
 30
0.0
 10
5.7884836903
 20
3.9485566742
 30
0.0
 10
5.7884348304
 20
3.9493959577
 30
0.0
 10
5.7884493047
 20
3.9503073611
 30
0.0
 10
5.788522219
 20
3.9512767607
 30
0.0
 10
5.788604049
 20
3.9519389001
 30
0.0
 10
5.7886526401
 20
3.9522771319
 30
0.0
  0
SPLINE
  5
40C
100
AcDbEntity
  8
0
100
AcDbSpline
 62
7
  6
CONTINUOUS
 70
0
 71
3
 72
13
 73
9
 74
0
 42
0.0000001
 43
0.0000001
 44
0.0000000001
 40
0.0
 40
0.0
 40
0.0
 40
0.0
 40
0.2978699162
 40
0.5685431632
 40
0.6911311863
 40
0.8040987844
 40
0.9069977173
 40
1.0
 40
1.0
 40
1.0
 40
1.0
 10
5.77494806
 20
3.9468511048
 30
0.0
 10
5.7753744865
 20
3.946510392
 30
0.0
 10
5.7761685404
 20
3.9458345837
 30
0.0
 10
5.7770605236
 20
3.944931688
 30
0.0
 10
5.7776458182
 20
3.9442111118
 30
0.0
 10
5.7779992146
 20
3.943700483
 30
0.0
 10
5.778275432
 20
3.9432053848
 30
0.0
 10
5.7784128245
 20
3.9428723968
 30
0.0
 10
5.7784657013
 20
3.9427103877
 30
0.0
  0
SPLINE
  5
40D
100
AcDbEntity
  8
0
100
AcDbSpline
 62
7
  6
CONTINUOUS
 70
0
 71
3
 72
13
 73
9
 74
0
 42
0.0000001
 43
0.0000001
 44
0.0000000001
 40
0.0
 40
0.0
 40
0.0
 40
0.0
 40
0.2758453703
 40
0.3990829314
 40
0.5167987499
 40
0.6326788483
 40
0.7502437435
 40
1.0
 40
1.0
 40
1.0
 40
1.0
 10
5.7784657013
 20
3.9427103877
 30
0.0
 10
5.7785460799
 20
3.9424641161
 30
0.0
 10
5.7786218091
 20
3.9420887446
 30
0.0
 10
5.7785849421
 20
3.9416023227
 30
0.0
 10
5.7784961146
 20
3.941276922
 30
0.0
 10
5.7783471622
 20
3.9409802785
 30
0.0
 10
5.7780699056
 20
3.9406183639
 30
0.0
 10
5.7777925893
 20
3.9404023611
 30
0.0
 10
5.777592197
 20
3.9402804627
 30
0.0
  0
SPLINE
  5
40E
100
AcDbEntity
  8
0
100
AcDbSpline
 62
7
  6
CONTINUOUS
 70
0
 71
3
 72
11
 73
7
 74
0
 42
0.0000001
 43
0.0000001
 44
0.0000000001
 40
0.0
 40
0.0
 40
0.0
 40
0.0
 40
0.2628960293
 40
0.5089761999
 40
0.7494336689
 40
1.0
 40
1.0
 40
1.0
 40
1.0
 10
5.7646577621
 20
3.93607781
 30
0.0
 10
5.764483757
 20
3.9360635412
 30
0.0
 10
5.7641431528
 20
3.9360647867
 30
0.0
 10
5.7636534968
 20
3.9361799024
 30
0.0
 10
5.7632202627
 20
3.9364219585
 30
0.0
 10
5.7629904921
 20
3.9366603579
 30
0.0
 10
5.7628908653
 20
3.9367936388
 30
0.0
  0
SPLINE
  5
40F
100
AcDbEntity
  8
0
100
AcDbSpline
 62
7
  6
CONTINUOUS
 70
0
 71
3
 72
15
 73
11
 74
0
 42
0.0000001
 43
0.0000001
 44
0.0000000001
 40
0.0
 40
0.0
 40
0.0
 40
0.0
 40
0.0833792535
 40
0.1778572119
 40
0.2851290998
 40
0.4057161323
 40
0.5389682232
 40
0.6835692281
 40
0.837875599
 40
1.0
 40
1.0
 40
1.0
 40
1.0
 10
5.7628908653
 20
3.9367936388
 30
0.0
 10
5.7627856496
 20
3.9369343965
 30
0.0
 10
5.7626008268
 20
3.9372650995
 30
0.0
 10
5.762420525
 20
3.9378414115
 30
0.0
 10
5.7623199654
 20
3.9385155181
 30
0.0
 10
5.7623008728
 20
3.9392778101
 30
0.0
 10
5.7623575883
 20
3.9401165994
 30
0.0
 10
5.7624861776
 20
3.9410190021
 30
0.0
 10
5.7626800149
 20
3.941971619
 30
0.0
 10
5.7628441877
 20
3.9426182812
 30
0.0
 10
5.7629347874
 20
3.9429477559
 30
0.0
  0
SPLINE
  5
410
100
AcDbEntity
  8
0
100
AcDbSpline
 62
7
  6
CONTINUOUS
 70
0
 71
3
 72
13
 73
9
 74
0
 42
0.0000001
 43
0.0000001
 44
0.0000000001
 40
0.0
 40
0.0
 40
0.0
 40
0.0
 40
0.2978699162
 40
0.5685431632
 40
0.6911311863
 40
0.8040987844
 40
0.9069977173
 40
1.0
 40
1.0
 40
1.0
 40
1.0
 10
5.7486582105
 20
3.939282154
 30
0.0
 10
5.7490385718
 20
3.9388906824
 30
0.0
 10
5.7497416632
 20
3.9381206816
 30
0.0
 10
5.7505134499
 20
3.9371131104
 30
0.0
 10
5.7510038172
 20
3.9363248593
 30
0.0
 10
5.7512904281
 20
3.9357739647
 30
0.0
 10
5.7515024152
 20
3.9352481513
 30
0.0
 10
5.7515969899
 20
3.9349005692
 30
0.0
 10
5.7516291446
 20
3.9347332103
 30
0.0
  0
SPLINE
  5
411
100
AcDbEntity
  8
0
100
AcDbSpline
 62
7
  6
CONTINUOUS
 70
0
 71
3
 72
13
 73
9
 74
0
 42
0.0000001
 43
0.0000001
 44
0.0000000001
 40
0.0
 40
0.0
 40
0.0
 40
0.0
 40
0.2758453703
 40
0.3990829314
 40
0.5167987499
 40
0.6326788483
 40
0.7502437435
 40
1.0
 40
1.0
 40
1.0
 40
1.0
 10
5.7516291446
 20
3.9347332103
 30
0.0
 10
5.7516780234
 20
3.9344788065
 30
0.0
 10
5.7517061089
 20
3.9340969036
 30
0.0
 10
5.7516085678
 20
3.9336189379
 30
0.0
 10
5.7514796573
 20
3.9333072361
 30
0.0
 10
5.7512947
 20
3.9330316005
 30
0.0
 10
5.7509742698
 20
3.9327072891
 30
0.0
 10
5.7506720679
 20
3.9325277465
 30
0.0
 10
5.7504579779
 20
3.9324319251
 30
0.0
  0
SPLINE
  5
412
100
AcDbEntity
  8
0
100
AcDbSpline
 62
7
  6
CONTINUOUS
 70
0
 71
3
 72
11
 73
7
 74
0
 42
0.0000001
 43
0.0000001
 44
0.0000000001
 40
0.0
 40
0.0
 40
0.0
 40
0.0
 40
0.2653296265
 40
0.5157061213
 40
0.7574525131
 40
1.0
 40
1.0
 40
1.0
 40
1.0
 10
5.7370988028
 20
3.9298835262
 30
0.0
 10
5.7369557417
 20
3.9298898026
 30
0.0
 10
5.7366778594
 20
3.9299216744
 30
0.0
 10
5.7362838973
 20
3.930039875
 30
0.0
 10
5.7359334812
 20
3.9302322503
 30
0.0
 10
5.7357381269
 20
3.930410179
 30
0.0
 10
5.7356519763
 20
3.9305087371
 30
0.0
  0
SPLINE
  5
413
100
AcDbEntity
  8
0
100
AcDbSpline
 62
7
  6
CONTINUOUS
 70
0
 71
3
 72
15
 73
11
 74
0
 42
0.0000001
 43
0.0000001
 44
0.0000000001
 40
0.0
 40
0.0
 40
0.0
 40
0.0
 40
0.0802029249
 40
0.1704823328
 40
0.2743743234
 40
0.3932515171
 40
0.5269284074
 40
0.6739784003
 40
0.8324396163
 40
1.0
 40
1.0
 40
1.0
 40
1.0
 10
5.7356519763
 20
3.9305087371
 30
0.0
 10
5.7355341497
 20
3.9306435333
 30
0.0
 10
5.7353278039
 20
3.9309705324
 30
0.0
 10
5.7351465812
 20
3.9315609689
 30
0.0
 10
5.7350775479
 20
3.932259861
 30
0.0
 10
5.7351193006
 20
3.9330566688
 30
0.0
 10
5.7352664617
 20
3.9339378962
 30
0.0
 10
5.7355104206
 20
3.9348884066
 30
0.0
 10
5.7358419098
 20
3.9358916967
 30
0.0
 10
5.7361068543
 20
3.9365698683
 30
0.0
 10
5.7362504467
 20
3.9369152464
 30
0.0
  0
SPLINE
  5
414
100
AcDbEntity
  8
0
100
AcDbSpline
 62
7
  6
CONTINUOUS
 70
0
 71
3
 72
13
 73
9
 74
0
 42
0.0000001
 43
0.0000001
 44
0.0000000001
 40
0.0
 40
0.0
 40
0.0
 40
0.0
 40
0.2978699162
 40
0.5685431632
 40
0.6911311863
 40
0.8040987844
 40
0.9069977173
 40
1.0
 40
1.0
 40
1.0
 40
1.0
 10
5.7216270232
 20
3.9350678784
 30
0.0
 10
5.7219553208
 20
3.9346318218
 30
0.0
 10
5.7225563614
 20
3.933779772
 30
0.0
 10
5.7231957802
 20
3.9326834153
 30
0.0
 10
5.7235834868
 20
3.9318399205
 30
0.0
 10
5.7237987923
 20
3.931257448
 30
0.0
 10
5.7239432059
 20
3.9307092117
 30
0.0
 10
5.7239934712
 20
3.930352517
 30
0.0
 10
5.7240043968
 20
3.9301824477
 30
0.0
  0
SPLINE
  5
415
100
AcDbEntity
  8
0
100
AcDbSpline
 62
7
  6
CONTINUOUS
 70
0
 71
3
 72
13
 73
9
 74
0
 42
0.0000001
 43
0.0000001
 44
0.0000000001
 40
0.0
 40
0.0
 40
0.0
 40
0.0
 40
0.2758453703
 40
0.3990829314
 40
0.5167987499
 40
0.6326788483
 40
0.7502437435
 40
1.0
 40
1.0
 40
1.0
 40
1.0
 10
5.7240043968
 20
3.9301824477
 30
0.0
 10
5.7240210049
 20
3.9299239239
 30
0.0
 10
5.7240010038
 20
3.9295415123
 30
0.0
 10
5.7238443268
 20
3.9290795407
 30
0.0
 10
5.7236773662
 20
3.9287864535
 30
0.0
 10
5.7234593211
 20
3.9285361727
 30
0.0
 10
5.7231007706
 20
3.9282545791
 30
0.0
 10
5.722778449
 20
3.9281143282
 30
0.0
 10
5.7225540375
 20
3.928046095
 30
0.0
  0
SPLINE
  5
416
100
AcDbEntity
  8
0
100
AcDbSpline
 62
7
  6
CONTINUOUS
 70
0
 71
3
 72
11
 73
7
 74
0
 42
0.0000001
 43
0.0000001
 44
0.0000000001
 40
0.0
 40
0.0
 40
0.0
 40
0.0
 40
0.2653296265
 40
0.5157061213
 40
0.7574525131
 40
1.0
 40
1.0
 40
1.0
 40
1.0
 10
5.7089808044
 20
3.9271921396
 30
0.0
 10
5.7088396581
 20
3.9272162968
 30
0.0
 10
5.7085679615
 20
3.9272827452
 30
0.0
 10
5.7081919204
 20
3.9274493903
 30
0.0
 10
5.7078683785
 20
3.9276841674
 30
0.0
 10
5.707696865
 20
3.9278851775
 30
0.0
 10
5.7076237463
 20
3.927993756
 30
0.0
  0
SPLINE
  5
417
100
AcDbEntity
  8
0
100
AcDbSpline
 62
7
  6
CONTINUOUS
 70
0
 71
3
 72
15
 73
11
 74
0
 42
0.0000001
 43
0.0000001
 44
0.0000000001
 40
0.0
 40
0.0
 40
0.0
 40
0.0
 40
0.0802029249
 40
0.1704823328
 40
0.2743743234
 40
0.3932515171
 40
0.5269284074
 40
0.6739784003
 40
0.8324396163
 40
1.0
 40
1.0
 40
1.0
 40
1.0
 10
5.7076237463
 20
3.927993756
 30
0.0
 10
5.7075237432
 20
3.9281422569
 30
0.0
 10
5.7073600084
 20
3.9284925394
 30
0.0
 10
5.707254216
 20
3.9291010334
 30
0.0
 10
5.7072733215
 20
3.9298030667
 30
0.0
 10
5.7074146115
 20
3.9305883585
 30
0.0
 10
5.7076710592
 20
3.9314441929
 30
0.0
 10
5.708032225
 20
3.9323566321
 30
0.0
 10
5.7084868459
 20
3.9333104643
 30
0.0
 10
5.7088346986
 20
3.933950082
 30
0.0
 10
5.7090204462
 20
3.9342747398
 30
0.0
  0
SPLINE
  5
418
100
AcDbEntity
  8
0
100
AcDbSpline
 62
7
  6
CONTINUOUS
 70
0
 71
3
 72
20
 73
16
 74
0
 42
0.0000001
 43
0.0000001
 44
0.0000000001
 40
0.0
 40
0.0
 40
0.0
 40
0.0
 40
0.1819493595
 40
0.350159871
 40
0.4278855448
 40
0.5007822799
 40
0.630816497
 40
0.6879879887
 40
0.7402089705
 40
0.7880184148
 40
0.8323831189
 40
0.8745130474
 40
0.9156885246
 40
0.9571678357
 40
1.0
 40
1.0
 40
1.0
 40
1.0
 10
5.7090204462
 20
4.3697237115
 30
0.0
 10
5.708783588
 20
4.3701377028
 30
0.0
 10
5.7083493809
 20
4.370947128
 30
0.0
 10
5.7078912744
 20
4.3719726163
 30
0.0
 10
5.707609863
 20
4.3727601598
 30
0.0
 10
5.7074036042
 20
4.3734664219
 30
0.0
 10
5.7072778541
 20
4.3741407406
 30
0.0
 10
5.7072607673
 20
4.3747693457
 30
0.0
 10
5.7072994909
 20
4.3751808466
 30
0.0
 10
5.7073902374
 20
4.3755499736
 30
0.0
 10
5.7075317883
 20
4.3758743811
 30
0.0
 10
5.7077213743
 20
4.3761526796
 30
0.0
 10
5.7079562019
 20
4.3763834156
 30
0.0
 10
5.7082318199
 20
4.3765661877
 30
0.0
 10
5.7084351412
 20
4.3766555746
 30
0.0
 10
5.7085409327
 20
4.3766931895
 30
0.0
  0
LINE
  5
419
100
AcDbEntity
  8
0
100
AcDbLine
 62
7
  6
CONTINUOUS
 10
5.7085409327
 20
4.3766931895
 11
5.7089808044
 21
4.3768063117
  0
SPLINE
  5
41A
100
AcDbEntity
  8
0
100
AcDbSpline
 62
7
  6
CONTINUOUS
 70
0
 71
3
 72
13
 73
9
 74
0
 42
0.0000001
 43
0.0000001
 44
0.0000000001
 40
0.0
 40
0.0
 40
0.0
 40
0.0
 40
0.2497625891
 40
0.3673305693
 40
0.4832130267
 40
0.6009296446
 40
0.7241657139
 40
1.0
 40
1.0
 40
1.0
 40
1.0
 10
5.7225540375
 20
4.3759523563
 30
0.0
 10
5.7227784277
 20
4.3758841296
 30
0.0
 10
5.7231007192
 20
4.3757438966
 30
0.0
 10
5.7234592474
 20
4.3754623461
 30
0.0
 10
5.7236772863
 20
4.3752121056
 30
0.0
 10
5.7238442537
 20
4.3749190676
 30
0.0
 10
5.7240009562
 20
4.3744571786
 30
0.0
 10
5.7240209974
 20
4.3740748273
 30
0.0
 10
5.7240044187
 20
4.3738163432
 30
0.0
  0
SPLINE
  5
41B
100
AcDbEntity
  8
0
100
AcDbSpline
 62
7
  6
CONTINUOUS
 70
0
 71
3
 72
13
 73
9
 74
0
 42
0.0000001
 43
0.0000001
 44
0.0000000001
 40
0.0
 40
0.0
 40
0.0
 40
0.0
 40
0.0929981245
 40
0.1958937967
 40
0.3088593674
 40
0.4314467304
 40
0.7021230267
 40
1.0
 40
1.0
 40
1.0
 40
1.0
 10
5.7240044187
 20
4.3738163432
 30
0.0
 10
5.7239935106
 20
4.3736462698
 30
0.0
 10
5.7239432745
 20
4.3732895618
 30
0.0
 10
5.7237988883
 20
4.3727412996
 30
0.0
 10
5.7235835969
 20
4.3721587923
 30
0.0
 10
5.7231958898
 20
4.3713152336
 30
0.0
 10
5.7225564345
 20
4.3702187864
 30
0.0
 10
5.7219553489
 20
4.3693666667
 30
0.0
 10
5.7216270232
 20
4.3689305729
 30
0.0
  0
SPLINE
  5
41C
100
AcDbEntity
  8
0
100
AcDbSpline
 62
7
  6
CONTINUOUS
 70
0
 71
3
 72
20
 73
16
 74
0
 42
0.0000001
 43
0.0000001
 44
0.0000000001
 40
0.0
 40
0.0
 40
0.0
 40
0.0
 40
0.1819493595
 40
0.350159871
 40
0.4278855448
 40
0.5007822799
 40
0.630816497
 40
0.6879879887
 40
0.7402089705
 40
0.7880184148
 40
0.8323831189
 40
0.8745130474
 40
0.9156885246
 40
0.9571678357
 40
1.0
 40
1.0
 40
1.0
 40
1.0
 10
5.7362504467
 20
4.3670832049
 30
0.0
 10
5.7360673431
 20
4.367523618
 30
0.0
 10
5.7357380078
 20
4.3683810812
 30
0.0
 10
5.7354120414
 20
4.3694558992
 30
0.0
 10
5.7352315544
 20
4.3702725028
 30
0.0
 10
5.7351154401
 20
4.3709990469
 30
0.0
 10
5.735075196
 20
4.3716838091
 30
0.0
 10
5.7351370291
 20
4.372309599
 30
0.0
 10
5.7352270221
 20
4.3727130017
 30
0.0
 10
5.735363317
 20
4.3730678445
 30
0.0
 10
5.7355444107
 20
4.373371953
 30
0.0
 10
5.7357673818
 20
4.3736242955
 30
0.0
 10
5.7360292766
 20
4.3738237804
 30
0.0
 10
5.7363256287
 20
4.3739705672
 30
0.0
 10
5.7365385499
 20
4.3740337663
 30
0.0
 10
5.7366482216
 20
4.3740578255
 30
0.0
  0
LINE
  5
41D
100
AcDbEntity
  8
0
100
AcDbLine
 62
7
  6
CONTINUOUS
 10
5.7366482216
 20
4.3740578255
 11
5.7370988028
 21
4.3741149251
  0
SPLINE
  5
41E
100
AcDbEntity
  8
0
100
AcDbSpline
 62
7
  6
CONTINUOUS
 70
0
 71
3
 72
13
 73
9
 74
0
 42
0.0000001
 43
0.0000001
 44
0.0000000001
 40
0.0
 40
0.0
 40
0.0
 40
0.0
 40
0.2497625891
 40
0.3673305693
 40
0.4832130267
 40
0.6009296446
 40
0.7241657139
 40
1.0
 40
1.0
 40
1.0
 40
1.0
 10
5.7504579779
 20
4.3715665262
 30
0.0
 10
5.7506720476
 20
4.3714707139
 30
0.0
 10
5.7509742218
 20
4.3712911929
 30
0.0
 10
5.7512946353
 20
4.370966927
 30
0.0
 10
5.7514795915
 20
4.3706913322
 30
0.0
 10
5.7516085149
 20
4.3703796783
 30
0.0
 10
5.7517060917
 20
4.3699017914
 30
0.0
 10
5.7516780536
 20
4.3695199432
 30
0.0
 10
5.751629209
 20
4.3692655752
 30
0.0
  0
SPLINE
  5
41F
100
AcDbEntity
  8
0
100
AcDbSpline
 62
7
  6
CONTINUOUS
 70
0
 71
3
 72
13
 73
9
 74
0
 42
0.0000001
 43
0.0000001
 44
0.0000000001
 40
0.0
 40
0.0
 40
0.0
 40
0.0
 40
0.0929981245
 40
0.1958937967
 40
0.3088593674
 40
0.4314467304
 40
0.7021230267
 40
1.0
 40
1.0
 40
1.0
 40
1.0
 10
5.751629209
 20
4.3692655752
 30
0.0
 10
5.751597071
 20
4.3690982101
 30
0.0
 10
5.7515025236
 20
4.368750611
 30
0.0
 10
5.7512905605
 20
4.3682247685
 30
0.0
 10
5.7510039593
 20
4.3676738376
 30
0.0
 10
5.7505135834
 20
4.3668855232
 30
0.0
 10
5.7497417491
 20
4.3658778668
 30
0.0
 10
5.7490386043
 20
4.3651078024
 30
0.0
 10
5.7486582105
 20
4.3647162973
 30
0.0
  0
SPLINE
  5
420
100
AcDbEntity
  8
0
100
AcDbSpline
 62
7
  6
CONTINUOUS
 70
0
 71
3
 72
20
 73
16
 74
0
 42
0.0000001
 43
0.0000001
 44
0.0000000001
 40
0.0
 40
0.0
 40
0.0
 40
0.0
 40
0.1819493595
 40
0.350159871
 40
0.4278855448
 40
0.5007822799
 40
0.630816497
 40
0.6879879887
 40
0.7402089705
 40
0.7880184148
 40
0.8323831189
 40
0.8745130474
 40
0.9156885246
 40
0.9571678357
 40
1.0
 40
1.0
 40
1.0
 40
1.0
 10
5.7629347874
 20
4.3610506954
 30
0.0
 10
5.762808326
 20
4.3615105847
 30
0.0
 10
5.7625890562
 20
4.3624025632
 30
0.0
 10
5.7624003705
 20
4.3635097604
 30
0.0
 10
5.7623236543
 20
4.3643425459
 30
0.0
 10
5.7622995157
 20
4.365077914
 30
0.0
 10
5.7623454125
 20
4.3657623205
 30
0.0
 10
5.7624851903
 20
4.3663754261
 30
0.0
 10
5.7626250334
 20
4.3667643688
 30
0.0
 10
5.7628047271
 20
4.3670993313
 30
0.0
 10
5.7630225078
 20
4.3673783446
 30
0.0
 10
5.7632753476
 20
4.3676007517
 30
0.0
 10
5.7635601794
 20
4.3677658395
 30
0.0
 10
5.7638725919
 20
4.3678743261
 30
0.0
 10
5.7640917551
 20
4.3679103407
 30
0.0
 10
5.7642035774
 20
4.3679204646
 30
0.0
  0
LINE
  5
421
100
AcDbEntity
  8
0
100
AcDbLine
 62
7
  6
CONTINUOUS
 10
5.7642035774
 20
4.3679204646
 11
5.7646577621
 21
4.3679206413
  0
SPLINE
  5
422
100
AcDbEntity
  8
0
100
AcDbSpline
 62
7
  6
CONTINUOUS
 70
0
 71
3
 72
13
 73
9
 74
0
 42
0.0000001
 43
0.0000001
 44
0.0000000001
 40
0.0
 40
0.0
 40
0.0
 40
0.0
 40
0.2497625891
 40
0.3673305693
 40
0.4832130267
 40
0.6009296446
 40
0.7241657139
 40
1.0
 40
1.0
 40
1.0
 40
1.0
 10
5.777592197
 20
4.3637179886
 30
0.0
 10
5.7777925703
 20
4.3635961018
 30
0.0
 10
5.7780698618
 20
4.3633801238
 30
0.0
 10
5.7783471075
 20
4.3630182564
 30
0.0
 10
5.7784960641
 20
4.3627216537
 30
0.0
 10
5.7785849102
 20
4.3623962989
 30
0.0
 10
5.7786218225
 20
4.3619099506
 30
0.0
 10
5.7785461472
 20
4.3615346275
 30
0.0
 10
5.778465807
 20
4.3612883871
 30
0.0
  0
SPLINE
  5
423
100
AcDbEntity
  8
0
100
AcDbSpline
 62
7
  6
CONTINUOUS
 70
0
 71
3
 72
13
 73
9
 74
0
 42
0.0000001
 43
0.0000001
 44
0.0000000001
 40
0.0
 40
0.0
 40
0.0
 40
0.0
 40
0.0929981245
 40
0.1958937967
 40
0.3088593674
 40
0.4314467304
 40
0.7021230267
 40
1.0
 40
1.0
 40
1.0
 40
1.0
 10
5.778465807
 20
4.3612883871
 30
0.0
 10
5.778412946
 20
4.3611263697
 30
0.0
 10
5.7782755785
 20
4.3607933615
 30
0.0
 10
5.7779993812
 20
4.3602982314
 30
0.0
 10
5.77764599
 20
4.3597875654
 30
0.0
 10
5.7770606788
 20
4.3590669275
 30
0.0
 10
5.7761686378
 20
4.3581639533
 30
0.0
 10
5.7753745229
 20
4.3574880884
 30
0.0
 10
5.77494806
 20
4.3571473465
 30
0.0
  0
SPLINE
  5
424
100
AcDbEntity
  8
0
100
AcDbSpline
 62
7
  6
CONTINUOUS
 70
0
 71
3
 72
20
 73
16
 74
0
 42
0.0000001
 43
0.0000001
 44
0.0000000001
 40
0.0
 40
0.0
 40
0.0
 40
0.0
 40
0.1819491328
 40
0.3501595373
 40
0.4278852065
 40
0.5007819761
 40
0.6308163765
 40
0.6879879965
 40
0.7402091347
 40
0.7880187235
 40
0.8323834953
 40
0.8745134232
 40
0.9156888402
 40
0.9571680284
 40
1.0
 40
1.0
 40
1.0
 40
1.0
 10
5.7886526401
 20
4.3517213194
 30
0.0
 10
5.7885848156
 20
4.3521934299
 30
0.0
 10
5.7884790698
 20
4.3531058526
 30
0.0
 10
5.7884306401
 20
4.3542279629
 30
0.0
 10
5.7884589034
 20
4.3550637937
 30
0.0
 10
5.7885271198
 20
4.3557963866
 30
0.0
 10
5.7886584314
 20
4.3564696428
 30
0.0
 10
5.7888739468
 20
4.357060395
 30
0.0
 10
5.7890614322
 20
4.3574287446
 30
0.0
 10
5.7892816877
 20
4.357738546
 30
0.0
 10
5.7895327178
 20
4.3579880662
 30
0.0
 10
5.7898114356
 20
4.3581770328
 30
0.0
 10
5.7901147094
 20
4.358305123
 30
0.0
 10
5.7904382523
 20
4.3583736023
 30
0.0
 10
5.7906601995
 20
4.3583818673
 30
0.0
 10
5.7907724081
 20
4.3583778978
 30
0.0
  0
LINE
  5
425
100
AcDbEntity
  8
0
100
AcDbLine
 62
7
  6
CONTINUOUS
 10
5.7907724081
 20
4.3583778978
 11
5.7912230612
 21
4.3583211477
  0
SPLINE
  5
426
100
AcDbEntity
  8
0
100
AcDbSpline
 62
7
  6
CONTINUOUS
 70
0
 71
3
 72
13
 73
9
 74
0
 42
0.0000001
 43
0.0000001
 44
0.0000000001
 40
0.0
 40
0.0
 40
0.0
 40
0.0
 40
0.2978678524
 40
0.5685402264
 40
0.6911284028
 40
0.804096581
 40
0.9069964837
 40
1.0
 40
1.0
 40
1.0
 40
1.0
 10
5.6546430317
 20
4.3647162973
 30
0.0
 10
5.6542626804
 20
4.3651077587
 30
0.0
 10
5.6535596056
 20
4.36587774
 30
0.0
 10
5.6527878332
 20
4.3668852847
 30
0.0
 10
5.652297469
 20
4.3676735162
 30
0.0
 10
5.6520108552
 20
4.3682243993
 30
0.0
 10
5.6517988604
 20
4.3687502032
 30
0.0
 10
5.6517042774
 20
4.3690977799
 30
0.0
 10
5.6516721174
 20
4.3692651368
 30
0.0
  0
SPLINE
  5
427
100
AcDbEntity
  8
0
100
AcDbSpline
 62
7
  6
CONTINUOUS
 70
0
 71
3
 72
13
 73
9
 74
0
 42
0.0000001
 43
0.0000001
 44
0.0000000001
 40
0.0
 40
0.0
 40
0.0
 40
0.0
 40
0.2758487641
 40
0.399086878
 40
0.5168025488
 40
0.6326819346
 40
0.7502458019
 40
1.0
 40
1.0
 40
1.0
 40
1.0
 10
5.6516721174
 20
4.3692651368
 30
0.0
 10
5.6516232281
 20
4.3695195516
 30
0.0
 10
5.6515951282
 20
4.3699014717
 30
0.0
 10
5.6516926584
 20
4.370379462
 30
0.0
 10
5.6518215649
 20
4.3706911789
 30
0.0
 10
5.652006522
 20
4.3709668276
 30
0.0
 10
5.6523269575
 20
4.3712911531
 30
0.0
 10
5.6526291681
 20
4.3714707021
 30
0.0
 10
5.6528432644
 20
4.3715665262
 30
0.0
  0
SPLINE
  5
428
100
AcDbEntity
  8
0
100
AcDbSpline
 62
7
  6
CONTINUOUS
 70
0
 71
3
 72
11
 73
7
 74
0
 42
0.0000001
 43
0.0000001
 44
0.0000000001
 40
0.0
 40
0.0
 40
0.0
 40
0.0
 40
0.2653297882
 40
0.5157066724
 40
0.7574532298
 40
1.0
 40
1.0
 40
1.0
 40
1.0
 10
5.6662024395
 20
4.3741149251
 30
0.0
 10
5.6663454976
 20
4.3741086488
 30
0.0
 10
5.6666233746
 20
4.3740767779
 30
0.0
 10
5.6670173294
 20
4.3739585818
 30
0.0
 10
5.6673677403
 20
4.3737662149
 30
0.0
 10
5.6675630936
 20
4.3735882938
 30
0.0
 10
5.6676492441
 20
4.3734897398
 30
0.0
  0
SPLINE
  5
429
100
AcDbEntity
  8
0
100
AcDbSpline
 62
7
  6
CONTINUOUS
 70
0
 71
3
 72
15
 73
11
 74
0
 42
0.0000001
 43
0.0000001
 44
0.0000000001
 40
0.0
 40
0.0
 40
0.0
 40
0.0
 40
0.0802026336
 40
0.1704817248
 40
0.2743734093
 40
0.3932504264
 40
0.5269273359
 40
0.6739775408
 40
0.8324391311
 40
1.0
 40
1.0
 40
1.0
 40
1.0
 10
5.6676492441
 20
4.3734897398
 30
0.0
 10
5.6677670736
 20
4.3733549457
 30
0.0
 10
5.6679734255
 20
4.3730279496
 30
0.0
 10
5.6681546547
 20
4.3724375138
 30
0.0
 10
5.6682236941
 20
4.3717386205
 30
0.0
 10
5.668181945
 20
4.3709418094
 30
0.0
 10
5.6680347856
 20
4.370060577
 30
0.0
 10
5.6677908264
 20
4.3691100602
 30
0.0
 10
5.6674593354
 20
4.3681067626
 30
0.0
 10
5.6671943891
 20
4.3674285858
 30
0.0
 10
5.6670507955
 20
4.3670832049
 30
0.0
  0
SPLINE
  5
42A
100
AcDbEntity
  8
0
100
AcDbSpline
 62
7
  6
CONTINUOUS
 70
0
 71
3
 72
13
 73
9
 74
0
 42
0.0000001
 43
0.0000001
 44
0.0000000001
 40
0.0
 40
0.0
 40
0.0
 40
0.0
 40
0.2978678524
 40
0.5685402264
 40
0.6911284028
 40
0.804096581
 40
0.9069964837
 40
1.0
 40
1.0
 40
1.0
 40
1.0
 10
5.681674219
 20
4.3689305729
 30
0.0
 10
5.68134593
 20
4.3693666181
 30
0.0
 10
5.6807449034
 20
4.3702186465
 30
0.0
 10
5.6801054955
 20
4.3713149751
 30
0.0
 10
5.6797177895
 20
4.3721584502
 30
0.0
 10
5.6795024798
 20
4.3727409116
 30
0.0
 10
5.6793580574
 20
4.3732891394
 30
0.0
 10
5.679307783
 20
4.3736458297
 30
0.0
 10
5.679296852
 20
4.3738158976
 30
0.0
  0
SPLINE
  5
42B
100
AcDbEntity
  8
0
100
AcDbSpline
 62
7
  6
CONTINUOUS
 70
0
 71
3
 72
13
 73
9
 74
0
 42
0.0000001
 43
0.0000001
 44
0.0000000001
 40
0.0
 40
0.0
 40
0.0
 40
0.0
 40
0.2758487641
 40
0.399086878
 40
0.5168025488
 40
0.6326819346
 40
0.7502458019
 40
1.0
 40
1.0
 40
1.0
 40
1.0
 10
5.679296852
 20
4.3738158976
 30
0.0
 10
5.6792802349
 20
4.3740744338
 30
0.0
 10
5.6793002238
 20
4.3744568642
 30
0.0
 10
5.6794568931
 20
4.3749188616
 30
0.0
 10
5.6796238515
 20
4.3752119643
 30
0.0
 10
5.6798418982
 20
4.3754622582
 30
0.0
 10
5.6802004557
 20
4.375743865
 30
0.0
 10
5.6805227867
 20
4.3758841211
 30
0.0
 10
5.6807472047
 20
4.3759523563
 30
0.0
  0
SPLINE
  5
42C
100
AcDbEntity
  8
0
100
AcDbSpline
 62
7
  6
CONTINUOUS
 70
0
 71
3
 72
11
 73
7
 74
0
 42
0.0000001
 43
0.0000001
 44
0.0000000001
 40
0.0
 40
0.0
 40
0.0
 40
0.0
 40
0.2653297882
 40
0.5157066724
 40
0.7574532298
 40
1.0
 40
1.0
 40
1.0
 40
1.0
 10
5.6943204378
 20
4.3768063117
 30
0.0
 10
5.6944615813
 20
4.376782155
 30
0.0
 10
5.6947332726
 20
4.3767157082
 30
0.0
 10
5.695109307
 20
4.3765490684
 30
0.0
 10
5.6954328449
 20
4.3763143003
 30
0.0
 10
5.6956043584
 20
4.3761132979
 30
0.0
 10
5.6956774775
 20
4.3760047234
 30
0.0
  0
SPLINE
  5
42D
100
AcDbEntity
  8
0
100
AcDbSpline
 62
7
  6
CONTINUOUS
 70
0
 71
3
 72
15
 73
11
 74
0
 42
0.0000001
 43
0.0000001
 44
0.0000000001
 40
0.0
 40
0.0
 40
0.0
 40
0.0
 40
0.0802026336
 40
0.1704817248
 40
0.2743734093
 40
0.3932504264
 40
0.5269273359
 40
0.6739775408
 40
0.8324391311
 40
1.0
 40
1.0
 40
1.0
 40
1.0
 10
5.6956774775
 20
4.3760047234
 30
0.0
 10
5.6957774836
 20
4.3758562243
 30
0.0
 10
5.6959412249
 20
4.3755059439
 30
0.0
 10
5.6960470239
 20
4.3748974498
 30
0.0
 10
5.6960279243
 20
4.3741954146
 30
0.0
 10
5.6958866375
 20
4.3734101191
 30
0.0
 10
5.6956301907
 20
4.3725542795
 30
0.0
 10
5.6952690239
 20
4.371641834
 30
0.0
 10
5.6948144003
 20
4.3706879945
 30
0.0
 10
5.6944665451
 20
4.3700483719
 30
0.0
 10
5.6942807961
 20
4.3697237115
 30
0.0
  0
SPLINE
  5
42E
100
AcDbEntity
  8
0
100
AcDbSpline
 62
7
  6
CONTINUOUS
 70
0
 71
3
 72
20
 73
16
 74
0
 42
0.0000001
 43
0.0000001
 44
0.0000000001
 40
0.0
 40
0.0
 40
0.0
 40
0.0
 40
0.1819491328
 40
0.3501595373
 40
0.4278852065
 40
0.5007819761
 40
0.6308163765
 40
0.6879879965
 40
0.7402091347
 40
0.7880187235
 40
0.8323834953
 40
0.8745134232
 40
0.9156888402
 40
0.9571680284
 40
1.0
 40
1.0
 40
1.0
 40
1.0
 10
5.6942807961
 20
3.9342747398
 30
0.0
 10
5.6945176531
 20
3.9338607504
 30
0.0
 10
5.6949518583
 20
3.9330513289
 30
0.0
 10
5.6954099635
 20
3.9320258453
 30
0.0
 10
5.6956913747
 20
3.9312383051
 30
0.0
 10
5.6958976341
 20
3.9305320453
 30
0.0
 10
5.6960233859
 20
3.9298577285
 30
0.0
 10
5.6960404752
 20
3.9292291245
 30
0.0
 10
5.6960017541
 20
3.9288176237
 30
0.0
 10
5.6959110112
 20
3.9284484962
 30
0.0
 10
5.6957694639
 20
3.9281240878
 30
0.0
 10
5.6955798818
 20
3.9278457882
 30
0.0
 10
5.6953450582
 20
3.9276150505
 30
0.0
 10
5.6950694445
 20
3.9274322759
 30
0.0
 10
5.6948661258
 20
3.9273428871
 30
0.0
 10
5.6947603355
 20
3.9273052712
 30
0.0
  0
LINE
  5
42F
100
AcDbEntity
  8
0
100
AcDbLine
 62
7
  6
CONTINUOUS
 10
5.6947603355
 20
3.9273052712
 11
5.6943204378
 21
3.9271921396
  0
SPLINE
  5
430
100
AcDbEntity
  8
0
100
AcDbSpline
 62
7
  6
CONTINUOUS
 70
0
 71
3
 72
13
 73
9
 74
0
 42
0.0000001
 43
0.0000001
 44
0.0000000001
 40
0.0
 40
0.0
 40
0.0
 40
0.0
 40
0.2497597195
 40
0.3673262733
 40
0.4832077341
 40
0.6009241445
 40
0.7241609928
 40
1.0
 40
1.0
 40
1.0
 40
1.0
 10
5.6807472047
 20
3.928046095
 30
0.0
 10
5.6805228052
 20
3.9281143245
 30
0.0
 10
5.6802005006
 20
3.9282545649
 30
0.0
 10
5.6798419625
 20
3.9285361342
 30
0.0
 10
5.6796239213
 20
3.928786393
 30
0.0
 10
5.679456957
 20
3.929079453
 30
0.0
 10
5.6793002655
 20
3.9295413783
 30
0.0
 10
5.6792802412
 20
3.929923756
 30
0.0
 10
5.6792968327
 20
3.9301822574
 30
0.0
  0
SPLINE
  5
431
100
AcDbEntity
  8
0
100
AcDbSpline
 62
7
  6
CONTINUOUS
 70
0
 71
3
 72
13
 73
9
 74
0
 42
0.0000001
 43
0.0000001
 44
0.0000000001
 40
0.0
 40
0.0
 40
0.0
 40
0.0
 40
0.0929998357
 40
0.1958968639
 40
0.308863252
 40
0.4314508327
 40
0.7021259175
 40
1.0
 40
1.0
 40
1.0
 40
1.0
 10
5.6792968327
 20
3.9301822574
 30
0.0
 10
5.6793077484
 20
3.9303523288
 30
0.0
 10
5.6793579973
 20
3.9307090306
 30
0.0
 10
5.679502396
 20
3.9312572808
 30
0.0
 10
5.6797176933
 20
3.9318397725
 30
0.0
 10
5.6801053996
 20
3.9326833033
 30
0.0
 10
5.6807448396
 20
3.933779711
 30
0.0
 10
5.6813459055
 20
3.9346318006
 30
0.0
 10
5.681674219
 20
3.9350678784
 30
0.0
  0
SPLINE
  5
432
100
AcDbEntity
  8
0
100
AcDbSpline
 62
7
  6
CONTINUOUS
 70
0
 71
3
 72
20
 73
16
 74
0
 42
0.0000001
 43
0.0000001
 44
0.0000000001
 40
0.0
 40
0.0
 40
0.0
 40
0.0
 40
0.1819491328
 40
0.3501595373
 40
0.4278852065
 40
0.5007819761
 40
0.6308163765
 40
0.6879879965
 40
0.7402091347
 40
0.7880187235
 40
0.8323834953
 40
0.8745134232
 40
0.9156888402
 40
0.9571680284
 40
1.0
 40
1.0
 40
1.0
 40
1.0
 10
5.6670507955
 20
3.9369152464
 30
0.0
 10
5.6672338982
 20
3.9364748354
 30
0.0
 10
5.6675632322
 20
3.9356173761
 30
0.0
 10
5.6678891979
 20
3.9345425629
 30
0.0
 10
5.6680696852
 20
3.9337259625
 30
0.0
 10
5.6681858003
 20
3.9329994206
 30
0.0
 10
5.6682260462
 20
3.9323146601
 30
0.0
 10
5.6681642157
 20
3.931688871
 30
0.0
 10
5.6680742253
 20
3.931285468
 30
0.0
 10
5.6679379339
 20
3.9309306243
 30
0.0
 10
5.6677568437
 20
3.9306265146
 30
0.0
 10
5.6675338763
 20
3.9303741704
 30
0.0
 10
5.6672719852
 20
3.9301746833
 30
0.0
 10
5.666975637
 20
3.9300278936
 30
0.0
 10
5.6667627182
 20
3.9299646922
 30
0.0
 10
5.6666530476
 20
3.9299406319
 30
0.0
  0
LINE
  5
433
100
AcDbEntity
  8
0
100
AcDbLine
 62
7
  6
CONTINUOUS
 10
5.6666530476
 20
3.9299406319
 11
5.6662024395
 21
3.9298835262
  0
SPLINE
  5
434
100
AcDbEntity
  8
0
100
AcDbSpline
 62
7
  6
CONTINUOUS
 70
0
 71
3
 72
13
 73
9
 74
0
 42
0.0000001
 43
0.0000001
 44
0.0000000001
 40
0.0
 40
0.0
 40
0.0
 40
0.0
 40
0.2497597195
 40
0.3673262733
 40
0.4832077341
 40
0.6009241445
 40
0.7241609928
 40
1.0
 40
1.0
 40
1.0
 40
1.0
 10
5.6528432644
 20
3.9324319251
 30
0.0
 10
5.6526291858
 20
3.9325277413
 30
0.0
 10
5.6523269993
 20
3.9327072714
 30
0.0
 10
5.6520065784
 20
3.9330315572
 30
0.0
 10
5.6518216223
 20
3.9333071703
 30
0.0
 10
5.6516927048
 20
3.9336188456
 30
0.0
 10
5.6515951434
 20
3.9340967672
 30
0.0
 10
5.6516232017
 20
3.9344786394
 30
0.0
 10
5.6516720611
 20
3.9347330231
 30
0.0
  0
SPLINE
  5
435
100
AcDbEntity
  8
0
100
AcDbSpline
 62
7
  6
CONTINUOUS
 70
0
 71
3
 72
13
 73
9
 74
0
 42
0.0000001
 43
0.0000001
 44
0.0000000001
 40
0.0
 40
0.0
 40
0.0
 40
0.0
 40
0.0929998357
 40
0.1958968639
 40
0.308863252
 40
0.4314508327
 40
0.7021259175
 40
1.0
 40
1.0
 40
1.0
 40
1.0
 10
5.6516720611
 20
3.9347330231
 30
0.0
 10
5.6517042064
 20
3.9349003852
 30
0.0
 10
5.6517987656
 20
3.9352479765
 30
0.0
 10
5.6520107396
 20
3.9357738057
 30
0.0
 10
5.6522973448
 20
3.9363247203
 30
0.0
 10
5.6527877164
 20
3.9371130071
 30
0.0
 10
5.6535595305
 20
3.9381206262
 30
0.0
 10
5.654262652
 20
3.9388906634
 30
0.0
 10
5.6546430317
 20
3.939282154
 30
0.0
  0
SPLINE
  5
436
100
AcDbEntity
  8
0
100
AcDbSpline
 62
7
  6
CONTINUOUS
 70
0
 71
3
 72
20
 73
16
 74
0
 42
0.0000001
 43
0.0000001
 44
0.0000000001
 40
0.0
 40
0.0
 40
0.0
 40
0.0
 40
0.1819491328
 40
0.3501595373
 40
0.4278852065
 40
0.5007819761
 40
0.6308163765
 40
0.6879879965
 40
0.7402091347
 40
0.7880187235
 40
0.8323834953
 40
0.8745134232
 40
0.9156888402
 40
0.9571680284
 40
1.0
 40
1.0
 40
1.0
 40
1.0
 10
5.6403664549
 20
3.9429477559
 30
0.0
 10
5.6404929156
 20
3.9424878688
 30
0.0
 10
5.6407121845
 20
3.9415958943
 30
0.0
 10
5.6409008701
 20
3.940488702
 30
0.0
 10
5.640977587
 20
3.9396559197
 30
0.0
 10
5.6410017267
 20
3.9389205537
 30
0.0
 10
5.640955832
 20
3.9382361486
 30
0.0
 10
5.6408160569
 20
3.9376230434
 30
0.0
 10
5.6406762162
 20
3.9372341002
 30
0.0
 10
5.6404965259
 20
3.9368991364
 30
0.0
 10
5.6402787485
 20
3.9366201213
 30
0.0
 10
5.6400259122
 20
3.9363977121
 30
0.0
 10
5.6397410839
 20
3.9362326217
 30
0.0
 10
5.6394286748
 20
3.9361241317
 30
0.0
 10
5.6392095137
 20
3.9360881145
 30
0.0
 10
5.6390976923
 20
3.9360779893
 30
0.0
  0
LINE
  5
437
100
AcDbEntity
  8
0
100
AcDbLine
 62
7
  6
CONTINUOUS
 10
5.6390976923
 20
3.9360779893
 11
5.6386434801
 21
3.93607781
  0
SPLINE
  5
438
100
AcDbEntity
  8
0
100
AcDbSpline
 62
7
  6
CONTINUOUS
 70
0
 71
3
 72
13
 73
9
 74
0
 42
0.0000001
 43
0.0000001
 44
0.0000000001
 40
0.0
 40
0.0
 40
0.0
 40
0.0
 40
0.2497597195
 40
0.3673262733
 40
0.4832077341
 40
0.6009241445
 40
0.7241609928
 40
1.0
 40
1.0
 40
1.0
 40
1.0
 10
5.6257090452
 20
3.9402804627
 30
0.0
 10
5.6255086636
 20
3.9404023545
 30
0.0
 10
5.6252313611
 20
3.9406183429
 30
0.0
 10
5.6249541106
 20
3.940980231
 30
0.0
 10
5.6248051564
 20
3.9412768521
 30
0.0
 10
5.6247163187
 20
3.9416022274
 30
0.0
 10
5.6246794261
 20
3.9420886081
 30
0.0
 10
5.6247551244
 20
3.9424639525
 30
0.0
 10
5.6248354813
 20
3.9427102065
 30
0.0
  0
SPLINE
  5
439
100
AcDbEntity
  8
0
100
AcDbSpline
 62
7
  6
CONTINUOUS
 70
0
 71
3
 72
13
 73
9
 74
0
 42
0.0000001
 43
0.0000001
 44
0.0000000001
 40
0.0
 40
0.0
 40
0.0
 40
0.0
 40
0.0929998357
 40
0.1958968639
 40
0.308863252
 40
0.4314508327
 40
0.7021259175
 40
1.0
 40
1.0
 40
1.0
 40
1.0
 10
5.6248354813
 20
3.9427102065
 30
0.0
 10
5.6248883491
 20
3.9428722201
 30
0.0
 10
5.6250257274
 20
3.9432052191
 30
0.0
 10
5.6253019338
 20
3.9437003345
 30
0.0
 10
5.625655327
 20
3.9442109839
 30
0.0
 10
5.6262406304
 20
3.944931595
 30
0.0
 10
5.6271326467
 20
3.9458345347
 30
0.0
 10
5.627926735
 20
3.9465103754
 30
0.0
 10
5.6283531822
 20
3.9468511048
 30
0.0
  0
SPLINE
  5
43A
100
AcDbEntity
  8
0
100
AcDbSpline
 62
7
  6
CONTINUOUS
 70
0
 71
3
 72
20
 73
16
 74
0
 42
0.0000001
 43
0.0000001
 44
0.0000000001
 40
0.0
 40
0.0
 40
0.0
 40
0.0
 40
0.1819491328
 40
0.3501595373
 40
0.4278852065
 40
0.5007819761
 40
0.6308163765
 40
0.6879879965
 40
0.7402091347
 40
0.7880187235
 40
0.8323834953
 40
0.8745134232
 40
0.9156888402
 40
0.9571680284
 40
1.0
 40
1.0
 40
1.0
 40
1.0
 10
5.6146486021
 20
3.9522771319
 30
0.0
 10
5.6147164266
 20
3.9518050214
 30
0.0
 10
5.6148221724
 20
3.9508925987
 30
0.0
 10
5.6148706021
 20
3.9497704884
 30
0.0
 10
5.6148423388
 20
3.9489346576
 30
0.0
 10
5.6147741224
 20
3.9482020647
 30
0.0
 10
5.6146428108
 20
3.9475288085
 30
0.0
 10
5.6144272955
 20
3.9469380563
 30
0.0
 10
5.61423981
 20
3.9465697067
 30
0.0
 10
5.6140195545
 20
3.9462599053
 30
0.0
 10
5.6137685245
 20
3.9460103851
 30
0.0
 10
5.6134898066
 20
3.9458214185
 30
0.0
 10
5.6131865329
 20
3.9456933283
 30
0.0
 10
5.6128629899
 20
3.945624849
 30
0.0
 10
5.6126410427
 20
3.945616584
 30
0.0
 10
5.6125288341
 20
3.9456205536
 30
0.0
  0
LINE
  5
43B
100
AcDbEntity
  8
0
100
AcDbLine
 62
7
  6
CONTINUOUS
 10
5.6125288341
 20
3.9456205536
 11
5.612078181
 21
3.9456773036
  0
SPLINE
  5
43C
100
AcDbEntity
  8
0
100
AcDbSpline
 62
7
  6
CONTINUOUS
 70
0
 71
3
 72
13
 73
9
 74
0
 42
0.0000001
 43
0.0000001
 44
0.0000000001
 40
0.0
 40
0.0
 40
0.0
 40
0.0
 40
0.2497597195
 40
0.3673262733
 40
0.4832077341
 40
0.6009241445
 40
0.7241609928
 40
1.0
 40
1.0
 40
1.0
 40
1.0
 10
5.59977247
 20
3.9514679317
 30
0.0
 10
5.5995889456
 20
3.9516139768
 30
0.0
 10
5.5993409003
 20
3.9518630173
 30
0.0
 10
5.5991111926
 20
3.9522568005
 30
0.0
 10
5.5990005893
 20
3.9525697515
 30
0.0
 10
5.5989532325
 20
3.9529036954
 30
0.0
 10
5.5989775905
 20
3.9533908647
 30
0.0
 10
5.599099735
 20
3.9537537619
 30
0.0
 10
5.5992103221
 20
3.9539880028
 30
0.0
  0
SPLINE
  5
43D
100
AcDbEntity
  8
0
100
AcDbSpline
 62
7
  6
CONTINUOUS
 70
0
 71
3
 72
13
 73
9
 74
0
 42
0.0000001
 43
0.0000001
 44
0.0000000001
 40
0.0
 40
0.0
 40
0.0
 40
0.0
 40
0.0929998357
 40
0.1958968639
 40
0.308863252
 40
0.4314508327
 40
0.7021259175
 40
1.0
 40
1.0
 40
1.0
 40
1.0
 10
5.5992103221
 20
3.9539880028
 30
0.0
 10
5.5992830787
 20
3.9541421128
 30
0.0
 10
5.5994611096
 20
3.9544552679
 30
0.0
 10
5.5997971925
 20
3.9549118614
 30
0.0
 10
5.6002118003
 20
3.9553741922
 30
0.0
 10
5.600882805
 20
3.9560157631
 30
0.0
 10
5.6018809558
 20
3.9567997836
 30
0.0
 10
5.6027534878
 20
3.9573707694
 30
0.0
 10
5.603219277
 20
3.957655364
 30
0.0
  0
SPLINE
  5
43E
100
AcDbEntity
  8
0
100
AcDbSpline
 62
7
  6
CONTINUOUS
 70
0
 71
3
 72
20
 73
16
 74
0
 42
0.0000001
 43
0.0000001
 44
0.0000000001
 40
0.0
 40
0.0
 40
0.0
 40
0.0
 40
0.1819491328
 40
0.3501595373
 40
0.4278852065
 40
0.5007819761
 40
0.6308163765
 40
0.6879879965
 40
0.7402091347
 40
0.7880187235
 40
0.8323834953
 40
0.8745134232
 40
0.9156888402
 40
0.9571680284
 40
1.0
 40
1.0
 40
1.0
 40
1.0
 10
5.5903028232
 20
3.9647562446
 30
0.0
 10
5.5903109417
 20
3.9642793562
 30
0.0
 10
5.5903014968
 20
3.9633608748
 30
0.0
 10
5.5902089069
 20
3.9622415428
 30
0.0
 10
5.5900761091
 20
3.9614158451
 30
0.0
 10
5.5899166124
 20
3.9606975787
 30
0.0
 10
5.5897019549
 20
3.960046089
 30
0.0
 10
5.589414098
 20
3.9594870063
 30
0.0
 10
5.5891819245
 20
3.9591450594
 30
0.0
 10
5.5889245773
 20
3.9588653063
 30
0.0
 10
5.5886442536
 20
3.958649216
 30
0.0
 10
5.5883440497
 20
3.9584966721
 30
0.0
 10
5.5880271134
 20
3.9584076021
 30
0.0
 10
5.5876975389
 20
3.9583802135
 30
0.0
 10
5.587476306
 20
3.958399831
 30
0.0
 10
5.5873654797
 20
3.9584178328
 30
0.0
  0
LINE
  5
43F
100
AcDbEntity
  8
0
100
AcDbLine
 62
7
  6
CONTINUOUS
 10
5.5873654797
 20
3.9584178328
 11
5.5869254928
 21
3.9585306172
  0
SPLINE
  5
440
100
AcDbEntity
  8
0
100
AcDbSpline
 62
7
  6
CONTINUOUS
 70
0
 71
3
 72
13
 73
9
 74
0
 42
0.0000001
 43
0.0000001
 44
0.0000000001
 40
0.0
 40
0.0
 40
0.0
 40
0.0
 40
0.2497597195
 40
0.3673262733
 40
0.4832077341
 40
0.6009241445
 40
0.7241609928
 40
1.0
 40
1.0
 40
1.0
 40
1.0
 10
5.5754425742
 20
3.9658178989
 30
0.0
 10
5.5752788012
 20
3.9659857942
 30
0.0
 10
5.5750639248
 20
3.9662639592
 30
0.0
 10
5.5748853826
 20
3.9666834273
 30
0.0
 10
5.5748148746
 20
3.9670077729
 30
0.0
 10
5.5748097455
 20
3.9673450189
 30
0.0
 10
5.5748949699
 20
3.9678252939
 30
0.0
 10
5.5750616344
 20
3.9681700208
 30
0.0
 10
5.5752007076
 20
3.9683885543
 30
0.0
  0
SPLINE
  5
441
100
AcDbEntity
  8
0
100
AcDbSpline
 62
7
  6
CONTINUOUS
 70
0
 71
3
 72
13
 73
9
 74
0
 42
0.0000001
 43
0.0000001
 44
0.0000000001
 40
0.0
 40
0.0
 40
0.0
 40
0.0
 40
0.0929998357
 40
0.1958968639
 40
0.308863252
 40
0.4314508327
 40
0.7021259175
 40
1.0
 40
1.0
 40
1.0
 40
1.0
 10
5.5752007076
 20
3.9683885543
 30
0.0
 10
5.5752922056
 20
3.9685323303
 30
0.0
 10
5.5755080814
 20
3.968820703
 30
0.0
 10
5.5758987405
 20
3.9692315737
 30
0.0
 10
5.5763680245
 20
3.9696382947
 30
0.0
 10
5.5771141482
 20
3.9701907075
 30
0.0
 10
5.5782026921
 20
3.9708434443
 30
0.0
 10
5.5791399075
 20
3.9713005705
 30
0.0
 10
5.579637693
 20
3.9715245421
 30
0.0
  0
SPLINE
  5
442
100
AcDbEntity
  8
0
100
AcDbSpline
 62
7
  6
CONTINUOUS
 70
0
 71
3
 72
20
 73
16
 74
0
 42
0.0000001
 43
0.0000001
 44
0.0000000001
 40
0.0
 40
0.0
 40
0.0
 40
0.0
 40
0.1819491328
 40
0.3501595373
 40
0.4278852065
 40
0.5007819761
 40
0.6308163765
 40
0.6879879965
 40
0.7402091347
 40
0.7880187235
 40
0.8323834953
 40
0.8745134232
 40
0.9156888402
 40
0.9571680284
 40
1.0
 40
1.0
 40
1.0
 40
1.0
 10
5.5677130656
 20
3.980188291
 30
0.0
 10
5.5676613501
 20
3.9797141455
 30
0.0
 10
5.5675368635
 20
3.9788040903
 30
0.0
 10
5.5673047141
 20
3.9777051892
 30
0.0
 10
5.5670694762
 20
3.9769026464
 30
0.0
 10
5.5668212144
 20
3.976210034
 30
0.0
 10
5.5665265962
 20
3.9755905852
 30
0.0
 10
5.5661709376
 20
3.975071989
 30
0.0
 10
5.5658977375
 20
3.9747618375
 30
0.0
 10
5.5656073572
 20
3.9745165445
 30
0.0
 10
5.5653021606
 20
3.974337292
 30
0.0
 10
5.5649852051
 20
3.9742235765
 30
0.0
 10
5.5646596045
 20
3.9741749315
 30
0.0
 10
5.5643291962
 20
3.9741890655
 30
0.0
 10
5.5641121664
 20
3.9742362562
 30
0.0
 10
5.5640044703
 20
3.9742680062
 30
0.0
  0
LINE
  5
443
100
AcDbEntity
  8
0
100
AcDbLine
 62
7
  6
CONTINUOUS
 10
5.5640044703
 20
3.9742680062
 11
5.5635820884
 21
3.9744350462
  0
SPLINE
  5
444
100
AcDbEntity
  8
0
100
AcDbSpline
 62
7
  6
CONTINUOUS
 70
0
 71
3
 72
13
 73
9
 74
0
 42
0.0000001
 43
0.0000001
 44
0.0000000001
 40
0.0
 40
0.0
 40
0.0
 40
0.0
 40
0.2497597195
 40
0.3673262733
 40
0.4832077341
 40
0.6009241445
 40
0.7241609928
 40
1.0
 40
1.0
 40
1.0
 40
1.0
 10
5.5531030546
 20
3.9831040569
 30
0.0
 10
5.5529616159
 20
3.9832911544
 30
0.0
 10
5.5527832972
 20
3.9835940573
 30
0.0
 10
5.5526587361
 20
3.984032595
 30
0.0
 10
5.5526294354
 20
3.98436322
 30
0.0
 10
5.5526666149
 20
3.9846984496
 30
0.0
 10
5.5528113616
 20
3.985164256
 30
0.0
 10
5.5530199177
 20
3.985485376
 30
0.0
 10
5.5531852838
 20
3.9856847559
 30
0.0
  0
SPLINE
  5
445
100
AcDbEntity
  8
0
100
AcDbSpline
 62
7
  6
CONTINUOUS
 70
0
 71
3
 72
13
 73
9
 74
0
 42
0.0000001
 43
0.0000001
 44
0.0000000001
 40
0.0
 40
0.0
 40
0.0
 40
0.0
 40
0.0929998357
 40
0.1958968639
 40
0.308863252
 40
0.4314508327
 40
0.7021259175
 40
1.0
 40
1.0
 40
1.0
 40
1.0
 10
5.5531852838
 20
3.9856847559
 30
0.0
 10
5.5532940802
 20
3.9858159304
 30
0.0
 10
5.5535443965
 20
3.9860749727
 30
0.0
 10
5.5539834708
 20
3.986433641
 30
0.0
 10
5.55450003
 20
3.9867783381
 30
0.0
 10
5.555309506
 20
3.9872328808
 30
0.0
 10
5.5564712761
 20
3.9877440398
 30
0.0
 10
5.5574583943
 20
3.9880800972
 30
0.0
 10
5.5579803257
 20
3.9882399137
 30
0.0
  0
SPLINE
  5
446
100
AcDbEntity
  8
0
100
AcDbSpline
 62
7
  6
CONTINUOUS
 70
0
 71
3
 72
13
 73
9
 74
0
 42
0.0000001
 43
0.0000001
 44
0.0000000001
 40
0.0
 40
0.0
 40
0.0
 40
0.0
 40
0.2978699162
 40
0.5685431632
 40
0.6911311863
 40
0.8040987844
 40
0.9069977172
 40
1.0
 40
1.0
 40
1.0
 40
1.0
 10
5.5472355832
 20
3.9983298985
 30
0.0
 10
5.5471088606
 20
3.9977989879
 30
0.0
 10
5.5468354627
 20
3.9967927611
 30
0.0
 10
5.5463982862
 20
3.9956012364
 30
0.0
 10
5.5459954957
 20
3.9947648395
 30
0.0
 10
5.5456839338
 20
3.9942276618
 30
0.0
 10
5.5453535632
 20
3.9937669303
 30
0.0
 10
5.5451107655
 20
3.9935008344
 30
0.0
 10
5.5449866891
 20
3.9933840099
 30
0.0
  0
SPLINE
  5
447
100
AcDbEntity
  8
0
100
AcDbSpline
 62
7
  6
CONTINUOUS
 70
0
 71
3
 72
13
 73
9
 74
0
 42
0.0000001
 43
0.0000001
 44
0.0000000001
 40
0.0
 40
0.0
 40
0.0
 40
0.0
 40
0.2758453704
 40
0.3990829314
 40
0.5167987499
 40
0.6326788483
 40
0.7502437435
 40
1.0
 40
1.0
 40
1.0
 40
1.0
 10
5.5449866891
 20
3.9933840099
 30
0.0
 10
5.5447980795
 20
3.9932064239
 30
0.0
 10
5.5444906772
 20
3.9929780766
 30
0.0
 10
5.5440348522
 20
3.9928043265
 30
0.0
 10
5.5437026
 20
3.9927461511
 30
0.0
 10
5.5433707681
 20
3.9927546227
 30
0.0
 10
5.5429252478
 20
3.9928513962
 30
0.0
 10
5.5426117271
 20
3.9930103499
 30
0.0
 10
5.5424161073
 20
3.9931397685
 30
0.0
  0
SPLINE
  5
448
100
AcDbEntity
  8
0
100
AcDbSpline
 62
7
  6
CONTINUOUS
 70
0
 71
3
 72
13
 73
9
 74
0
 42
0.0000001
 43
0.0000001
 44
0.0000000001
 40
0.0
 40
0.0
 40
0.0
 40
0.0
 40
0.2497597195
 40
0.3673262733
 40
0.4832077341
 40
0.6009241445
 40
0.7241609928
 40
1.0
 40
1.0
 40
1.0
 40
1.0
 10
5.5331062189
 20
4.0030537926
 30
0.0
 10
5.532989345
 20
4.0032571418
 30
0.0
 10
5.5328503962
 20
4.0035800054
 30
0.0
 10
5.5327817807
 20
4.0040306968
 30
0.0
 10
5.5327941493
 20
4.004362387
 30
0.0
 10
5.532873051
 20
4.0046903135
 30
0.0
 10
5.5330750374
 20
4.0051343053
 30
0.0
 10
5.5333221959
 20
4.0054267541
 30
0.0
 10
5.533511247
 20
4.0056038359
 30
0.0
  0
SPLINE
  5
449
100
AcDbEntity
  8
0
100
AcDbSpline
 62
7
  6
CONTINUOUS
 70
0
 71
3
 72
13
 73
9
 74
0
 42
0.0000001
 43
0.0000001
 44
0.0000000001
 40
0.0
 40
0.0
 40
0.0
 40
0.0
 40
0.0929998357
 40
0.1958968639
 40
0.308863252
 40
0.4314508327
 40
0.7021259175
 40
1.0
 40
1.0
 40
1.0
 40
1.0
 10
5.533511247
 20
4.0056038359
 30
0.0
 10
5.5336356261
 20
4.0057203403
 30
0.0
 10
5.5339164352
 20
4.005945967
 30
0.0
 10
5.5343970003
 20
4.0062467765
 30
0.0
 10
5.5349526883
 20
4.0065240135
 30
0.0
 10
5.5358127506
 20
4.0068735178
 30
0.0
 10
5.537029425
 20
4.0072350378
 30
0.0
 10
5.5380508787
 20
4.0074447265
 30
0.0
 10
5.5385887248
 20
4.0075378675
 30
0.0
  0
SPLINE
  5
44A
100
AcDbEntity
  8
0
100
AcDbSpline
 62
7
  6
CONTINUOUS
 70
0
 71
3
 72
13
 73
9
 74
0
 42
0.0000001
 43
0.0000001
 44
0.0000000001
 40
0.0
 40
0.0
 40
0.0
 40
0.0
 40
0.2978699162
 40
0.5685431632
 40
0.6911311863
 40
0.8040987844
 40
0.9069977172
 40
1.0
 40
1.0
 40
1.0
 40
1.0
 10
5.5291933182
 20
4.018894963
 30
0.0
 10
5.5290010541
 20
4.0183841214
 30
0.0
 10
5.5286036984
 20
4.0174200949
 30
0.0
 10
5.5280206315
 20
4.0162927584
 30
0.0
 10
5.5275161888
 20
4.0155134398
 30
0.0
 10
5.5271397575
 20
4.015019547
 30
0.0
 10
5.526754247
 20
4.0146038548
 30
0.0
 10
5.5264800132
 20
4.0143702879
 30
0.0
 10
5.5263422731
 20
4.0142699354
 30
0.0
  0
SPLINE
  5
44B
100
AcDbEntity
  8
0
100
AcDbSpline
 62
7
  6
CONTINUOUS
 70
0
 71
3
 72
13
 73
9
 74
0
 42
0.0000001
 43
0.0000001
 44
0.0000000001
 40
0.0
 40
0.0
 40
0.0
 40
0.0
 40
0.2758453704
 40
0.3990829314
 40
0.5167987499
 40
0.6326788483
 40
0.7502437435
 40
1.0
 40
1.0
 40
1.0
 40
1.0
 10
5.5263422731
 20
4.0142699354
 30
0.0
 10
5.5261328933
 20
4.0141173888
 30
0.0
 10
5.5257992955
 20
4.0139293699
 30
0.0
 10
5.5253252882
 20
4.0138141198
 30
0.0
 10
5.5249883645
 20
4.0137980454
 30
0.0
 10
5.524660211
 20
4.0138480397
 30
0.0
 10
5.5242303327
 20
4.0139998886
 30
0.0
 10
5.5239392064
 20
4.0141968835
 30
0.0
 10
5.5237613495
 20
4.0143497992
 30
0.0
  0
SPLINE
  5
44C
100
AcDbEntity
  8
0
100
AcDbSpline
 62
7
  6
CONTINUOUS
 70
0
 71
3
 72
13
 73
9
 74
0
 42
0.0000001
 43
0.0000001
 44
0.0000000001
 40
0.0
 40
0.0
 40
0.0
 40
0.0
 40
0.2573131703
 40
0.3788207719
 40
0.4977437313
 40
0.6165886982
 40
0.7381721411
 40
1.0
 40
1.0
 40
1.0
 40
1.0
 10
5.5157674291
 20
4.0253524868
 30
0.0
 10
5.5156883574
 20
4.0255416259
 30
0.0
 10
5.5155993298
 20
4.0258343149
 30
0.0
 10
5.5155666921
 20
4.0262307725
 30
0.0
 10
5.5155879351
 20
4.0265175306
 30
0.0
 10
5.5156573512
 20
4.026796776
 30
0.0
 10
5.5158188431
 20
4.0271646116
 30
0.0
 10
5.5160115132
 20
4.0274096321
 30
0.0
 10
5.5161602714
 20
4.0275558669
 30
0.0
  0
SPLINE
  5
44D
100
AcDbEntity
  8
0
100
AcDbSpline
 62
7
  6
CONTINUOUS
 70
0
 71
3
 72
14
 73
10
 74
0
 42
0.0000001
 43
0.0000001
 44
0.0000000001
 40
0.0
 40
0.0
 40
0.0
 40
0.0
 40
0.0879138119
 40
0.1866531741
 40
0.2969512276
 40
0.4187261567
 40
0.5511665106
 40
0.6931308996
 40
1.0
 40
1.0
 40
1.0
 40
1.0
 10
5.5161602714
 20
4.0275558669
 30
0.0
 10
5.516284121
 20
4.0276776155
 30
0.0
 10
5.5165742827
 20
4.027908849
 30
0.0
 10
5.5170852123
 20
4.0282003626
 30
0.0
 10
5.5176896633
 20
4.0284523774
 30
0.0
 10
5.5183789473
 20
4.028663655
 30
0.0
 10
5.5191431824
 20
4.0288353221
 30
0.0
 10
5.5202777771
 20
4.0290155906
 30
0.0
 10
5.5211631351
 20
4.0290863027
 30
0.0
 10
5.5217687074
 20
4.0291140632
 30
0.0
  0
SPLINE
  5
44E
100
AcDbEntity
  8
0
100
AcDbSpline
 62
7
  6
CONTINUOUS
 70
0
 71
3
 72
13
 73
9
 74
0
 42
0.0000001
 43
0.0000001
 44
0.0000000001
 40
0.0
 40
0.0
 40
0.0
 40
0.0
 40
0.2978699162
 40
0.5685431632
 40
0.6911311863
 40
0.8040987844
 40
0.9069977173
 40
1.0
 40
1.0
 40
1.0
 40
1.0
 10
5.513870808
 20
4.0415591613
 30
0.0
 10
5.5136160345
 20
4.0410764449
 30
0.0
 10
5.5131009874
 20
4.0401698219
 30
0.0
 10
5.5123812255
 20
4.0391244525
 30
0.0
 10
5.5117830859
 20
4.0384145025
 30
0.0
 10
5.5113477217
 20
4.0379716835
 30
0.0
 10
5.510913151
 20
4.0376075865
 30
0.0
 10
5.5106118059
 20
4.0374102319
 30
0.0
 10
5.5104625745
 20
4.0373279341
 30
0.0
  0
SPLINE
  5
44F
100
AcDbEntity
  8
0
100
AcDbSpline
 62
7
  6
CONTINUOUS
 70
0
 71
3
 72
13
 73
9
 74
0
 42
0.0000001
 43
0.0000001
 44
0.0000000001
 40
0.0
 40
0.0
 40
0.0
 40
0.0
 40
0.2758453703
 40
0.3990829314
 40
0.5167987499
 40
0.6326788483
 40
0.7502437435
 40
1.0
 40
1.0
 40
1.0
 40
1.0
 10
5.5104625745
 20
4.0373279341
 30
0.0
 10
5.5102357265
 20
4.0372028326
 30
0.0
 10
5.5098811942
 20
4.0370581072
 30
0.0
 10
5.5093964799
 20
4.0370031748
 30
0.0
 10
5.5090601984
 20
4.0370294548
 30
0.0
 10
5.5087408984
 20
4.0371201835
 30
0.0
 10
5.5083334415
 20
4.0373247131
 30
0.0
 10
5.5080693008
 20
4.0375566424
 30
0.0
 10
5.5079120119
 20
4.0377306437
 30
0.0
  0
SPLINE
  5
450
100
AcDbEntity
  8
0
100
AcDbSpline
 62
7
  6
CONTINUOUS
 70
0
 71
3
 72
11
 73
7
 74
0
 42
0.0000001
 43
0.0000001
 44
0.0000000001
 40
0.0
 40
0.0
 40
0.0
 40
0.0
 40
0.2628960293
 40
0.5089761999
 40
0.7494336689
 40
1.0
 40
1.0
 40
1.0
 40
1.0
 10
5.5013601283
 20
4.0496484756
 30
0.0
 10
5.5013135069
 20
4.049816725
 30
0.0
 10
5.5012509075
 20
4.0501515295
 30
0.0
 10
5.5012722318
 20
4.0506540828
 30
0.0
 10
5.5014288204
 20
4.051125
 30
0.0
 10
5.5016199424
 20
4.0513953723
 30
0.0
 10
5.5017321944
 20
4.0515182088
 30
0.0
  0
SPLINE
  5
451
100
AcDbEntity
  8
0
100
AcDbSpline
 62
7
  6
CONTINUOUS
 70
0
 71
3
 72
15
 73
11
 74
0
 42
0.0000001
 43
0.0000001
 44
0.0000000001
 40
0.0
 40
0.0
 40
0.0
 40
0.0
 40
0.0833792535
 40
0.1778572119
 40
0.2851290998
 40
0.4057161323
 40
0.5389682232
 40
0.6835692281
 40
0.837875599
 40
1.0
 40
1.0
 40
1.0
 40
1.0
 10
5.5017321944
 20
4.0515182088
 30
0.0
 10
5.5018507434
 20
4.0516479362
 30
0.0
 10
5.5021409564
 20
4.0518914528
 30
0.0
 10
5.5026732751
 20
4.0521765511
 30
0.0
 10
5.5033165984
 20
4.0524016445
 30
0.0
 10
5.5040618106
 20
4.0525632382
 30
0.0
 10
5.50489637
 20
4.0526647007
 30
0.0
 10
5.5058068839
 20
4.0527074825
 30
0.0
 10
5.5067789489
 20
4.0526955812
 30
0.0
 10
5.5074449198
 20
4.0526554888
 30
0.0
 10
5.5077855353
 20
4.0526282313
 30
0.0
  0
SPLINE
  5
452
100
AcDbEntity
  8
0
100
AcDbSpline
 62
7
  6
CONTINUOUS
 70
0
 71
3
 72
13
 73
9
 74
0
 42
0.0000001
 43
0.0000001
 44
0.0000000001
 40
0.0
 40
0.0
 40
0.0
 40
0.0
 40
0.2978699162
 40
0.5685431632
 40
0.6911311863
 40
0.8040987844
 40
0.9069977173
 40
1.0
 40
1.0
 40
1.0
 40
1.0
 10
5.5015096975
 20
4.0659650654
 30
0.0
 10
5.5011964326
 20
4.0655180869
 30
0.0
 10
5.5005718168
 20
4.0646831654
 30
0.0
 10
5.4997267109
 20
4.0637362491
 30
0.0
 10
5.4990443075
 20
4.0631068641
 30
0.0
 10
5.4985568763
 20
4.0627221025
 30
0.0
 10
5.4980800989
 20
4.0624153426
 30
0.0
 10
5.4977563949
 20
4.0622573128
 30
0.0
 10
5.4975980256
 20
4.0621943676
 30
0.0
  0
SPLINE
  5
453
100
AcDbEntity
  8
0
100
AcDbSpline
 62
7
  6
CONTINUOUS
 70
0
 71
3
 72
13
 73
9
 74
0
 42
0.0000001
 43
0.0000001
 44
0.0000000001
 40
0.0
 40
0.0
 40
0.0
 40
0.0
 40
0.2758453703
 40
0.3990829314
 40
0.5167987499
 40
0.6326788483
 40
0.7502437435
 40
1.0
 40
1.0
 40
1.0
 40
1.0
 10
5.4975980256
 20
4.0621943676
 30
0.0
 10
5.497357287
 20
4.0620986841
 30
0.0
 10
5.4969874114
 20
4.0619995346
 30
0.0
 10
5.4964996344
 20
4.0620057862
 30
0.0
 10
5.4961692982
 20
4.0620740062
 30
0.0
 10
5.4958638873
 20
4.0622040384
 30
0.0
 10
5.4954852777
 20
4.0624580231
 30
0.0
 10
5.4952522883
 20
4.0627212292
 30
0.0
 10
5.4951180478
 20
4.062913572
 30
0.0
  0
SPLINE
  5
454
100
AcDbEntity
  8
0
100
AcDbSpline
 62
7
  6
CONTINUOUS
 70
0
 71
3
 72
11
 73
7
 74
0
 42
0.0000001
 43
0.0000001
 44
0.0000000001
 40
0.0
 40
0.0
 40
0.0
 40
0.0
 40
0.2628960293
 40
0.5089761999
 40
0.7494336689
 40
1.0
 40
1.0
 40
1.0
 40
1.0
 10
5.4901115282
 20
4.075558597
 30
0.0
 10
5.4900863616
 20
4.0757313628
 30
0.0
 10
5.490066218
 20
4.0760713731
 30
0.0
 10
5.4901503607
 20
4.076567291
 30
0.0
 10
5.4903647362
 20
4.0770148691
 30
0.0
 10
5.4905882378
 20
4.0772591555
 30
0.0
 10
5.4907150001
 20
4.0773669545
 30
0.0
  0
SPLINE
  5
455
100
AcDbEntity
  8
0
100
AcDbSpline
 62
7
  6
CONTINUOUS
 70
0
 71
3
 72
15
 73
11
 74
0
 42
0.0000001
 43
0.0000001
 44
0.0000000001
 40
0.0
 40
0.0
 40
0.0
 40
0.0
 40
0.0833792535
 40
0.1778572119
 40
0.2851290998
 40
0.4057161323
 40
0.5389682232
 40
0.6835692281
 40
0.837875599
 40
1.0
 40
1.0
 40
1.0
 40
1.0
 10
5.4907150001
 20
4.0773669545
 30
0.0
 10
5.4908488735
 20
4.0774808008
 30
0.0
 10
5.4911673188
 20
4.0776860239
 30
0.0
 10
5.4917311723
 20
4.0779021569
 30
0.0
 10
5.4923976345
 20
4.0780448456
 30
0.0
 10
5.4931572235
 20
4.0781117652
 30
0.0
 10
5.4939979189
 20
4.0781078296
 30
0.0
 10
5.494906615
 20
4.0780361564
 30
0.0
 10
5.4958695233
 20
4.0779025169
 30
0.0
 10
5.496525218
 20
4.0777792723
 30
0.0
 10
5.4968597313
 20
4.0777095393
 30
0.0
  0
SPLINE
  5
456
100
AcDbEntity
  8
0
100
AcDbSpline
 62
7
  6
CONTINUOUS
 70
0
 71
3
 72
13
 73
9
 74
0
 42
0.0000001
 43
0.0000001
 44
0.0000000001
 40
0.0
 40
0.0
 40
0.0
 40
0.0
 40
0.2978699162
 40
0.5685431632
 40
0.6911311863
 40
0.8040987844
 40
0.9069977173
 40
1.0
 40
1.0
 40
1.0
 40
1.0
 10
5.4923049289
 20
4.0917277796
 30
0.0
 10
5.4919381129
 20
4.0913235881
 30
0.0
 10
5.4912137791
 20
4.0905735354
 30
0.0
 10
5.490256657
 20
4.0897400057
 30
0.0
 10
5.4895007517
 20
4.0892011113
 30
0.0
 10
5.4889689406
 20
4.088880475
 30
0.0
 10
5.4884574755
 20
4.0886358901
 30
0.0
 10
5.4881165177
 20
4.0885196772
 30
0.0
 10
5.487951508
 20
4.0884770774
 30
0.0
  0
SPLINE
  5
457
100
AcDbEntity
  8
0
100
AcDbSpline
 62
7
  6
CONTINUOUS
 70
0
 71
3
 72
13
 73
9
 74
0
 42
0.0000001
 43
0.0000001
 44
0.0000000001
 40
0.0
 40
0.0
 40
0.0
 40
0.0
 40
0.2758453703
 40
0.3990829314
 40
0.5167987499
 40
0.6326788483
 40
0.7502437435
 40
1.0
 40
1.0
 40
1.0
 40
1.0
 10
5.487951508
 20
4.0884770774
 30
0.0
 10
5.4877006754
 20
4.0884123209
 30
0.0
 10
5.4873212896
 20
4.0883603109
 30
0.0
 10
5.4868381424
 20
4.0884276479
 30
0.0
 10
5.4865189613
 20
4.0885367321
 30
0.0
 10
5.486232256
 20
4.088704017
 30
0.0
 10
5.4858884646
 20
4.0890034513
 30
0.0
 10
5.4856903009
 20
4.0892937833
 30
0.0
 10
5.4855812258
 20
4.0895014342
 30
0.0
  0
SPLINE
  5
458
100
AcDbEntity
  8
0
100
AcDbSpline
 62
7
  6
CONTINUOUS
 70
0
 71
3
 72
11
 73
7
 74
0
 42
0.0000001
 43
0.0000001
 44
0.0000000001
 40
0.0
 40
0.0
 40
0.0
 40
0.0
 40
0.2628960293
 40
0.5089761999
 40
0.7494336689
 40
1.0
 40
1.0
 40
1.0
 40
1.0
 10
5.482199026
 20
4.1026742327
 30
0.0
 10
5.4821957111
 20
4.1028487905
 30
0.0
 10
5.4822183409
 20
4.1031886443
 30
0.0
 10
5.4823639752
 20
4.1036701059
 30
0.0
 10
5.4826327566
 20
4.1040872863
 30
0.0
 10
5.4828851131
 20
4.1043016342
 30
0.0
 10
5.4830243866
 20
4.1043926957
 30
0.0
  0
SPLINE
  5
459
100
AcDbEntity
  8
0
100
AcDbSpline
 62
7
  6
CONTINUOUS
 70
0
 71
3
 72
15
 73
11
 74
0
 42
0.0000001
 43
0.0000001
 44
0.0000000001
 40
0.0
 40
0.0
 40
0.0
 40
0.0
 40
0.0833792535
 40
0.1778572119
 40
0.2851290998
 40
0.4057161323
 40
0.5389682232
 40
0.6835692281
 40
0.837875599
 40
1.0
 40
1.0
 40
1.0
 40
1.0
 10
5.4830243866
 20
4.1043926957
 30
0.0
 10
5.4831714731
 20
4.1044888655
 30
0.0
 10
5.4835131287
 20
4.1046525586
 30
0.0
 10
5.4840996247
 20
4.1047963177
 30
0.0
 10
5.4847787152
 20
4.1048543514
 30
0.0
 10
5.4855407019
 20
4.1048255416
 30
0.0
 10
5.4863742748
 20
4.10471627
 30
0.0
 10
5.4872668226
 20
4.1045312721
 30
0.0
 10
5.4882053887
 20
4.104278002
 30
0.0
 10
5.4888404663
 20
4.1040735489
 30
0.0
 10
5.489163602
 20
4.1039624401
 30
0.0
  0
SPLINE
  5
45A
100
AcDbEntity
  8
0
100
AcDbSpline
 62
7
  6
CONTINUOUS
 70
0
 71
3
 72
13
 73
9
 74
0
 42
0.0000001
 43
0.0000001
 44
0.0000000001
 40
0.0
 40
0.0
 40
0.0
 40
0.0
 40
0.2978699162
 40
0.5685431632
 40
0.6911311863
 40
0.8040987844
 40
0.9069977173
 40
1.0
 40
1.0
 40
1.0
 40
1.0
 10
5.486401667
 20
4.1184410105
 30
0.0
 10
5.4859870849
 20
4.1180859804
 30
0.0
 10
5.485174456
 20
4.1174326252
 30
0.0
 10
5.4841204121
 20
4.1167256273
 30
0.0
 10
5.4833029261
 20
4.1162857224
 30
0.0
 10
5.4827351221
 20
4.1160342679
 30
0.0
 10
5.4821970354
 20
4.1158557152
 30
0.0
 10
5.4818442008
 20
4.1157831521
 30
0.0
 10
5.4816751531
 20
4.1157615693
 30
0.0
  0
SPLINE
  5
45B
100
AcDbEntity
  8
0
100
AcDbSpline
 62
7
  6
CONTINUOUS
 70
0
 71
3
 72
13
 73
9
 74
0
 42
0.0000001
 43
0.0000001
 44
0.0000000001
 40
0.0
 40
0.0
 40
0.0
 40
0.0
 40
0.2758453703
 40
0.3990829314
 40
0.5167987499
 40
0.6326788483
 40
0.7502437435
 40
1.0
 40
1.0
 40
1.0
 40
1.0
 10
5.4816751531
 20
4.1157615693
 30
0.0
 10
5.4814181822
 20
4.1157287612
 30
0.0
 10
5.4810352694
 20
4.1157247109
 30
0.0
 10
5.4805643715
 20
4.1158520713
 30
0.0
 10
5.4802613792
 20
4.1160002994
 30
0.0
 10
5.479997901
 20
4.1162021989
 30
0.0
 10
5.4796943495
 20
4.1165423606
 30
0.0
 10
5.4795341366
 20
4.1168552397
 30
0.0
 10
5.4794519472
 20
4.117074924
 30
0.0
  0
SPLINE
  5
45C
100
AcDbEntity
  8
0
100
AcDbSpline
 62
7
  6
CONTINUOUS
 70
0
 71
3
 72
11
 73
7
 74
0
 42
0.0000001
 43
0.0000001
 44
0.0000000001
 40
0.0
 40
0.0
 40
0.0
 40
0.0
 40
0.2653296265
 40
0.5157061213
 40
0.7574525131
 40
1.0
 40
1.0
 40
1.0
 40
1.0
 10
5.4777474065
 20
4.1305677531
 30
0.0
 10
5.4777626534
 20
4.1307101377
 30
0.0
 10
5.4778119107
 20
4.1309854705
 30
0.0
 10
5.4779546152
 20
4.1313712333
 30
0.0
 10
5.4781686136
 20
4.1317088786
 30
0.0
 10
5.4783584576
 20
4.1318926752
 30
0.0
 10
5.4784622307
 20
4.1319724672
 30
0.0
  0
SPLINE
  5
45D
100
AcDbEntity
  8
0
100
AcDbSpline
 62
7
  6
CONTINUOUS
 70
0
 71
3
 72
15
 73
11
 74
0
 42
0.0000001
 43
0.0000001
 44
0.0000000001
 40
0.0
 40
0.0
 40
0.0
 40
0.0
 40
0.0802029249
 40
0.1704823328
 40
0.2743743234
 40
0.3932515171
 40
0.5269284074
 40
0.6739784003
 40
0.8324396163
 40
1.0
 40
1.0
 40
1.0
 40
1.0
 10
5.4784622307
 20
4.1319724672
 30
0.0
 10
5.4786041593
 20
4.1320815974
 30
0.0
 10
5.4789434696
 20
4.1322670036
 30
0.0
 10
5.4795441201
 20
4.1324107949
 30
0.0
 10
5.4802459678
 20
4.1324358081
 30
0.0
 10
5.4810385816
 20
4.1323441058
 30
0.0
 10
5.4819088298
 20
4.1321419025
 30
0.0
 10
5.4828421463
 20
4.1318387419
 30
0.0
 10
5.4838226422
 20
4.1314449097
 30
0.0
 10
5.4844828396
 20
4.1311379053
 30
0.0
 10
5.48481852
 20
4.1309729097
 30
0.0
  0
SPLINE
  5
45E
100
AcDbEntity
  8
0
100
AcDbSpline
 62
7
  6
CONTINUOUS
 70
0
 71
3
 72
20
 73
16
 74
0
 42
0.0000001
 43
0.0000001
 44
0.0000000001
 40
0.0
 40
0.0
 40
0.0
 40
0.0
 40
0.1819491328
 40
0.3501595373
 40
0.4278852065
 40
0.5007819761
 40
0.6308163765
 40
0.6879879965
 40
0.7402091347
 40
0.7880187235
 40
0.8323834953
 40
0.8745134232
 40
0.9156888402
 40
0.9571680284
 40
1.0
 40
1.0
 40
1.0
 40
1.0
 10
5.4838930097
 20
4.1456834744
 30
0.0
 10
5.4834947096
 20
4.1454210902
 30
0.0
 10
5.4827141493
 20
4.1449369178
 30
0.0
 10
5.4817194538
 20
4.144415326
 30
0.0
 10
5.4809511377
 20
4.1440850199
 30
0.0
 10
5.4802592226
 20
4.1438348211
 30
0.0
 10
5.4795941324
 20
4.1436669768
 30
0.0
 10
5.4789678418
 20
4.1436104509
 30
0.0
 10
5.4785547218
 20
4.1436232572
 30
0.0
 10
5.4781806249
 20
4.1436906433
 30
0.0
 10
5.4778479688
 20
4.1438115415
 30
0.0
 10
5.4775583144
 20
4.1439832749
 30
0.0
 10
5.4773132873
 20
4.144203147
 30
0.0
 10
5.4771135675
 20
4.1444667404
 30
0.0
 10
5.4770115885
 20
4.1446640452
 30
0.0
 10
5.4769674042
 20
4.1447672647
 30
0.0
  0
LINE
  5
45F
100
AcDbEntity
  8
0
100
AcDbLine
 62
7
  6
CONTINUOUS
 10
5.4769674042
 20
4.1447672647
 11
5.4768268745
 21
4.1451991908
  0
SPLINE
  5
460
100
AcDbEntity
  8
0
100
AcDbSpline
 62
7
  6
CONTINUOUS
 70
0
 71
3
 72
13
 73
9
 74
0
 42
0.0000001
 43
0.0000001
 44
0.0000000001
 40
0.0
 40
0.0
 40
0.0
 40
0.0
 40
0.2573131703
 40
0.3788207719
 40
0.4977437313
 40
0.6165886982
 40
0.7381721411
 40
1.0
 40
1.0
 40
1.0
 40
1.0
 10
5.4768268745
 20
4.1587992605
 30
0.0
 10
5.4768740773
 20
4.1589987545
 30
0.0
 10
5.4769740907
 20
4.159287874
 30
0.0
 10
5.4771807182
 20
4.1596277989
 30
0.0
 10
5.4773664563
 20
4.1598473047
 30
0.0
 10
5.4775867514
 20
4.1600324172
 30
0.0
 10
5.4779336095
 20
4.1602350799
 30
0.0
 10
5.4782335023
 20
4.1603200571
 30
0.0
 10
5.4784398049
 20
4.1603509256
 30
0.0
  0
SPLINE
  5
461
100
AcDbEntity
  8
0
100
AcDbSpline
 62
7
  6
CONTINUOUS
 70
0
 71
3
 72
14
 73
10
 74
0
 42
0.0000001
 43
0.0000001
 44
0.0000000001
 40
0.0
 40
0.0
 40
0.0
 40
0.0
 40
0.0879138119
 40
0.1866531741
 40
0.2969512276
 40
0.4187261567
 40
0.5511665106
 40
0.6931308996
 40
1.0
 40
1.0
 40
1.0
 40
1.0
 10
5.4784398049
 20
4.1603509256
 30
0.0
 10
5.4786115633
 20
4.1603766253
 30
0.0
 10
5.4789822247
 20
4.1603931443
 30
0.0
 10
5.4795669228
 20
4.1603286669
 30
0.0
 10
5.4802040646
 20
4.1601772639
 30
0.0
 10
5.4808858929
 20
4.15994304
 30
0.0
 10
5.4816050755
 20
4.1596327155
 30
0.0
 10
5.4826289411
 20
4.1591116578
 30
0.0
 10
5.4833867742
 20
4.1586484647
 30
0.0
 10
5.4838930097
 20
4.1583149769
 30
0.0
  0
SPLINE
  5
462
100
AcDbEntity
  8
0
100
AcDbSpline
 62
7
  6
CONTINUOUS
 70
0
 71
3
 72
20
 73
16
 74
0
 42
0.0000001
 43
0.0000001
 44
0.0000000001
 40
0.0
 40
0.0
 40
0.0
 40
0.0
 40
0.1819491328
 40
0.3501595373
 40
0.4278852065
 40
0.5007819761
 40
0.6308163765
 40
0.6879879965
 40
0.7402091347
 40
0.7880187235
 40
0.8323834953
 40
0.8745134232
 40
0.9156888402
 40
0.9571680284
 40
1.0
 40
1.0
 40
1.0
 40
1.0
 10
5.48481852
 20
4.1730255416
 30
0.0
 10
5.4843904751
 20
4.1728151466
 30
0.0
 10
5.4835553869
 20
4.1724326222
 30
0.0
 10
5.4825031621
 20
4.1720398116
 30
0.0
 10
5.481699506
 20
4.1718084057
 30
0.0
 10
5.4809816887
 20
4.1716468997
 30
0.0
 10
5.4803008065
 20
4.1715637368
 30
0.0
 10
5.4796723698
 20
4.1715861517
 30
0.0
 10
5.4792641123
 20
4.1716506347
 30
0.0
 10
5.478901411
 20
4.1717643762
 30
0.0
 10
5.4785865307
 20
4.171926014
 30
0.0
 10
5.4783206842
 20
4.1721326965
 30
0.0
 10
5.4781051464
 20
4.1723815449
 30
0.0
 10
5.4779400385
 20
4.1726680913
 30
0.0
 10
5.4778635925
 20
4.1728766216
 30
0.0
 10
5.4778326934
 20
4.172984565
 30
0.0
  0
LINE
  5
463
100
AcDbEntity
  8
0
100
AcDbLine
 62
7
  6
CONTINUOUS
 10
5.4778326934
 20
4.172984565
 11
5.4777474065
 21
4.1734306983
  0
SPLINE
  5
464
100
AcDbEntity
  8
0
100
AcDbSpline
 62
7
  6
CONTINUOUS
 70
0
 71
3
 72
13
 73
9
 74
0
 42
0.0000001
 43
0.0000001
 44
0.0000000001
 40
0.0
 40
0.0
 40
0.0
 40
0.0
 40
0.2497597195
 40
0.3673262733
 40
0.4832077341
 40
0.6009241445
 40
0.7241609928
 40
1.0
 40
1.0
 40
1.0
 40
1.0
 10
5.4794519472
 20
4.1869235274
 30
0.0
 10
5.4795341322
 20
4.1871431999
 30
0.0
 10
5.4796943336
 20
4.1874560628
 30
0.0
 10
5.4799978601
 20
4.1877962135
 30
0.0
 10
5.4802613159
 20
4.1879981106
 30
0.0
 10
5.4805642814
 20
4.188146344
 30
0.0
 10
5.4810351339
 20
4.1882737218
 30
0.0
 10
5.4814180144
 20
4.1882696968
 30
0.0
 10
5.481674964
 20
4.1882369066
 30
0.0
  0
SPLINE
  5
465
100
AcDbEntity
  8
0
100
AcDbSpline
 62
7
  6
CONTINUOUS
 70
0
 71
3
 72
13
 73
9
 74
0
 42
0.0000001
 43
0.0000001
 44
0.0000000001
 40
0.0
 40
0.0
 40
0.0
 40
0.0
 40
0.0929998357
 40
0.1958968639
 40
0.308863252
 40
0.4314508327
 40
0.7021259175
 40
1.0
 40
1.0
 40
1.0
 40
1.0
 10
5.481674964
 20
4.1882369066
 30
0.0
 10
5.4818440143
 20
4.1882153336
 30
0.0
 10
5.4821968572
 20
4.1881427864
 30
0.0
 10
5.4827349586
 20
4.1879642477
 30
0.0
 10
5.4833027823
 20
4.1877128003
 30
0.0
 10
5.4841203043
 20
4.1872728933
 30
0.0
 10
5.4851743977
 20
4.1865658711
 30
0.0
 10
5.4859870647
 20
4.1859124881
 30
0.0
 10
5.486401667
 20
4.1855574409
 30
0.0
  0
SPLINE
  5
466
100
AcDbEntity
  8
0
100
AcDbSpline
 62
7
  6
CONTINUOUS
 70
0
 71
3
 72
20
 73
16
 74
0
 42
0.0000001
 43
0.0000001
 44
0.0000000001
 40
0.0
 40
0.0
 40
0.0
 40
0.0
 40
0.1819491328
 40
0.3501595373
 40
0.4278852065
 40
0.5007819761
 40
0.6308163765
 40
0.6879879965
 40
0.7402091347
 40
0.7880187235
 40
0.8323834953
 40
0.8745134232
 40
0.9156888402
 40
0.9571680284
 40
1.0
 40
1.0
 40
1.0
 40
1.0
 10
5.489163602
 20
4.2000360112
 30
0.0
 10
5.4887125629
 20
4.1998809234
 30
0.0
 10
5.4878361166
 20
4.1996060797
 30
0.0
 10
5.4867429567
 20
4.1993482453
 30
0.0
 10
5.4859166348
 20
4.1992193889
 30
0.0
 10
5.4851842357
 20
4.1991491228
 30
0.0
 10
5.4844982993
 20
4.1991519528
 30
0.0
 10
5.4838776274
 20
4.1992529549
 30
0.0
 10
5.483480671
 20
4.1993680977
 30
0.0
 10
5.4831350853
 20
4.1995264009
 30
0.0
 10
5.4828429465
 20
4.199726229
 30
0.0
 10
5.4826051005
 20
4.1999646012
 30
0.0
 10
5.4824224512
 20
4.2002385014
 30
0.0
 10
5.482294559
 20
4.2005434818
 30
0.0
 10
5.4822448516
 20
4.200759949
 30
0.0
 10
5.4822277251
 20
4.2008709139
 30
0.0
  0
LINE
  5
467
100
AcDbEntity
  8
0
100
AcDbLine
 62
7
  6
CONTINUOUS
 10
5.4822277251
 20
4.2008709139
 11
5.482199026
 21
4.2013242186
  0
SPLINE
  5
468
100
AcDbEntity
  8
0
100
AcDbSpline
 62
7
  6
CONTINUOUS
 70
0
 71
3
 72
13
 73
9
 74
0
 42
0.0000001
 43
0.0000001
 44
0.0000000001
 40
0.0
 40
0.0
 40
0.0
 40
0.0
 40
0.2497597195
 40
0.3673262733
 40
0.4832077341
 40
0.6009241445
 40
0.7241609928
 40
1.0
 40
1.0
 40
1.0
 40
1.0
 10
5.4855812258
 20
4.2144970171
 30
0.0
 10
5.485690295
 20
4.2147046569
 30
0.0
 10
5.4858884453
 20
4.2149949743
 30
0.0
 10
5.4862322105
 20
4.2152944008
 30
0.0
 10
5.4865188933
 20
4.2154616861
 30
0.0
 10
5.4868380484
 20
4.215570779
 30
0.0
 10
5.4873211528
 20
4.2156381389
 30
0.0
 10
5.4877005097
 20
4.215586158
 30
0.0
 10
5.4879513235
 20
4.2155214221
 30
0.0
  0
SPLINE
  5
469
100
AcDbEntity
  8
0
100
AcDbSpline
 62
7
  6
CONTINUOUS
 70
0
 71
3
 72
13
 73
9
 74
0
 42
0.0000001
 43
0.0000001
 44
0.0000000001
 40
0.0
 40
0.0
 40
0.0
 40
0.0
 40
0.0929998357
 40
0.1958968639
 40
0.308863252
 40
0.4314508327
 40
0.7021259175
 40
1.0
 40
1.0
 40
1.0
 40
1.0
 10
5.4879513235
 20
4.2155214221
 30
0.0
 10
5.488116337
 20
4.2154788315
 30
0.0
 10
5.488457305
 20
4.2153626335
 30
0.0
 10
5.4889687865
 20
4.2151180607
 30
0.0
 10
5.489500618
 20
4.2147974288
 30
0.0
 10
5.4902565586
 20
4.2142585279
 30
0.0
 10
5.4912137268
 20
4.2134249679
 30
0.0
 10
5.4919380951
 20
4.2126748828
 30
0.0
 10
5.4923049289
 20
4.2122706717
 30
0.0
  0
SPLINE
  5
46A
100
AcDbEntity
  8
0
100
AcDbSpline
 62
7
  6
CONTINUOUS
 70
0
 71
3
 72
20
 73
16
 74
0
 42
0.0000001
 43
0.0000001
 44
0.0000000001
 40
0.0
 40
0.0
 40
0.0
 40
0.0
 40
0.1819491328
 40
0.3501595373
 40
0.4278852065
 40
0.5007819761
 40
0.6308163765
 40
0.6879879965
 40
0.7402091347
 40
0.7880187235
 40
0.8323834953
 40
0.8745134232
 40
0.9156888402
 40
0.9571680284
 40
1.0
 40
1.0
 40
1.0
 40
1.0
 10
5.4968597313
 20
4.226288912
 30
0.0
 10
5.4963928111
 20
4.2261915773
 30
0.0
 10
5.4954888288
 20
4.2260287486
 30
0.0
 10
5.4943719736
 20
4.2259099566
 30
0.0
 10
5.4935360175
 20
4.2258856819
 30
0.0
 10
5.4928005868
 20
4.2259077638
 30
0.0
 10
5.492120414
 20
4.2259965422
 30
0.0
 10
5.4915172952
 20
4.2261745386
 30
0.0
 10
5.4911379001
 20
4.2263385253
 30
0.0
 10
5.4908148801
 20
4.2265388936
 30
0.0
 10
5.49055009
 20
4.2267737607
 30
0.0
 10
5.4903439954
 20
4.2270400633
 30
0.0
 10
5.4901971152
 20
4.2273346957
 30
0.0
 10
5.4901084557
 20
4.2276533004
 30
0.0
 10
5.4900862708
 20
4.2278742907
 30
0.0
 10
5.4900831869
 20
4.2279865271
 30
0.0
  0
LINE
  5
46B
100
AcDbEntity
  8
0
100
AcDbLine
 62
7
  6
CONTINUOUS
 10
5.4900831869
 20
4.2279865271
 11
5.4901115282
 21
4.2284398543
  0
SPLINE
  5
46C
100
AcDbEntity
  8
0
100
AcDbSpline
 62
7
  6
CONTINUOUS
 70
0
 71
3
 72
13
 73
9
 74
0
 42
0.0000001
 43
0.0000001
 44
0.0000000001
 40
0.0
 40
0.0
 40
0.0
 40
0.0
 40
0.2497597195
 40
0.3673262733
 40
0.4832077341
 40
0.6009241445
 40
0.7241609928
 40
1.0
 40
1.0
 40
1.0
 40
1.0
 10
5.4951180478
 20
4.2410848793
 30
0.0
 10
5.4952522812
 20
4.2412772119
 30
0.0
 10
5.4954852553
 20
4.2415404052
 30
0.0
 10
5.495863838
 20
4.2417943854
 30
0.0
 10
5.4961692267
 20
4.2419244208
 30
0.0
 10
5.4964995381
 20
4.2419926527
 30
0.0
 10
5.4969872755
 20
4.2419989324
 30
0.0
 10
5.4973571261
 20
4.2418998154
 30
0.0
 10
5.4975978486
 20
4.2418041546
 30
0.0
  0
SPLINE
  5
46D
100
AcDbEntity
  8
0
100
AcDbSpline
 62
7
  6
CONTINUOUS
 70
0
 71
3
 72
13
 73
9
 74
0
 42
0.0000001
 43
0.0000001
 44
0.0000000001
 40
0.0
 40
0.0
 40
0.0
 40
0.0
 40
0.0929998357
 40
0.1958968639
 40
0.308863252
 40
0.4314508327
 40
0.7021259175
 40
1.0
 40
1.0
 40
1.0
 40
1.0
 10
5.4975978486
 20
4.2418041546
 30
0.0
 10
5.4977562229
 20
4.2417412182
 30
0.0
 10
5.4980799388
 20
4.2415832018
 30
0.0
 10
5.498556734
 20
4.2412764518
 30
0.0
 10
5.499044186
 20
4.2408916921
 30
0.0
 10
5.4997266236
 20
4.2402622961
 30
0.0
 10
5.5005717714
 20
4.239315344
 30
0.0
 10
5.5011964173
 20
4.2384803862
 30
0.0
 10
5.5015096975
 20
4.2380333859
 30
0.0
  0
SPLINE
  5
46E
100
AcDbEntity
  8
0
100
AcDbSpline
 62
7
  6
CONTINUOUS
 70
0
 71
3
 72
20
 73
16
 74
0
 42
0.0000001
 43
0.0000001
 44
0.0000000001
 40
0.0
 40
0.0
 40
0.0
 40
0.0
 40
0.1819491328
 40
0.3501595373
 40
0.4278852065
 40
0.5007819761
 40
0.6308163765
 40
0.6879879965
 40
0.7402091347
 40
0.7880187235
 40
0.8323834953
 40
0.8745134232
 40
0.9156888402
 40
0.9571680284
 40
1.0
 40
1.0
 40
1.0
 40
1.0
 10
5.5077855353
 20
4.25137022
 30
0.0
 10
5.5073100976
 20
4.2513321735
 30
0.0
 10
5.5063928356
 20
4.2512839278
 30
0.0
 10
5.5052698985
 20
4.2513060516
 30
0.0
 10
5.5044374918
 20
4.2513867413
 30
0.0
 10
5.5037106278
 20
4.2515008231
 30
0.0
 10
5.5030469452
 20
4.2516741496
 30
0.0
 10
5.502470891
 20
4.2519263334
 30
0.0
 10
5.5021150406
 20
4.2521365777
 30
0.0
 10
5.5018196805
 20
4.2523758512
 30
0.0
 10
5.501586415
 20
4.2526420534
 30
0.0
 10
5.5014153221
 20
4.2529320866
 30
0.0
 10
5.5013065274
 20
4.2532428047
 30
0.0
 10
5.5012584987
 20
4.2535700091
 30
0.0
 10
5.5012641861
 20
4.2537920373
 30
0.0
 10
5.5012751935
 20
4.2539037752
 30
0.0
  0
LINE
  5
46F
100
AcDbEntity
  8
0
100
AcDbLine
 62
7
  6
CONTINUOUS
 10
5.5012751935
 20
4.2539037752
 11
5.5013601283
 21
4.2543499757
  0
SPLINE
  5
470
100
AcDbEntity
  8
0
100
AcDbSpline
 62
7
  6
CONTINUOUS
 70
0
 71
3
 72
13
 73
9
 74
0
 42
0.0000001
 43
0.0000001
 44
0.0000000001
 40
0.0
 40
0.0
 40
0.0
 40
0.0
 40
0.2497597195
 40
0.3673262733
 40
0.4832077341
 40
0.6009241445
 40
0.7241609928
 40
1.0
 40
1.0
 40
1.0
 40
1.0
 10
5.5079120119
 20
4.2662678076
 30
0.0
 10
5.5080692924
 20
4.2664417996
 30
0.0
 10
5.5083334164
 20
4.2666737182
 30
0.0
 10
5.508740846
 20
4.2668782467
 30
0.0
 10
5.5090601243
 20
4.2669689813
 30
0.0
 10
5.5093963828
 20
4.2669952762
 30
0.0
 10
5.5098810614
 20
4.2669403767
 30
0.0
 10
5.510235573
 20
4.2667956867
 30
0.0
 10
5.5104624078
 20
4.2666706097
 30
0.0
  0
SPLINE
  5
471
100
AcDbEntity
  8
0
100
AcDbSpline
 62
7
  6
CONTINUOUS
 70
0
 71
3
 72
13
 73
9
 74
0
 42
0.0000001
 43
0.0000001
 44
0.0000000001
 40
0.0
 40
0.0
 40
0.0
 40
0.0
 40
0.0929998357
 40
0.1958968639
 40
0.308863252
 40
0.4314508327
 40
0.7021259175
 40
1.0
 40
1.0
 40
1.0
 40
1.0
 10
5.5104624078
 20
4.2666706097
 30
0.0
 10
5.5106116452
 20
4.26658832
 30
0.0
 10
5.5109130038
 20
4.2663909772
 30
0.0
 10
5.5113475934
 20
4.2660268878
 30
0.0
 10
5.5117829785
 20
4.2655840681
 30
0.0
 10
5.5123811507
 20
4.264874103
 30
0.0
 10
5.5131009497
 20
4.2638286927
 30
0.0
 10
5.5136160221
 20
4.2629220299
 30
0.0
 10
5.513870808
 20
4.26243929
 30
0.0
  0
SPLINE
  5
472
100
AcDbEntity
  8
0
100
AcDbSpline
 62
7
  6
CONTINUOUS
 70
0
 71
3
 72
20
 73
16
 74
0
 42
0.0000001
 43
0.0000001
 44
0.0000000001
 40
0.0
 40
0.0
 40
0.0
 40
0.0
 40
0.1819491328
 40
0.3501595373
 40
0.4278852065
 40
0.5007819761
 40
0.6308163765
 40
0.6879879965
 40
0.7402091347
 40
0.7880187235
 40
0.8323834953
 40
0.8745134232
 40
0.9156888402
 40
0.9571680284
 40
1.0
 40
1.0
 40
1.0
 40
1.0
 10
5.5217687074
 20
4.2748843882
 30
0.0
 10
5.5212922502
 20
4.2749062298
 30
0.0
 10
5.5203761743
 20
4.2749733279
 30
0.0
 10
5.5192648648
 20
4.2751360186
 30
0.0
 10
5.5184491349
 20
4.2753204003
 30
0.0
 10
5.5177423007
 20
4.2755246827
 30
0.0
 10
5.5171055751
 20
4.275779824
 30
0.0
 10
5.5165656702
 20
4.2761022179
 30
0.0
 10
5.5162389764
 20
4.2763554043
 30
0.0
 10
5.5159759342
 20
4.2766298095
 30
0.0
 10
5.5157778721
 20
4.2769231485
 30
0.0
 10
5.5156444791
 20
4.2772323383
 30
0.0
 10
5.5155754855
 20
4.2775542419
 30
0.0
 10
5.5155688451
 20
4.2778848858
 30
0.0
 10
5.5156023152
 20
4.2781044504
 30
0.0
 10
5.5156272403
 20
4.2782139277
 30
0.0
  0
LINE
  5
473
100
AcDbEntity
  8
0
100
AcDbLine
 62
7
  6
CONTINUOUS
 10
5.5156272403
 20
4.2782139277
 11
5.5157674291
 21
4.2786459646
  0
SPLINE
  5
474
100
AcDbEntity
  8
0
100
AcDbSpline
 62
7
  6
CONTINUOUS
 70
0
 71
3
 72
13
 73
9
 74
0
 42
0.0000001
 43
0.0000001
 44
0.0000000001
 40
0.0
 40
0.0
 40
0.0
 40
0.0
 40
0.2497597195
 40
0.3673262733
 40
0.4832077341
 40
0.6009241445
 40
0.7241609928
 40
1.0
 40
1.0
 40
1.0
 40
1.0
 10
5.5237613495
 20
4.2896486521
 30
0.0
 10
5.5239391969
 20
4.2898015596
 30
0.0
 10
5.5242303052
 20
4.2899985459
 30
0.0
 10
5.5246601564
 20
4.2901503972
 30
0.0
 10
5.5249882891
 20
4.2902004002
 30
0.0
 10
5.5253251918
 20
4.2901843434
 30
0.0
 10
5.5257991678
 20
4.2900691304
 30
0.0
 10
5.5261327495
 20
4.2898811492
 30
0.0
 10
5.5263421193
 20
4.2897286286
 30
0.0
  0
SPLINE
  5
475
100
AcDbEntity
  8
0
100
AcDbSpline
 62
7
  6
CONTINUOUS
 70
0
 71
3
 72
13
 73
9
 74
0
 42
0.0000001
 43
0.0000001
 44
0.0000000001
 40
0.0
 40
0.0
 40
0.0
 40
0.0
 40
0.0929998357
 40
0.1958968639
 40
0.308863252
 40
0.4314508327
 40
0.7021259175
 40
1.0
 40
1.0
 40
1.0
 40
1.0
 10
5.5263421193
 20
4.2897286286
 30
0.0
 10
5.5264798663
 20
4.2896282834
 30
0.0
 10
5.526754115
 20
4.2893947264
 30
0.0
 10
5.5271396453
 20
4.2889790395
 30
0.0
 10
5.5275160972
 20
4.2884851433
 30
0.0
 10
5.5280205704
 20
4.2877058056
 30
0.0
 10
5.5286036689
 20
4.286578424
 30
0.0
 10
5.5290010448
 20
4.2856143548
 30
0.0
 10
5.5291933182
 20
4.2851034883
 30
0.0
  0
SPLINE
  5
476
100
AcDbEntity
  8
0
100
AcDbSpline
 62
7
  6
CONTINUOUS
 70
0
 71
3
 72
20
 73
16
 74
0
 42
0.0000001
 43
0.0000001
 44
0.0000000001
 40
0.0
 40
0.0
 40
0.0
 40
0.0
 40
0.1819491328
 40
0.3501595373
 40
0.4278852065
 40
0.5007819761
 40
0.6308163765
 40
0.6879879965
 40
0.7402091347
 40
0.7880187235
 40
0.8323834953
 40
0.8745134232
 40
0.9156888402
 40
0.9571680284
 40
1.0
 40
1.0
 40
1.0
 40
1.0
 10
5.5385887248
 20
4.2964605839
 30
0.0
 10
5.5381187621
 20
4.2965419691
 30
0.0
 10
5.5372183193
 20
4.296723353
 30
0.0
 10
5.5361361634
 20
4.2970240448
 30
0.0
 10
5.535349975
 20
4.2973092107
 30
0.0
 10
5.5346743177
 20
4.297600472
 30
0.0
 10
5.5340745905
 20
4.2979334043
 30
0.0
 10
5.5335793497
 20
4.2983209241
 30
0.0
 10
5.5332869646
 20
4.2986130597
 30
0.0
 10
5.5330603887
 20
4.298918269
 30
0.0
 10
5.5329006534
 20
4.2992341187
 30
0.0
 10
5.532807064
 20
4.2995575891
 30
0.0
 10
5.5327789597
 20
4.2998856016
 30
0.0
 10
5.5328138123
 20
4.3002144705
 30
0.0
 10
5.5328745373
 20
4.3004281088
 30
0.0
 10
5.5329129869
 20
4.3005335989
 30
0.0
  0
LINE
  5
477
100
AcDbEntity
  8
0
100
AcDbLine
 62
7
  6
CONTINUOUS
 10
5.5329129869
 20
4.3005335989
 11
5.5331062189
 21
4.3009446587
  0
SPLINE
  5
478
100
AcDbEntity
  8
0
100
AcDbSpline
 62
7
  6
CONTINUOUS
 70
0
 71
3
 72
13
 73
9
 74
0
 42
0.0000001
 43
0.0000001
 44
0.0000000001
 40
0.0
 40
0.0
 40
0.0
 40
0.0
 40
0.2497597195
 40
0.3673262733
 40
0.4832077341
 40
0.6009241445
 40
0.7241609928
 40
1.0
 40
1.0
 40
1.0
 40
1.0
 10
5.5424161073
 20
4.3108586829
 30
0.0
 10
5.5426117166
 20
4.3109880945
 30
0.0
 10
5.5429252185
 20
4.3111470419
 30
0.0
 10
5.5433707121
 20
4.3112438212
 30
0.0
 10
5.5437025245
 20
4.311252304
 30
0.0
 10
5.5440347581
 20
4.3111941487
 30
0.0
 10
5.5444905566
 20
4.3110204393
 30
0.0
 10
5.5447979476
 20
4.3107921315
 30
0.0
 10
5.5449865506
 20
4.3106145725
 30
0.0
  0
SPLINE
  5
479
100
AcDbEntity
  8
0
100
AcDbSpline
 62
7
  6
CONTINUOUS
 70
0
 71
3
 72
13
 73
9
 74
0
 42
0.0000001
 43
0.0000001
 44
0.0000000001
 40
0.0
 40
0.0
 40
0.0
 40
0.0
 40
0.0929998357
 40
0.1958968639
 40
0.308863252
 40
0.4314508327
 40
0.7021259175
 40
1.0
 40
1.0
 40
1.0
 40
1.0
 10
5.5449865506
 20
4.3106145725
 30
0.0
 10
5.5451106349
 20
4.3104977543
 30
0.0
 10
5.5453534486
 20
4.3102316665
 30
0.0
 10
5.5456838394
 20
4.3097709376
 30
0.0
 10
5.5459954213
 20
4.309233754
 30
0.0
 10
5.5463982397
 20
4.3083973344
 30
0.0
 10
5.5468354419
 20
4.3072057609
 30
0.0
 10
5.5471088545
 20
4.3061994893
 30
0.0
 10
5.5472355832
 20
4.3056685528
 30
0.0
  0
SPLINE
  5
47A
100
AcDbEntity
  8
0
100
AcDbSpline
 62
7
  6
CONTINUOUS
 70
0
 71
3
 72
13
 73
9
 74
0
 42
0.0000001
 43
0.0000001
 44
0.0000000001
 40
0.0
 40
0.0
 40
0.0
 40
0.0
 40
0.2978699162
 40
0.5685431632
 40
0.6911311863
 40
0.8040987844
 40
0.9069977172
 40
1.0
 40
1.0
 40
1.0
 40
1.0
 10
5.5579803257
 20
4.3157585376
 30
0.0
 10
5.5574584197
 20
4.3159183463
 30
0.0
 10
5.5564713453
 20
4.3162543863
 30
0.0
 10
5.5553096223
 20
4.3167655166
 30
0.0
 10
5.5545001673
 20
4.31722003
 30
0.0
 10
5.5539836127
 20
4.3175647068
 30
0.0
 10
5.5535445345
 20
4.3179233551
 30
0.0
 10
5.5532942091
 20
4.3181823819
 30
0.0
 10
5.5531854059
 20
4.318313549
 30
0.0
  0
SPLINE
  5
47B
100
AcDbEntity
  8
0
100
AcDbSpline
 62
7
  6
CONTINUOUS
 70
0
 71
3
 72
13
 73
9
 74
0
 42
0.0000001
 43
0.0000001
 44
0.0000000001
 40
0.0
 40
0.0
 40
0.0
 40
0.0
 40
0.2758453704
 40
0.3990829314
 40
0.5167987499
 40
0.6326788483
 40
0.7502437435
 40
1.0
 40
1.0
 40
1.0
 40
1.0
 10
5.5531854059
 20
4.318313549
 30
0.0
 10
5.5530200132
 20
4.3185129372
 30
0.0
 10
5.5528114185
 20
4.3188340709
 30
0.0
 10
5.5526666327
 20
4.3192999063
 30
0.0
 10
5.5526294344
 20
4.3196351557
 30
0.0
 10
5.5526587252
 20
4.3199658009
 30
0.0
 10
5.5527832822
 20
4.3204043656
 30
0.0
 10
5.5529616084
 20
4.3207072869
 30
0.0
 10
5.5531030546
 20
4.3208943944
 30
0.0
  0
SPLINE
  5
47C
100
AcDbEntity
  8
0
100
AcDbSpline
 62
7
  6
CONTINUOUS
 70
0
 71
3
 72
13
 73
9
 74
0
 42
0.0000001
 43
0.0000001
 44
0.0000000001
 40
0.0
 40
0.0
 40
0.0
 40
0.0
 40
0.2573131703
 40
0.3788207719
 40
0.4977437313
 40
0.6165886982
 40
0.7381721411
 40
1.0
 40
1.0
 40
1.0
 40
1.0
 10
5.5635820884
 20
4.3295634051
 30
0.0
 10
5.5637658894
 20
4.3296541969
 30
0.0
 10
5.5640524107
 20
4.329761427
 30
0.0
 10
5.5644460367
 20
4.329818894
 30
0.0
 10
5.5647335628
 20
4.3298156986
 30
0.0
 10
5.5650166158
 20
4.3297639535
 30
0.0
 10
5.5653938658
 20
4.3296258768
 30
0.0
 10
5.5656505007
 20
4.3294489719
 30
0.0
 10
5.5658057875
 20
4.3293096893
 30
0.0
  0
SPLINE
  5
47D
100
AcDbEntity
  8
0
100
AcDbSpline
 62
7
  6
CONTINUOUS
 70
0
 71
3
 72
14
 73
10
 74
0
 42
0.0000001
 43
0.0000001
 44
0.0000000001
 40
0.0
 40
0.0
 40
0.0
 40
0.0
 40
0.0879138119
 40
0.1866531741
 40
0.2969512276
 40
0.4187261567
 40
0.5511665106
 40
0.6931308996
 40
1.0
 40
1.0
 40
1.0
 40
1.0
 10
5.5658057875
 20
4.3293096893
 30
0.0
 10
5.5659350724
 20
4.3291937289
 30
0.0
 10
5.566184069
 20
4.328918659
 30
0.0
 10
5.5665070889
 20
4.3284270419
 30
0.0
 10
5.5667965603
 20
4.3278396078
 30
0.0
 10
5.5670507014
 20
4.3271649501
 30
0.0
 10
5.5672700165
 20
4.3264130021
 30
0.0
 10
5.5675211711
 20
4.3252919655
 30
0.0
 10
5.5676473357
 20
4.3244127946
 30
0.0
 10
5.5677130656
 20
4.3238101603
 30
0.0
  0
SPLINE
  5
47E
100
AcDbEntity
  8
0
100
AcDbSpline
 62
7
  6
CONTINUOUS
 70
0
 71
3
 72
13
 73
9
 74
0
 42
0.0000001
 43
0.0000001
 44
0.0000000001
 40
0.0
 40
0.0
 40
0.0
 40
0.0
 40
0.2978699162
 40
0.5685431632
 40
0.6911311863
 40
0.8040987844
 40
0.9069977173
 40
1.0
 40
1.0
 40
1.0
 40
1.0
 10
5.579637693
 20
4.3324739092
 30
0.0
 10
5.5791399317
 20
4.33269787
 30
0.0
 10
5.5782027577
 20
4.3331549734
 30
0.0
 10
5.5771142568
 20
4.3338076758
 30
0.0
 10
5.5763681503
 20
4.3343600568
 30
0.0
 10
5.5758988683
 20
4.3347667572
 30
0.0
 10
5.5755082029
 20
4.3351776085
 30
0.0
 10
5.5752923161
 20
4.3354659669
 30
0.0
 10
5.5752008104
 20
4.3356097363
 30
0.0
  0
SPLINE
  5
47F
100
AcDbEntity
  8
0
100
AcDbSpline
 62
7
  6
CONTINUOUS
 70
0
 71
3
 72
13
 73
9
 74
0
 42
0.0000001
 43
0.0000001
 44
0.0000000001
 40
0.0
 40
0.0
 40
0.0
 40
0.0
 40
0.2758453703
 40
0.3990829314
 40
0.5167987499
 40
0.6326788483
 40
0.7502437435
 40
1.0
 40
1.0
 40
1.0
 40
1.0
 10
5.5752008104
 20
4.3356097363
 30
0.0
 10
5.5750617118
 20
4.3358282815
 30
0.0
 10
5.5748950107
 20
4.3361730269
 30
0.0
 10
5.5748097513
 20
4.3366533354
 30
0.0
 10
5.5748148642
 20
4.3369906036
 30
0.0
 10
5.5748853648
 20
4.3373149704
 30
0.0
 10
5.5750639063
 20
4.3377344658
 30
0.0
 10
5.5752787925
 20
4.3380126482
 30
0.0
 10
5.5754425742
 20
4.3381805524
 30
0.0
  0
SPLINE
  5
480
100
AcDbEntity
  8
0
100
AcDbSpline
 62
7
  6
CONTINUOUS
 70
0
 71
3
 72
13
 73
9
 74
0
 42
0.0000001
 43
0.0000001
 44
0.0000000001
 40
0.0
 40
0.0
 40
0.0
 40
0.0
 40
0.2573131703
 40
0.3788207719
 40
0.4977437313
 40
0.6165886982
 40
0.7381721411
 40
1.0
 40
1.0
 40
1.0
 40
1.0
 10
5.5869254928
 20
4.3454678342
 30
0.0
 10
5.5871192237
 20
4.3455348737
 30
0.0
 10
5.5874169252
 20
4.3456053476
 30
0.0
 10
5.5878146498
 20
4.3456130271
 30
0.0
 10
5.5880995083
 20
4.3455738203
 30
0.0
 10
5.5883738439
 20
4.3454870072
 30
0.0
 10
5.5887308136
 20
4.3453027374
 30
0.0
 10
5.5889632527
 20
4.3450950625
 30
0.0
 10
5.5890998583
 20
4.3449374156
 30
0.0
  0
SPLINE
  5
481
100
AcDbEntity
  8
0
100
AcDbSpline
 62
7
  6
CONTINUOUS
 70
0
 71
3
 72
14
 73
10
 74
0
 42
0.0000001
 43
0.0000001
 44
0.0000000001
 40
0.0
 40
0.0
 40
0.0
 40
0.0
 40
0.0879138119
 40
0.1866531741
 40
0.2969512276
 40
0.4187261567
 40
0.5511665106
 40
0.6931308996
 40
1.0
 40
1.0
 40
1.0
 40
1.0
 10
5.5890998583
 20
4.3449374156
 30
0.0
 10
5.5892135901
 20
4.3448061659
 30
0.0
 10
5.5894261479
 20
4.3445020574
 30
0.0
 10
5.5896850047
 20
4.3439738317
 30
0.0
 10
5.5898985685
 20
4.3433547494
 30
0.0
 10
5.5900661486
 20
4.3426535592
 30
0.0
 10
5.5901894903
 20
4.3418800531
 30
0.0
 10
5.5902981613
 20
4.3407363781
 30
0.0
 10
5.5903131418
 20
4.3398483272
 30
0.0
 10
5.5903028232
 20
4.3392422067
 30
0.0
  0
SPLINE
  5
482
100
AcDbEntity
  8
0
100
AcDbSpline
 62
7
  6
CONTINUOUS
 70
0
 71
3
 72
13
 73
9
 74
0
 42
0.0000001
 43
0.0000001
 44
0.0000000001
 40
0.0
 40
0.0
 40
0.0
 40
0.0
 40
0.2978699162
 40
0.5685431632
 40
0.6911311863
 40
0.8040987844
 40
0.9069977173
 40
1.0
 40
1.0
 40
1.0
 40
1.0
 10
5.603219277
 20
4.3463430873
 30
0.0
 10
5.6027535105
 20
4.346627668
 30
0.0
 10
5.6018810166
 20
4.3471986261
 30
0.0
 10
5.6008829042
 20
4.3479826071
 30
0.0
 10
5.6002119126
 20
4.3486241444
 30
0.0
 10
5.5997973042
 20
4.3490864544
 30
0.0
 10
5.5994612125
 20
4.3495430294
 30
0.0
 10
5.599283169
 20
4.3498561718
 30
0.0
 10
5.599210404
 20
4.3500102763
 30
0.0
  0
SPLINE
  5
483
100
AcDbEntity
  8
0
100
AcDbSpline
 62
7
  6
CONTINUOUS
 70
0
 71
3
 72
13
 73
9
 74
0
 42
0.0000001
 43
0.0000001
 44
0.0000000001
 40
0.0
 40
0.0
 40
0.0
 40
0.0
 40
0.2758453703
 40
0.3990829314
 40
0.5167987499
 40
0.6326788483
 40
0.7502437435
 40
1.0
 40
1.0
 40
1.0
 40
1.0
 10
5.599210404
 20
4.3500102763
 30
0.0
 10
5.5990997932
 20
4.3502445318
 30
0.0
 10
5.5989776146
 20
4.350607452
 30
0.0
 10
5.5989532261
 20
4.351094659
 30
0.0
 10
5.5990005696
 20
4.3514286269
 30
0.0
 10
5.5991111682
 20
4.3517415999
 30
0.0
 10
5.5993408786
 20
4.3521354102
 30
0.0
 10
5.5995889358
 20
4.3523844667
 30
0.0
 10
5.59977247
 20
4.3525305197
 30
0.0
  0
SPLINE
  5
484
100
AcDbEntity
  8
0
100
AcDbSpline
 62
7
  6
CONTINUOUS
 70
0
 71
3
 72
11
 73
7
 74
0
 42
0.0000001
 43
0.0000001
 44
0.0000000001
 40
0.0
 40
0.0
 40
0.0
 40
0.0
 40
0.2628960293
 40
0.5089761999
 40
0.7494336689
 40
1.0
 40
1.0
 40
1.0
 40
1.0
 10
5.612078181
 20
4.3583211477
 30
0.0
 10
5.6122490257
 20
4.3583571127
 30
0.0
 10
5.6125871002
 20
4.358398566
 30
0.0
 10
5.613087323
 20
4.3583457282
 30
0.0
 10
5.6135474786
 20
4.3581598794
 30
0.0
 10
5.6138053167
 20
4.3579521577
 30
0.0
 10
5.6139208625
 20
4.3578324143
 30
0.0
  0
SPLINE
  5
485
100
AcDbEntity
  8
0
100
AcDbSpline
 62
7
  6
CONTINUOUS
 70
0
 71
3
 72
15
 73
11
 74
0
 42
0.0000001
 43
0.0000001
 44
0.0000000001
 40
0.0
 40
0.0
 40
0.0
 40
0.0
 40
0.0833792535
 40
0.1778572119
 40
0.2851290998
 40
0.4057161323
 40
0.5389682232
 40
0.6835692281
 40
0.837875599
 40
1.0
 40
1.0
 40
1.0
 40
1.0
 10
5.6139208625
 20
4.3578324143
 30
0.0
 10
5.6140428901
 20
4.3577059536
 30
0.0
 10
5.6142677036
 20
4.3574010227
 30
0.0
 10
5.6145188147
 20
4.3568518529
 30
0.0
 10
5.6147030693
 20
4.3561956653
 30
0.0
 10
5.614817552
 20
4.3554417771
 30
0.0
 10
5.6148664118
 20
4.3546024936
 30
0.0
 10
5.6148519376
 20
4.3536910902
 30
0.0
 10
5.6147790233
 20
4.3527216906
 30
0.0
 10
5.6146971933
 20
4.3520595512
 30
0.0
 10
5.6146486021
 20
4.3517213194
 30
0.0
  0
SPLINE
  5
486
100
AcDbEntity
  8
0
100
AcDbSpline
 62
7
  6
CONTINUOUS
 70
0
 71
3
 72
13
 73
9
 74
0
 42
0.0000001
 43
0.0000001
 44
0.0000000001
 40
0.0
 40
0.0
 40
0.0
 40
0.0
 40
0.2978699162
 40
0.5685431632
 40
0.6911311863
 40
0.8040987844
 40
0.9069977173
 40
1.0
 40
1.0
 40
1.0
 40
1.0
 10
5.6283531822
 20
4.3571473465
 30
0.0
 10
5.6279267558
 20
4.3574880593
 30
0.0
 10
5.6271327018
 20
4.3581638677
 30
0.0
 10
5.6262407187
 20
4.3590667634
 30
0.0
 10
5.625655424
 20
4.3597873395
 30
0.0
 10
5.6253020277
 20
4.3602979683
 30
0.0
 10
5.6250258103
 20
4.3607930665
 30
0.0
 10
5.6248884178
 20
4.3611260545
 30
0.0
 10
5.6248355409
 20
4.3612880637
 30
0.0
  0
SPLINE
  5
487
100
AcDbEntity
  8
0
100
AcDbSpline
 62
7
  6
CONTINUOUS
 70
0
 71
3
 72
13
 73
9
 74
0
 42
0.0000001
 43
0.0000001
 44
0.0000000001
 40
0.0
 40
0.0
 40
0.0
 40
0.0
 40
0.2758453703
 40
0.3990829314
 40
0.5167987499
 40
0.6326788483
 40
0.7502437435
 40
1.0
 40
1.0
 40
1.0
 40
1.0
 10
5.6248355409
 20
4.3612880637
 30
0.0
 10
5.6247551624
 20
4.3615343352
 30
0.0
 10
5.6246794332
 20
4.3619097067
 30
0.0
 10
5.6247163002
 20
4.3623961286
 30
0.0
 10
5.6248051276
 20
4.3627215293
 30
0.0
 10
5.6249540801
 20
4.3630181728
 30
0.0
 10
5.6252313367
 20
4.3633800875
 30
0.0
 10
5.6255086529
 20
4.3635960903
 30
0.0
 10
5.6257090452
 20
4.3637179886
 30
0.0
  0
SPLINE
  5
488
100
AcDbEntity
  8
0
100
AcDbSpline
 62
7
  6
CONTINUOUS
 70
0
 71
3
 72
11
 73
7
 74
0
 42
0.0000001
 43
0.0000001
 44
0.0000000001
 40
0.0
 40
0.0
 40
0.0
 40
0.0
 40
0.2628960293
 40
0.5089761999
 40
0.7494336689
 40
1.0
 40
1.0
 40
1.0
 40
1.0
 10
5.6386434801
 20
4.3679206413
 30
0.0
 10
5.6388174853
 20
4.3679349101
 30
0.0
 10
5.6391580894
 20
4.3679336646
 30
0.0
 10
5.6396477454
 20
4.3678185489
 30
0.0
 10
5.6400809795
 20
4.3675764928
 30
0.0
 10
5.6403107501
 20
4.3673380934
 30
0.0
 10
5.6404103769
 20
4.3672048125
 30
0.0
  0
SPLINE
  5
489
100
AcDbEntity
  8
0
100
AcDbSpline
 62
7
  6
CONTINUOUS
 70
0
 71
3
 72
15
 73
11
 74
0
 42
0.0000001
 43
0.0000001
 44
0.0000000001
 40
0.0
 40
0.0
 40
0.0
 40
0.0
 40
0.0833792535
 40
0.1778572119
 40
0.2851290998
 40
0.4057161323
 40
0.5389682232
 40
0.6835692281
 40
0.837875599
 40
1.0
 40
1.0
 40
1.0
 40
1.0
 10
5.6404103769
 20
4.3672048125
 30
0.0
 10
5.6405155926
 20
4.3670640548
 30
0.0
 10
5.6407004154
 20
4.3667333518
 30
0.0
 10
5.6408807172
 20
4.3661570398
 30
0.0
 10
5.6409812768
 20
4.3654829332
 30
0.0
 10
5.6410003695
 20
4.3647206412
 30
0.0
 10
5.6409436539
 20
4.3638818519
 30
0.0
 10
5.6408150647
 20
4.3629794493
 30
0.0
 10
5.6406212273
 20
4.3620268323
 30
0.0
 10
5.6404570545
 20
4.3613801701
 30
0.0
 10
5.6403664549
 20
4.3610506954
 30
0.0
  0
SPLINE
  5
48A
100
AcDbEntity
  8
0
100
AcDbSpline
 62
7
  6
CONTINUOUS
 70
0
 71
3
 72
13
 73
9
 74
0
 42
0.0000001
 43
0.0000001
 44
0.0000000001
 40
0.0
 40
0.0
 40
0.0
 40
0.0
 40
0.2497597195
 40
0.3673262733
 40
0.4832077341
 40
0.6009241445
 40
0.7241609928
 40
1.0
 40
1.0
 40
1.0
 40
1.0
 10
5.8035287722
 20
4.3525305197
 30
0.0
 10
5.8037122966
 20
4.3523844745
 30
0.0
 10
5.803960342
 20
4.352135434
 30
0.0
 10
5.8041900497
 20
4.3517416508
 30
0.0
 10
5.8043006529
 20
4.3514286998
 30
0.0
 10
5.8043480097
 20
4.3510947559
 30
0.0
 10
5.8043236518
 20
4.3506075866
 30
0.0
 10
5.8042015072
 20
4.3502446894
 30
0.0
 10
5.8040909202
 20
4.3500104485
 30
0.0
  0
SPLINE
  5
48B
100
AcDbEntity
  8
0
100
AcDbSpline
 62
7
  6
CONTINUOUS
 70
0
 71
3
 72
13
 73
9
 74
0
 42
0.0000001
 43
0.0000001
 44
0.0000000001
 40
0.0
 40
0.0
 40
0.0
 40
0.0
 40
0.0929998357
 40
0.1958968639
 40
0.308863252
 40
0.4314508327
 40
0.7021259175
 40
1.0
 40
1.0
 40
1.0
 40
1.0
 10
5.8040909202
 20
4.3500104485
 30
0.0
 10
5.8040181635
 20
4.3498563386
 30
0.0
 10
5.8038401326
 20
4.3495431834
 30
0.0
 10
5.8035040498
 20
4.3490865899
 30
0.0
 10
5.8030894419
 20
4.3486242591
 30
0.0
 10
5.8024184373
 20
4.3479826882
 30
0.0
 10
5.8014202864
 20
4.3471986677
 30
0.0
 10
5.8005477544
 20
4.3466276819
 30
0.0
 10
5.8000819652
 20
4.3463430873
 30
0.0
  0
SPLINE
  5
48C
100
AcDbEntity
  8
0
100
AcDbSpline
 62
7
  6
CONTINUOUS
 70
0
 71
3
 72
20
 73
16
 74
0
 42
0.0000001
 43
0.0000001
 44
0.0000000001
 40
0.0
 40
0.0
 40
0.0
 40
0.0
 40
0.1819491328
 40
0.3501595373
 40
0.4278852065
 40
0.5007819761
 40
0.6308163765
 40
0.6879879965
 40
0.7402091347
 40
0.7880187235
 40
0.8323834953
 40
0.8745134232
 40
0.9156888402
 40
0.9571680284
 40
1.0
 40
1.0
 40
1.0
 40
1.0
 10
5.812998419
 20
4.3392422067
 30
0.0
 10
5.8129903005
 20
4.3397190951
 30
0.0
 10
5.8129997454
 20
4.3406375765
 30
0.0
 10
5.8130923353
 20
4.3417569085
 30
0.0
 10
5.8132251331
 20
4.3425826062
 30
0.0
 10
5.8133846299
 20
4.3433008726
 30
0.0
 10
5.8135992874
 20
4.3439523623
 30
0.0
 10
5.8138871442
 20
4.344511445
 30
0.0
 10
5.8141193178
 20
4.3448533919
 30
0.0
 10
5.8143766649
 20
4.3451331451
 30
0.0
 10
5.8146569886
 20
4.3453492353
 30
0.0
 10
5.8149571925
 20
4.3455017793
 30
0.0
 10
5.8152741288
 20
4.3455908492
 30
0.0
 10
5.8156037033
 20
4.3456182378
 30
0.0
 10
5.8158249362
 20
4.3455986203
 30
0.0
 10
5.8159357625
 20
4.3455806185
 30
0.0
  0
LINE
  5
48D
100
AcDbEntity
  8
0
100
AcDbLine
 62
7
  6
CONTINUOUS
 10
5.8159357625
 20
4.3455806185
 11
5.8163757494
 21
4.3454678342
  0
SPLINE
  5
48E
100
AcDbEntity
  8
0
100
AcDbSpline
 62
7
  6
CONTINUOUS
 70
0
 71
3
 72
13
 73
9
 74
0
 42
0.0000001
 43
0.0000001
 44
0.0000000001
 40
0.0
 40
0.0
 40
0.0
 40
0.0
 40
0.2497597195
 40
0.3673262733
 40
0.4832077341
 40
0.6009241445
 40
0.7241609928
 40
1.0
 40
1.0
 40
1.0
 40
1.0
 10
5.827858668
 20
4.3381805524
 30
0.0
 10
5.828022441
 20
4.3380126572
 30
0.0
 10
5.8282373174
 20
4.3377344921
 30
0.0
 10
5.8284158597
 20
4.337315024
 30
0.0
 10
5.8284863676
 20
4.3369906784
 30
0.0
 10
5.8284914967
 20
4.3366534324
 30
0.0
 10
5.8284062724
 20
4.3361731574
 30
0.0
 10
5.8282396079
 20
4.3358284305
 30
0.0
 10
5.8281005346
 20
4.335609897
 30
0.0
  0
SPLINE
  5
48F
100
AcDbEntity
  8
0
100
AcDbSpline
 62
7
  6
CONTINUOUS
 70
0
 71
3
 72
13
 73
9
 74
0
 42
0.0000001
 43
0.0000001
 44
0.0000000001
 40
0.0
 40
0.0
 40
0.0
 40
0.0
 40
0.0929998357
 40
0.1958968639
 40
0.308863252
 40
0.4314508327
 40
0.7021259175
 40
1.0
 40
1.0
 40
1.0
 40
1.0
 10
5.8281005346
 20
4.335609897
 30
0.0
 10
5.8280090366
 20
4.335466121
 30
0.0
 10
5.8277931608
 20
4.3351777484
 30
0.0
 10
5.8274025017
 20
4.3347668777
 30
0.0
 10
5.8269332178
 20
4.3343601566
 30
0.0
 10
5.826187094
 20
4.3338077438
 30
0.0
 10
5.8250985501
 20
4.333155007
 30
0.0
 10
5.8241613347
 20
4.3326978809
 30
0.0
 10
5.8236635492
 20
4.3324739092
 30
0.0
  0
SPLINE
  5
490
100
AcDbEntity
  8
0
100
AcDbSpline
 62
7
  6
CONTINUOUS
 70
0
 71
3
 72
20
 73
16
 74
0
 42
0.0000001
 43
0.0000001
 44
0.0000000001
 40
0.0
 40
0.0
 40
0.0
 40
0.0
 40
0.1819491328
 40
0.3501595373
 40
0.4278852065
 40
0.5007819761
 40
0.6308163765
 40
0.6879879965
 40
0.7402091347
 40
0.7880187235
 40
0.8323834953
 40
0.8745134232
 40
0.9156888402
 40
0.9571680284
 40
1.0
 40
1.0
 40
1.0
 40
1.0
 10
5.8355881766
 20
4.3238101603
 30
0.0
 10
5.8356398921
 20
4.3242843058
 30
0.0
 10
5.8357643788
 20
4.325194361
 30
0.0
 10
5.8359965281
 20
4.3262932621
 30
0.0
 10
5.8362317661
 20
4.3270958049
 30
0.0
 10
5.8364800278
 20
4.3277884174
 30
0.0
 10
5.836774646
 20
4.3284078662
 30
0.0
 10
5.8371303047
 20
4.3289264623
 30
0.0
 10
5.8374035047
 20
4.3292366138
 30
0.0
 10
5.837693885
 20
4.3294819068
 30
0.0
 10
5.8379990816
 20
4.3296611593
 30
0.0
 10
5.8383160371
 20
4.3297748748
 30
0.0
 10
5.8386416377
 20
4.3298235198
 30
0.0
 10
5.8389720461
 20
4.3298093858
 30
0.0
 10
5.8391890758
 20
4.3297621951
 30
0.0
 10
5.839296772
 20
4.3297304451
 30
0.0
  0
LINE
  5
491
100
AcDbEntity
  8
0
100
AcDbLine
 62
7
  6
CONTINUOUS
 10
5.839296772
 20
4.3297304451
 11
5.8397191538
 21
4.3295634051
  0
SPLINE
  5
492
100
AcDbEntity
  8
0
100
AcDbSpline
 62
7
  6
CONTINUOUS
 70
0
 71
3
 72
13
 73
9
 74
0
 42
0.0000001
 43
0.0000001
 44
0.0000000001
 40
0.0
 40
0.0
 40
0.0
 40
0.0
 40
0.2497597195
 40
0.3673262733
 40
0.4832077341
 40
0.6009241445
 40
0.7241609928
 40
1.0
 40
1.0
 40
1.0
 40
1.0
 10
5.8501981876
 20
4.3208943944
 30
0.0
 10
5.8503396263
 20
4.3207072969
 30
0.0
 10
5.850517945
 20
4.3204043941
 30
0.0
 10
5.8506425061
 20
4.3199658563
 30
0.0
 10
5.8506718068
 20
4.3196352313
 30
0.0
 10
5.8506346274
 20
4.3193000017
 30
0.0
 10
5.8504898806
 20
4.3188341953
 30
0.0
 10
5.8502813246
 20
4.3185130753
 30
0.0
 10
5.8501159585
 20
4.3183136954
 30
0.0
  0
SPLINE
  5
493
100
AcDbEntity
  8
0
100
AcDbSpline
 62
7
  6
CONTINUOUS
 70
0
 71
3
 72
13
 73
9
 74
0
 42
0.0000001
 43
0.0000001
 44
0.0000000001
 40
0.0
 40
0.0
 40
0.0
 40
0.0
 40
0.0929998357
 40
0.1958968639
 40
0.308863252
 40
0.4314508327
 40
0.7021259175
 40
1.0
 40
1.0
 40
1.0
 40
1.0
 10
5.8501159585
 20
4.3183136954
 30
0.0
 10
5.850007162
 20
4.3181825209
 30
0.0
 10
5.8497568458
 20
4.3179234786
 30
0.0
 10
5.8493177714
 20
4.3175648103
 30
0.0
 10
5.8488012122
 20
4.3172201132
 30
0.0
 10
5.8479917362
 20
4.3167655705
 30
0.0
 10
5.8468299662
 20
4.3162544115
 30
0.0
 10
5.8458428479
 20
4.3159183541
 30
0.0
 10
5.8453209165
 20
4.3157585376
 30
0.0
  0
ELLIPSE
  5
494
100
AcDbEntity
  8
0
100
AcDbEllipse
 62
7
  6
CONTINUOUS
 10
3.9995578004
 20
4.1519992257
 30
0.0
 11
0.0
 21
0.0625
 31
0.0
 40
0.75
 41
-3.1415926536
 42
-0.0
  0
ELLIPSE
  5
495
100
AcDbEntity
  8
0
100
AcDbEllipse
 62
7
  6
CONTINUOUS
 10
4.838190364
 20
4.1519992257
 30
0.0
 11
-0.0
 21
0.0625
 31
0.0
 40
0.5675675676
 41
0.0
 42
6.2831853072
  0
ELLIPSE
  5
496
100
AcDbEntity
  8
0
100
AcDbEllipse
 62
7
  6
CONTINUOUS
 10
4.838190364
 20
4.1519992257
 30
0.0
 11
0.0
 21
0.03125
 31
0.0
 40
0.5675675676
 41
0.0
 42
6.2831853072
  0
ENDSEC
  0
SECTION
  2
OBJECTS
  0
DICTIONARY
  5
C
100
AcDbDictionary
280
0
281
1
  3
ACAD_GROUP
350
D
  3
ACAD_MLINESTYLE
350
17
  3
ACAD_LAYOUT
350
1A
  3
ACAD_PLOTSETTINGS
350
19
  3
ACAD_PLOTSTYLENAME
350
E
  0
DICTIONARY
  5
D
102
{ACAD_REACTORS
330
C
102
}
100
AcDbDictionary
280
0
281
1
  0
ACDBDICTIONARYWDFLT
  5
E
102
{ACAD_REACTORS
330
C
102
}
100
AcDbDictionary
281
1
  3
Normal
350
F
100
AcDbDictionaryWithDefault
340
F
  0
DICTIONARY
  5
17
102
{ACAD_REACTORS
330
C
102
}
100
AcDbDictionary
280
0
281
1
  3
Standard
350
18
  0
DICTIONARY
  5
19
102
{ACAD_REACTORS
330
C
102
}
100
AcDbDictionary
281
1
  0
DICTIONARY
  5
1A
102
{ACAD_REACTORS
330
C
102
}
100
AcDbDictionary
281
1
  3
Model
350
497
  3
Layout1
350
498
  0
ACDBPLACEHOLDER
  5
F
102
{ACAD_REACTORS
330
E
102
}
  0
MLINESTYLE
  5
18
102
{ACAD_REACTORS
330
17
102
}
100
AcDbMlineStyle
  2
STANDARD
 70
0
  3

 62
256
 51
90.0
 52
90.0
 71
2
 49
0.5
 62
256
  6
BYLAYER
 49
-0.5
 62
256
  6
BYLAYER
  0
LAYOUT
  5
497
102
{ACAD_REACTORS
330
1A
102
}
100
AcDbPlotSettings
  1

  2
none_device
  4
ANSI_A_(11.00_x_8.50_Inches)
  6

 40
0.0
 41
0.0
 42
0.0
 43
0.0
 44
279.4
 45
215.9
 46
0.0
 47
0.0
 48
0.0
 49
0.0
140
0.0
141
0.0
142
1.0
143
1.0
 70
1024
 72
0
 73
0
 74
0
  7

 75
0
147
1.0
148
0.0
149
0.0
100
AcDbLayout
  1
Model
 70
0
 71
0
 10
0.0
 20
0.0
 11
11.0
 21
8.5
 12
0.0
 22
0.0
 32
0.0
 14
0.0
 24
0.0
 34
0.0
 15
0.0
 25
0.0
 35
0.0
146
0.0
 13
0.0
 23
0.0
 33
0.0
 16
1.0
 26
0.0
 36
0.0
 17
0.0
 27
1.0
 37
0.0
 76
0
330
202
345
0
346
0
  0
LAYOUT
  5
498
102
{ACAD_REACTORS
330
1A
102
}
100
AcDbPlotSettings
  1

  2
none_device
  4
ANSI_A_(11.00_x_8.50_Inches)
  6

 40
0.0
 41
0.0
 42
0.0
 43
0.0
 44
279.4
 45
215.9
 46
0.0
 47
0.0
 48
0.0
 49
0.0
140
0.0
141
0.0
142
1.0
143
1.0
 70
0
 72
0
 73
0
 74
0
  7

 75
0
147
1.0
148
0.0
149
0.0
100
AcDbLayout
  1
Layout1
 70
0
 71
1
 10
0.0
 20
0.0
 11
11.0
 21
8.5
 12
0.0
 22
0.0
 32
0.0
 14
0.0
 24
0.0
 34
0.0
 15
0.0
 25
0.0
 35
0.0
146
0.0
 13
0.0
 23
0.0
 33
0.0
 16
1.0
 26
0.0
 36
0.0
 17
0.0
 27
1.0
 37
0.0
 76
0
330
203
345
0
346
0
  0
ENDSEC
  0
EOF
