  0
SECTION
  2
HEADER
  9
$ACADVER
  1
AC1021
  9
$DWGCODEPAGE
  3
ANSI_1252
  9
$EXTMAX
 10
33.1102362205
 20
23.3858267717
 30
0.0
  9
$EXTMIN
 10
0.0
 20
0.0
 30
0.0
  9
$LIMMIN
 10
0.0
 20
0.0
  9
$LIMMAX
 10
33.1102362205
 20
23.3858267717
  9
$VIEWCTR
 10
16.5551181102
 20
11.6929133858
  9
$VIEWSIZE
 40
23.3858267717
  9
$CLAYER
  8
0
  9
$LTSCALE
 40
1.8210629921
  9
$CELTYPE
  6
BYLAYER
  9
$DIMSCALE
 40
1.0
  9
$DIMASZ
 40
0.1875
  9
$DIMEXO
 40
0.2069389764
  9
$DIMDLI
 40
1.2581889764
  9
$DIMEXE
 40
0.595984252
  9
$DIMCEN
 40
0.297992126
  9
$DIMLFAC
 40
1.0
  9
$DIMBLK
  1
_CLOSED
  9
$DIMTXT
 40
0.15625
  9
$DIMTOL
 70
0
  9
$DIMLIM
 70
0
  9
$DIMTFAC
 40
1.0
  9
$PDMODE
 70
3
  9
$PDSIZE
 40
0.3125
  9
$HANDSEED
  5
275
  9
$TILEMODE
 70
1
  9
$MEASUREMENT
 70
0
  9
$INSUNITS
 70
1
  0
ENDSEC
  0
SECTION
  2
CLASSES
  0
CLASS
  1
ACDBDICTIONARYWDFLT
  2
AcDbDictionaryWithDefault
  3
AutoCAD 2000
 90
0
 91
1
280
0
281
0
  0
CLASS
  1
ACDBPLACEHOLDER
  2
AcDbPlaceHolder
  3
AutoCAD 2000
 90
0
 91
1
280
0
281
0
  0
CLASS
  1
LAYOUT
  2
AcDbLayout
  3
AutoCAD 2000
 90
0
 91
0
280
0
281
0
  0
ENDSEC
  0
SECTION
  2
TABLES
  0
TABLE
  2
VPORT
  5
8
100
AcDbSymbolTable
 70
2
  0
VPORT
  5
1F4
100
AcDbSymbolTableRecord
100
AcDbViewportTableRecord
  2
*ACTIVE
 70
0
 10
0.0
 20
0.0
 11
1.0
 21
1.0
 12
16.5551181102
 22
11.6929133858
 13
0.0
 23
0.0
 14
1.0
 24
1.0
 15
0.0
 25
0.0
 16
0.0
 26
0.0
 36
1.0
 17
0.0
 27
0.0
 37
0.0
 40
23.3858267717
 41
1.4158249158
 42
50.0
 43
0.0
 44
0.0
 50
0.0
 51
0.0
 71
0
 72
100
 73
1
 74
1
 75
0
 76
0
 77
0
 78
0
  0
ENDTAB
  0
TABLE
  2
LTYPE
  5
5
100
AcDbSymbolTable
 70
6
  0
LTYPE
  5
14
100
AcDbSymbolTableRecord
100
AcDbLinetypeTableRecord
  2
BYBLOCK
 70
0
  3

 72
65
 73
0
 40
0.0
  0
LTYPE
  5
15
100
AcDbSymbolTableRecord
100
AcDbLinetypeTableRecord
  2
BYLAYER
 70
0
  3

 72
65
 73
0
 40
0.0
  0
LTYPE
  5
16
100
AcDbSymbolTableRecord
100
AcDbLinetypeTableRecord
  2
CONTINUOUS
 70
64
  3
Solid line
 72
65
 73
0
 40
0.0
  0
LTYPE
  5
1F5
100
AcDbSymbolTableRecord
100
AcDbLinetypeTableRecord
  2
CENTER
 70
64
  3
____ _ ____ _ ____ _ ____ _ ____ _ ____ _ ____
 72
65
 73
4
 40
0.6
 49
0.375
 74
0
 49
-0.075
 74
0
 49
0.075
 74
0
 49
-0.075
 74
0
  0
LTYPE
  5
1F6
100
AcDbSymbolTableRecord
100
AcDbLinetypeTableRecord
  2
HIDDEN
 70
64
  3
- - - - - - - - - - - - - - - - - - - -
 72
65
 73
2
 40
0.2
 49
0.1
 74
0
 49
-0.1
 74
0
  0
LTYPE
  5
1F7
100
AcDbSymbolTableRecord
100
AcDbLinetypeTableRecord
  2
PHANTOM
 70
64
  3
_____ _ _ _____ _ _ _____ _ _ _____
 72
65
 73
6
 40
0.8
 49
0.45
 74
0
 49
-0.05
 74
0
 49
0.1
 74
0
 49
-0.05
 74
0
 49
0.1
 74
0
 49
-0.05
 74
0
  0
LTYPE
  5
1F8
100
AcDbSymbolTableRecord
100
AcDbLinetypeTableRecord
  2
DOT
 70
64
  3
. . . . . . . . . . . . . . . . . . . .
 72
65
 73
2
 40
0.2
 49
0.1
 74
0
 49
-0.1
 74
0
  0
LTYPE
  5
1F9
100
AcDbSymbolTableRecord
100
AcDbLinetypeTableRecord
  2
DASHED
 70
64
  3
- - - - - - - - - - - - - - - - - - - -
 72
65
 73
2
 40
0.2
 49
0.1
 74
0
 49
-0.1
 74
0
  0
ENDTAB
  0
TABLE
  2
LAYER
  5
2
100
AcDbSymbolTable
 70
36
  0
LAYER
  5
10
100
AcDbSymbolTableRecord
100
AcDbLayerTableRecord
  2
0
 70
0
 62
7
  6
CONTINUOUS
370
-3
390
F
  0
LAYER
  5
1FA
100
AcDbSymbolTableRecord
100
AcDbLayerTableRecord
  2
DEFAULT_1
 70
0
 62
7
  6
CENTER
370
-3
390
F
  0
LAYER
  5
1FB
100
AcDbSymbolTableRecord
100
AcDbLayerTableRecord
  2
DEFAULT_2
 70
0
 62
8
  6
HIDDEN
370
-3
390
F
  0
LAYER
  5
1FC
100
AcDbSymbolTableRecord
100
AcDbLayerTableRecord
  2
DEFAULT_3
 70
0
 62
7
  6
PHANTOM
370
-3
390
F
  0
LAYER
  5
1FD
100
AcDbSymbolTableRecord
100
AcDbLayerTableRecord
  2
DEFAULT_COORDINATE_SYSTEM
 70
0
 62
7
  6
CONTINUOUS
370
-3
390
F
  0
LAYER
  5
1FE
100
AcDbSymbolTableRecord
100
AcDbLayerTableRecord
  2
DEFAULT_DATUM_AXES
 70
0
 62
7
  6
CONTINUOUS
370
-3
390
F
  0
LAYER
  5
1FF
100
AcDbSymbolTableRecord
100
AcDbLayerTableRecord
  2
DEFAULT_DATUM_CURVES
 70
0
 62
7
  6
CONTINUOUS
370
-3
390
F
  0
LAYER
  5
200
100
AcDbSymbolTableRecord
100
AcDbLayerTableRecord
  2
DEFAULT_DATUM_PLANES
 70
0
 62
7
  6
CONTINUOUS
370
-3
390
F
  0
ENDTAB
  0
TABLE
  2
STYLE
  5
3
100
AcDbSymbolTable
 70
1
  0
STYLE
  5
11
100
AcDbSymbolTableRecord
100
AcDbTextStyleTableRecord
  2
STANDARD
 70
0
 40
0.0
 41
0.8
 50
0.0
 71
0
 42
0.2
  3
txt
  4

  0
STYLE
  5
201
100
AcDbSymbolTableRecord
100
AcDbTextStyleTableRecord
  2
TEXTSTYLE_1
 70
0
 40
0.0
 41
0.8
 50
0.0
 71
0
 42
0.2
  3
gdt
  4

  0
ENDTAB
  0
TABLE
  2
VIEW
  5
6
100
AcDbSymbolTable
 70
0
  0
ENDTAB
  0
TABLE
  2
UCS
  5
7
100
AcDbSymbolTable
 70
0
  0
ENDTAB
  0
TABLE
  2
APPID
  5
9
100
AcDbSymbolTable
 70
1
  0
APPID
  5
202
100
AcDbSymbolTableRecord
100
AcDbRegAppTableRecord
  2
ACAD
 70
0
  0
ENDTAB
  0
TABLE
  2
BLOCK_RECORD
  5
1
100
AcDbSymbolTable
 70
0
  0
BLOCK_RECORD
  5
203
100
AcDbSymbolTableRecord
100
AcDbBlockTableRecord
  2
*Model_Space
  0
BLOCK_RECORD
  5
204
100
AcDbSymbolTableRecord
100
AcDbBlockTableRecord
  2
*Paper_Space
  0
ENDTAB
  0
TABLE
  2
DIMSTYLE
  5
A
100
AcDbSymbolTable
 70
1
100
AcDbDimStyleTable
 71
0
  0
DIMSTYLE
105
205
100
AcDbSymbolTableRecord
100
AcDbDimStyleTableRecord
  2
STANDARD
 70
0
  3

  4

 40
1.0
 41
0.1875
 42
0.0625
 43
0.38
 44
0.18
 45
0.0
 46
0.0
 47
0.001
 48
0.001
140
0.15625
141
0.09
142
0.0
143
25.4
144
1.0
145
0.0
146
1.0
147
0.09
 71
0.0
 72
0.0
 73
1
 74
1
 75
0
 76
0
 77
0
 78
4
170
0
171
2
172
0
173
0
174
0
175
0
176
0
177
0
178
0
270
2
271
3
272
3
273
2
274
2
275
0
280
0
281
0
282
0
283
1
284
4
285
0
286
0
287
3
288
0
340
11
  0
ENDTAB
  0
ENDSEC
  0
SECTION
  2
BLOCKS
  0
BLOCK
  5
20
100
AcDbEntity
  8
0
100
AcDbBlockBegin
  2
*Model_Space
 70
0
 10
0.0
 20
0.0
 30
0.0
  3
*Model_Space
  1

  0
ENDBLK
  5
21
100
AcDbEntity
  8
0
100
AcDbBlockEnd
  0
BLOCK
  5
1C
100
AcDbEntity
  8
0
100
AcDbBlockBegin
  2
*Paper_Space
 70
0
 10
0.0
 20
0.0
 30
0.0
  3
*Paper_Space
  1

  0
ENDBLK
  5
1D
100
AcDbEntity
  8
0
100
AcDbBlockEnd
  0
ENDSEC
  0
SECTION
  2
ENTITIES
  0
LINE
  5
206
100
AcDbEntity
  8
0
100
AcDbLine
 62
6
  6
CONTINUOUS
 10
3.6497292419
 20
10.350656547
 11
3.6497292419
 21
9.665656547
  0
LINE
  5
207
100
AcDbEntity
  8
0
100
AcDbLine
 62
6
  6
CONTINUOUS
 10
3.8272292419
 20
10.861656547
 11
3.8272292419
 21
10.350656547
  0
LINE
  5
208
100
AcDbEntity
  8
0
100
AcDbLine
 62
6
  6
CONTINUOUS
 10
2.9882630243
 20
12.3770217596
 11
2.9572292419
 21
12.506656547
  0
LINE
  5
209
100
AcDbEntity
  8
0
100
AcDbLine
 62
7
  6
CONTINUOUS
 10
4.1397292419
 20
11.084048666
 11
4.1397292419
 21
11.165264428
  0
LINE
  5
20A
100
AcDbEntity
  8
0
100
AcDbLine
 62
7
  6
CONTINUOUS
 10
4.1397754931
 20
11.0840979468
 11
4.1397754931
 21
11.1652088398
  0
LINE
  5
20B
100
AcDbEntity
  8
0
100
AcDbLine
 62
6
  6
CONTINUOUS
 10
4.4522292419
 20
10.861656547
 11
4.4522292419
 21
10.721656547
  0
LINE
  5
20C
100
AcDbEntity
  8
0
100
AcDbLine
 62
6
  6
CONTINUOUS
 10
4.4522292419
 20
10.531656547
 11
4.4522292419
 21
10.350656547
  0
LINE
  5
20D
100
AcDbEntity
  8
0
100
AcDbLine
 62
6
  6
CONTINUOUS
 10
4.6297292419
 20
10.350656547
 11
4.6297292419
 21
10.326156547
  0
LINE
  5
20E
100
AcDbEntity
  8
0
100
AcDbLine
 62
6
  6
CONTINUOUS
 10
4.6297292419
 20
9.691156547
 11
4.6297292419
 21
9.665656547
  0
LINE
  5
20F
100
AcDbEntity
  8
0
100
AcDbLine
 62
6
  6
CONTINUOUS
 10
5.2911954594
 20
12.3770217596
 11
5.3222292419
 21
12.506656547
  0
LINE
  5
210
100
AcDbEntity
  8
0
100
AcDbLine
 62
6
  6
CONTINUOUS
 10
28.3735700976
 20
9.5836563113
 11
28.3718883861
 21
9.5836563113
  0
LINE
  5
211
100
AcDbEntity
  8
0
100
AcDbLine
 62
6
  6
CONTINUOUS
 10
4.1405700976
 20
9.5836563113
 11
4.1388883861
 21
9.5836563113
  0
LINE
  5
212
100
AcDbEntity
  8
0
100
AcDbLine
 62
6
  6
CONTINUOUS
 10
28.8627292419
 20
9.665656547
 11
27.8827292419
 21
9.665656547
  0
LINE
  5
213
100
AcDbEntity
  8
0
100
AcDbLine
 62
6
  6
CONTINUOUS
 10
3.6497292419
 20
9.665656547
 11
4.6297292419
 21
9.665656547
  0
LINE
  5
214
100
AcDbEntity
  8
0
100
AcDbLine
 62
6
  6
CONTINUOUS
 10
4.626511745
 20
9.696156547
 11
27.8859466812
 21
9.696156547
  0
LINE
  5
215
100
AcDbEntity
  8
0
100
AcDbLine
 62
6
  6
CONTINUOUS
 10
4.6265117784
 20
10.321156547
 11
27.8859467093
 21
10.321156547
  0
LINE
  5
216
100
AcDbEntity
  8
0
100
AcDbLine
 62
6
  6
CONTINUOUS
 10
28.8627292419
 20
10.350656547
 11
27.8827292419
 21
10.350656547
  0
LINE
  5
217
100
AcDbEntity
  8
0
100
AcDbLine
 62
6
  6
CONTINUOUS
 10
3.6497292419
 20
10.350656547
 11
4.6297292419
 21
10.350656547
  0
LINE
  5
218
100
AcDbEntity
  8
0
100
AcDbLine
 62
7
  6
CONTINUOUS
 10
28.0602292419
 20
10.626656547
 11
28.0675714799
 21
10.626656547
  0
LINE
  5
219
100
AcDbEntity
  8
0
100
AcDbLine
 62
7
  6
CONTINUOUS
 10
28.6852292419
 20
10.861656547
 11
28.0602292419
 21
10.861656547
  0
LINE
  5
21A
100
AcDbEntity
  8
0
100
AcDbLine
 62
7
  6
CONTINUOUS
 10
3.8272292419
 20
10.861656547
 11
4.4522292419
 21
10.861656547
  0
LINE
  5
21B
100
AcDbEntity
  8
0
100
AcDbLine
 62
6
  6
CONTINUOUS
 10
3.6497292419
 20
11.067656547
 11
4.6297292419
 21
11.067656547
  0
LINE
  5
21C
100
AcDbEntity
  8
0
100
AcDbLine
 62
6
  6
CONTINUOUS
 10
27.8827292419
 20
11.067656547
 11
28.8627292419
 21
11.067656547
  0
LINE
  5
21D
100
AcDbEntity
  8
0
100
AcDbLine
 62
6
  6
CONTINUOUS
 10
3.6497292419
 20
11.181656547
 11
4.6297292419
 21
11.181656547
  0
LINE
  5
21E
100
AcDbEntity
  8
0
100
AcDbLine
 62
6
  6
CONTINUOUS
 10
27.8827292419
 20
11.181656547
 11
28.8627292419
 21
11.181656547
  0
LINE
  5
21F
100
AcDbEntity
  8
0
100
AcDbLine
 62
6
  6
CONTINUOUS
 10
3.4747292419
 20
11.871656547
 11
4.8047292419
 21
11.871656547
  0
LINE
  5
220
100
AcDbEntity
  8
0
100
AcDbLine
 62
6
  6
CONTINUOUS
 10
27.7077292419
 20
11.871656547
 11
29.0377292419
 21
11.871656547
  0
LINE
  5
221
100
AcDbEntity
  8
0
100
AcDbLine
 62
7
  6
CONTINUOUS
 10
3.4747292419
 20
12.031656547
 11
4.8047292419
 21
12.031656547
  0
LINE
  5
222
100
AcDbEntity
  8
0
100
AcDbLine
 62
7
  6
CONTINUOUS
 10
27.7077292419
 20
12.031656547
 11
29.0377292419
 21
12.031656547
  0
LINE
  5
223
100
AcDbEntity
  8
0
100
AcDbLine
 62
9
  6
CONTINUOUS
 10
29.205719917
 20
12.1324125057
 11
27.5397385667
 21
12.1324125057
  0
LINE
  5
224
100
AcDbEntity
  8
0
100
AcDbLine
 62
9
  6
CONTINUOUS
 10
4.972719917
 20
12.1324125057
 11
3.3067385667
 21
12.1324125057
  0
LINE
  5
225
100
AcDbEntity
  8
0
100
AcDbLine
 62
9
  6
CONTINUOUS
 10
29.4823132519
 20
12.333829349
 11
27.2631452318
 21
12.333829349
  0
LINE
  5
226
100
AcDbEntity
  8
0
100
AcDbLine
 62
9
  6
CONTINUOUS
 10
5.2493132519
 20
12.333829349
 11
3.0301452318
 21
12.333829349
  0
LINE
  5
227
100
AcDbEntity
  8
0
100
AcDbLine
 62
9
  6
CONTINUOUS
 10
29.5241954594
 20
12.3770217596
 11
27.2212630243
 21
12.3770217596
  0
LINE
  5
228
100
AcDbEntity
  8
0
100
AcDbLine
 62
9
  6
CONTINUOUS
 10
5.2911954594
 20
12.3770217596
 11
2.9882630243
 21
12.3770217596
  0
LINE
  5
229
100
AcDbEntity
  8
0
100
AcDbLine
 62
6
  6
CONTINUOUS
 10
2.9572292419
 20
12.506656547
 11
5.3222292419
 21
12.506656547
  0
LINE
  5
22A
100
AcDbEntity
  8
0
100
AcDbLine
 62
6
  6
CONTINUOUS
 10
27.1902292419
 20
12.506656547
 11
29.5552292419
 21
12.506656547
  0
LINE
  5
22B
100
AcDbEntity
  8
0
100
AcDbLine
 62
7
  6
CONTINUOUS
 10
4.8897292419
 20
12.508656547
 11
3.3897292419
 21
12.508656547
  0
LINE
  5
22C
100
AcDbEntity
  8
0
100
AcDbLine
 62
6
  6
CONTINUOUS
 10
28.0602292419
 20
10.688656547
 11
28.0657651533
 21
10.6941924584
  0
LINE
  5
22D
100
AcDbEntity
  8
0
100
AcDbLine
 62
6
  6
CONTINUOUS
 10
27.8827292419
 20
10.350656547
 11
27.8827292419
 21
10.326156547
  0
LINE
  5
22E
100
AcDbEntity
  8
0
100
AcDbLine
 62
6
  6
CONTINUOUS
 10
27.8827292419
 20
9.691156547
 11
27.8827292419
 21
9.665656547
  0
LINE
  5
22F
100
AcDbEntity
  8
0
100
AcDbLine
 62
6
  6
CONTINUOUS
 10
27.2212630243
 20
12.3770217596
 11
27.1902292419
 21
12.506656547
  0
LINE
  5
230
100
AcDbEntity
  8
0
100
AcDbLine
 62
6
  6
CONTINUOUS
 10
28.0602292419
 20
10.861656547
 11
28.0602292419
 21
10.721656547
  0
LINE
  5
231
100
AcDbEntity
  8
0
100
AcDbLine
 62
6
  6
CONTINUOUS
 10
28.0602292419
 20
10.688656547
 11
28.0602292419
 21
10.626656547
  0
LINE
  5
232
100
AcDbEntity
  8
0
100
AcDbLine
 62
6
  6
CONTINUOUS
 10
28.0602292419
 20
10.531656547
 11
28.0602292419
 21
10.350656547
  0
LINE
  5
233
100
AcDbEntity
  8
0
100
AcDbLine
 62
7
  6
CONTINUOUS
 10
28.0633192418
 20
10.626656547
 11
28.0633192418
 21
10.6757721553
  0
LINE
  5
234
100
AcDbEntity
  8
0
100
AcDbLine
 62
7
  6
CONTINUOUS
 10
28.3727292419
 20
11.084048666
 11
28.3727292419
 21
11.165264428
  0
LINE
  5
235
100
AcDbEntity
  8
0
100
AcDbLine
 62
6
  6
CONTINUOUS
 10
28.6852292419
 20
10.861656547
 11
28.6852292419
 21
10.350656547
  0
LINE
  5
236
100
AcDbEntity
  8
0
100
AcDbLine
 62
6
  6
CONTINUOUS
 10
28.8627292419
 20
10.350656547
 11
28.8627292419
 21
9.665656547
  0
LINE
  5
237
100
AcDbEntity
  8
0
100
AcDbLine
 62
6
  6
CONTINUOUS
 10
29.5241954594
 20
12.3770217596
 11
29.5552292419
 21
12.506656547
  0
ARC
  5
238
100
AcDbEntity
  8
0
100
AcDbCircle
 62
6
  6
CONTINUOUS
 10
4.1388883861
 20
11.0836563113
 40
1.5
100
AcDbArc
 50
250.9673990432
 51
270.0
  0
ARC
  5
239
100
AcDbEntity
  8
0
100
AcDbCircle
 62
6
  6
CONTINUOUS
 10
4.1405700976
 20
11.0836563113
 40
1.5
100
AcDbArc
 50
270.0
 51
289.0326009568
  0
ARC
  5
23A
100
AcDbEntity
  8
0
100
AcDbCircle
 62
6
  6
CONTINUOUS
 10
5.6230647011
 20
11.2969156696
 40
1.0
100
AcDbArc
 50
144.918512302
 51
186.6185710667
  0
ARC
  5
23B
100
AcDbEntity
  8
0
100
AcDbCircle
 62
6
  6
CONTINUOUS
 10
2.6563937826
 20
11.2969156696
 40
1.0
100
AcDbArc
 50
353.3814289333
 51
35.081487698
  0
ARC
  5
23C
100
AcDbEntity
  8
0
100
AcDbCircle
 62
6
  6
CONTINUOUS
 10
4.8272554951
 20
10.6266507152
 40
0.3864175927
100
AcDbArc
 50
176.6076620419
 51
184.7179626782
  0
ARC
  5
23D
100
AcDbEntity
  8
0
100
AcDbCircle
 62
6
  6
CONTINUOUS
 10
4.4298192621
 20
11.061656547
 40
0.2
100
AcDbArc
 50
270.0
 51
1.7191313209
  0
ARC
  5
23E
100
AcDbEntity
  8
0
100
AcDbCircle
 62
6
  6
CONTINUOUS
 10
3.8496392216
 20
11.061656547
 40
0.2
100
AcDbArc
 50
178.2808686791
 51
270.0
  0
ARC
  5
23F
100
AcDbEntity
  8
0
100
AcDbCircle
 62
6
  6
CONTINUOUS
 10
4.6297292419
 20
11.124656547
 40
0.057
100
AcDbArc
 50
270.0
 51
90.0
  0
ARC
  5
240
100
AcDbEntity
  8
0
100
AcDbCircle
 62
6
  6
CONTINUOUS
 10
3.6497292419
 20
11.124656547
 40
0.057
100
AcDbArc
 50
90.0
 51
270.0
  0
ARC
  5
241
100
AcDbEntity
  8
0
100
AcDbCircle
 62
6
  6
CONTINUOUS
 10
5.3756493347
 20
11.8697170844
 40
0.481
100
AcDbArc
 50
105.2275389255
 51
146.8971023265
  0
ARC
  5
242
100
AcDbEntity
  8
0
100
AcDbCircle
 62
6
  6
CONTINUOUS
 10
2.9038091491
 20
11.8697170844
 40
0.481
100
AcDbArc
 50
33.1028976735
 51
74.7724610745
  0
ARC
  5
243
100
AcDbEntity
  8
0
100
AcDbCircle
 62
6
  6
CONTINUOUS
 10
4.7867524939
 20
12.253656547
 40
0.222
100
AcDbArc
 50
269.9999997624
 51
326.8971021179
  0
ARC
  5
244
100
AcDbEntity
  8
0
100
AcDbCircle
 62
6
  6
CONTINUOUS
 10
3.4927059898
 20
12.253656547
 40
0.222
100
AcDbArc
 50
213.1028978821
 51
270.0000002376
  0
ARC
  5
245
100
AcDbEntity
  8
0
100
AcDbCircle
 62
6
  6
CONTINUOUS
 10
4.8047292419
 20
11.951656547
 40
0.08
100
AcDbArc
 50
270.0
 51
90.0
  0
ARC
  5
246
100
AcDbEntity
  8
0
100
AcDbCircle
 62
6
  6
CONTINUOUS
 10
3.4747292419
 20
11.951656547
 40
0.08
100
AcDbArc
 50
90.0
 51
270.0
  0
ARC
  5
247
100
AcDbEntity
  8
0
100
AcDbCircle
 62
6
  6
CONTINUOUS
 10
5.2338167266
 20
12.3907578806
 40
0.059
100
AcDbArc
 50
285.2275385202
 51
346.53710462
  0
ARC
  5
248
100
AcDbEntity
  8
0
100
AcDbCircle
 62
6
  6
CONTINUOUS
 10
3.0456417571
 20
12.3907578806
 40
0.059
100
AcDbArc
 50
193.46289538
 51
254.7724614798
  0
ARC
  5
249
100
AcDbEntity
  8
0
100
AcDbCircle
 62
6
  6
CONTINUOUS
 10
28.3718883861
 20
11.0836563113
 40
1.5
100
AcDbArc
 50
250.9673990432
 51
270.0
  0
ARC
  5
24A
100
AcDbEntity
  8
0
100
AcDbCircle
 62
6
  6
CONTINUOUS
 10
28.3735700976
 20
11.0836563113
 40
1.5
100
AcDbArc
 50
270.0
 51
289.0326009568
  0
ARC
  5
24B
100
AcDbEntity
  8
0
100
AcDbCircle
 62
6
  6
CONTINUOUS
 10
26.8893937826
 20
11.2969156696
 40
1.0
100
AcDbArc
 50
353.3814289333
 51
35.081487698
  0
ARC
  5
24C
100
AcDbEntity
  8
0
100
AcDbCircle
 62
6
  6
CONTINUOUS
 10
29.8560647011
 20
11.2969156696
 40
1.0
100
AcDbArc
 50
144.918512302
 51
186.6185710667
  0
ARC
  5
24D
100
AcDbEntity
  8
0
100
AcDbCircle
 62
6
  6
CONTINUOUS
 10
27.6287568686
 20
10.6181305023
 40
0.4432981961
100
AcDbArc
 50
1.0171725632
 51
4.0514861182
  0
ARC
  5
24E
100
AcDbEntity
  8
0
100
AcDbCircle
 62
7
  6
CONTINUOUS
 10
27.7681899316
 20
10.6267308747
 40
0.3037961571
100
AcDbArc
 50
353.99527505
 51
359.8621509653
  0
ARC
  5
24F
100
AcDbEntity
  8
0
100
AcDbCircle
 62
6
  6
CONTINUOUS
 10
28.0826392216
 20
11.061656547
 40
0.2
100
AcDbArc
 50
178.2808686791
 51
270.0
  0
ARC
  5
250
100
AcDbEntity
  8
0
100
AcDbCircle
 62
6
  6
CONTINUOUS
 10
28.6628192621
 20
11.061656547
 40
0.2
100
AcDbArc
 50
270.0
 51
1.7191313209
  0
ARC
  5
251
100
AcDbEntity
  8
0
100
AcDbCircle
 62
6
  6
CONTINUOUS
 10
27.8827292419
 20
11.124656547
 40
0.057
100
AcDbArc
 50
90.0
 51
270.0
  0
ARC
  5
252
100
AcDbEntity
  8
0
100
AcDbCircle
 62
6
  6
CONTINUOUS
 10
28.8627292419
 20
11.124656547
 40
0.057
100
AcDbArc
 50
270.0
 51
90.0
  0
ARC
  5
253
100
AcDbEntity
  8
0
100
AcDbCircle
 62
7
  6
CONTINUOUS
 10
28.4114790353
 20
11.1259917967
 40
0.0551389623
100
AcDbArc
 50
134.6493520531
 51
145.8939087056
  0
ARC
  5
254
100
AcDbEntity
  8
0
100
AcDbCircle
 62
7
  6
CONTINUOUS
 10
28.4112951092
 20
11.123150259
 40
0.054888026
100
AcDbArc
 50
224.9005388868
 51
225.3617640879
  0
ARC
  5
255
100
AcDbEntity
  8
0
100
AcDbCircle
 62
6
  6
CONTINUOUS
 10
27.1368091491
 20
11.8697170844
 40
0.481
100
AcDbArc
 50
33.1028976735
 51
74.7724610745
  0
ARC
  5
256
100
AcDbEntity
  8
0
100
AcDbCircle
 62
6
  6
CONTINUOUS
 10
29.6086493347
 20
11.8697170844
 40
0.481
100
AcDbArc
 50
105.2275389255
 51
146.8971023265
  0
ARC
  5
257
100
AcDbEntity
  8
0
100
AcDbCircle
 62
6
  6
CONTINUOUS
 10
27.7257059898
 20
12.253656547
 40
0.222
100
AcDbArc
 50
213.1028978821
 51
270.0000002376
  0
ARC
  5
258
100
AcDbEntity
  8
0
100
AcDbCircle
 62
6
  6
CONTINUOUS
 10
29.0197524939
 20
12.253656547
 40
0.222
100
AcDbArc
 50
269.9999997624
 51
326.8971021179
  0
ARC
  5
259
100
AcDbEntity
  8
0
100
AcDbCircle
 62
6
  6
CONTINUOUS
 10
27.7077292419
 20
11.951656547
 40
0.08
100
AcDbArc
 50
90.0
 51
270.0
  0
ARC
  5
25A
100
AcDbEntity
  8
0
100
AcDbCircle
 62
6
  6
CONTINUOUS
 10
29.0377292419
 20
11.951656547
 40
0.08
100
AcDbArc
 50
270.0
 51
90.0
  0
ARC
  5
25B
100
AcDbEntity
  8
0
100
AcDbCircle
 62
6
  6
CONTINUOUS
 10
27.2786417571
 20
12.3907578806
 40
0.059
100
AcDbArc
 50
193.46289538
 51
254.7724614798
  0
ARC
  5
25C
100
AcDbEntity
  8
0
100
AcDbCircle
 62
6
  6
CONTINUOUS
 10
29.4668167266
 20
12.3907578806
 40
0.059
100
AcDbArc
 50
285.2275385202
 51
346.53710462
  0
SPLINE
  5
25D
100
AcDbEntity
  8
0
100
AcDbSpline
 62
7
  6
CONTINUOUS
 70
0
 71
3
 72
75
 73
71
 74
69
 42
0.0000001
 43
0.0000001
 44
0.0000000001
 12
0.373654693
 22
-0.5754820791
 32
0.0
 13
-0.3736526528
 23
-0.5754834034
 33
0.0
 40
0.0
 40
0.0
 40
0.0
 40
0.0
 40
0.0007109356
 40
0.0028320215
 40
0.0063456835
 40
0.0112289953
 40
0.0174407452
 40
0.0249358516
 40
0.033665076
 40
0.0435708795
 40
0.0666773835
 40
0.0797582393
 40
0.0937775366
 40
0.1086784233
 40
0.1244058097
 40
0.1409064473
 40
0.1581317318
 40
0.1760351108
 40
0.194572491
 40
0.2137037365
 40
0.2333911467
 40
0.2535982319
 40
0.2742899398
 40
0.2954344071
 40
0.3169974967
 40
0.3389448802
 40
0.3612449307
 40
0.3838561576
 40
0.3952659996
 40
0.4067389547
 40
0.4298490611
 40
0.4414727848
 40
0.4531326147
 40
0.4648220087
 40
0.4765345784
 40
0.4882628932
 40
0.4999990583
 40
0.511735163
 40
0.5234633099
 40
0.5351756625
 40
0.5468651071
 40
0.558525206
 40
0.570149227
 40
0.5932593447
 40
0.6161409397
 40
0.638752851
 40
0.6610530167
 40
0.6830005895
 40
0.704564145
 40
0.7257087612
 40
0.7464007833
 40
0.7666082625
 40
0.805425679
 40
0.8239633668
 40
0.841867048
 40
0.8590925622
 40
0.8755934373
 40
0.8913210547
 40
0.9062221134
 40
0.9202415596
 40
0.9333225358
 40
0.9564291758
 40
0.9663350077
 40
0.9750642474
 40
0.9825593502
 40
0.9887710681
 40
0.993654363
 40
0.9971680182
 40
0.9992890791
 40
1.0
 40
1.0
 40
1.0
 40
1.0
 10
27.8827292419
 20
10.326156547
 30
0.0
 10
27.88281779
 20
10.3260201701
 30
0.0
 10
27.883170271
 20
10.3254767477
 30
0.0
 10
27.8839581866
 20
10.3242578847
 30
0.0
 10
27.8852615054
 20
10.3222358844
 30
0.0
 10
27.8870668829
 20
10.3194243842
 30
0.0
 10
27.8893536319
 20
10.3158398109
 30
0.0
 10
27.892098375
 20
10.3115040765
 30
0.0
 10
27.8952743181
 20
10.3064414041
 30
0.0
 10
27.9003062934
 20
10.2983282183
 30
0.0
 10
27.9057818985
 20
10.2893191076
 30
0.0
 10
27.9116386809
 20
10.2794418246
 30
0.0
 10
27.9164688192
 20
10.2711380232
 30
0.0
 10
27.9215192834
 20
10.2622626103
 30
0.0
 10
27.9267510311
 20
10.2528380213
 30
0.0
 10
27.9321255884
 20
10.2428854624
 30
0.0
 10
27.9376008415
 20
10.2324227092
 30
0.0
 10
27.9431358162
 20
10.2214667655
 30
0.0
 10
27.9486885549
 20
10.2100330174
 30
0.0
 10
27.9542125153
 20
10.1981337449
 30
0.0
 10
27.9596625589
 20
10.185781661
 30
0.0
 10
27.964990397
 20
10.1729886277
 30
0.0
 10
27.9701427909
 20
10.1597653463
 30
0.0
 10
27.9750671739
 20
10.1461249642
 30
0.0
 10
27.9797070417
 20
10.1320820448
 30
0.0
 10
27.9840026766
 20
10.1176535996
 30
0.0
 10
27.9878931448
 20
10.1028623312
 30
0.0
 10
27.9907401232
 20
10.090296314
 30
0.0
 10
27.9927596622
 20
10.0800884224
 30
0.0
 10
27.9946045825
 20
10.0697316732
 30
0.0
 10
27.9961524552
 20
10.0592740738
 30
0.0
 10
27.9973886388
 20
10.0487348087
 30
0.0
 10
27.9981567537
 20
10.0407723042
 30
0.0
 10
27.9987588736
 20
10.0327751631
 30
0.0
 10
27.9991894556
 20
10.0247512405
 30
0.0
 10
27.9994479461
 20
10.0167092408
 30
0.0
 10
27.9995343322
 20
10.0086581683
 30
0.0
 10
27.9994484061
 20
10.0006071294
 30
0.0
 10
27.9991901489
 20
9.9925652187
 30
0.0
 10
27.9987589658
 20
9.9845414033
 30
0.0
 10
27.9981566131
 20
9.9765442584
 30
0.0
 10
27.9973886925
 20
9.9685816039
 30
0.0
 10
27.9961529752
 20
9.9580421095
 30
0.0
 10
27.9942235157
 20
9.9450026452
 30
0.0
 10
27.9913204151
 20
9.9295790864
 30
0.0
 10
27.9878938287
 20
9.914453614
 30
0.0
 10
27.9840034803
 20
9.8996619978
 30
0.0
 10
27.9797077478
 20
9.8852334187
 30
0.0
 10
27.9750678753
 20
9.8711902998
 30
0.0
 10
27.9701436108
 20
9.8575496651
 30
0.0
 10
27.9649910843
 20
9.8443261668
 30
0.0
 10
27.9579809449
 20
9.8274938637
 30
0.0
 10
27.9506559559
 20
9.8113312894
 30
0.0
 10
27.9431362737
 20
9.79584732
 30
0.0
 10
27.9376012684
 20
9.784891112
 30
0.0
 10
27.932125905
 20
9.774428234
 30
0.0
 10
27.9267512724
 20
9.7644755304
 30
0.0
 10
27.9215194821
 20
9.7550507984
 30
0.0
 10
27.9164689393
 20
9.7461752846
 30
0.0
 10
27.9116387556
 20
9.7378713931
 30
0.0
 10
27.90578193
 20
9.7279940278
 30
0.0
 10
27.9003062851
 20
9.7189848651
 30
0.0
 10
27.8952742914
 20
9.7108716424
 30
0.0
 10
27.8920983427
 20
9.7058089626
 30
0.0
 10
27.8893535975
 20
9.7014732351
 30
0.0
 10
27.8870668588
 20
9.6978886695
 30
0.0
 10
27.8852614881
 20
9.69507718
 30
0.0
 10
27.883958171
 20
9.693055192
 30
0.0
 10
27.8831702622
 20
9.6918363372
 30
0.0
 10
27.8828177877
 20
9.6912929214
 30
0.0
 10
27.8827292419
 20
9.691156547
 30
0.0
 11
27.8827292419
 21
10.326156547
 31
0.0
 11
27.8829947069
 21
10.3257473
 31
0.0
 11
27.8837850745
 21
10.3245252368
 31
0.0
 11
27.8850913031
 21
10.3224988742
 31
0.0
 11
27.8869014787
 21
10.3196792571
 31
0.0
 11
27.8891938753
 21
10.3160860658
 31
0.0
 11
27.8919446527
 21
10.311740836
 31
0.0
 11
27.8951272544
 21
10.3066668342
 31
0.0
 11
27.8987097173
 21
10.3008907705
 31
0.0
 11
27.9069413029
 21
10.2873406928
 31
0.0
 11
27.9115187711
 21
10.2796203087
 31
0.0
 11
27.9163546461
 21
10.2713049534
 31
0.0
 11
27.921410501
 21
10.2624183079
 31
0.0
 11
27.9266473111
 21
10.2529828514
 31
0.0
 11
27.9320256013
 21
10.2430199979
 31
0.0
 11
27.9375043344
 21
10.2325474654
 31
0.0
 11
27.9430421246
 21
10.2215821573
 31
0.0
 11
27.9485962863
 21
10.2101395419
 31
0.0
 11
27.9541214567
 21
10.1982321313
 31
0.0
 11
27.9595718742
 21
10.1858720668
 31
0.0
 11
27.9648989297
 21
10.1730712319
 31
0.0
 11
27.9700502085
 21
10.1598411658
 31
0.0
 11
27.9749727993
 21
10.146193597
 31
0.0
 11
27.9796101009
 21
10.1321436668
 31
0.0
 11
27.9839025464
 21
10.117709259
 31
0.0
 11
27.9877904372
 21
10.1029103358
 31
0.0
 11
27.9912138042
 21
10.0877781209
 31
0.0
 11
27.9927325213
 21
10.0800980168
 31
0.0
 11
27.9941126045
 21
10.0723478039
 31
0.0
 11
27.9964318573
 21
10.0566614068
 31
0.0
 11
27.9973605054
 21
10.0487400762
 31
0.0
 11
27.9981282144
 21
10.0407766425
 31
0.0
 11
27.9987297693
 21
10.0327785941
 31
0.0
 11
27.9991605366
 21
10.0247536066
 31
0.0
 11
27.9994191979
 21
10.0167104206
 31
0.0
 11
27.999505607
 21
10.0086581536
 31
0.0
 11
27.9994196195
 21
10.0006059237
 31
0.0
 11
27.9991610906
 21
9.9925628486
 31
0.0
 11
27.9987299276
 21
9.9845380315
 31
0.0
 11
27.9981281508
 21
9.9765399651
 31
0.0
 11
27.9973605853
 21
9.9685763321
 31
0.0
 11
27.9964322495
 21
9.9606547595
 31
0.0
 11
27.994113341
 21
9.9449683036
 31
0.0
 11
27.9912143177
 21
9.9295381465
 31
0.0
 11
27.9877910667
 21
9.9144054239
 31
0.0
 11
27.9839033171
 21
9.8996063818
 31
0.0
 11
27.9796108416
 21
9.8851718475
 31
0.0
 11
27.9749735003
 21
9.8711215938
 31
0.0
 11
27.9700509998
 21
9.8574738838
 31
0.0
 11
27.9648996353
 21
9.8442436197
 31
0.0
 11
27.9595724835
 21
9.8314425321
 31
0.0
 11
27.9485968314
 21
9.8071746829
 31
0.0
 11
27.9430425729
 21
9.7957318798
 31
0.0
 11
27.9375047395
 21
9.7847663613
 31
0.0
 11
27.932025923
 21
9.7742936947
 31
0.0
 11
27.9266475565
 21
9.7643306971
 31
0.0
 11
27.9214106856
 21
9.754895093
 31
0.0
 11
27.9163547669
 21
9.7460083481
 31
0.0
 11
27.9115188422
 21
9.7376929036
 31
0.0
 11
27.9069413343
 21
9.7299724469
 31
0.0
 11
27.8987096977
 21
9.7164222911
 31
0.0
 11
27.8951272256
 21
9.71064621
 31
0.0
 11
27.8919446172
 21
9.7055722
 31
0.0
 11
27.8891938388
 21
9.7012269738
 31
0.0
 11
27.886901456
 21
9.6976337998
 31
0.0
 11
27.8850912858
 21
9.6948141929
 31
0.0
 11
27.8837850573
 21
9.6927878359
 31
0.0
 11
27.8829947002
 21
9.6915657863
 31
0.0
 11
27.8827292419
 21
9.691156547
 31
0.0
  0
SPLINE
  5
25E
100
AcDbEntity
  8
0
100
AcDbSpline
 62
6
  6
CONTINUOUS
 70
0
 71
3
 72
15
 73
11
 74
9
 42
0.0000001
 43
0.0000001
 44
0.0000000001
 12
0.0165942038
 22
-0.0711725539
 32
0.0
 13
0.0043075433
 23
-0.0729564722
 33
0.0
 40
0.0
 40
0.0
 40
0.0
 40
0.0
 40
0.0816136226
 40
0.3040746824
 40
0.4543309833
 40
0.5368318613
 40
0.6234265901
 40
0.8067438613
 40
0.9024175111
 40
1.0
 40
1.0
 40
1.0
 40
1.0
 10
28.0602292419
 20
10.721656547
 30
0.0
 10
28.0606806796
 20
10.7197203303
 30
0.0
 10
28.0623191336
 20
10.7124959406
 30
0.0
 10
28.0645176444
 20
10.7016458421
 30
0.0
 10
28.0663892087
 20
10.6907141316
 30
0.0
 10
28.0675509941
 20
10.6830213156
 30
0.0
 10
28.068708248
 20
10.6745142444
 30
0.0
 10
28.0696990879
 20
10.6656614821
 30
0.0
 10
28.070486268
 20
10.6565212031
 30
0.0
 10
28.070807133
 20
10.6518238785
 30
0.0
 10
28.0709472466
 20
10.6494507871
 30
0.0
 11
28.0602292419
 21
10.721656547
 31
0.0
 11
28.0615481685
 21
10.7158395873
 31
0.0
 11
28.0647704272
 21
10.699903861
 31
0.0
 11
28.0666218557
 21
10.6890798003
 31
0.0
 11
28.0675218459
 21
10.6831178924
 31
0.0
 11
28.0683746969
 21
10.6768469728
 31
0.0
 11
28.0698619575
 21
10.663532307
 31
0.0
 11
28.070461908
 21
10.6565659257
 31
0.0
 11
28.0709472466
 21
10.6494507871
 31
0.0
  0
SPLINE
  5
25F
100
AcDbEntity
  8
0
100
AcDbSpline
 62
7
  6
CONTINUOUS
 70
0
 71
3
 72
13
 73
9
 74
7
 42
0.0000001
 43
0.0000001
 44
0.0000000001
 12
-0.0052336882
 22
-0.0639347873
 32
0.0
 13
-0.0145656236
 23
-0.0624728576
 33
0.0
 40
0.0
 40
0.0
 40
0.0
 40
0.0
 40
0.0998603978
 40
0.1972970583
 40
0.3827766477
 40
0.7019428981
 40
0.9207256527
 40
1.0
 40
1.0
 40
1.0
 40
1.0
 10
28.0703192419
 20
10.5949506138
 30
0.0
 10
28.0701450291
 20
10.5928224294
 30
0.0
 10
28.0697665423
 20
10.5886204422
 30
0.0
 10
28.0689048788
 20
10.580480771
 30
0.0
 10
28.0672642179
 20
10.5677097729
 30
0.0
 10
28.0647049137
 20
10.5524475345
 30
0.0
 10
28.0620293277
 20
10.5395217144
 30
0.0
 10
28.0606141353
 20
10.5333073787
 30
0.0
 10
28.0602292419
 20
10.531656547
 30
0.0
 11
28.0703192419
 21
10.5949506138
 31
0.0
 11
28.0697450755
 21
10.5885704881
 31
0.0
 11
28.0690871686
 21
10.5823547798
 31
0.0
 11
28.0675731031
 21
10.570553242
 31
0.0
 11
28.0641988362
 21
10.5503591249
 31
0.0
 11
28.0613582219
 21
10.5366149849
 31
0.0
 11
28.0602292419
 21
10.531656547
 31
0.0
  0
SPLINE
  5
260
100
AcDbEntity
  8
0
100
AcDbSpline
 62
7
  6
CONTINUOUS
 70
0
 71
3
 72
26
 73
22
 74
20
 42
0.0000001
 43
0.0000001
 44
0.0000000001
 12
-0.0556058466
 22
0.0557992129
 32
0.0
 13
0.0441839572
 23
0.0652176377
 33
0.0
 40
0.0
 40
0.0
 40
0.0
 40
0.0
 40
0.055289607
 40
0.1121403035
 40
0.1706620024
 40
0.2309150381
 40
0.2928918946
 40
0.3564913101
 40
0.4214989906
 40
0.4544392277
 40
0.4875969692
 40
0.5209108366
 40
0.5543199988
 40
0.5877575913
 40
0.621153829
 40
0.6875428407
 40
0.7530328619
 40
0.8172261109
 40
0.8798697346
 40
0.9407916643
 40
1.0
 40
1.0
 40
1.0
 40
1.0
 10
28.3724160982
 20
11.0844059962
 30
0.0
 10
28.3713912897
 20
11.0854343683
 30
0.0
 10
28.3693946489
 20
11.0876036303
 30
0.0
 10
28.3666310676
 20
11.0911373236
 30
0.0
 10
28.3640944112
 20
11.0949950568
 30
0.0
 10
28.3618248811
 20
11.0991699424
 30
0.0
 10
28.3598654957
 20
11.1036454807
 30
0.0
 10
28.3582606422
 20
11.108392159
 30
0.0
 10
28.3572580966
 20
11.1125201792
 30
0.0
 10
28.3566689872
 20
11.1159129763
 30
0.0
 10
28.3563372708
 20
11.1185031272
 30
0.0
 10
28.3561202378
 20
11.1211177215
 30
0.0
 10
28.356020914
 20
11.1237467899
 30
0.0
 10
28.3560392468
 20
11.1263798646
 30
0.0
 10
28.356219668
 20
11.1298744074
 30
0.0
 10
28.3567357032
 20
11.1341898354
 30
0.0
 10
28.3577981224
 20
11.1392343361
 30
0.0
 10
28.3592744911
 20
11.1440707388
 30
0.0
 10
28.361119065
 20
11.1486496267
 30
0.0
 10
28.3632916211
 20
11.152935345
 30
0.0
 10
28.364951915
 20
11.1556225604
 30
0.0
 10
28.3658239345
 20
11.156909703
 30
0.0
 11
28.3724160982
 21
11.0844059962
 31
0.0
 11
28.3694663745
 21
11.0876105501
 31
0.0
 11
28.3667071433
 21
11.0911380182
 31
0.0
 11
28.3641738423
 21
11.094989658
 31
0.0
 11
28.3619062872
 21
11.0991594353
 31
0.0
 11
28.3599475512
 21
11.1036315411
 31
0.0
 11
28.3583421603
 21
11.1083774351
 31
0.0
 11
28.3571329759
 21
11.1133536355
 31
0.0
 11
28.3566889513
 21
11.1159102435
 31
0.0
 11
28.3563570421
 21
11.1185010839
 31
0.0
 11
28.3561400932
 21
11.121116414
 31
0.0
 11
28.3560405539
 21
11.1237463508
 31
0.0
 11
28.3560588508
 21
11.1263803467
 31
0.0
 11
28.3561947476
 21
11.1290076362
 31
0.0
 11
28.3568152519
 21
11.1342005155
 31
0.0
 11
28.3578798213
 21
11.1392484848
 31
0.0
 11
28.3593561665
 21
11.1440850249
 31
0.0
 11
28.3612014778
 21
11.1486617967
 31
0.0
 11
28.363371748
 21
11.1529421889
 31
0.0
 11
28.3658239345
 21
11.156909703
 31
0.0
  0
SPLINE
  5
261
100
AcDbEntity
  8
0
100
AcDbSpline
 62
7
  6
CONTINUOUS
 70
0
 71
3
 72
27
 73
23
 74
21
 42
0.0000001
 43
0.0000001
 44
0.0000000001
 12
-0.064232688
 22
-0.0632711546
 32
0.0
 13
0.064232688
 23
-0.0632711546
 33
0.0
 40
0.0
 40
0.0
 40
0.0
 40
0.0
 40
0.056002448
 40
0.1138481019
 40
0.1736778949
 40
0.2355503214
 40
0.2994015404
 40
0.3650013129
 40
0.3983457735
 40
0.4319534713
 40
0.4657493421
 40
0.4996437632
 40
0.5335418698
 40
0.5673534089
 40
0.6009947777
 40
0.6343804141
 40
0.7000766904
 40
0.7640459494
 40
0.8260193067
 40
0.8859788585
 40
0.9439400144
 40
1.0
 40
1.0
 40
1.0
 40
1.0
 10
28.3727292419
 20
11.165264428
 30
0.0
 10
28.3715301793
 20
11.1640833148
 30
0.0
 10
28.36920175
 20
11.1615684802
 30
0.0
 10
28.3660232005
 20
11.1574188502
 30
0.0
 10
28.3631614322
 20
11.1528340871
 30
0.0
 10
28.3606808857
 20
11.147829374
 30
0.0
 10
28.358650089
 20
11.1424397926
 30
0.0
 10
28.3573951737
 20
11.1377011927
 30
0.0
 10
28.3566735689
 20
11.1337819477
 30
0.0
 10
28.3562791108
 20
11.1307784528
 30
0.0
 10
28.3560406078
 20
11.1277420552
 30
0.0
 10
28.3559593553
 20
11.1246886552
 30
0.0
 10
28.3560366858
 20
11.1216346488
 30
0.0
 10
28.3562733559
 20
11.1185965063
 30
0.0
 10
28.3566645791
 20
11.1155898717
 30
0.0
 10
28.3573825958
 20
11.1116646915
 30
0.0
 10
28.3586367578
 20
11.1069179314
 30
0.0
 10
28.3606653333
 20
11.1015173566
 30
0.0
 10
28.363148517
 20
11.096502159
 30
0.0
 10
28.3660136212
 20
11.0919071777
 30
0.0
 10
28.3691972789
 20
11.0877499271
 30
0.0
 10
28.3715289473
 20
11.0852309927
 30
0.0
 10
28.3727292419
 20
11.084048666
 30
0.0
 11
28.3727292419
 21
11.165264428
 31
0.0
 11
28.3692986936
 21
11.1615595186
 31
0.0
 11
28.3661266956
 21
11.1574195556
 31
0.0
 11
28.3632695913
 21
11.1528439864
 31
0.0
 11
28.3607911932
 21
11.1478462616
 31
0.0
 11
28.3587601694
 21
11.1424595174
 31
0.0
 11
28.3572450254
 21
11.1367423117
 31
0.0
 11
28.3567003877
 21
11.1337856735
 31
0.0
 11
28.3563060022
 21
11.1307813319
 31
0.0
 11
28.3560670719
 21
11.1277436311
 31
0.0
 11
28.35598581
 21
11.1246887434
 31
0.0
 11
28.3560634646
 21
11.1216334295
 31
0.0
 11
28.3562999309
 21
11.1185941189
 31
0.0
 11
28.3566914081
 21
11.1155863355
 31
0.0
 11
28.3572334695
 21
11.1126254497
 31
0.0
 11
28.3587463562
 21
11.1068986463
 31
0.0
 11
28.3607765295
 21
11.1015002097
 31
0.0
 11
28.3632563404
 21
11.0964930288
 31
0.0
 11
28.3661177751
 21
11.0919063714
 31
0.0
 11
28.3692954309
 21
11.0877576243
 31
0.0
 11
28.3727292419
 21
11.084048666
 31
0.0
  0
SPLINE
  5
262
100
AcDbEntity
  8
0
100
AcDbSpline
 62
7
  6
CONTINUOUS
 70
0
 71
3
 72
92
 73
88
 74
86
 42
0.0000001
 43
0.0000001
 44
0.0000000001
 12
-0.57270412
 22
0.0007749874
 32
0.0
 13
0.5725961487
 23
-0.0111472019
 33
0.0
 40
0.0
 40
0.0
 40
0.0
 40
0.0
 40
0.030611912
 40
0.0459183807
 40
0.0612252946
 40
0.0765327929
 40
0.0918411378
 40
0.1224615429
 40
0.137774673
 40
0.153090494
 40
0.168409659
 40
0.1837333116
 40
0.1990625689
 40
0.2143991414
 40
0.2297449948
 40
0.2451028392
 40
0.2604759413
 40
0.2758688566
 40
0.2912870572
 40
0.3067383354
 40
0.3144796423
 40
0.3222334966
 40
0.3300013907
 40
0.3377853664
 40
0.3455884644
 40
0.3534133765
 40
0.361263216
 40
0.3691431901
 40
0.3770584323
 40
0.3850132314
 40
0.3930162494
 40
0.4010777048
 40
0.4174024005
 40
0.4257059599
 40
0.434111526
 40
0.4426444812
 40
0.4469586942
 40
0.4512995763
 40
0.4556678791
 40
0.4600655208
 40
0.4644848759
 40
0.4689158442
 40
0.4733500511
 40
0.4777816525
 40
0.4822062689
 40
0.4866172262
 40
0.4910054771
 40
0.495362185
 40
0.4996886095
 40
0.5039873088
 40
0.5124931657
 40
0.5208731481
 40
0.5291523405
 40
0.5332584641
 40
0.5373421276
 40
0.5454517103
 40
0.5534986722
 40
0.5575012965
 40
0.5614907392
 40
0.5694353152
 40
0.5773416924
 40
0.5852144309
 40
0.5930580293
 40
0.6008775141
 40
0.6086759996
 40
0.6164560027
 40
0.6319703317
 40
0.6474366726
 40
0.655155994
 40
0.6628672206
 40
0.6782691268
 40
0.693649287
 40
0.7090126307
 40
0.7243627374
 40
0.7397026774
 40
0.7550345364
 40
0.7703602178
 40
0.7856810278
 40
0.8163117536
 40
0.8469334144
 40
0.8622422567
 40
0.8775500602
 40
0.9081635713
 40
0.9387756452
 40
0.9540815742
 40
0.9693875498
 40
1.0
 40
1.0
 40
1.0
 40
1.0
 10
28.7156009598
 20
11.8756645661
 30
0.0
 10
28.7097571038
 20
11.875672474
 30
0.0
 10
28.7009911681
 20
11.8757323724
 30
0.0
 10
28.6893045472
 20
11.8759153781
 30
0.0
 10
28.680540188
 20
11.8761057105
 30
0.0
 10
28.6717768833
 20
11.8763533102
 30
0.0
 10
28.6600940305
 20
11.8767663713
 30
0.0
 10
28.6484149585
 20
11.8773126297
 30
0.0
 10
28.6367437501
 20
11.878022172
 30
0.0
 10
28.6279940897
 20
11.8786442227
 30
0.0
 10
28.6192501618
 20
11.8793674684
 30
0.0
 10
28.6105135572
 20
11.8802023728
 30
0.0
 10
28.6017864724
 20
11.8811630259
 30
0.0
 10
28.5930715965
 20
11.8822638176
 30
0.0
 10
28.5843724565
 20
11.8835222294
 30
0.0
 10
28.575693505
 20
11.8849573788
 30
0.0
 10
28.5670406252
 20
11.8865922414
 30
0.0
 10
28.5584211974
 20
11.888451936
 30
0.0
 10
28.5498454784
 20
11.8905680011
 30
0.0
 10
28.5427505157
 20
11.8925723181
 30
0.0
 10
28.5371139966
 20
11.8943428955
 30
0.0
 10
28.5329051865
 20
11.8957610232
 30
0.0
 10
28.5287215483
 20
11.8972760324
 30
0.0
 10
28.5245672505
 20
11.8988959834
 30
0.0
 10
28.520446569
 20
11.9006281182
 30
0.0
 10
28.5163654136
 20
11.9024823401
 30
0.0
 10
28.5123314282
 20
11.9044707996
 30
0.0
 10
28.5083524573
 20
11.906604201
 30
0.0
 10
28.5044385471
 20
11.9088951978
 30
0.0
 10
28.5006051053
 20
11.9113625428
 30
0.0
 10
28.4968680988
 20
11.9140232179
 30
0.0
 10
28.4920208816
 20
11.9178645776
 30
0.0
 10
28.4874809244
 20
11.922178987
 30
0.0
 10
28.4834210961
 20
11.9270126208
 30
0.0
 10
28.4806556105
 20
11.930967437
 30
0.0
 10
28.4786713933
 20
11.9345160415
 30
0.0
 10
28.4773166315
 20
11.9375063153
 30
0.0
 10
28.4764285706
 20
11.9398302531
 30
0.0
 10
28.4756868415
 20
11.9422218273
 30
0.0
 10
28.4751067161
 20
11.9446732113
 30
0.0
 10
28.4746948023
 20
11.9471705549
 30
0.0
 10
28.4744583309
 20
11.9496976751
 30
0.0
 10
28.4744046058
 20
11.9522378153
 30
0.0
 10
28.4745419238
 20
11.9547736074
 30
0.0
 10
28.4748615259
 20
11.9572882134
 30
0.0
 10
28.4753534091
 20
11.9597662789
 30
0.0
 10
28.4760078633
 20
11.9621929533
 30
0.0
 10
28.4768168514
 20
11.9645553752
 30
0.0
 10
28.4777664407
 20
11.9668461951
 30
0.0
 10
28.479195431
 20
11.9697895207
 30
0.0
 10
28.4812590836
 20
11.9732768561
 30
0.0
 10
28.4840972071
 20
11.9771606916
 30
0.0
 10
28.4867045896
 20
11.9801526552
 30
0.0
 10
28.4888986623
 20
11.9824051067
 30
0.0
 10
28.491144915
 20
11.9845590887
 30
0.0
 10
28.49406261
 20
11.9870962592
 30
0.0
 10
28.4971095674
 20
11.9894502391
 30
0.0
 10
28.4996020405
 20
11.9912290445
 30
0.0
 10
28.5021198589
 20
11.9929372288
 30
0.0
 10
28.5053260065
 20
11.9949561944
 30
0.0
 10
28.5092556833
 20
11.9972097407
 30
0.0
 10
28.5132482205
 20
11.9993084409
 30
0.0
 10
28.5172934745
 20
12.0012655057
 30
0.0
 10
28.5213841358
 20
12.0030909807
 30
0.0
 10
28.5255130096
 20
12.0047964808
 30
0.0
 10
28.5310558371
 20
12.0069214868
 30
0.0
 10
28.5380578911
 20
12.0093220314
 30
0.0
 10
28.5451396413
 20
12.0114329679
 30
0.0
 10
28.5508352878
 20
12.0129665532
 30
0.0
 10
28.5565434343
 20
12.0144033448
 30
0.0
 10
28.5637103972
 20
12.0160314688
 30
0.0
 10
28.5723513044
 20
12.0177499781
 30
0.0
 10
28.5810210325
 20
12.0192590932
 30
0.0
 10
28.5897129486
 20
12.0205835262
 30
0.0
 10
28.5984222593
 20
12.0217427167
 30
0.0
 10
28.6071449799
 20
12.022755784
 30
0.0
 10
28.6158782256
 20
12.0236374414
 30
0.0
 10
28.6275318991
 20
12.0246571227
 30
0.0
 10
28.6421159877
 20
12.0256697237
 30
0.0
 10
28.6567140314
 20
12.0264017576
 30
0.0
 10
28.6683961005
 20
12.0268476378
 30
0.0
 10
28.680079525
 20
12.0272093529
 30
0.0
 10
28.6946871148
 20
12.0275135823
 30
0.0
 10
28.7092968163
 20
12.0276467027
 30
0.0
 10
28.7209846218
 20
12.0276546277
 30
0.0
 10
28.732672349
 20
12.0275983257
 30
0.0
 10
28.7414377316
 20
12.0274811075
 30
0.0
 10
28.7472805887
 20
12.0273673598
 30
0.0
 11
28.7156009598
 21
11.8756645661
 31
0.0
 11
28.6980698012
 21
11.8757867165
 31
0.0
 11
28.689304794
 21
11.8759242218
 31
0.0
 11
28.6805405349
 21
11.8761152507
 31
0.0
 11
28.6717773799
 21
11.8763636663
 31
0.0
 11
28.6630157202
 21
11.87667418
 31
0.0
 11
28.6454988957
 21
11.8775035605
 31
0.0
 11
28.6367452394
 21
11.8780370976
 31
0.0
 11
28.6279960154
 21
11.8786610136
 31
0.0
 11
28.6192526614
 21
11.8793859637
 31
0.0
 11
28.6105167591
 21
11.8802231642
 31
0.0
 11
28.6017905954
 21
11.8811861346
 31
0.0
 11
28.593076876
 21
11.8822897264
 31
0.0
 11
28.5843792317
 21
11.8835511551
 31
0.0
 11
28.5757021924
 21
11.8849898923
 31
0.0
 11
28.5670517893
 21
11.8866285785
 31
0.0
 11
28.5584356074
 21
11.8884930107
 31
0.0
 11
28.5498640492
 21
11.8906140046
 31
0.0
 11
28.5413504188
 21
11.893027142
 31
0.0
 11
28.5371209825
 21
11.8943566663
 31
0.0
 11
28.5329131932
 21
11.8957758367
 31
0.0
 11
28.528730778
 21
11.897291889
 31
0.0
 11
28.5245779174
 21
11.8989126268
 31
0.0
 11
28.5204588915
 21
11.9006459557
 31
0.0
 11
28.5163797854
 21
11.902501626
 31
0.0
 11
28.5123482666
 21
11.9044910056
 31
0.0
 11
28.5083720848
 21
11.9066255371
 31
0.0
 11
28.5044617257
 21
11.908918581
 31
0.0
 11
28.5006326448
 21
11.9113869817
 31
0.0
 11
28.496900826
 21
11.914047953
 31
0.0
 11
28.4932862359
 21
11.9169202142
 31
0.0
 11
28.4865398744
 21
11.923392825
 31
0.0
 11
28.4834886817
 21
11.9270404105
 31
0.0
 11
28.4807371219
 21
11.9309904252
 31
0.0
 11
28.4783599413
 21
11.9352601376
 31
0.0
 11
28.4773415937
 21
11.9375112866
 31
0.0
 11
28.4764555353
 21
11.9398340676
 31
0.0
 11
28.4757159152
 21
11.9422239843
 31
0.0
 11
28.475135978
 21
11.9446748548
 31
0.0
 11
28.4747244961
 21
11.9471721671
 31
0.0
 11
28.4744888626
 21
11.9496988396
 31
0.0
 11
28.4744364701
 21
11.9522377899
 31
0.0
 11
28.4745725041
 21
11.9547721404
 31
0.0
 11
28.4748908966
 21
11.9572860564
 31
0.0
 11
28.4753820023
 21
11.9597640353
 31
0.0
 11
28.476036174
 21
11.9621905742
 31
0.0
 11
28.4768433341
 21
11.964551517
 31
0.0
 11
28.477790752
 21
11.9668409953
 31
0.0
 11
28.4788646891
 21
11.9690562914
 31
0.0
 11
28.4813371887
 21
11.9732535209
 31
0.0
 11
28.4841624631
 21
11.9771330405
 31
0.0
 11
28.4872709727
 21
11.9807134445
 31
0.0
 11
28.4889110991
 21
11.9823986713
 31
0.0
 11
28.4905987666
 21
11.9840177607
 31
0.0
 11
28.4941000963
 21
11.9870691705
 31
0.0
 11
28.4977437176
 21
11.9898909777
 31
0.0
 11
28.4996092784
 21
11.9912230515
 31
0.0
 11
28.5014998017
 21
11.9925060583
 31
0.0
 11
28.5053482923
 21
11.9949331285
 31
0.0
 11
28.5092746023
 21
11.9971885765
 31
0.0
 11
28.5132644396
 21
11.9992885908
 31
0.0
 11
28.5173073576
 21
12.0012465143
 31
0.0
 11
28.5213960462
 21
12.0030733681
 31
0.0
 11
28.5255233146
 21
12.0047800772
 31
0.0
 11
28.5296832485
 21
12.0063762327
 31
0.0
 11
28.5380847601
 21
12.0092676179
 31
0.0
 11
28.5465712319
 21
12.0118048754
 31
0.0
 11
28.5508398333
 21
12.0129552324
 31
0.0
 11
28.5551223343
 21
12.0140338873
 31
0.0
 11
28.5637226654
 21
12.0159934318
 31
0.0
 11
28.5723608835
 21
12.0177159727
 31
0.0
 11
28.5810284871
 21
12.0192289282
 31
0.0
 11
28.5897187606
 21
12.0205564031
 31
0.0
 11
28.5984267962
 21
12.0217186507
 31
0.0
 11
28.6071485116
 21
12.0227340761
 31
0.0
 11
28.6158809671
 21
12.0236181062
 31
0.0
 11
28.624621696
 21
12.0243849066
 31
0.0
 11
28.6421209622
 21
12.0256137421
 31
0.0
 11
28.6596356395
 21
12.0265016157
 31
0.0
 11
28.6683966624
 21
12.0268371309
 31
0.0
 11
28.6771592938
 21
12.0271090745
 31
0.0
 11
28.694687883
 21
12.0274793659
 31
0.0
 11
28.7122188197
 21
12.0276404699
 31
0.0
 11
28.7209845942
 21
12.0276465994
 31
0.0
 11
28.7297502943
 21
12.0276040693
 31
0.0
 11
28.7472805887
 21
12.0273673598
 31
0.0
  0
SPLINE
  5
263
100
AcDbEntity
  8
0
100
AcDbSpline
 62
7
  6
CONTINUOUS
 70
0
 71
3
 72
81
 73
77
 74
75
 42
0.0000001
 43
0.0000001
 44
0.0000000001
 12
0.3502115112
 22
-0.1104048077
 32
0.0
 13
-0.3672016847
 23
0.0004969
 33
0.0
 40
0.0
 40
0.0
 40
0.0
 40
0.0
 40
0.0153358894
 40
0.0307073955
 40
0.0461206569
 40
0.0615829112
 40
0.0771046842
 40
0.0927004669
 40
0.1005305169
 40
0.1083849809
 40
0.1162675748
 40
0.1241812906
 40
0.1321278679
 40
0.1401108779
 40
0.148136154
 40
0.1562101515
 40
0.1643347887
 40
0.17251446
 40
0.1807586937
 40
0.1890757725
 40
0.1974627719
 40
0.2059231502
 40
0.2144679774
 40
0.2230880659
 40
0.2317672704
 40
0.2361286257
 40
0.2405030285
 40
0.249273323
 40
0.2536633148
 40
0.258050603
 40
0.2624316775
 40
0.2668045109
 40
0.2755190945
 40
0.2841805593
 40
0.2884841428
 40
0.2927657923
 40
0.3012681379
 40
0.3096962927
 40
0.3263160225
 40
0.3345281171
 40
0.3426795222
 40
0.3507751434
 40
0.3588223869
 40
0.3668253292
 40
0.3747883048
 40
0.3827162346
 40
0.3906121565
 40
0.3984792678
 40
0.4063209044
 40
0.4141392566
 40
0.4219364217
 40
0.4374751997
 40
0.4529511917
 40
0.4683758008
 40
0.4837569994
 40
0.4991023901
 40
0.5144173042
 40
0.5297067482
 40
0.5449746328
 40
0.5754568186
 40
0.5906774835
 40
0.6058868672
 40
0.6210867204
 40
0.636278206
 40
0.6666407339
 40
0.6969826083
 40
0.7273096392
 40
0.7576256534
 40
0.7879339147
 40
0.818236409
 40
0.8485349549
 40
0.8788305549
 40
0.9091243241
 40
0.93941693
 40
0.9697087357
 40
1.0
 40
1.0
 40
1.0
 40
1.0
 10
28.8964181892
 20
12.0095712574
 30
0.0
 10
28.8982084576
 20
12.0090068721
 30
0.0
 10
28.9017790466
 20
12.0078313131
 30
0.0
 10
28.9070899996
 20
12.0059153458
 30
0.0
 10
28.912353978
 20
12.0038309068
 30
0.0
 10
28.9175604448
 20
12.0015595934
 30
0.0
 10
28.9226958523
 20
11.9990795926
 30
0.0
 10
28.9268981507
 20
11.9968246784
 30
0.0
 10
28.9302032966
 20
11.9948912975
 30
0.0
 10
28.9326545803
 20
11.9933699959
 30
0.0
 10
28.9350714548
 20
11.9917758713
 30
0.0
 10
28.9374495594
 20
11.9901046526
 30
0.0
 10
28.9397824679
 20
11.9883502307
 30
0.0
 10
28.9420636349
 20
11.9865070881
 30
0.0
 10
28.9442862127
 20
11.9845697509
 30
0.0
 10
28.9464427297
 20
11.9825336105
 30
0.0
 10
28.9485212099
 20
11.9803911897
 30
0.0
 10
28.9505084306
 20
11.9781357393
 30
0.0
 10
28.9523905452
 20
11.97576147
 30
0.0
 10
28.9541517567
 20
11.9732647058
 30
0.0
 10
28.9557699289
 20
11.9706413545
 30
0.0
 10
28.957221105
 20
11.9678900318
 30
0.0
 10
28.9584790187
 20
11.9650134899
 30
0.0
 10
28.9595187387
 20
11.9620224262
 30
0.0
 10
28.9601798072
 20
11.9594511882
 30
0.0
 10
28.9605718812
 20
11.9573552735
 30
0.0
 10
28.9608693652
 20
11.9552326841
 30
0.0
 10
28.9610227041
 20
11.9530883901
 30
0.0
 10
28.9610297125
 20
11.9509400047
 30
0.0
 10
28.9609611397
 20
11.9493302676
 30
0.0
 10
28.9608177257
 20
11.9477275773
 30
0.0
 10
28.9605279487
 20
11.9456084953
 30
0.0
 10
28.9599898411
 20
11.9429976408
 30
0.0
 10
28.9592348137
 20
11.9404504001
 30
0.0
 10
28.9585125714
 20
11.9384662665
 30
0.0
 10
28.957719507
 20
11.9365304205
 30
0.0
 10
28.9565985813
 20
11.9341855367
 30
0.0
 10
28.954570519
 20
11.9306118271
 30
0.0
 10
28.952225138
 20
11.9272702101
 30
0.0
 10
28.9496412931
 20
11.924166757
 30
0.0
 10
28.9476130047
 20
11.9219630007
 30
0.0
 10
28.9455007141
 20
11.919868667
 30
0.0
 10
28.943314974
 20
11.9178781501
 30
0.0
 10
28.9410662182
 20
11.915984446
 30
0.0
 10
28.9387625006
 20
11.9141817405
 30
0.0
 10
28.936410266
 20
11.912465089
 30
0.0
 10
28.9340158511
 20
11.9108286174
 30
0.0
 10
28.9315841572
 20
11.9092676297
 30
0.0
 10
28.9291192017
 20
11.9077780881
 30
0.0
 10
28.9266249457
 20
11.9063554193
 30
0.0
 10
28.9232686195
 20
11.9045447217
 30
0.0
 10
28.9190130216
 20
11.9024298011
 30
0.0
 10
28.9138259854
 20
11.9001018658
 30
0.0
 10
28.9085775382
 20
11.8979670733
 30
0.0
 10
28.9032793028
 20
11.8960052284
 30
0.0
 10
28.8979393942
 20
11.8942017971
 30
0.0
 10
28.8925651711
 20
11.8925414593
 30
0.0
 10
28.8871619825
 20
11.89101269
 30
0.0
 10
28.879929804
 20
11.8891358773
 30
0.0
 10
28.8726512752
 20
11.8874782552
 30
0.0
 10
28.8653417852
 20
11.8860079778
 30
0.0
 10
28.8598494782
 20
11.8849926387
 30
0.0
 10
28.8543465543
 20
11.8840579628
 30
0.0
 10
28.8469990591
 20
11.8829108623
 30
0.0
 10
28.8377943829
 20
11.881649978
 30
0.0
 10
28.8267246318
 20
11.8803743267
 30
0.0
 10
28.8156388374
 20
11.8793057336
 30
0.0
 10
28.8045415518
 20
11.8784157502
 30
0.0
 10
28.7934359154
 20
11.8776825011
 30
0.0
 10
28.7823243556
 20
11.8770851544
 30
0.0
 10
28.771208554
 20
11.8766088655
 30
0.0
 10
28.7600898299
 20
11.8762383903
 30
0.0
 10
28.7489690471
 20
11.8759650554
 30
0.0
 10
28.7378469482
 20
11.8757788696
 30
0.0
 10
28.7267240924
 20
11.875675227
 30
0.0
 10
28.7193086276
 20
11.8756595488
 30
0.0
 10
28.7156009598
 20
11.8756645661
 30
0.0
 11
28.8964181892
 21
12.0095712574
 31
0.0
 11
28.9017662936
 21
12.0078077089
 31
0.0
 11
28.9070749803
 21
12.0058899915
 31
0.0
 11
28.9123360274
 21
12.0038032474
 31
0.0
 11
28.9175386015
 21
12.0015294167
 31
0.0
 11
28.9226694714
 21
11.9990474988
 31
0.0
 11
28.9277128487
 21
11.9963344531
 31
0.0
 11
28.9301942699
 21
11.9948820819
 31
0.0
 11
28.9326445085
 21
11.9933606363
 31
0.0
 11
28.9350602918
 21
11.9917662253
 31
0.0
 11
28.9374371174
 21
11.990094357
 31
0.0
 11
28.9397685343
 21
11.9883395878
 31
0.0
 11
28.942047919
 21
11.9864963898
 31
0.0
 11
28.9442686478
 21
11.9845592349
 31
0.0
 11
28.9464230702
 21
11.9825224646
 31
0.0
 11
28.9484990732
 21
11.9803798525
 31
0.0
 11
28.9504833328
 21
11.9781250181
 31
0.0
 11
28.9523625207
 21
11.9757515831
 31
0.0
 11
28.9541207708
 21
11.9732544314
 31
0.0
 11
28.9557353431
 21
11.9706318658
 31
0.0
 11
28.9571823455
 21
11.9678827622
 31
0.0
 11
28.9584376437
 21
11.9650071321
 31
0.0
 11
28.9594746482
 21
11.9620165078
 31
0.0
 11
28.9602653403
 21
11.9589291284
 31
0.0
 11
28.9605595672
 21
11.9573548896
 31
0.0
 11
28.9607826574
 21
11.9557641674
 31
0.0
 11
28.9610122323
 21
11.9525518908
 31
0.0
 11
28.9610173942
 21
11.9509398852
 31
0.0
 11
28.9609485904
 21
11.949330334
 31
0.0
 11
28.9608051923
 21
11.9477279983
 31
0.0
 11
28.9605880595
 21
11.9461370337
 31
0.0
 11
28.9599444504
 21
11.9430024128
 31
0.0
 11
28.9590422462
 21
11.9399525513
 31
0.0
 11
28.9585018704
 21
11.9384675283
 31
0.0
 11
28.9579061735
 21
11.9370125185
 31
0.0
 11
28.9565621891
 21
11.9341945264
 31
0.0
 11
28.9550371354
 21
11.9315015321
 31
0.0
 11
28.9515452577
 21
11.9264964409
 31
0.0
 11
28.9496176324
 21
11.9241774999
 31
0.0
 11
28.9475919366
 21
11.9219738945
 31
0.0
 11
28.9454819874
 21
11.9198798006
 31
0.0
 11
28.9432983583
 21
11.9178889273
 31
0.0
 11
28.9410513721
 21
11.915994992
 31
0.0
 11
28.938749252
 21
11.9141921776
 31
0.0
 11
28.9363984395
 21
11.912475062
 31
0.0
 11
28.9340052315
 21
11.9108382765
 31
0.0
 11
28.9315746246
 21
11.9092770506
 31
0.0
 11
28.9291106306
 21
11.9077870669
 31
0.0
 11
28.9266172128
 21
11.9063640354
 31
0.0
 11
28.9240976547
 21
11.9050041207
 31
0.0
 11
28.9189901922
 21
11.9024603465
 31
0.0
 11
28.913807014
 21
11.900130313
 31
0.0
 11
28.9085618051
 21
11.8979930048
 31
0.0
 11
28.903266117
 21
11.8960294181
 31
0.0
 11
28.8979283452
 21
11.8942239201
 31
0.0
 11
28.8925558384
 21
11.8925620521
 31
0.0
 11
28.8871541202
 21
11.8910317024
 31
0.0
 11
28.881727894
 21
11.8896218198
 31
0.0
 11
28.8708167295
 21
11.8871253364
 31
0.0
 11
28.8653376447
 21
11.8860220641
 31
0.0
 11
28.859845974
 21
11.8850057745
 31
0.0
 11
28.8543435491
 21
11.884070075
 31
0.0
 11
28.8488320952
 21
11.8832087972
 31
0.0
 11
28.8377869681
 21
11.8816891201
 31
0.0
 11
28.8267192077
 21
11.8804085436
 31
0.0
 11
28.815634896
 21
11.8793353219
 31
0.0
 11
28.8045387144
 21
11.8784417661
 31
0.0
 11
28.7934338678
 21
11.8777050875
 31
0.0
 11
28.7823229079
 21
11.8771052946
 31
0.0
 11
28.7712075287
 21
11.8766264804
 31
0.0
 11
28.7600891417
 21
11.8762545702
 31
0.0
 11
28.748968608
 21
11.8759795756
 31
0.0
 11
28.737846673
 21
11.8757926248
 31
0.0
 11
28.7267239474
 21
11.8756885807
 31
0.0
 11
28.7156009598
 21
11.8756645661
 31
0.0
  0
SPLINE
  5
264
100
AcDbEntity
  8
0
100
AcDbSpline
 62
7
  6
CONTINUOUS
 70
0
 71
3
 72
33
 73
29
 74
27
 42
0.0000001
 43
0.0000001
 44
0.0000000001
 12
0.0799284101
 22
0.0560231983
 32
0.0
 13
-0.0799284101
 23
0.0560231983
 33
0.0
 40
0.0
 40
0.0
 40
0.0
 40
0.0
 40
0.062301503
 40
0.1246370057
 40
0.1870114208
 40
0.2494273013
 40
0.2806670302
 40
0.3119195414
 40
0.3431847525
 40
0.3744623842
 40
0.4057518733
 40
0.4370533627
 40
0.4683624634
 40
0.4996799054
 40
0.5310021633
 40
0.562323491
 40
0.5936440545
 40
0.6249644244
 40
0.6562765316
 40
0.6875793618
 40
0.718878654
 40
0.7501666224
 40
0.7814322329
 40
0.8126888732
 40
0.8439448297
 40
0.8751953776
 40
0.9376404192
 40
1.0
 40
1.0
 40
1.0
 40
1.0
 10
28.7870504878
 20
11.084048666
 30
0.0
 10
28.7887103745
 20
11.0852121091
 30
0.0
 10
28.7919339903
 20
11.0876825528
 30
0.0
 10
28.7964052232
 20
11.091823055
 30
0.0
 10
28.8004356036
 20
11.0964012813
 30
0.0
 10
28.8033519799
 20
11.1005720414
 30
0.0
 10
28.8053693626
 20
11.1041025073
 30
0.0
 10
28.8067137611
 20
11.1068431676
 30
0.0
 10
28.8078763692
 20
11.1096671438
 30
0.0
 10
28.8088462252
 20
11.1125644215
 30
0.0
 10
28.8096128065
 20
11.1155233403
 30
0.0
 10
28.8101675038
 20
11.1185303144
 30
0.0
 10
28.8105045585
 20
11.1215704066
 30
0.0
 10
28.8106178388
 20
11.1246277324
 30
0.0
 10
28.8105083974
 20
11.1276855655
 30
0.0
 10
28.8101760297
 20
11.1307273776
 30
0.0
 10
28.8096238623
 20
11.1337368897
 30
0.0
 10
28.8088606619
 20
11.1366994937
 30
0.0
 10
28.8078933472
 20
11.139601191
 30
0.0
 10
28.8067312429
 20
11.1424295936
 30
0.0
 10
28.8053875205
 20
11.1451752905
 30
0.0
 10
28.8038741702
 20
11.1478297313
 30
0.0
 10
28.8022024248
 20
11.1503855516
 30
0.0
 10
28.8003850155
 20
11.152838412
 30
0.0
 10
28.7984339154
 20
11.1551855782
 30
0.0
 10
28.7956707825
 20
11.158169836
 30
0.0
 10
28.7919394807
 20
11.1616259655
 30
0.0
 10
28.7887119218
 20
11.1640999003
 30
0.0
 10
28.7870504878
 20
11.165264428
 30
0.0
 11
28.7870504878
 21
11.084048666
 31
0.0
 11
28.7918722229
 21
11.0877541059
 31
0.0
 11
28.7963304318
 21
11.0918946566
 31
0.0
 11
28.800345943
 21
11.0964708656
 31
0.0
 11
28.8038290343
 21
11.1014692046
 31
0.0
 11
28.8053408615
 21
11.1041172455
 31
0.0
 11
28.8066832084
 21
11.1068564894
 31
0.0
 11
28.8078440325
 21
11.1096787941
 31
0.0
 11
28.8088121803
 21
11.1125741364
 31
0.0
 11
28.8095773703
 21
11.1155308018
 31
0.0
 11
28.8101311711
 21
11.1185354392
 31
0.0
 11
28.810467234
 21
11.1215728959
 31
0.0
 11
28.8105807166
 21
11.1246275939
 31
0.0
 11
28.8104712409
 21
11.1276829086
 31
0.0
 11
28.8101393915
 21
11.130722029
 31
0.0
 11
28.8095886766
 21
11.1337291263
 31
0.0
 11
28.8088265379
 21
11.1366896922
 31
0.0
 11
28.8078607381
 21
11.1395893656
 31
0.0
 11
28.806700872
 21
11.1424160336
 31
0.0
 11
28.8053589796
 21
11.1451605838
 31
0.0
 11
28.8038472712
 21
11.1478141129
 31
0.0
 11
28.8021778842
 21
11.1503687756
 31
0.0
 11
28.8003626699
 21
11.1528208784
 31
0.0
 11
28.7984134094
 21
11.155167746
 31
0.0
 11
28.796341881
 21
11.1574067085
 31
0.0
 11
28.7918764884
 21
11.1615552354
 31
0.0
 11
28.7870504878
 21
11.165264428
 31
0.0
  0
SPLINE
  5
265
100
AcDbEntity
  8
0
100
AcDbSpline
 62
7
  6
CONTINUOUS
 70
0
 71
3
 72
27
 73
23
 74
21
 42
0.0000001
 43
0.0000001
 44
0.0000000001
 12
0.0642324947
 22
0.0632709642
 32
0.0
 13
-0.0642324947
 23
0.0632709642
 33
0.0
 40
0.0
 40
0.0
 40
0.0
 40
0.0
 40
0.0560103197
 40
0.1138635173
 40
0.1737007396
 40
0.2355797606
 40
0.2994364622
 40
0.3650405
 40
0.4319732704
 40
0.4657667191
 40
0.4996589891
 40
0.5673435986
 40
0.6009780874
 40
0.6343608391
 40
0.6674127701
 40
0.7000731027
 40
0.7323032522
 40
0.7640605085
 40
0.8260285634
 40
0.8859783641
 40
0.9439362683
 40
1.0
 40
1.0
 40
1.0
 40
1.0
 10
4.1397292419
 20
11.084048666
 30
0.0
 10
4.1409284694
 20
11.0852299416
 30
0.0
 10
4.1432571942
 20
11.0877451246
 30
0.0
 10
4.1464360715
 20
11.0918953463
 30
0.0
 10
4.1492980424
 20
11.0964807532
 30
0.0
 10
4.1517786311
 20
11.1014859994
 30
0.0
 10
4.1538094109
 20
11.1068764172
 30
0.0
 10
4.1553227629
 20
11.1125918892
 30
0.0
 10
4.1561007766
 20
11.1175395905
 30
0.0
 10
4.1564185731
 20
11.1215744892
 30
0.0
 10
4.1565258011
 20
11.125642904
 30
0.0
 10
4.1563171409
 20
11.1297099326
 30
0.0
 10
4.1557934744
 20
11.1337255923
 30
0.0
 10
4.155251643
 20
11.1366852628
 30
0.0
 10
4.1545647629
 20
11.1395844866
 30
0.0
 10
4.1537393145
 20
11.1424112348
 30
0.0
 10
4.152784604
 20
11.1451558343
 30
0.0
 10
4.1513624448
 20
11.1486653706
 30
0.0
 10
4.1493096746
 20
11.1528118103
 30
0.0
 10
4.1464447021
 20
11.1574059851
 30
0.0
 10
4.143261312
 20
11.161563121
 30
0.0
 10
4.140929613
 20
11.1640820259
 30
0.0
 10
4.1397292419
 20
11.165264428
 30
0.0
 11
4.1397292419
 21
11.084048666
 31
0.0
 11
4.1431602394
 21
11.0877541059
 31
0.0
 11
4.146332563
 21
11.0918946566
 31
0.0
 11
4.1491898765
 21
11.0964708656
 31
0.0
 11
4.1516683365
 21
11.1014692046
 31
0.0
 11
4.1536992786
 21
11.1068564894
 31
0.0
 11
4.1552141891
 21
11.1125741364
 31
0.0
 11
4.1561527421
 21
11.1185354392
 31
0.0
 11
4.1563918741
 21
11.1215728959
 31
0.0
 11
4.1564726248
 21
11.1246275939
 31
0.0
 11
4.1561585915
 21
11.130722029
 31
0.0
 11
4.1557667199
 21
11.1337291263
 31
0.0
 11
4.1552244055
 21
11.1366896922
 31
0.0
 11
4.1545371723
 21
11.1395893656
 31
0.0
 11
4.1537118474
 21
11.1424160336
 31
0.0
 11
4.1527569983
 21
11.1451605838
 31
0.0
 11
4.1516813134
 21
11.1478141129
 31
0.0
 11
4.1492017789
 21
11.1528208784
 31
0.0
 11
4.1463407098
 21
11.1574067085
 31
0.0
 11
4.1431632746
 21
11.1615552354
 31
0.0
 11
4.1397292419
 21
11.165264428
 31
0.0
  0
SPLINE
  5
266
100
AcDbEntity
  8
0
100
AcDbSpline
 62
7
  6
CONTINUOUS
 70
0
 71
3
 72
95
 73
91
 74
89
 42
0.0000001
 43
0.0000001
 44
0.0000000001
 12
-0.5515103625
 22
-0.0006555611
 32
0.0
 13
0.5515086322
 23
-0.0015291677
 33
0.0
 40
0.0
 40
0.0
 40
0.0
 40
0.0
 40
0.0305868797
 40
0.0458807171
 40
0.0611748974
 40
0.0764695293
 40
0.0917648058
 40
0.1070610463
 40
0.1223585242
 40
0.137657555
 40
0.1529587052
 40
0.1835691397
 40
0.2141969383
 40
0.2448527974
 40
0.275553894
 40
0.2909309239
 40
0.3063311814
 40
0.3217615692
 40
0.3294908304
 40
0.3372312809
 40
0.3449843166
 40
0.3527514777
 40
0.3605351793
 40
0.3683381287
 40
0.3761625627
 40
0.3840121523
 40
0.3918920589
 40
0.3998059005
 40
0.4077586752
 40
0.4117526266
 40
0.4157599992
 40
0.4238164762
 40
0.4319354908
 40
0.4360237038
 40
0.4401343292
 40
0.4442678204
 40
0.4484240125
 40
0.4568091661
 40
0.4653160426
 40
0.4696155635
 40
0.4739411484
 40
0.4782932956
 40
0.4826747982
 40
0.4870812047
 40
0.491502977
 40
0.4959319774
 40
0.4981475471
 40
0.5003628546
 40
0.504790091
 40
0.5092090707
 40
0.5136121976
 40
0.5179901681
 40
0.5266535789
 40
0.5352097922
 40
0.5436436062
 40
0.551968254
 40
0.5602025136
 40
0.568351396
 40
0.5764315295
 40
0.5844543509
 40
0.5924254137
 40
0.6003540647
 40
0.608247239
 40
0.6161085366
 40
0.6239426238
 40
0.6317539394
 40
0.6395451751
 40
0.6473187207
 40
0.6628218266
 40
0.6782782169
 40
0.68599282
 40
0.6936994665
 40
0.7090922712
 40
0.716780434
 40
0.7244636988
 40
0.7398177646
 40
0.7551584291
 40
0.7704885517
 40
0.7858103854
 40
0.8164351437
 40
0.8470437339
 40
0.8623442513
 40
0.8776427896
 40
0.8929398967
 40
0.9082358735
 40
0.9235309495
 40
0.9388254091
 40
0.9541194286
 40
0.969413122
 40
1.0
 40
1.0
 40
1.0
 40
1.0
 10
3.796598817
 20
11.8756642373
 30
0.0
 10
3.7909758233
 20
11.8756575534
 30
0.0
 10
3.7825411051
 20
11.8756919656
 30
0.0
 10
3.7712957264
 20
11.8758316284
 30
0.0
 10
3.7628621308
 20
11.8759841998
 30
0.0
 10
3.7544293363
 20
11.8761874508
 30
0.0
 10
3.7459976542
 20
11.8764455491
 30
0.0
 10
3.7375674286
 20
11.8767620412
 30
0.0
 10
3.7291391274
 20
11.87714214
 30
0.0
 10
3.720713366
 20
11.8775927244
 30
0.0
 10
3.7094824574
 20
11.8782957565
 30
0.0
 10
3.6954529041
 20
11.8793876651
 30
0.0
 10
3.6786458413
 20
11.8811158738
 30
0.0
 10
3.6618825738
 20
11.8833635216
 30
0.0
 10
3.6479788092
 20
11.8857761761
 30
0.0
 10
3.6369199631
 20
11.8881136165
 30
0.0
 10
3.6286595902
 20
11.8901000422
 30
0.0
 10
3.6218210122
 20
11.8919721926
 30
0.0
 10
3.6163842166
 20
11.8936194631
 30
0.0
 10
3.612322579
 20
11.8949353638
 30
0.0
 10
3.6082822854
 20
11.8963369372
 30
0.0
 10
3.6042668056
 20
11.8978312165
 30
0.0
 10
3.6002797366
 20
11.8994247671
 30
0.0
 10
3.5963252457
 20
11.9011245783
 30
0.0
 10
3.5924094296
 20
11.9029409371
 30
0.0
 10
3.5885389006
 20
11.9048838643
 30
0.0
 10
3.5847204736
 20
11.9069622225
 30
0.0
 10
3.5809649989
 20
11.9091900603
 30
0.0
 10
3.5779032676
 20
11.9111814303
 30
0.0
 10
3.5755000502
 20
11.9128631417
 30
0.0
 10
3.5731217271
 20
11.9146122437
 30
0.0
 10
3.5702164221
 20
11.9169229904
 30
0.0
 10
3.5674369834
 20
11.9194070999
 30
0.0
 10
3.565298685
 20
11.9215117282
 30
0.0
 10
3.5637369962
 20
11.9231558471
 30
0.0
 10
3.5622273678
 20
11.9248647478
 30
0.0
 10
3.5602885929
 20
11.9272400746
 30
0.0
 10
3.5580325731
 20
11.9303902642
 30
0.0
 10
3.5560703208
 20
11.9337640916
 30
0.0
 10
3.5547074356
 20
11.9366049695
 30
0.0
 10
3.5537987644
 20
11.9388123536
 30
0.0
 10
3.5530198658
 20
11.9410849014
 30
0.0
 10
3.5523847233
 20
11.9434173187
 30
0.0
 10
3.5519015402
 20
11.9457990058
 30
0.0
 10
3.551576731
 20
11.9482162364
 30
0.0
 10
3.5514442919
 20
11.9502481262
 30
0.0
 10
3.5514249026
 20
11.9518770922
 30
0.0
 10
3.5514645838
 20
11.953505367
 30
0.0
 10
3.5516225407
 20
11.9555345502
 30
0.0
 10
3.5519773226
 20
11.9579460797
 30
0.0
 10
3.5524891343
 20
11.9603200036
 30
0.0
 10
3.5533677034
 20
11.9634062711
 30
0.0
 10
3.5548169069
 20
11.9671141875
 30
0.0
 10
3.557020058
 20
11.9712934203
 30
0.0
 10
3.5595893592
 20
11.9751818355
 30
0.0
 10
3.562453632
 20
11.9787810428
 30
0.0
 10
3.5655504271
 20
11.9821091655
 30
0.0
 10
3.5688279715
 20
11.9851929304
 30
0.0
 10
3.5722549573
 20
11.9880485342
 30
0.0
 10
3.5758025775
 20
11.9906975276
 30
0.0
 10
3.5794464714
 20
11.9931624434
 30
0.0
 10
3.5831721507
 20
11.9954563469
 30
0.0
 10
3.5869662104
 20
11.9975939577
 30
0.0
 10
3.5908162629
 20
11.9995911276
 30
0.0
 10
3.5947142552
 20
12.0014582119
 30
0.0
 10
3.5986535923
 20
12.0032045818
 30
0.0
 10
3.6026278858
 20
12.0048406334
 30
0.0
 10
3.6079616803
 20
12.0068842878
 30
0.0
 10
3.6146970649
 20
12.0092017895
 30
0.0
 10
3.6215071843
 20
12.0112495962
 30
0.0
 10
3.6269840033
 20
12.0127425833
 30
0.0
 10
3.632472741
 20
12.0141445652
 30
0.0
 10
3.6379877366
 20
12.0154211162
 30
0.0
 10
3.6435222003
 20
12.0165859035
 30
0.0
 10
3.649063794
 20
12.0176802458
 30
0.0
 10
3.6560092076
 20
12.0189242153
 30
0.0
 10
3.6643676667
 20
12.0202413082
 30
0.0
 10
3.6727433667
 20
12.0214009344
 30
0.0
 10
3.6839265303
 20
12.0227592088
 30
0.0
 10
3.6979339315
 20
12.0241427337
 30
0.0
 10
3.7119657983
 20
12.0251891703
 30
0.0
 10
3.7231980788
 20
12.0258608697
 30
0.0
 10
3.7316246685
 20
12.0262901595
 30
0.0
 10
3.7400536127
 20
12.0266508202
 30
0.0
 10
3.7484843329
 20
12.0269494418
 30
0.0
 10
3.7569163804
 20
12.0271911615
 30
0.0
 10
3.7653494292
 20
12.0273791489
 30
0.0
 10
3.7737831874
 20
12.0275171096
 30
0.0
 10
3.7850287224
 20
12.0276382839
 30
0.0
 10
3.7934634559
 20
12.0276595218
 30
0.0
 10
3.7990864316
 20
12.027643931
 30
0.0
 11
3.796598817
 21
11.8756642373
 31
0.0
 11
3.7797299711
 21
11.8757346949
 31
0.0
 11
3.7712959077
 21
11.8758395975
 31
0.0
 11
3.7628623914
 21
11.8759926437
 31
0.0
 11
3.7544297033
 21
11.876196587
 31
0.0
 11
3.7459981612
 21
11.8764552724
 31
0.0
 11
3.7375680915
 21
11.8767726281
 31
0.0
 11
3.7291399861
 21
11.877153866
 31
0.0
 11
3.7207145001
 21
11.8776054645
 31
0.0
 11
3.7122923254
 21
11.8781341015
 31
0.0
 11
3.6954622452
 21
11.8794568919
 31
0.0
 11
3.6786610206
 21
11.8812015005
 31
0.0
 11
3.661906828
 21
11.8834697367
 31
0.0
 11
3.6452290227
 21
11.8863925644
 31
0.0
 11
3.6369327122
 21
11.8881509054
 31
0.0
 11
3.6286758754
 21
11.8901415382
 31
0.0
 11
3.6204696345
 21
11.8923950092
 31
0.0
 11
3.6163902341
 21
11.8936318221
 31
0.0
 11
3.6123294306
 21
11.8949485367
 31
0.0
 11
3.6082901114
 21
11.8963510602
 31
0.0
 11
3.6042758039
 21
11.8978461148
 31
0.0
 11
3.6002900552
 21
11.8994404478
 31
0.0
 11
3.59633714
 21
11.9011415661
 31
0.0
 11
3.5924232639
 21
11.9029589923
 31
0.0
 11
3.5885549489
 21
11.9049025798
 31
0.0
 11
3.5847391355
 21
11.9069824857
 31
0.0
 11
3.580986894
 21
11.9092118676
 31
0.0
 11
3.5773116481
 21
11.9116055929
 31
0.0
 11
3.5755071019
 21
11.9128687366
 31
0.0
 11
3.5737269796
 21
11.9141786016
 31
0.0
 11
3.570252653
 21
11.9169483273
 31
0.0
 11
3.5669171687
 21
11.9199357267
 31
0.0
 11
3.5653106051
 21
11.9215176863
 31
0.0
 11
3.5637499196
 21
11.9231620084
 31
0.0
 11
3.5622414091
 21
11.92487118
 31
0.0
 11
3.560792807
 21
11.9266475984
 31
0.0
 11
3.5581063379
 21
11.9304117592
 31
0.0
 11
3.5557544455
 21
11.9344713195
 31
0.0
 11
3.5547299382
 21
11.9366098064
 31
0.0
 11
3.5538229984
 21
11.9388162921
 31
0.0
 11
3.5530461392
 21
11.9410873531
 31
0.0
 11
3.5524116138
 21
11.9434190023
 31
0.0
 11
3.5519286647
 21
11.9458007113
 31
0.0
 11
3.5516045943
 21
11.9482177376
 31
0.0
 11
3.5514466725
 21
11.9506552687
 31
0.0
 11
3.5514322892
 21
11.9518770945
 31
0.0
 11
3.5514619156
 21
11.9530985012
 31
0.0
 11
3.5516503491
 21
11.9555328877
 31
0.0
 11
3.5520042999
 21
11.9579441627
 31
0.0
 11
3.5525156995
 21
11.9603180752
 31
0.0
 11
3.5531764703
 21
11.9626403976
 31
0.0
 11
3.5549059605
 21
11.9670943628
 31
0.0
 11
3.557097846
 21
11.971273253
 31
0.0
 11
3.5596560817
 21
11.9751578875
 31
0.0
 11
3.5625089069
 21
11.9787550931
 31
0.0
 11
3.565596891
 21
11.9820848984
 31
0.0
 11
3.5688671751
 21
11.9851675988
 31
0.0
 11
3.5722876046
 21
11.9880240124
 31
0.0
 11
3.5758301559
 21
11.9906750603
 31
0.0
 11
3.5794699848
 21
11.9931403344
 31
0.0
 11
3.5831920614
 21
11.9954353221
 31
0.0
 11
3.5869832439
 21
11.9975747212
 31
0.0
 11
3.5908309722
 21
11.9995728025
 31
0.0
 11
3.5947268961
 21
12.0014407472
 31
0.0
 11
3.5986645178
 21
12.0031883771
 31
0.0
 11
3.6026373934
 21
12.0048254603
 31
0.0
 11
3.6066403933
 21
12.0063603947
 31
0.0
 11
3.6147222478
 21
12.0091511553
 31
0.0
 11
3.6228836503
 21
12.0116121133
 31
0.0
 11
3.6269883199
 21
12.0127319552
 31
0.0
 11
3.6311062342
 21
12.0137844847
 31
0.0
 11
3.6393757655
 21
12.0157036046
 31
0.0
 11
3.6435248459
 21
12.0165774563
 31
0.0
 11
3.6476818801
 21
12.0173988289
 31
0.0
 11
3.6560164996
 21
12.0188954902
 31
0.0
 11
3.664373434
 21
12.0202154935
 31
0.0
 11
3.6727478894
 21
12.0213777811
 31
0.0
 11
3.6811361002
 21
12.0223990828
 31
0.0
 11
3.6979425666
 21
12.0240756428
 31
0.0
 11
3.7147758616
 21
12.0253434009
 31
0.0
 11
3.7231991314
 21
12.0258484926
 31
0.0
 11
3.7316254627
 21
12.0262787403
 31
0.0
 11
3.7400542224
 21
12.0266404927
 31
0.0
 11
3.7484848007
 21
12.0269399661
 31
0.0
 11
3.7569167205
 21
12.0271822105
 31
0.0
 11
3.7653496706
 21
12.0273708135
 31
0.0
 11
3.7737833505
 21
12.0275092643
 31
0.0
 11
3.7822174961
 21
12.027600253
 31
0.0
 11
3.7990864316
 21
12.027643931
 31
0.0
  0
SPLINE
  5
267
100
AcDbEntity
  8
0
100
AcDbSpline
 62
7
  6
CONTINUOUS
 70
0
 71
3
 72
78
 73
74
 74
72
 42
0.0000001
 43
0.0000001
 44
0.0000000001
 12
0.3463977984
 22
-0.109202528
 32
0.0
 13
-0.3632030293
 23
-0.0004317267
 33
0.0
 40
0.0
 40
0.0
 40
0.0
 40
0.0
 40
0.0153304895
 40
0.0306961145
 40
0.0461028365
 40
0.061557702
 40
0.0770708191
 40
0.0926563177
 40
0.100480453
 40
0.1083283087
 40
0.116203414
 40
0.1241088609
 40
0.1320462811
 40
0.1400189148
 40
0.1480321372
 40
0.1560924601
 40
0.1642021238
 40
0.1723647994
 40
0.1805889664
 40
0.1888841265
 40
0.1972483296
 40
0.2056835475
 40
0.2142005715
 40
0.2227959624
 40
0.2314531993
 40
0.2358039618
 40
0.2401689818
 40
0.2489274725
 40
0.2577002935
 40
0.2620839796
 40
0.2664611417
 40
0.2708306196
 40
0.2751910245
 40
0.2838733765
 40
0.2881909201
 40
0.2924874714
 40
0.3010184873
 40
0.3094757641
 40
0.3178572511
 40
0.3261619293
 40
0.3425711608
 40
0.3506893774
 40
0.3587569838
 40
0.3667789146
 40
0.3747588186
 40
0.3906098745
 40
0.406340829
 40
0.4141694862
 40
0.4219758802
 40
0.4375303379
 40
0.4530191441
 40
0.4684539991
 40
0.4838434294
 40
0.4991952058
 40
0.5145150854
 40
0.5450766468
 40
0.5603276319
 40
0.5755623968
 40
0.6059908489
 40
0.6211895206
 40
0.6363793528
 40
0.6667372768
 40
0.6970732427
 40
0.7273933295
 40
0.7577015917
 40
0.788001486
 40
0.8182951244
 40
0.8485844468
 40
0.8788705305
 40
0.9091545542
 40
0.9394372269
 40
0.9697189487
 40
1.0
 40
1.0
 40
1.0
 40
1.0
 10
3.9734181892
 20
12.0095712574
 30
0.0
 10
3.9751883385
 20
12.0090132146
 30
0.0
 10
3.9787188996
 20
12.007851386
 30
0.0
 10
3.983970898
 20
12.0059595974
 30
0.0
 10
3.9891771437
 20
12.0039034198
 30
0.0
 10
3.9943275456
 20
12.0016652397
 30
0.0
 10
3.9994090731
 20
11.9992239445
 30
0.0
 10
4.0035690943
 20
11.9970066324
 30
0.0
 10
4.0068425706
 20
11.9951072405
 30
0.0
 10
4.0092711778
 20
11.9936136445
 30
0.0
 10
4.0116667076
 20
11.9920494253
 30
0.0
 10
4.0140251918
 20
11.9904106937
 30
0.0
 10
4.0163405695
 20
11.9886915838
 30
0.0
 10
4.0186066178
 20
11.9868867951
 30
0.0
 10
4.020816816
 20
11.9849909683
 30
0.0
 10
4.0229643205
 20
11.9829997546
 30
0.0
 10
4.0250382188
 20
11.9809061937
 30
0.0
 10
4.0270259749
 20
11.9787036211
 30
0.0
 10
4.0289145126
 20
11.9763861213
 30
0.0
 10
4.0306894947
 20
11.9739499692
 30
0.0
 10
4.0323305576
 20
11.9713908383
 30
0.0
 10
4.0338150637
 20
11.9687066441
 30
0.0
 10
4.0351183119
 20
11.9658985553
 30
0.0
 10
4.0362159743
 20
11.9629748973
 30
0.0
 10
4.0369366901
 20
11.9604572364
 30
0.0
 10
4.0373841189
 20
11.9584014429
 30
0.0
 10
4.037741217
 20
11.9563155963
 30
0.0
 10
4.0380128867
 20
11.9536748673
 30
0.0
 10
4.0380476737
 20
11.951018042
 30
0.0
 10
4.0379299788
 20
11.9488978969
 30
0.0
 10
4.0377679191
 20
11.9473159347
 30
0.0
 10
4.0375347079
 20
11.9457457691
 30
0.0
 10
4.0371335026
 20
11.9436757125
 30
0.0
 10
4.0366015139
 20
11.9416393525
 30
0.0
 10
4.0359488121
 20
11.9396491759
 30
0.0
 10
4.0352229768
 20
11.9377039588
 30
0.0
 10
4.0341819207
 20
11.9353438074
 30
0.0
 10
4.03274266
 20
11.9326277946
 30
0.0
 10
4.0311421662
 20
11.9300359678
 30
0.0
 10
4.028833061
 20
11.9267591079
 30
0.0
 10
4.0262739296
 20
11.923706607
 30
0.0
 10
4.0235313787
 20
11.9208680772
 30
0.0
 10
4.0214042492
 20
11.9188505498
 30
0.0
 10
4.0192108194
 20
11.9169310347
 30
0.0
 10
4.0162167141
 20
11.9144994733
 30
0.0
 10
4.0123452835
 20
11.9116732985
 30
0.0
 10
4.0083300525
 20
11.9090911756
 30
0.0
 10
4.0050580297
 20
11.9071633108
 30
0.0
 10
4.0017590754
 20
11.9053254155
 30
0.0
 10
3.9975726506
 20
11.9031780216
 30
0.0
 10
3.9924651775
 20
11.9008133554
 30
0.0
 10
3.9872937615
 20
11.8986436423
 30
0.0
 10
3.9820704232
 20
11.8966487808
 30
0.0
 10
3.9768037069
 20
11.8948136708
 30
0.0
 10
3.9697399144
 20
11.8925617883
 30
0.0
 10
3.9626081561
 20
11.8905720499
 30
0.0
 10
3.9554315017
 20
11.8888043425
 30
0.0
 10
3.9482383223
 20
11.887176229
 30
0.0
 10
3.9410105159
 20
11.885735953
 30
0.0
 10
3.9337590631
 20
11.8844583864
 30
0.0
 10
3.9264991861
 20
11.883281523
 30
0.0
 10
3.9174030695
 20
11.8819852207
 30
0.0
 10
3.9064622513
 20
11.8806699803
 30
0.0
 10
3.8955044511
 20
11.8795644339
 30
0.0
 10
3.8845344265
 20
11.8786399457
 30
0.0
 10
3.8735554703
 20
11.8778744773
 30
0.0
 10
3.862570145
 20
11.8772468738
 30
0.0
 10
3.8515802246
 20
11.8767420195
 30
0.0
 10
3.8405871108
 20
11.8763443174
 30
0.0
 10
3.8295917234
 20
11.8760445681
 30
0.0
 10
3.8185948475
 20
11.8758323925
 30
0.0
 10
3.8075970658
 20
11.8757024607
 30
0.0
 10
3.8002648735
 20
11.875668595
 30
0.0
 10
3.796598817
 20
11.8756642373
 30
0.0
 11
3.9734181892
 21
12.0095712574
 31
0.0
 11
3.9787064567
 21
12.007828332
 31
0.0
 11
3.9839562708
 21
12.0059348464
 31
0.0
 11
3.9891597048
 21
12.0038764637
 31
0.0
 11
3.9943063756
 21
12.0016358288
 31
0.0
 11
3.9993835618
 21
11.9991927131
 31
0.0
 11
4.0043762824
 21
11.9965250711
 31
0.0
 11
4.006833884
 21
11.9950982752
 31
0.0
 11
4.0092614934
 21
11.99360452
 31
0.0
 11
4.0116559886
 21
11.99204007
 31
0.0
 11
4.014013266
 21
11.9904007053
 31
0.0
 11
4.0163272463
 21
11.9886812313
 31
0.0
 11
4.018591613
 21
11.9868763365
 31
0.0
 11
4.0208000497
 21
11.9849807093
 31
0.0
 11
4.0229455935
 21
11.9829889494
 31
0.0
 11
4.0250171841
 21
11.980895095
 31
0.0
 11
4.0270021607
 21
11.9786929649
 31
0.0
 11
4.0288878586
 21
11.9763763773
 31
0.0
 11
4.0306600497
 21
11.9739398881
 31
0.0
 11
4.0322977742
 21
11.9713812299
 31
0.0
 11
4.0337782604
 21
11.9686989899
 31
0.0
 11
4.0350786331
 21
11.9658921726
 31
0.0
 11
4.0361737976
 21
11.9629686964
 31
0.0
 11
4.0370365304
 21
11.959945032
 31
0.0
 11
4.0373722007
 21
11.958400884
 31
0.0
 11
4.0376397773
 21
11.9568382379
 31
0.0
 11
4.0379653654
 21
11.9536738312
 31
0.0
 11
4.0380060886
 21
11.950487774
 31
0.0
 11
4.037917586
 21
11.9488980665
 31
0.0
 11
4.0377558851
 21
11.9473165116
 31
0.0
 11
4.0375230674
 21
11.9457466732
 31
0.0
 11
4.0372220046
 21
11.944191839
 31
0.0
 11
4.0364266329
 21
11.9411403335
 31
0.0
 11
4.0359380683
 21
11.9396502373
 31
0.0
 11
4.0353927787
 21
11.9381880859
 31
0.0
 11
4.0341448103
 21
11.9353520263
 31
0.0
 11
4.0327089528
 21
11.9326365669
 31
0.0
 11
4.0311115256
 21
11.9300451811
 31
0.0
 11
4.0293757125
 21
11.9275784147
 31
0.0
 11
4.0255596791
 21
11.9230004086
 31
0.0
 11
4.0235119339
 21
11.9208789084
 31
0.0
 11
4.0213870503
 21
11.9188612783
 31
0.0
 11
4.0191954532
 21
11.9169414038
 31
0.0
 11
4.0169462727
 21
11.9151134298
 31
0.0
 11
4.0123015145
 21
11.9117118035
 31
0.0
 11
4.0074993686
 21
11.908616021
 31
0.0
 11
4.0050500085
 21
11.9071718864
 31
0.0
 11
4.0025734112
 21
11.9057915108
 31
0.0
 11
3.9975489738
 21
11.9032086653
 31
0.0
 11
3.9924454999
 21
11.9008418607
 31
0.0
 11
3.9872774377
 21
11.8986697058
 31
0.0
 11
3.9820567332
 21
11.8966730433
 31
0.0
 11
3.9767922465
 21
11.8948359533
 31
0.0
 11
3.971491517
 21
11.8931439339
 31
0.0
 11
3.9608037021
 21
11.8901469465
 31
0.0
 11
3.9554255651
 21
11.8888208743
 31
0.0
 11
3.9500290925
 21
11.8875978959
 31
0.0
 11
3.9391921946
 21
11.8854294812
 31
0.0
 11
3.9337559027
 21
11.8844706169
 31
0.0
 11
3.9283101293
 21
11.8835869838
 31
0.0
 11
3.917395257
 21
11.8820248077
 31
0.0
 11
3.9064565143
 21
11.8807046061
 31
0.0
 11
3.8955002635
 21
11.87959441
 31
0.0
 11
3.8845313957
 21
11.8786663295
 31
0.0
 11
3.8735532715
 21
11.8778973822
 31
0.0
 11
3.862568579
 21
11.8772672904
 31
0.0
 11
3.8515791067
 21
11.876759854
 31
0.0
 11
3.8405863485
 21
11.8763606305
 31
0.0
 11
3.8295912238
 21
11.8760591577
 31
0.0
 11
3.8185945214
 21
11.875846097
 31
0.0
 11
3.8075968742
 21
11.8757156486
 31
0.0
 11
3.796598817
 21
11.8756642373
 31
0.0
  0
SPLINE
  5
268
100
AcDbEntity
  8
0
100
AcDbSpline
 62
7
  6
CONTINUOUS
 70
0
 71
3
 72
32
 73
28
 74
26
 42
0.0000001
 43
0.0000001
 44
0.0000000001
 12
-0.0799256036
 22
-0.0560223322
 32
0.0
 13
0.0799256036
 23
-0.0560223322
 33
0.0
 40
0.0
 40
0.0
 40
0.0
 40
0.0
 40
0.0622956555
 40
0.1246264517
 40
0.1869969393
 40
0.2494103543
 40
0.2806495516
 40
0.3119016158
 40
0.3431673175
 40
0.3744448445
 40
0.4057364661
 40
0.4370375801
 40
0.4683499026
 40
0.4996711109
 40
0.5309948771
 40
0.5623190952
 40
0.5936456403
 40
0.6249692081
 40
0.6562815868
 40
0.6875892577
 40
0.7188924885
 40
0.7501781388
 40
0.7814433882
 40
0.8127043376
 40
0.8751960082
 40
0.9376437987
 40
1.0
 40
1.0
 40
1.0
 40
1.0
 10
3.7253503171
 20
11.165264428
 30
0.0
 10
3.7236906445
 20
11.164101112
 30
0.0
 10
3.7204674086
 20
11.1616309311
 30
0.0
 10
3.7159966288
 20
11.1574908957
 30
0.0
 10
3.7119665206
 20
11.1529131435
 30
0.0
 10
3.7090502858
 20
11.1487427454
 30
0.0
 10
3.7070328322
 20
11.1452125824
 30
0.0
 10
3.7056884401
 20
11.1424720331
 30
0.0
 10
3.7045256935
 20
11.1396482171
 30
0.0
 10
3.7035556423
 20
11.1367509973
 30
0.0
 10
3.7027892312
 20
11.1337920902
 30
0.0
 10
3.7022336131
 20
11.1307851917
 30
0.0
 10
3.7018975239
 20
11.1277448571
 30
0.0
 10
3.701783384
 20
11.124687416
 30
0.0
 10
3.7018922594
 20
11.1216293375
 30
0.0
 10
3.702225705
 20
11.1185873977
 30
0.0
 10
3.7027771391
 20
11.1155774783
 30
0.0
 10
3.7035398437
 20
11.112614481
 30
0.0
 10
3.704508013
 20
11.1097128728
 30
0.0
 10
3.7056699381
 20
11.1068842014
 30
0.0
 10
3.7070132453
 20
11.1041381506
 30
0.0
 10
3.7085265642
 20
11.1014837536
 30
0.0
 10
3.7101984743
 20
11.0989280112
 30
0.0
 10
3.712620943
 20
11.095658316
 30
0.0
 10
3.7159841636
 20
11.0918340294
 30
0.0
 10
3.7204614206
 20
11.0876872542
 30
0.0
 10
3.7236890314
 20
11.0852131126
 30
0.0
 10
3.7253503171
 20
11.084048666
 30
0.0
 11
3.7253503171
 21
11.165264428
 31
0.0
 11
3.7205291903
 21
11.161559419
 31
0.0
 11
3.7160714204
 21
11.1574193267
 31
0.0
 11
3.7120562029
 21
11.1528436018
 31
0.0
 11
3.7085732197
 21
11.1478456935
 31
0.0
 11
3.7070613499
 21
11.1451978372
 31
0.0
 11
3.7057189822
 21
11.1424587494
 31
0.0
 11
3.7045580187
 21
11.1396365447
 31
0.0
 11
3.7035897678
 21
11.1367413399
 31
0.0
 11
3.7028244716
 21
11.1337845774
 31
0.0
 11
3.702270278
 21
11.1307801386
 31
0.0
 11
3.7019345475
 21
11.1277424168
 31
0.0
 11
3.701820555
 21
11.1246874575
 31
0.0
 11
3.7019296847
 21
11.1216320708
 31
0.0
 11
3.7022620263
 21
11.1185928084
 31
0.0
 11
3.702812388
 21
11.1155851419
 31
0.0
 11
3.7035742202
 21
11.1126242652
 31
0.0
 11
3.7045403963
 21
11.1097247815
 31
0.0
 11
3.7057002892
 21
11.1068977084
 31
0.0
 11
3.707041958
 21
11.1041527184
 31
0.0
 11
3.7085534601
 21
11.1014994329
 31
0.0
 11
3.7102228618
 21
11.0989449263
 31
0.0
 11
3.7120382434
 21
11.0964925327
 31
0.0
 11
3.7160592905
 21
11.091906188
 31
0.0
 11
3.7205247501
 21
11.0877575954
 31
0.0
 11
3.7253503171
 21
11.084048666
 31
0.0
  0
SPLINE
  5
269
100
AcDbEntity
  8
0
100
AcDbSpline
 62
7
  6
CONTINUOUS
 70
0
 71
3
 72
17
 73
13
 74
11
 42
0.0000001
 43
0.0000001
 44
0.0000000001
 12
0.0093888039
 22
-0.0806298787
 32
0.0
 13
0.007079798
 23
-0.0808653413
 33
0.0
 40
0.0
 40
0.0
 40
0.0
 40
0.0
 40
0.0473138275
 40
0.098684908
 40
0.1537133005
 40
0.2120134146
 40
0.3367453328
 40
0.4692846158
 40
0.6058100019
 40
0.7423800913
 40
0.8750525101
 40
1.0
 40
1.0
 40
1.0
 40
1.0
 10
28.0633192418
 20
10.6757721553
 30
0.0
 10
28.0634673152
 20
10.6745005192
 30
0.0
 10
28.0637607164
 20
10.671846396
 30
0.0
 10
28.06418237
 20
10.6677085814
 30
0.0
 10
28.0646043314
 20
10.663272097
 30
0.0
 10
28.065180259
 20
10.6568563806
 30
0.0
 10
28.0658902956
 20
10.6483470825
 30
0.0
 10
28.0667259748
 20
10.6377244547
 30
0.0
 10
28.0675622956
 20
10.6267806059
 30
0.0
 10
28.0683986325
 20
10.6158331451
 30
0.0
 10
28.0692343084
 20
10.605199841
 30
0.0
 10
28.0698130434
 20
10.5982531095
 30
0.0
 10
28.0701079111
 20
10.5948851357
 30
0.0
 11
28.0633192418
 21
10.6757721553
 31
0.0
 11
28.0637434365
 21
10.6719549685
 31
0.0
 11
28.0641678456
 21
10.6678065916
 31
0.0
 11
28.0645921348
 21
10.6633598762
 31
0.0
 11
28.065016401
 21
10.6586464397
 31
0.0
 11
28.0658649948
 21
10.6485569909
 31
0.0
 11
28.0667135757
 21
10.6378316757
 31
0.0
 11
28.06756216
 21
10.6267818086
 31
0.0
 11
28.0684107436
 21
10.615728302
 31
0.0
 11
28.0692593273
 21
10.6049921459
 31
0.0
 11
28.0701079111
 21
10.5948851357
 31
0.0
  0
LINE
  5
26A
100
AcDbEntity
  8
0
100
AcDbLine
 62
7
  6
CONTINUOUS
 10
28.0701079111
 20
10.5948851357
 11
28.0702066942
 21
10.5937631766
  0
SPLINE
  5
26B
100
AcDbEntity
  8
0
100
AcDbSpline
 62
7
  6
CONTINUOUS
 70
0
 71
3
 72
75
 73
71
 74
69
 42
0.0000001
 43
0.0000001
 44
0.0000000001
 12
-0.3736574236
 22
0.5754803034
 32
0.0
 13
0.3736549575
 23
0.5754819043
 33
0.0
 40
0.0
 40
0.0
 40
0.0
 40
0.0
 40
0.0007109545
 40
0.0028320724
 40
0.0063457428
 40
0.0112290817
 40
0.0174408883
 40
0.0249360225
 40
0.0336652799
 40
0.0435711243
 40
0.0666776641
 40
0.0797585326
 40
0.0937778351
 40
0.1086787071
 40
0.1244060785
 40
0.1409066935
 40
0.1581319402
 40
0.1760352806
 40
0.1945726197
 40
0.2137038165
 40
0.2333911701
 40
0.2535981953
 40
0.274289845
 40
0.2954342543
 40
0.3169972807
 40
0.3389446345
 40
0.3612446769
 40
0.3838558897
 40
0.3952657429
 40
0.4067387302
 40
0.429848895
 40
0.4414726436
 40
0.4531325
 40
0.4648219266
 40
0.4765345364
 40
0.488262895
 40
0.4999991062
 40
0.5117352574
 40
0.5234634494
 40
0.535175843
 40
0.5468653191
 40
0.5585254439
 40
0.5701494905
 40
0.5932596757
 40
0.6161413071
 40
0.6387531953
 40
0.6610533585
 40
0.6830008982
 40
0.7045643898
 40
0.7257089532
 40
0.7464009143
 40
0.7666083285
 40
0.8054256349
 40
0.8239632779
 40
0.8418669164
 40
0.8590923907
 40
0.8755932398
 40
0.8913208372
 40
0.9062218776
 40
0.920241324
 40
0.9333223078
 40
0.9564289739
 40
0.9663348393
 40
0.9750641057
 40
0.9825592308
 40
0.9887709962
 40
0.993654314
 40
0.9971679757
 40
0.9992890633
 40
1.0
 40
1.0
 40
1.0
 40
1.0
 10
4.6297292419
 20
9.691156547
 30
0.0
 10
4.6296406907
 20
9.6912929271
 30
0.0
 10
4.6292882012
 20
9.6918363579
 30
0.0
 10
4.6285002768
 20
9.6930552314
 30
0.0
 10
4.6271969555
 20
9.6950772483
 30
0.0
 10
4.6253915664
 20
9.6978887661
 30
0.0
 10
4.6231047977
 20
9.7014733571
 30
0.0
 10
4.6203600489
 20
9.7058091196
 30
0.0
 10
4.6171840907
 20
9.71087181
 30
0.0
 10
4.6121520988
 20
9.718985015
 30
0.0
 10
4.60667649
 20
9.7279941473
 30
0.0
 10
4.6008196989
 20
9.7378714394
 30
0.0
 10
4.59598957
 20
9.7461752471
 30
0.0
 10
4.5909391012
 20
9.7550506509
 30
0.0
 10
4.5857073665
 20
9.7644752334
 30
0.0
 10
4.5803328221
 20
9.7744277796
 30
0.0
 10
4.5748575736
 20
9.7848905097
 30
0.0
 10
4.5693226191
 20
9.7958464335
 30
0.0
 10
4.5637698956
 20
9.8072801561
 30
0.0
 10
4.5582459462
 20
9.8191793968
 30
0.0
 10
4.5527959198
 20
9.8315314469
 30
0.0
 10
4.5474680998
 20
9.8443244443
 30
0.0
 10
4.5423157198
 20
9.8575476878
 30
0.0
 10
4.5373913423
 20
9.8711880281
 30
0.0
 10
4.5327514828
 20
9.885230914
 30
0.0
 10
4.5284558565
 20
9.8996593375
 30
0.0
 10
4.5245653798
 20
9.9144505912
 30
0.0
 10
4.5217183884
 20
9.9270166029
 30
0.0
 10
4.5196988494
 20
9.9372245014
 30
0.0
 10
4.5178539433
 20
9.9475812767
 30
0.0
 10
4.5163060566
 20
9.9580389004
 30
0.0
 10
4.5150698558
 20
9.9685781888
 30
0.0
 10
4.5143017312
 20
9.9765407116
 30
0.0
 10
4.5136996118
 20
9.9845378756
 30
0.0
 10
4.5132690401
 20
9.9925618253
 30
0.0
 10
4.5130105555
 20
10.0006038549
 30
0.0
 10
4.5129241732
 20
10.0086549587
 30
0.0
 10
4.5130100986
 20
10.016706029
 30
0.0
 10
4.5132683509
 20
10.02474797
 30
0.0
 10
4.5136995193
 20
10.0327718131
 30
0.0
 10
4.5143018759
 20
10.0407689805
 30
0.0
 10
4.5150698103
 20
10.0487316528
 30
0.0
 10
4.5163055524
 20
10.0592711716
 30
0.0
 10
4.5182350185
 20
10.0723106643
 30
0.0
 10
4.5211380987
 20
10.0877342459
 30
0.0
 10
4.5245647153
 20
10.1028597143
 30
0.0
 10
4.5284550697
 20
10.1176513146
 30
0.0
 10
4.532750795
 20
10.1320798721
 30
0.0
 10
4.5373906617
 20
10.1461229568
 30
0.0
 10
4.5423149243
 20
10.1597635489
 30
0.0
 10
4.5474674355
 20
10.1729870091
 30
0.0
 10
4.5544775516
 20
10.1898192635
 30
0.0
 10
4.5618025263
 20
10.2059817889
 30
0.0
 10
4.5693221848
 20
10.2214657194
 30
0.0
 10
4.5748571724
 20
10.2324219037
 30
0.0
 10
4.5803325292
 20
10.2428847571
 30
0.0
 10
4.5857071478
 20
10.2528374459
 30
0.0
 10
4.5909389259
 20
10.2622621678
 30
0.0
 10
4.5959894705
 20
10.2711376704
 30
0.0
 10
4.6008196445
 20
10.2794415648
 30
0.0
 10
4.6066764764
 20
10.2893189353
 30
0.0
 10
4.6121521234
 20
10.2983281147
 30
0.0
 10
4.6171841304
 20
10.3064413524
 30
0.0
 10
4.6203600915
 20
10.3115040466
 30
0.0
 10
4.6231048411
 20
10.3158397974
 30
0.0
 10
4.6253915962
 20
10.3194243777
 30
0.0
 10
4.6271969768
 20
10.3222358817
 30
0.0
 10
4.6285002959
 20
10.3242578837
 30
0.0
 10
4.629288212
 20
10.3254767471
 30
0.0
 10
4.6296406935
 20
10.3260201699
 30
0.0
 10
4.6297292419
 20
10.326156547
 30
0.0
 11
4.6297292419
 21
9.691156547
 31
0.0
 11
4.6294637682
 21
9.6915658038
 31
0.0
 11
4.628673387
 21
9.6927878844
 31
0.0
 11
4.6273671586
 21
9.6948142539
 31
0.0
 11
4.6255569736
 21
9.6976338871
 31
0.0
 11
4.6232645532
 21
9.7012271093
 31
0.0
 11
4.6205137697
 21
9.7055723578
 31
0.0
 11
4.6173311556
 21
9.7106463785
 31
0.0
 11
4.613748676
 21
9.716422465
 31
0.0
 11
4.6055170815
 21
9.7299725659
 31
0.0
 11
4.6009396096
 21
9.7376929579
 31
0.0
 11
4.5961037379
 21
9.7460083191
 31
0.0
 11
4.591047886
 21
9.7548949547
 31
0.0
 11
4.585811085
 21
9.7643304045
 31
0.0
 11
4.5804328057
 21
9.7742932463
 31
0.0
 11
4.5749540828
 21
9.7847657547
 31
0.0
 11
4.5694163093
 21
9.7957310415
 31
0.0
 11
4.5638621624
 21
9.8071736327
 31
0.0
 11
4.5583370048
 21
9.8190810124
 31
0.0
 11
4.5528866042
 21
9.8314410418
 31
0.0
 11
4.5475595665
 21
9.8442418394
 31
0.0
 11
4.5424083007
 21
9.8574718677
 31
0.0
 11
4.5374857173
 21
9.8711193968
 31
0.0
 11
4.5328484266
 21
9.8851692849
 31
0.0
 11
4.5285559858
 21
9.8996036727
 31
0.0
 11
4.5246680864
 21
9.9144025879
 31
0.0
 11
4.5212447099
 21
9.9295347906
 31
0.0
 11
4.5197259933
 21
9.9372149027
 31
0.0
 11
4.5183459155
 21
9.9449651389
 31
0.0
 11
4.5160266497
 21
9.9606515746
 31
0.0
 11
4.5150979898
 21
9.9685729209
 31
0.0
 11
4.5143302724
 21
9.9765363721
 31
0.0
 11
4.5137287179
 21
9.9845344429
 31
0.0
 11
4.5132979584
 21
9.9925594583
 31
0.0
 11
4.5130393034
 21
10.0006026746
 31
0.0
 11
4.5129528976
 21
10.0086549732
 31
0.0
 11
4.5130388845
 21
10.016707235
 31
0.0
 11
4.5132974077
 21
10.0247503411
 31
0.0
 11
4.5137285608
 21
10.032775187
 31
0.0
 11
4.51433034
 21
10.0407732749
 31
0.0
 11
4.5150979184
 21
10.0487369245
 31
0.0
 11
4.5160262701
 21
10.0566585128
 31
0.0
 11
4.5183451902
 21
10.0723450137
 31
0.0
 11
4.5212442078
 21
10.0877751973
 31
0.0
 11
4.5246674728
 21
10.1029079004
 31
0.0
 11
4.528555233
 21
10.1177069378
 31
0.0
 11
4.5328477041
 21
10.1321414497
 31
0.0
 11
4.537485037
 21
10.14619166
 31
0.0
 11
4.5424075339
 21
10.1598393327
 31
0.0
 11
4.5475588844
 21
10.1730695573
 31
0.0
 11
4.5528860181
 21
10.185870604
 31
0.0
 11
4.5638616423
 21
10.2101383828
 31
0.0
 11
4.5694158849
 21
10.2215811593
 31
0.0
 11
4.5749537025
 21
10.232546653
 31
0.0
 11
4.580432508
 21
10.2430192945
 31
0.0
 11
4.5858108628
 21
10.2529822781
 31
0.0
 11
4.5910477241
 21
10.2624178717
 31
0.0
 11
4.5961036384
 21
10.2713046048
 31
0.0
 11
4.6009395587
 21
10.2796200519
 31
0.0
 11
4.6055170687
 21
10.2873405133
 31
0.0
 11
4.6137487115
 21
10.3008906864
 31
0.0
 11
4.6173311972
 21
10.3066667858
 31
0.0
 11
4.6205138157
 21
10.3117408112
 31
0.0
 11
4.6232645987
 21
10.3160860525
 31
0.0
 11
4.6255570015
 21
10.3196792524
 31
0.0
 11
4.6273671797
 21
10.3224988729
 31
0.0
 11
4.6286734079
 21
10.3245252354
 31
0.0
 11
4.6294637763
 21
10.3257472995
 31
0.0
 11
4.6297292419
 21
10.326156547
 31
0.0
  0
SPLINE
  5
26C
100
AcDbEntity
  8
0
100
AcDbSpline
 62
6
  6
CONTINUOUS
 70
0
 71
3
 72
20
 73
16
 74
14
 42
0.0000001
 43
0.0000001
 44
0.0000000001
 12
-0.01462297
 22
0.062376035
 32
0.0
 13
-0.0052374848
 23
0.0638526758
 33
0.0
 40
0.0
 40
0.0
 40
0.0
 40
0.0
 40
0.0050857243
 40
0.0201820447
 40
0.0450427048
 40
0.0792710595
 40
0.1222998729
 40
0.1735394407
 40
0.2980290389
 40
0.4475405345
 40
0.5301369
 40
0.6172081898
 40
0.7082234792
 40
0.8026755049
 40
1.0
 40
1.0
 40
1.0
 40
1.0
 10
4.4522292419
 20
10.531656547
 30
0.0
 10
4.4522044524
 20
10.5317622894
 30
0.0
 10
4.4521064062
 20
10.5321819911
 30
0.0
 10
4.4518900071
 20
10.5331192541
 30
0.0
 10
4.4515368538
 20
10.5346636735
 30
0.0
 10
4.4510587501
 20
10.5367914265
 30
0.0
 10
4.4504714444
 20
10.5394719967
 30
0.0
 10
4.4494997755
 20
10.5440415923
 30
0.0
 10
4.4481369872
 20
10.5508526882
 30
0.0
 10
4.4467867074
 20
10.5583480685
 30
0.0
 10
4.4456926502
 20
10.5650761382
 30
0.0
 10
4.4448682873
 20
10.5705819926
 30
0.0
 10
4.444084373
 20
10.576349426
 30
0.0
 10
4.4430999664
 20
10.5844649081
 30
0.0
 10
4.4424906961
 20
10.5906675148
 30
0.0
 10
4.4421462015
 20
10.5948674138
 30
0.0
 11
4.4522292419
 21
10.531656547
 31
0.0
 11
4.4521551075
 21
10.5319738289
 31
0.0
 11
4.4519371684
 21
10.532916132
 31
0.0
 11
4.4515822694
 21
10.53446884
 31
0.0
 11
4.4511016405
 21
10.5366084331
 31
0.0
 11
4.4505115027
 21
10.5393012585
 31
0.0
 11
4.449828894
 21
10.542512276
 31
0.0
 11
4.4482646549
 21
10.5503330676
 31
0.0
 11
4.4465678882
 21
10.5597603592
 31
0.0
 11
4.4457186605
 21
10.5649834825
 31
0.0
 11
4.444892934
 21
10.5705004377
 31
0.0
 11
4.4441078671
 21
10.5762784346
 31
0.0
 11
4.4433793019
 21
10.5822856843
 31
0.0
 11
4.4421462015
 21
10.5948674138
 31
0.0
  0
SPLINE
  5
26D
100
AcDbEntity
  8
0
100
AcDbSpline
 62
6
  6
CONTINUOUS
 70
0
 71
3
 72
15
 73
11
 74
9
 42
0.0000001
 43
0.0000001
 44
0.0000000001
 12
0.0043191573
 22
0.0728899746
 32
0.0
 13
0.0165807924
 23
0.0711076633
 33
0.0
 40
0.0
 40
0.0
 40
0.0
 40
0.0
 40
0.193288714
 40
0.2864492287
 40
0.3765992012
 40
0.5457023092
 40
0.623495055
 40
0.6959528288
 40
0.9183930035
 40
1.0
 40
1.0
 40
1.0
 40
1.0
 10
4.4415152574
 20
10.6495161421
 30
0.0
 10
4.4417935388
 20
10.6542124119
 30
0.0
 10
4.4423308643
 20
10.6611656066
 30
0.0
 10
4.4432769566
 20
10.6702830959
 30
0.0
 10
4.4443013218
 20
10.6787995312
 30
0.0
 10
4.4454677004
 20
10.6869210375
 30
0.0
 10
4.446732768
 20
10.6945904074
 30
0.0
 10
4.4483210264
 20
10.7035214514
 30
0.0
 10
4.4501413083
 20
10.7125050095
 30
0.0
 10
4.4517782056
 20
10.7197222527
 30
0.0
 10
4.4522292419
 20
10.721656547
 30
0.0
 11
4.4415152574
 21
10.6495161421
 31
0.0
 11
4.4426016876
 21
10.6635877869
 31
0.0
 11
4.4433031981
 21
10.6703538964
 31
0.0
 11
4.4440891907
 21
10.6768893575
 31
0.0
 11
4.4458416855
 21
10.6891119004
 31
0.0
 11
4.4467659954
 21
10.69471645
 31
0.0
 11
4.4476920643
 21
10.6999254809
 31
0.0
 11
4.4509115365
 21
10.7158453042
 31
0.0
 11
4.4522292419
 21
10.721656547
 31
0.0
  0
SPLINE
  5
26E
100
AcDbEntity
  8
0
100
AcDbSpline
 62
7
  6
CONTINUOUS
 70
0
 71
3
 72
22
 73
18
 74
16
 42
0.0000001
 43
0.0000001
 44
0.0000000001
 12
0.1506345412
 22
-0.002932527
 32
0.0
 13
0.143691873
 23
-0.045299121
 33
0.0
 40
0.0
 40
0.0
 40
0.0
 40
0.0
 40
0.1246886609
 40
0.1870391259
 40
0.2493954826
 40
0.3117591822
 40
0.3741331984
 40
0.4365207281
 40
0.4989259816
 40
0.6238108243
 40
0.6863083966
 40
0.748857704
 40
0.8114771801
 40
0.8428234834
 40
0.8741982854
 40
0.9370320338
 40
1.0
 40
1.0
 40
1.0
 40
1.0
 10
28.7472805887
 20
12.0273673598
 30
0.0
 10
28.7535413951
 20
12.0272454755
 30
0.0
 10
28.7629319428
 20
12.0270012622
 30
0.0
 10
28.7754480912
 20
12.0265304072
 30
0.0
 10
28.7848331544
 20
12.0260983493
 30
0.0
 10
28.7942149109
 20
12.025577325
 30
0.0
 10
28.8035922999
 20
12.0249582779
 30
0.0
 10
28.8129640008
 20
12.0242295001
 30
0.0
 10
28.8254515186
 20
12.0230914861
 30
0.0
 10
28.8379190185
 20
12.0216773864
 30
0.0
 10
28.8503463773
 20
12.0199087763
 30
0.0
 10
28.8596475255
 20
12.0183821123
 30
0.0
 10
28.8673713691
 20
12.016918248
 30
0.0
 10
28.8735305104
 20
12.0156178123
 30
0.0
 10
28.8796803045
 20
12.0142243099
 30
0.0
 10
28.8873358937
 20
12.0122943063
 30
0.0
 10
28.8934021942
 20
12.0105220552
 30
0.0
 10
28.8964181892
 20
12.0095712574
 30
0.0
 11
28.7472805887
 21
12.0273673598
 31
0.0
 11
28.7660600206
 21
12.0268714655
 31
0.0
 11
28.7754472543
 21
12.026517275
 31
0.0
 11
28.7848320381
 21
12.0260835505
 31
0.0
 11
28.7942134054
 21
12.0255610354
 31
0.0
 11
28.803590328
 21
12.0249400635
 31
0.0
 11
28.8129613412
 21
12.0242088532
 31
0.0
 11
28.8223245046
 21
12.023353323
 31
0.0
 11
28.8410171542
 21
12.021206412
 31
0.0
 11
28.8503387801
 21
12.0198760756
 31
0.0
 11
28.8596373814
 21
12.0183446159
 31
0.0
 11
28.868905917
 21
12.0165830914
 31
0.0
 11
28.8735266299
 21
12.015606773
 31
0.0
 11
28.8781365531
 21
12.0145611305
 31
0.0
 11
28.8873141095
 21
12.0122391993
 31
0.0
 11
28.8964181892
 21
12.0095712574
 31
0.0
  0
SPLINE
  5
26F
100
AcDbEntity
  8
0
100
AcDbSpline
 62
7
  6
CONTINUOUS
 70
0
 71
3
 72
27
 73
23
 74
21
 42
0.0000001
 43
0.0000001
 44
0.0000000001
 12
0.1758592287
 22
-0.0004876048
 32
0.0
 13
0.1677228323
 23
-0.052874924
 33
0.0
 40
0.0
 40
0.0
 40
0.0
 40
0.0
 40
0.1247244068
 40
0.1870897373
 40
0.2494583186
 40
0.3118318029
 40
0.3742124624
 40
0.4366025965
 40
0.4990066541
 40
0.5614293616
 40
0.5926505303
 40
0.6238797548
 40
0.6863643965
 40
0.7176236424
 40
0.7488970059
 40
0.7801868345
 40
0.8114962743
 40
0.8428299408
 40
0.8741938833
 40
0.9055913149
 40
0.9370226625
 40
1.0
 40
1.0
 40
1.0
 40
1.0
 10
3.7990864316
 20
12.027643931
 30
0.0
 10
3.8063977443
 20
12.0276236589
 30
0.0
 10
3.8173649301
 20
12.0275175923
 30
0.0
 10
3.8319850637
 20
12.0272110558
 30
0.0
 10
3.8429487888
 20
12.0268918018
 30
0.0
 10
3.853910092
 20
12.0264733214
 30
0.0
 10
3.8648679932
 20
12.0259456365
 30
0.0
 10
3.8758209838
 20
12.0252923827
 30
0.0
 10
3.8867672208
 20
12.0244986071
 30
0.0
 10
3.8958803919
 20
12.0237016643
 30
0.0
 10
3.9031640076
 20
12.0229712384
 30
0.0
 10
3.9104443167
 20
12.0221746767
 30
0.0
 10
3.917714921
 20
12.0212707965
 30
0.0
 10
3.9249711943
 20
12.0202434002
 30
0.0
 10
3.9304072222
 20
12.0194068652
 30
0.0
 10
3.9358347671
 20
12.0184988225
 30
0.0
 10
3.9412523905
 20
12.0175132306
 30
0.0
 10
3.9466586011
 20
12.016444046
 30
0.0
 10
3.9520517022
 20
12.0152856877
 30
0.0
 10
3.9574291623
 20
12.0140307938
 30
0.0
 10
3.9645771412
 20
12.0122149756
 30
0.0
 10
3.9698972768
 20
12.0106812313
 30
0.0
 10
3.9734181892
 20
12.0095712574
 30
0.0
 11
3.7990864316
 21
12.027643931
 31
0.0
 11
3.8210193832
 21
12.027427205
 31
0.0
 11
3.8319845106
 21
12.0271961719
 31
0.0
 11
3.8429479482
 21
12.0268752789
 31
0.0
 11
3.8539088944
 21
12.0264551481
 31
0.0
 11
3.8648663219
 21
12.0259247547
 31
0.0
 11
3.8758186339
 21
12.0252690438
 31
0.0
 11
3.8867639968
 21
12.0244716328
 31
0.0
 11
3.8976995735
 21
12.0235114289
 31
0.0
 11
3.9031626733
 21
12.0229630682
 31
0.0
 11
3.9086219844
 21
12.0223650387
 31
0.0
 11
3.919525902
 21
12.0210039134
 31
0.0
 11
3.9249687709
 21
12.0202326074
 31
0.0
 11
3.9304043713
 21
12.0193951784
 31
0.0
 11
3.9358314007
 21
12.0184861972
 31
0.0
 11
3.9412483819
 21
12.0174996992
 31
0.0
 11
3.9466538362
 21
12.0164297167
 31
0.0
 11
3.9520462485
 21
12.0152702367
 31
0.0
 11
3.9574229496
 21
12.0140138163
 31
0.0
 11
3.9627799111
 21
12.0126513286
 31
0.0
 11
3.9734181892
 21
12.0095712574
 31
0.0
  0
SPLINE
  5
270
100
AcDbEntity
  8
0
100
AcDbSpline
 62
6
  6
CONTINUOUS
 70
0
 71
3
 72
27
 73
23
 74
21
 42
0.0000001
 43
0.0000001
 44
0.0000000001
 12
0.0642324947
 22
0.0632709642
 32
0.0
 13
-0.0642324947
 23
0.0632709642
 33
0.0
 40
0.0
 40
0.0
 40
0.0
 40
0.0
 40
0.0560103197
 40
0.1138635173
 40
0.1737007396
 40
0.2355797606
 40
0.2994364622
 40
0.3650405
 40
0.4319732704
 40
0.4657667191
 40
0.4996589891
 40
0.5673435986
 40
0.6009780874
 40
0.6343608391
 40
0.6674127701
 40
0.7000731027
 40
0.7323032522
 40
0.7640605085
 40
0.8260285634
 40
0.8859783641
 40
0.9439362683
 40
1.0
 40
1.0
 40
1.0
 40
1.0
 10
28.3727292419
 20
11.084048666
 30
0.0
 10
28.3739284694
 20
11.0852299416
 30
0.0
 10
28.3762571942
 20
11.0877451246
 30
0.0
 10
28.3794360715
 20
11.0918953463
 30
0.0
 10
28.3822980424
 20
11.0964807532
 30
0.0
 10
28.3847786311
 20
11.1014859994
 30
0.0
 10
28.3868094109
 20
11.1068764172
 30
0.0
 10
28.3883227629
 20
11.1125918892
 30
0.0
 10
28.3891007766
 20
11.1175395905
 30
0.0
 10
28.3894185731
 20
11.1215744892
 30
0.0
 10
28.3895258011
 20
11.125642904
 30
0.0
 10
28.3893171409
 20
11.1297099326
 30
0.0
 10
28.3887934744
 20
11.1337255923
 30
0.0
 10
28.388251643
 20
11.1366852628
 30
0.0
 10
28.3875647629
 20
11.1395844866
 30
0.0
 10
28.3867393145
 20
11.1424112348
 30
0.0
 10
28.385784604
 20
11.1451558343
 30
0.0
 10
28.3843624448
 20
11.1486653706
 30
0.0
 10
28.3823096746
 20
11.1528118103
 30
0.0
 10
28.3794447021
 20
11.1574059851
 30
0.0
 10
28.376261312
 20
11.161563121
 30
0.0
 10
28.373929613
 20
11.1640820259
 30
0.0
 10
28.3727292419
 20
11.165264428
 30
0.0
 11
28.3727292419
 21
11.084048666
 31
0.0
 11
28.3761602394
 21
11.0877541059
 31
0.0
 11
28.379332563
 21
11.0918946566
 31
0.0
 11
28.3821898765
 21
11.0964708656
 31
0.0
 11
28.3846683365
 21
11.1014692046
 31
0.0
 11
28.3866992786
 21
11.1068564894
 31
0.0
 11
28.3882141891
 21
11.1125741364
 31
0.0
 11
28.3891527421
 21
11.1185354392
 31
0.0
 11
28.3893918741
 21
11.1215728959
 31
0.0
 11
28.3894726248
 21
11.1246275939
 31
0.0
 11
28.3891585915
 21
11.130722029
 31
0.0
 11
28.3887667199
 21
11.1337291263
 31
0.0
 11
28.3882244055
 21
11.1366896922
 31
0.0
 11
28.3875371723
 21
11.1395893656
 31
0.0
 11
28.3867118474
 21
11.1424160336
 31
0.0
 11
28.3857569983
 21
11.1451605838
 31
0.0
 11
28.3846813134
 21
11.1478141129
 31
0.0
 11
28.3822017789
 21
11.1528208784
 31
0.0
 11
28.3793407098
 21
11.1574067085
 31
0.0
 11
28.3761632746
 21
11.1615552354
 31
0.0
 11
28.3727292419
 21
11.165264428
 31
0.0
  0
SPLINE
  5
271
100
AcDbEntity
  8
0
100
AcDbSpline
 62
6
  6
CONTINUOUS
 70
0
 71
3
 72
17
 73
13
 74
11
 42
0.0000001
 43
0.0000001
 44
0.0000000001
 12
-0.0064178134
 22
0.0386382619
 32
0.0
 13
-0.0128670433
 23
0.0369938212
 33
0.0
 40
0.0
 40
0.0
 40
0.0
 40
0.0
 40
0.1509567653
 40
0.2967190775
 40
0.4361469301
 40
0.5681096356
 40
0.6914968724
 40
0.8052496334
 40
0.8582106102
 40
0.9084027367
 40
0.9557047359
 40
1.0
 40
1.0
 40
1.0
 40
1.0
 10
28.0716303368
 20
10.6375345334
 30
0.0
 10
28.0713073994
 20
10.6394787691
 30
0.0
 10
28.070660458
 20
10.643298336
 30
0.0
 10
28.0696630997
 20
10.6489046742
 30
0.0
 10
28.068652938
 20
10.654256596
 30
0.0
 10
28.0676296176
 20
10.6593083631
 30
0.0
 10
28.0665928458
 20
10.6640147431
 30
0.0
 10
28.0656974204
 20
10.6676953787
 30
0.0
 10
28.0649670689
 20
10.670431587
 30
0.0
 10
28.0644284388
 20
10.6723207369
 30
0.0
 10
28.0638859864
 20
10.6740907922
 30
0.0
 10
28.0635092248
 20
10.6752259382
 30
0.0
 10
28.0633192418
 20
10.6757721553
 30
0.0
 11
28.0716303368
 21
10.6375345334
 31
0.0
 11
28.0706409585
 21
10.6433637872
 31
0.0
 11
28.0696385708
 21
10.6489842661
 31
0.0
 11
28.0686226418
 21
10.6543499959
 31
0.0
 11
28.0675926067
 21
10.6594149882
 31
0.0
 11
28.0665479551
 21
10.6641335182
 31
0.0
 11
28.0654880063
 21
10.6684610273
 31
0.0
 11
28.0649519576
 21
10.6704649248
 31
0.0
 11
28.0644117418
 21
10.6723551515
 31
0.0
 11
28.063867461
 21
10.6741261069
 31
0.0
 11
28.0633192418
 21
10.6757721553
 31
0.0
  0
SPLINE
  5
272
100
AcDbEntity
  8
0
100
AcDbSpline
 62
6
  6
CONTINUOUS
 70
0
 71
3
 72
27
 73
23
 74
21
 42
0.0000001
 43
0.0000001
 44
0.0000000001
 12
-0.064232688
 22
-0.0632711546
 32
0.0
 13
0.064232688
 23
-0.0632711546
 33
0.0
 40
0.0
 40
0.0
 40
0.0
 40
0.0
 40
0.056002448
 40
0.1138481019
 40
0.1736778949
 40
0.2355503214
 40
0.2994015404
 40
0.3650013129
 40
0.3983457735
 40
0.4319534713
 40
0.4657493421
 40
0.4996437632
 40
0.5335418698
 40
0.5673534089
 40
0.6009947777
 40
0.6343804141
 40
0.7000766904
 40
0.7640459494
 40
0.8260193067
 40
0.8859788585
 40
0.9439400144
 40
1.0
 40
1.0
 40
1.0
 40
1.0
 10
4.1397292419
 20
11.165264428
 30
0.0
 10
4.1385301793
 20
11.1640833148
 30
0.0
 10
4.13620175
 20
11.1615684802
 30
0.0
 10
4.1330232005
 20
11.1574188502
 30
0.0
 10
4.1301614322
 20
11.1528340871
 30
0.0
 10
4.1276808857
 20
11.147829374
 30
0.0
 10
4.125650089
 20
11.1424397926
 30
0.0
 10
4.1243951737
 20
11.1377011927
 30
0.0
 10
4.1236735689
 20
11.1337819477
 30
0.0
 10
4.1232791108
 20
11.1307784528
 30
0.0
 10
4.1230406078
 20
11.1277420552
 30
0.0
 10
4.1229593553
 20
11.1246886552
 30
0.0
 10
4.1230366858
 20
11.1216346488
 30
0.0
 10
4.1232733559
 20
11.1185965063
 30
0.0
 10
4.1236645791
 20
11.1155898717
 30
0.0
 10
4.1243825958
 20
11.1116646915
 30
0.0
 10
4.1256367578
 20
11.1069179314
 30
0.0
 10
4.1276653333
 20
11.1015173566
 30
0.0
 10
4.130148517
 20
11.096502159
 30
0.0
 10
4.1330136212
 20
11.0919071777
 30
0.0
 10
4.1361972789
 20
11.0877499271
 30
0.0
 10
4.1385289473
 20
11.0852309927
 30
0.0
 10
4.1397292419
 20
11.084048666
 30
0.0
 11
4.1397292419
 21
11.165264428
 31
0.0
 11
4.1362986936
 21
11.1615595186
 31
0.0
 11
4.1331266956
 21
11.1574195556
 31
0.0
 11
4.1302695913
 21
11.1528439864
 31
0.0
 11
4.1277911932
 21
11.1478462616
 31
0.0
 11
4.1257601694
 21
11.1424595174
 31
0.0
 11
4.1242450254
 21
11.1367423117
 31
0.0
 11
4.1237003877
 21
11.1337856735
 31
0.0
 11
4.1233060022
 21
11.1307813319
 31
0.0
 11
4.1230670719
 21
11.1277436311
 31
0.0
 11
4.12298581
 21
11.1246887434
 31
0.0
 11
4.1230634646
 21
11.1216334295
 31
0.0
 11
4.1232999309
 21
11.1185941189
 31
0.0
 11
4.1236914081
 21
11.1155863355
 31
0.0
 11
4.1242334695
 21
11.1126254497
 31
0.0
 11
4.1257463562
 21
11.1068986463
 31
0.0
 11
4.1277765295
 21
11.1015002097
 31
0.0
 11
4.1302563404
 21
11.0964930288
 31
0.0
 11
4.1331177751
 21
11.0919063714
 31
0.0
 11
4.1362954309
 21
11.0877576243
 31
0.0
 11
4.1397292419
 21
11.084048666
 31
0.0
  0
ENDSEC
  0
SECTION
  2
OBJECTS
  0
DICTIONARY
  5
C
100
AcDbDictionary
280
0
281
1
  3
ACAD_GROUP
350
D
  3
ACAD_MLINESTYLE
350
17
  3
ACAD_LAYOUT
350
1A
  3
ACAD_PLOTSETTINGS
350
19
  3
ACAD_PLOTSTYLENAME
350
E
  0
DICTIONARY
  5
D
102
{ACAD_REACTORS
330
C
102
}
100
AcDbDictionary
280
0
281
1
  0
ACDBDICTIONARYWDFLT
  5
E
102
{ACAD_REACTORS
330
C
102
}
100
AcDbDictionary
281
1
  3
Normal
350
F
100
AcDbDictionaryWithDefault
340
F
  0
DICTIONARY
  5
17
102
{ACAD_REACTORS
330
C
102
}
100
AcDbDictionary
280
0
281
1
  3
Standard
350
18
  0
DICTIONARY
  5
19
102
{ACAD_REACTORS
330
C
102
}
100
AcDbDictionary
281
1
  0
DICTIONARY
  5
1A
102
{ACAD_REACTORS
330
C
102
}
100
AcDbDictionary
281
1
  3
Model
350
273
  3
Layout1
350
274
  0
ACDBPLACEHOLDER
  5
F
102
{ACAD_REACTORS
330
E
102
}
  0
MLINESTYLE
  5
18
102
{ACAD_REACTORS
330
17
102
}
100
AcDbMlineStyle
  2
STANDARD
 70
0
  3

 62
256
 51
90.0
 52
90.0
 71
2
 49
0.5
 62
256
  6
BYLAYER
 49
-0.5
 62
256
  6
BYLAYER
  0
LAYOUT
  5
273
102
{ACAD_REACTORS
330
1A
102
}
100
AcDbPlotSettings
  1

  2
none_device
  4
ISO_A1_(594.00_x_841.00_MM)
  6

 40
0.0
 41
0.0
 42
0.0
 43
0.0
 44
841.0
 45
594.0
 46
0.0
 47
0.0
 48
0.0
 49
0.0
140
0.0
141
0.0
142
1.0
143
1.0
 70
1024
 72
0
 73
0
 74
0
  7

 75
0
147
1.0
148
0.0
149
0.0
100
AcDbLayout
  1
Model
 70
0
 71
0
 10
0.0
 20
0.0
 11
33.1102362205
 21
23.3858267717
 12
0.0
 22
0.0
 32
0.0
 14
0.0
 24
0.0
 34
0.0
 15
0.0
 25
0.0
 35
0.0
146
0.0
 13
0.0
 23
0.0
 33
0.0
 16
1.0
 26
0.0
 36
0.0
 17
0.0
 27
1.0
 37
0.0
 76
0
330
203
345
0
346
0
  0
LAYOUT
  5
274
102
{ACAD_REACTORS
330
1A
102
}
100
AcDbPlotSettings
  1

  2
none_device
  4
ISO_A1_(594.00_x_841.00_MM)
  6

 40
0.0
 41
0.0
 42
0.0
 43
0.0
 44
841.0
 45
594.0
 46
0.0
 47
0.0
 48
0.0
 49
0.0
140
0.0
141
0.0
142
1.0
143
1.0
 70
0
 72
0
 73
0
 74
0
  7

 75
0
147
1.0
148
0.0
149
0.0
100
AcDbLayout
  1
Layout1
 70
0
 71
1
 10
0.0
 20
0.0
 11
33.1102362205
 21
23.3858267717
 12
0.0
 22
0.0
 32
0.0
 14
0.0
 24
0.0
 34
0.0
 15
0.0
 25
0.0
 35
0.0
146
0.0
 13
0.0
 23
0.0
 33
0.0
 16
1.0
 26
0.0
 36
0.0
 17
0.0
 27
1.0
 37
0.0
 76
0
330
204
345
0
346
0
  0
ENDSEC
  0
EOF
