  0
SECTION
  2
HEADER
  9
$ACADVER
  1
AC1021
  9
$DWGCODEPAGE
  3
ANSI_1252
  9
$EXTMAX
 10
11.0
 20
8.5
 30
0.0
  9
$EXTMIN
 10
0.0
 20
0.0
 30
0.0
  9
$LIMMIN
 10
0.0
 20
0.0
  9
$LIMMAX
 10
11.0
 20
8.5
  9
$VIEWCTR
 10
5.5
 20
4.25
  9
$VIEWSIZE
 40
8.5
  9
$CLAYER
  8
0
  9
$LTSCALE
 40
0.605
  9
$CELTYPE
  6
BYLAYER
  9
$DIMSCALE
 40
1.0
  9
$DIMASZ
 40
0.1875
  9
$DIMEXO
 40
0.06875
  9
$DIMDLI
 40
0.418
  9
$DIMEXE
 40
0.198
  9
$DIMCEN
 40
0.099
  9
$DIMLFAC
 40
1.0
  9
$DIMBLK
  1
_CLOSED
  9
$DIMTXT
 40
0.15625
  9
$DIMTOL
 70
0
  9
$DIMLIM
 70
0
  9
$DIMTFAC
 40
1.0
  9
$PDMODE
 70
3
  9
$PDSIZE
 40
0.3125
  9
$HANDSEED
  5
270
  9
$TILEMODE
 70
1
  9
$MEASUREMENT
 70
0
  9
$INSUNITS
 70
1
  0
ENDSEC
  0
SECTION
  2
CLASSES
  0
CLASS
  1
ACDBDICTIONARYWDFLT
  2
AcDbDictionaryWithDefault
  3
AutoCAD 2000
 90
0
 91
1
280
0
281
0
  0
CLASS
  1
ACDBPLACEHOLDER
  2
AcDbPlaceHolder
  3
AutoCAD 2000
 90
0
 91
1
280
0
281
0
  0
CLASS
  1
LAYOUT
  2
AcDbLayout
  3
AutoCAD 2000
 90
0
 91
0
280
0
281
0
  0
ENDSEC
  0
SECTION
  2
TABLES
  0
TABLE
  2
VPORT
  5
8
100
AcDbSymbolTable
 70
2
  0
VPORT
  5
1F4
100
AcDbSymbolTableRecord
100
AcDbViewportTableRecord
  2
*ACTIVE
 70
0
 10
0.0
 20
0.0
 11
1.0
 21
1.0
 12
5.5
 22
4.25
 13
0.0
 23
0.0
 14
1.0
 24
1.0
 15
0.0
 25
0.0
 16
0.0
 26
0.0
 36
1.0
 17
0.0
 27
0.0
 37
0.0
 40
8.5
 41
1.2941176471
 42
50.0
 43
0.0
 44
0.0
 50
0.0
 51
0.0
 71
0
 72
100
 73
1
 74
1
 75
0
 76
0
 77
0
 78
0
  0
ENDTAB
  0
TABLE
  2
LTYPE
  5
5
100
AcDbSymbolTable
 70
6
  0
LTYPE
  5
14
100
AcDbSymbolTableRecord
100
AcDbLinetypeTableRecord
  2
BYBLOCK
 70
0
  3

 72
65
 73
0
 40
0.0
  0
LTYPE
  5
15
100
AcDbSymbolTableRecord
100
AcDbLinetypeTableRecord
  2
BYLAYER
 70
0
  3

 72
65
 73
0
 40
0.0
  0
LTYPE
  5
16
100
AcDbSymbolTableRecord
100
AcDbLinetypeTableRecord
  2
CONTINUOUS
 70
64
  3
Solid line
 72
65
 73
0
 40
0.0
  0
LTYPE
  5
1F5
100
AcDbSymbolTableRecord
100
AcDbLinetypeTableRecord
  2
CENTER
 70
64
  3
____ _ ____ _ ____ _ ____ _ ____ _ ____ _ ____
 72
65
 73
4
 40
0.6
 49
0.375
 74
0
 49
-0.075
 74
0
 49
0.075
 74
0
 49
-0.075
 74
0
  0
LTYPE
  5
1F6
100
AcDbSymbolTableRecord
100
AcDbLinetypeTableRecord
  2
HIDDEN
 70
64
  3
- - - - - - - - - - - - - - - - - - - -
 72
65
 73
2
 40
0.2
 49
0.1
 74
0
 49
-0.1
 74
0
  0
LTYPE
  5
1F7
100
AcDbSymbolTableRecord
100
AcDbLinetypeTableRecord
  2
PHANTOM
 70
64
  3
_____ _ _ _____ _ _ _____ _ _ _____
 72
65
 73
6
 40
0.8
 49
0.45
 74
0
 49
-0.05
 74
0
 49
0.1
 74
0
 49
-0.05
 74
0
 49
0.1
 74
0
 49
-0.05
 74
0
  0
LTYPE
  5
1F8
100
AcDbSymbolTableRecord
100
AcDbLinetypeTableRecord
  2
DOT
 70
64
  3
. . . . . . . . . . . . . . . . . . . .
 72
65
 73
2
 40
0.2
 49
0.1
 74
0
 49
-0.1
 74
0
  0
LTYPE
  5
1F9
100
AcDbSymbolTableRecord
100
AcDbLinetypeTableRecord
  2
DASHED
 70
64
  3
- - - - - - - - - - - - - - - - - - - -
 72
65
 73
2
 40
0.2
 49
0.1
 74
0
 49
-0.1
 74
0
  0
ENDTAB
  0
TABLE
  2
LAYER
  5
2
100
AcDbSymbolTable
 70
36
  0
LAYER
  5
10
100
AcDbSymbolTableRecord
100
AcDbLayerTableRecord
  2
0
 70
0
 62
7
  6
CONTINUOUS
370
-3
390
F
  0
LAYER
  5
1FA
100
AcDbSymbolTableRecord
100
AcDbLayerTableRecord
  2
DEFAULT_1
 70
0
 62
7
  6
CENTER
370
-3
390
F
  0
LAYER
  5
1FB
100
AcDbSymbolTableRecord
100
AcDbLayerTableRecord
  2
DEFAULT_2
 70
0
 62
8
  6
HIDDEN
370
-3
390
F
  0
LAYER
  5
1FC
100
AcDbSymbolTableRecord
100
AcDbLayerTableRecord
  2
DEFAULT_3
 70
0
 62
7
  6
PHANTOM
370
-3
390
F
  0
LAYER
  5
1FD
100
AcDbSymbolTableRecord
100
AcDbLayerTableRecord
  2
DEFAULT_COORDINATE_SYSTEM
 70
0
 62
7
  6
CONTINUOUS
370
-3
390
F
  0
LAYER
  5
1FE
100
AcDbSymbolTableRecord
100
AcDbLayerTableRecord
  2
DEFAULT_DATUM_AXES
 70
0
 62
7
  6
CONTINUOUS
370
-3
390
F
  0
LAYER
  5
1FF
100
AcDbSymbolTableRecord
100
AcDbLayerTableRecord
  2
DEFAULT_DATUM_CURVES
 70
0
 62
7
  6
CONTINUOUS
370
-3
390
F
  0
LAYER
  5
200
100
AcDbSymbolTableRecord
100
AcDbLayerTableRecord
  2
DEFAULT_DATUM_PLANES
 70
0
 62
7
  6
CONTINUOUS
370
-3
390
F
  0
ENDTAB
  0
TABLE
  2
STYLE
  5
3
100
AcDbSymbolTable
 70
1
  0
STYLE
  5
11
100
AcDbSymbolTableRecord
100
AcDbTextStyleTableRecord
  2
STANDARD
 70
0
 40
0.0
 41
0.8
 50
0.0
 71
0
 42
0.2
  3
txt
  4

  0
STYLE
  5
201
100
AcDbSymbolTableRecord
100
AcDbTextStyleTableRecord
  2
TEXTSTYLE_1
 70
0
 40
0.0
 41
0.8
 50
0.0
 71
0
 42
0.2
  3
gdt
  4

  0
ENDTAB
  0
TABLE
  2
VIEW
  5
6
100
AcDbSymbolTable
 70
0
  0
ENDTAB
  0
TABLE
  2
UCS
  5
7
100
AcDbSymbolTable
 70
0
  0
ENDTAB
  0
TABLE
  2
APPID
  5
9
100
AcDbSymbolTable
 70
1
  0
APPID
  5
202
100
AcDbSymbolTableRecord
100
AcDbRegAppTableRecord
  2
ACAD
 70
0
  0
ENDTAB
  0
TABLE
  2
BLOCK_RECORD
  5
1
100
AcDbSymbolTable
 70
0
  0
BLOCK_RECORD
  5
203
100
AcDbSymbolTableRecord
100
AcDbBlockTableRecord
  2
*Model_Space
  0
BLOCK_RECORD
  5
204
100
AcDbSymbolTableRecord
100
AcDbBlockTableRecord
  2
*Paper_Space
  0
ENDTAB
  0
TABLE
  2
DIMSTYLE
  5
A
100
AcDbSymbolTable
 70
1
100
AcDbDimStyleTable
 71
0
  0
DIMSTYLE
105
205
100
AcDbSymbolTableRecord
100
AcDbDimStyleTableRecord
  2
STANDARD
 70
0
  3

  4

 40
1.0
 41
0.1875
 42
0.0625
 43
0.38
 44
0.18
 45
0.0
 46
0.0
 47
0.001
 48
0.001
140
0.15625
141
0.09
142
0.0
143
25.4
144
1.0
145
0.0
146
1.0
147
0.09
 71
0.0
 72
0.0
 73
1
 74
1
 75
0
 76
0
 77
0
 78
4
170
0
171
2
172
0
173
0
174
0
175
0
176
0
177
0
178
0
270
2
271
3
272
3
273
2
274
2
275
0
280
0
281
0
282
0
283
1
284
4
285
0
286
0
287
3
288
0
340
11
  0
ENDTAB
  0
ENDSEC
  0
SECTION
  2
BLOCKS
  0
BLOCK
  5
20
100
AcDbEntity
  8
0
100
AcDbBlockBegin
  2
*Model_Space
 70
0
 10
0.0
 20
0.0
 30
0.0
  3
*Model_Space
  1

  0
ENDBLK
  5
21
100
AcDbEntity
  8
0
100
AcDbBlockEnd
  0
BLOCK
  5
1C
100
AcDbEntity
  8
0
100
AcDbBlockBegin
  2
*Paper_Space
 70
0
 10
0.0
 20
0.0
 30
0.0
  3
*Paper_Space
  1

  0
ENDBLK
  5
1D
100
AcDbEntity
  8
0
100
AcDbBlockEnd
  0
ENDSEC
  0
SECTION
  2
ENTITIES
  0
LINE
  5
206
100
AcDbEntity
  8
0
100
AcDbLine
 62
9
  6
CONTINUOUS
 10
3.8304903482
 20
3.5253514853
 11
3.8304903482
 21
3.7753514853
  0
LINE
  5
207
100
AcDbEntity
  8
0
100
AcDbLine
 62
6
  6
CONTINUOUS
 10
5.2063312039
 20
3.1933512496
 11
5.2046494924
 21
3.1933512496
  0
LINE
  5
208
100
AcDbEntity
  8
0
100
AcDbLine
 62
6
  6
CONTINUOUS
 10
4.7154903482
 20
3.2753514853
 11
5.6954903482
 21
3.2753514853
  0
LINE
  5
209
100
AcDbEntity
  8
0
100
AcDbLine
 62
6
  6
CONTINUOUS
 10
4.7163903989
 20
3.5253514853
 11
3.5469429907
 21
3.5253514853
  0
LINE
  5
20A
100
AcDbEntity
  8
0
100
AcDbLine
 62
6
  6
CONTINUOUS
 10
5.6952355347
 20
3.5253514853
 11
6.8640377057
 21
3.5253514853
  0
LINE
  5
20B
100
AcDbEntity
  8
0
100
AcDbLine
 62
6
  6
CONTINUOUS
 10
4.7163903185
 20
3.7753514853
 11
3.5469429907
 21
3.7753514853
  0
LINE
  5
20C
100
AcDbEntity
  8
0
100
AcDbLine
 62
6
  6
CONTINUOUS
 10
5.6952355066
 20
3.7753514853
 11
6.8640377057
 21
3.7753514853
  0
LINE
  5
20D
100
AcDbEntity
  8
0
100
AcDbLine
 62
7
  6
CONTINUOUS
 10
4.5154903482
 20
5.7023005966
 11
4.5154903482
 21
5.5503580698
  0
LINE
  5
20E
100
AcDbEntity
  8
0
100
AcDbLine
 62
6
  6
CONTINUOUS
 10
4.0540241306
 20
6.0517166978
 11
4.0229903482
 21
6.1813514853
  0
LINE
  5
20F
100
AcDbEntity
  8
0
100
AcDbLine
 62
6
  6
CONTINUOUS
 10
4.7154903482
 20
4.0253514853
 11
5.6954903482
 21
4.0253514853
  0
LINE
  5
210
100
AcDbEntity
  8
0
100
AcDbLine
 62
6
  6
CONTINUOUS
 10
4.7154903482
 20
4.0253514853
 11
4.7154903482
 21
3.7788514853
  0
LINE
  5
211
100
AcDbEntity
  8
0
100
AcDbLine
 62
6
  6
CONTINUOUS
 10
4.7154903482
 20
3.5218514853
 11
4.7154903482
 21
3.2753514853
  0
LINE
  5
212
100
AcDbEntity
  8
0
100
AcDbLine
 62
6
  6
CONTINUOUS
 10
4.8929903482
 20
4.5363514853
 11
4.8929903482
 21
4.0253514853
  0
LINE
  5
213
100
AcDbEntity
  8
0
100
AcDbLine
 62
7
  6
CONTINUOUS
 10
4.8929903482
 20
4.5363514853
 11
5.5179903482
 21
4.5363514853
  0
LINE
  5
214
100
AcDbEntity
  8
0
100
AcDbLine
 62
6
  6
CONTINUOUS
 10
5.2054903482
 20
4.7587436043
 11
5.2054903482
 21
4.8399593663
  0
LINE
  5
215
100
AcDbEntity
  8
0
100
AcDbLine
 62
6
  6
CONTINUOUS
 10
4.7154903482
 20
4.7423514853
 11
5.6954903482
 21
4.7423514853
  0
LINE
  5
216
100
AcDbEntity
  8
0
100
AcDbLine
 62
6
  6
CONTINUOUS
 10
4.7154903482
 20
4.8563514853
 11
5.6954903482
 21
4.8563514853
  0
LINE
  5
217
100
AcDbEntity
  8
0
100
AcDbLine
 62
6
  6
CONTINUOUS
 10
5.5179903482
 20
4.5363514853
 11
5.5179903482
 21
4.0253514853
  0
LINE
  5
218
100
AcDbEntity
  8
0
100
AcDbLine
 62
6
  6
CONTINUOUS
 10
5.6954903482
 20
4.0253514853
 11
5.6954903482
 21
3.7763514853
  0
LINE
  5
219
100
AcDbEntity
  8
0
100
AcDbLine
 62
6
  6
CONTINUOUS
 10
5.6954903482
 20
3.5243514853
 11
5.6954903482
 21
3.2753514853
  0
LINE
  5
21A
100
AcDbEntity
  8
0
100
AcDbLine
 62
7
  6
CONTINUOUS
 10
5.8954903482
 20
5.5503580698
 11
5.8954903482
 21
5.7023005966
  0
LINE
  5
21B
100
AcDbEntity
  8
0
100
AcDbLine
 62
6
  6
CONTINUOUS
 10
6.3569565657
 20
6.0517166978
 11
6.3879903482
 21
6.1813514853
  0
LINE
  5
21C
100
AcDbEntity
  8
0
100
AcDbLine
 62
6
  6
CONTINUOUS
 10
4.5404903482
 20
5.5463514853
 11
5.8704903482
 21
5.5463514853
  0
LINE
  5
21D
100
AcDbEntity
  8
0
100
AcDbLine
 62
7
  6
CONTINUOUS
 10
4.5404903482
 20
5.7063514853
 11
5.8704903482
 21
5.7063514853
  0
LINE
  5
21E
100
AcDbEntity
  8
0
100
AcDbLine
 62
9
  6
CONTINUOUS
 10
6.0384810233
 20
5.807107444
 11
4.372499673
 21
5.807107444
  0
LINE
  5
21F
100
AcDbEntity
  8
0
100
AcDbLine
 62
9
  6
CONTINUOUS
 10
6.5804903482
 20
3.7753514853
 11
6.5804903482
 21
3.5253514853
  0
LINE
  5
220
100
AcDbEntity
  8
0
100
AcDbLine
 62
9
  6
CONTINUOUS
 10
6.3150743582
 20
6.0085242873
 11
4.0959063381
 21
6.0085242873
  0
LINE
  5
221
100
AcDbEntity
  8
0
100
AcDbLine
 62
9
  6
CONTINUOUS
 10
6.3569565657
 20
6.0517166978
 11
4.0540241306
 21
6.0517166978
  0
LINE
  5
222
100
AcDbEntity
  8
0
100
AcDbLine
 62
6
  6
CONTINUOUS
 10
4.0229903482
 20
6.1813514853
 11
6.3879903482
 21
6.1813514853
  0
ARC
  5
223
100
AcDbEntity
  8
0
100
AcDbCircle
 62
6
  6
CONTINUOUS
 10
5.2046494924
 20
4.6933512496
 40
1.5
100
AcDbArc
 50
250.9673990432
 51
270.0
  0
ARC
  5
224
100
AcDbEntity
  8
0
100
AcDbCircle
 62
6
  6
CONTINUOUS
 10
5.2063312039
 20
4.6933512496
 40
1.5
100
AcDbArc
 50
270.0
 51
289.0326009568
  0
ARC
  5
225
100
AcDbEntity
  8
0
100
AcDbCircle
 62
6
  6
CONTINUOUS
 10
3.7221548889
 20
4.9716106079
 40
1.0
100
AcDbArc
 50
353.3814289333
 51
35.081487698
  0
ARC
  5
226
100
AcDbEntity
  8
0
100
AcDbCircle
 62
6
  6
CONTINUOUS
 10
6.6888258074
 20
4.9716106079
 40
1.0
100
AcDbArc
 50
144.918512302
 51
186.6185710667
  0
ARC
  5
227
100
AcDbEntity
  8
0
100
AcDbCircle
 62
6
  6
CONTINUOUS
 10
3.9695702554
 20
5.5444120227
 40
0.481
100
AcDbArc
 50
33.1028976735
 51
74.7724610745
  0
ARC
  5
228
100
AcDbEntity
  8
0
100
AcDbCircle
 62
6
  6
CONTINUOUS
 10
6.441410441
 20
5.5444120227
 40
0.481
100
AcDbArc
 50
105.2275389255
 51
146.8971023265
  0
CIRCLE
  5
229
100
AcDbEntity
  8
0
100
AcDbCircle
 62
6
  6
CONTINUOUS
 10
3.3304903482
 20
3.6503514853
 40
0.25
  0
CIRCLE
  5
22A
100
AcDbEntity
  8
0
100
AcDbCircle
 62
6
  6
CONTINUOUS
 10
7.0804903482
 20
3.6503514853
 40
0.25
  0
ARC
  5
22B
100
AcDbEntity
  8
0
100
AcDbCircle
 62
6
  6
CONTINUOUS
 10
4.5584670961
 20
5.9283514853
 40
0.222
100
AcDbArc
 50
213.1028978821
 51
270.0000002376
  0
ARC
  5
22C
100
AcDbEntity
  8
0
100
AcDbCircle
 62
6
  6
CONTINUOUS
 10
5.8525136002
 20
5.9283514853
 40
0.222
100
AcDbArc
 50
269.9999997624
 51
326.8971021179
  0
ARC
  5
22D
100
AcDbEntity
  8
0
100
AcDbCircle
 62
6
  6
CONTINUOUS
 10
4.9154003279
 20
4.7363514853
 40
0.2
100
AcDbArc
 50
178.2808686791
 51
270.0
  0
ARC
  5
22E
100
AcDbEntity
  8
0
100
AcDbCircle
 62
6
  6
CONTINUOUS
 10
5.4955803684
 20
4.7363514853
 40
0.2
100
AcDbArc
 50
270.0
 51
1.7191313209
  0
ARC
  5
22F
100
AcDbEntity
  8
0
100
AcDbCircle
 62
7
  6
CONTINUOUS
 10
5.2054903482
 20
4.3013514853
 40
0.082
100
AcDbArc
 50
326.6551695406
 51
11.7447639377
  0
ARC
  5
230
100
AcDbEntity
  8
0
100
AcDbCircle
 62
6
  6
CONTINUOUS
 10
4.5404903482
 20
5.6263514853
 40
0.08
100
AcDbArc
 50
90.0
 51
270.0
  0
ARC
  5
231
100
AcDbEntity
  8
0
100
AcDbCircle
 62
6
  6
CONTINUOUS
 10
5.8704903482
 20
5.6263514853
 40
0.08
100
AcDbArc
 50
270.0
 51
90.0
  0
ARC
  5
232
100
AcDbEntity
  8
0
100
AcDbCircle
 62
6
  6
CONTINUOUS
 10
5.2054903482
 20
4.3013514853
 40
0.0650899999
100
AcDbArc
 50
319.0174920094
 51
48.9886794061
  0
ARC
  5
233
100
AcDbEntity
  8
0
100
AcDbCircle
 62
6
  6
CONTINUOUS
 10
5.2056367849
 20
4.301224388
 40
0.0648960994
100
AcDbArc
 50
318.3764935051
 51
319.0174121782
  0
CIRCLE
  5
234
100
AcDbEntity
  8
0
100
AcDbCircle
 62
6
  6
CONTINUOUS
 10
5.2054903482
 20
4.3013514853
 40
0.062
  0
ARC
  5
235
100
AcDbEntity
  8
0
100
AcDbCircle
 62
6
  6
CONTINUOUS
 10
4.1114028634
 20
6.0654528189
 40
0.059
100
AcDbArc
 50
193.46289538
 51
254.7724614798
  0
ARC
  5
236
100
AcDbEntity
  8
0
100
AcDbCircle
 62
6
  6
CONTINUOUS
 10
6.2995778329
 20
6.0654528189
 40
0.059
100
AcDbArc
 50
285.2275385202
 51
346.53710462
  0
ARC
  5
237
100
AcDbEntity
  8
0
100
AcDbCircle
 62
6
  6
CONTINUOUS
 10
4.7154903482
 20
4.7993514853
 40
0.057
100
AcDbArc
 50
90.0
 51
270.0
  0
ARC
  5
238
100
AcDbEntity
  8
0
100
AcDbCircle
 62
6
  6
CONTINUOUS
 10
5.6954903482
 20
4.7993514853
 40
0.057
100
AcDbArc
 50
270.0
 51
90.0
  0
SPLINE
  5
239
100
AcDbEntity
  8
0
100
AcDbSpline
 62
7
  6
CONTINUOUS
 70
0
 71
3
 72
129
 73
125
 74
123
 42
0.0000001
 43
0.0000001
 44
0.0000000001
 12
-0.551525217
 22
-0.0006555787
 32
0.0
 13
0.5515234867
 23
-0.0015292089
 33
0.0
 40
0.0
 40
0.0
 40
0.0
 40
0.0
 40
0.0152929906
 40
0.0305861679
 40
0.0458795934
 40
0.0611733617
 40
0.0764675818
 40
0.0917624463
 40
0.1070582748
 40
0.1223553407
 40
0.1376539594
 40
0.1529546975
 40
0.1682580615
 40
0.1835647913
 40
0.1988759352
 40
0.2141925066
 40
0.229516188
 40
0.2448486911
 40
0.2525191298
 40
0.2601927961
 40
0.2678700083
 40
0.2755512379
 40
0.283237114
 40
0.2909281779
 40
0.3063280206
 40
0.3140390656
 40
0.3217585371
 40
0.3294875901
 40
0.3372278321
 40
0.344980659
 40
0.3527476109
 40
0.360531103
 40
0.3683338421
 40
0.3761580654
 40
0.3840074436
 40
0.3879433575
 40
0.3918874392
 40
0.3998010677
 40
0.4037722315
 40
0.4077540928
 40
0.4117479366
 40
0.4157552012
 40
0.4197764652
 40
0.4238121918
 40
0.4278634434
 40
0.4319319267
 40
0.4360200297
 40
0.4401305444
 40
0.4442639242
 40
0.4484200043
 40
0.4526000739
 40
0.4568070211
 40
0.4610453525
 40
0.4653163428
 40
0.4696157478
 40
0.4739412163
 40
0.4782932462
 40
0.4804805079
 40
0.4826752138
 40
0.4870815017
 40
0.4915031549
 40
0.4937174571
 40
0.4959327085
 40
0.4981482186
 40
0.5003634663
 40
0.5025780079
 40
0.5047912563
 40
0.509210117
 40
0.5136131253
 40
0.5158061071
 40
0.5179915476
 40
0.5223388529
 40
0.5266586134
 40
0.5352145962
 40
0.5436481831
 40
0.5478232592
 40
0.5519743877
 40
0.5561031608
 40
0.5602097487
 40
0.5642943225
 40
0.5683594347
 40
0.5764393506
 40
0.5804578138
 40
0.5844625804
 40
0.5924334284
 40
0.6003618659
 40
0.6082548276
 40
0.6121892607
 40
0.6161161829
 40
0.6239500591
 40
0.6317611643
 40
0.6356591549
 40
0.6395523499
 40
0.6473256861
 40
0.6550840367
 40
0.6628292553
 40
0.6782852293
 40
0.6859996247
 40
0.6937060636
 40
0.7014054863
 40
0.7090988428
 40
0.7167867985
 40
0.7244698564
 40
0.7321486604
 40
0.7398237477
 40
0.7474954847
 40
0.7551641863
 40
0.7628302634
 40
0.7704940468
 40
0.7781557642
 40
0.785815587
 40
0.8164395205
 40
0.8317451771
 40
0.8470477422
 40
0.8623478475
 40
0.8776459737
 40
0.8929426688
 40
0.9082382336
 40
0.9235328978
 40
0.9388269454
 40
0.954120553
 40
0.9694138345
 40
0.984706939
 40
1.0
 40
1.0
 40
1.0
 40
1.0
 10
4.8623599233
 20
5.5503591756
 30
0.0
 10
4.8595484334
 20
5.5503558336
 30
0.0
 10
4.8539253895
 20
5.5503639722
 30
0.0
 10
4.8454909571
 20
5.5504218158
 30
0.0
 10
4.8370568298
 20
5.5505265674
 30
0.0
 10
4.8286232379
 20
5.5506791379
 30
0.0
 10
4.8201904425
 20
5.5508823891
 30
0.0
 10
4.8117587604
 20
5.5511404874
 30
0.0
 10
4.8033285354
 20
5.5514569796
 30
0.0
 10
4.7949002315
 20
5.5518370779
 30
0.0
 10
4.7864744804
 20
5.5522876641
 30
0.0
 10
4.7780519954
 20
5.5528148855
 30
0.0
 10
4.7696337509
 20
5.5534273299
 30
0.0
 10
4.7612209841
 20
5.5541345497
 30
0.0
 10
4.7528151545
 20
5.5549461109
 30
0.0
 10
4.744418288
 20
5.5558750614
 30
0.0
 10
4.7360327677
 20
5.5569336654
 30
0.0
 10
4.7290581108
 20
5.5579371559
 30
0.0
 10
4.7234880912
 20
5.5588211134
 30
0.0
 10
4.7193150331
 20
5.5595271437
 30
0.0
 10
4.715147951
 20
5.5602789342
 30
0.0
 10
4.7109876187
 20
5.5610792283
 30
0.0
 10
4.7068348238
 20
5.5619306648
 30
0.0
 10
4.7013071629
 20
5.56313891
 30
0.0
 10
4.6958004866
 20
5.5644631821
 30
0.0
 10
4.6903220036
 20
5.5659170517
 30
0.0
 10
4.686225458
 20
5.5670781796
 30
0.0
 10
4.6821453177
 20
5.5683144029
 30
0.0
 10
4.6780836866
 20
5.5696303017
 30
0.0
 10
4.6740433914
 20
5.5710318756
 30
0.0
 10
4.6700279115
 20
5.5725261545
 30
0.0
 10
4.6660408445
 20
5.574119706
 30
0.0
 10
4.6620863457
 20
5.5758195141
 30
0.0
 10
4.6581705596
 20
5.5776358846
 30
0.0
 10
4.6549480207
 20
5.5792534503
 30
0.0
 10
4.6523966904
 20
5.5806148852
 30
0.0
 10
4.6498591787
 20
5.5820263178
 30
0.0
 10
4.6473556835
 20
5.5835115293
 30
0.0
 10
4.6448939605
 20
5.5850766413
 30
0.0
 10
4.6430662537
 20
5.5862949184
 30
0.0
 10
4.641261159
 20
5.5875580754
 30
0.0
 10
4.6394804479
 20
5.5888676857
 30
0.0
 10
4.6377270962
 20
5.5902263675
 30
0.0
 10
4.6360047059
 20
5.5916369472
 30
0.0
 10
4.6343169116
 20
5.5931020784
 30
0.0
 10
4.6326673529
 20
5.5946244249
 30
0.0
 10
4.6310597833
 20
5.5962066713
 30
0.0
 10
4.6294981022
 20
5.597850791
 30
0.0
 10
4.6279884838
 20
5.5995596588
 30
0.0
 10
4.6265385705
 20
5.6013361199
 30
0.0
 10
4.6251560943
 20
5.6031825936
 30
0.0
 10
4.6238488819
 20
5.6051015397
 30
0.0
 10
4.6226251731
 20
5.6070945467
 30
0.0
 10
4.6214944876
 20
5.6091612955
 30
0.0
 10
4.6204685382
 20
5.6112999496
 30
0.0
 10
4.61955986
 20
5.6135072484
 30
0.0
 10
4.618911878
 20
5.6153981148
 30
0.0
 10
4.618464783
 20
5.6169405484
 30
0.0
 10
4.6180659298
 20
5.6185064515
 30
0.0
 10
4.6176626201
 20
5.6204939214
 30
0.0
 10
4.6173920896
 20
5.6225075115
 30
0.0
 10
4.6172584269
 20
5.6241295097
 30
0.0
 10
4.6172005549
 20
5.6253500401
 30
0.0
 10
4.6171860085
 20
5.6265720304
 30
0.0
 10
4.6172157784
 20
5.6277936153
 30
0.0
 10
4.6172889556
 20
5.6290129514
 30
0.0
 10
4.6174429156
 20
5.6306323075
 30
0.0
 10
4.6177384179
 20
5.6326410512
 30
0.0
 10
4.6181655706
 20
5.6346220408
 30
0.0
 10
4.6185823925
 20
5.6361819526
 30
0.0
 10
4.6190464358
 20
5.6377177734
 30
0.0
 10
4.6197142959
 20
5.6395993357
 30
0.0
 10
4.6209507361
 20
5.6425159115
 30
0.0
 10
4.6227811964
 20
5.6459885672
 30
0.0
 10
4.6249295185
 20
5.6492395844
 30
0.0
 10
4.6267953471
 20
5.6516924978
 30
0.0
 10
4.6282562033
 20
5.6534565287
 30
0.0
 10
4.6297756132
 20
5.6551533449
 30
0.0
 10
4.6313462789
 20
5.6567857915
 30
0.0
 10
4.6329618815
 20
5.6583569881
 30
0.0
 10
4.6351660341
 20
5.6603685533
 30
0.0
 10
4.6374503067
 20
5.6622720849
 30
0.0
 10
4.6397989474
 20
5.6640746848
 30
0.0
 10
4.6421756038
 20
5.6658064278
 30
0.0
 10
4.6452076123
 20
5.6678573988
 30
0.0
 10
4.6489332403
 20
5.670151264
 30
0.0
 10
4.6520982703
 20
5.671934524
 30
0.0
 10
4.6546578036
 20
5.6732902447
 30
0.0
 10
4.657229716
 20
5.6745985703
 30
0.0
 10
4.6604753762
 20
5.6761531295
 30
0.0
 10
4.66376033
 20
5.677609472
 30
0.0
 10
4.6664054868
 20
5.6787189712
 30
0.0
 10
4.6690581575
 20
5.6797920045
 30
0.0
 10
4.6723932269
 20
5.681069795
 30
0.0
 10
4.6764237555
 20
5.6825085497
 30
0.0
 10
4.6818240102
 20
5.6843074412
 30
0.0
 10
4.6872683279
 20
5.6859445437
 30
0.0
 10
4.6927450967
 20
5.68743752
 30
0.0
 10
4.6968635313
 20
5.6884894783
 30
0.0
 10
4.7009935542
 20
5.6894783146
 30
0.0
 10
4.705133901
 20
5.6904075472
 30
0.0
 10
4.7092833115
 20
5.6912808469
 30
0.0
 10
4.7134406516
 20
5.692101817
 30
0.0
 10
4.717605068
 20
5.6928731603
 30
0.0
 10
4.721775772
 20
5.6935976242
 30
0.0
 10
4.7259520042
 20
5.6942779916
 30
0.0
 10
4.7301330965
 20
5.6949168979
 30
0.0
 10
4.7343185417
 20
5.695516369
 30
0.0
 10
4.7385078596
 20
5.6960785171
 30
0.0
 10
4.7427005945
 20
5.6966054367
 30
0.0
 10
4.7510894515
 20
5.6975927117
 30
0.0
 10
4.7608952395
 20
5.6985610653
 30
0.0
 10
4.7721159771
 20
5.6994657514
 30
0.0
 10
4.780535638
 20
5.700052051
 30
0.0
 10
4.7889591894
 20
5.7005558142
 30
0.0
 10
4.7973857737
 20
5.7009850961
 30
0.0
 10
4.8058147193
 20
5.7013457589
 30
0.0
 10
4.8142454392
 20
5.70164438
 30
0.0
 10
4.8226774865
 20
5.7018860997
 30
0.0
 10
4.8311105362
 20
5.7020740873
 30
0.0
 10
4.8395442908
 20
5.7022120473
 30
0.0
 10
4.8479785083
 20
5.7023029314
 30
0.0
 10
4.8564129945
 20
5.7023473724
 30
0.0
 10
4.8620360438
 20
5.7023466646
 30
0.0
 10
4.8648475379
 20
5.7023388692
 30
0.0
 11
4.8623599233
 21
5.5503591756
 31
0.0
 11
4.8539254565
 21
5.550371578
 31
0.0
 11
4.8454910774
 21
5.5504296331
 31
0.0
 11
4.837057014
 21
5.5505345357
 31
0.0
 11
4.8286234977
 21
5.550687582
 31
0.0
 11
4.8201908096
 21
5.5508915253
 31
0.0
 11
4.8117592675
 21
5.5511502106
 31
0.0
 11
4.8033291978
 21
5.5514675664
 31
0.0
 11
4.7949010924
 21
5.5518488043
 31
0.0
 11
4.7864756064
 21
5.5523004027
 31
0.0
 11
4.7780534318
 21
5.5528290398
 31
0.0
 11
4.7696355986
 21
5.5534430522
 31
0.0
 11
4.7612233515
 21
5.5541518301
 31
0.0
 11
4.7528181574
 21
5.5549655189
 31
0.0
 11
4.7444221269
 21
5.5558964388
 31
0.0
 11
4.7360376132
 21
5.5569576347
 31
0.0
 11
4.7276679343
 21
5.558164675
 31
0.0
 11
4.7234898387
 21
5.5588281263
 31
0.0
 11
4.7193169969
 21
5.5595346011
 31
0.0
 11
4.7151501698
 21
5.5602868141
 31
0.0
 11
4.710990129
 21
5.5610875026
 31
0.0
 11
4.7068376632
 21
5.5619394348
 31
0.0
 11
4.7026938185
 21
5.5628458437
 31
0.0
 11
4.6944369818
 21
5.5648364764
 31
0.0
 11
4.6903266384
 21
5.5659281333
 31
0.0
 11
4.6862307408
 21
5.5670899475
 31
0.0
 11
4.6821513404
 21
5.5683267603
 31
0.0
 11
4.6780905369
 21
5.569643475
 31
0.0
 11
4.6740512177
 21
5.5710459985
 31
0.0
 11
4.6700369102
 21
5.5725410531
 31
0.0
 11
4.6660511615
 21
5.5741353861
 31
0.0
 11
4.6620982463
 21
5.5758365043
 31
0.0
 11
4.6581843702
 21
5.5776539306
 31
0.0
 11
4.6543160552
 21
5.5795975181
 31
0.0
 11
4.6524010325
 21
5.5806197095
 31
0.0
 11
4.6505002418
 21
5.581677424
 31
0.0
 11
4.6467480003
 21
5.5839068059
 31
0.0
 11
4.6448999122
 21
5.5850821951
 31
0.0
 11
4.6430727544
 21
5.5863005312
 31
0.0
 11
4.6412682083
 21
5.5875636749
 31
0.0
 11
4.6394880859
 21
5.5888735399
 31
0.0
 11
4.6377353899
 21
5.59023252
 31
0.0
 11
4.6360137593
 21
5.5916432656
 31
0.0
 11
4.6343268393
 21
5.5931084296
 31
0.0
 11
4.632678275
 21
5.594630665
 31
0.0
 11
4.6310717114
 21
5.5962126245
 31
0.0
 11
4.6295110259
 21
5.5978569466
 31
0.0
 11
4.6280025154
 21
5.5995661183
 31
0.0
 11
4.6265539133
 21
5.6013425367
 31
0.0
 11
4.6251729721
 21
5.6031885977
 31
0.0
 11
4.6238674443
 21
5.6051066975
 31
0.0
 11
4.6226451137
 21
5.6070991934
 31
0.0
 11
4.6215155518
 21
5.6091662578
 31
0.0
 11
4.6204910445
 21
5.6113047446
 31
0.0
 11
4.6195841047
 21
5.6135112304
 31
0.0
 11
4.6188072455
 21
5.6157822914
 31
0.0
 11
4.6184715022
 21
5.616940959
 31
0.0
 11
4.6181727201
 21
5.6181139406
 31
0.0
 11
4.6176897711
 21
5.6204956496
 31
0.0
 11
4.6173657006
 21
5.6229126759
 31
0.0
 11
4.6172655167
 21
5.6241298041
 31
0.0
 11
4.6172077788
 21
5.625350207
 31
0.0
 11
4.6171933955
 21
5.6265720328
 31
0.0
 11
4.6172230219
 21
5.6277934394
 31
0.0
 11
4.6172960447
 21
5.6290126309
 31
0.0
 11
4.6174114554
 21
5.630227826
 31
0.0
 11
4.6177654062
 21
5.632639101
 31
0.0
 11
4.6182768058
 21
5.6350130135
 31
0.0
 11
4.6185890274
 21
5.6361815053
 31
0.0
 11
4.6189375766
 21
5.6373353359
 31
0.0
 11
4.6197383421
 21
5.6395953141
 31
0.0
 11
4.6206670668
 21
5.6417893011
 31
0.0
 11
4.6228589523
 21
5.6459681912
 31
0.0
 11
4.625417188
 21
5.6498528258
 31
0.0
 11
4.6268104975
 21
5.6516861119
 31
0.0
 11
4.6282700132
 21
5.6534500314
 31
0.0
 11
4.6297883181
 21
5.6551471008
 31
0.0
 11
4.6313579973
 21
5.6567798366
 31
0.0
 11
4.6329726196
 21
5.6583507804
 31
0.0
 11
4.6346282814
 21
5.6598625371
 31
0.0
 11
4.6380487109
 21
5.6627189506
 31
0.0
 11
4.6398064723
 21
5.6640688379
 31
0.0
 11
4.6415912622
 21
5.6653699986
 31
0.0
 11
4.6452310911
 21
5.6678352727
 31
0.0
 11
4.6489531677
 21
5.6701302604
 31
0.0
 11
4.6527443502
 21
5.6722696594
 31
0.0
 11
4.6546617813
 21
5.6732855829
 31
0.0
 11
4.6565920785
 21
5.6742677408
 31
0.0
 11
4.6604880024
 21
5.6761356855
 31
0.0
 11
4.6644256241
 21
5.6778833154
 31
0.0
 11
4.6664080436
 21
5.6787150797
 31
0.0
 11
4.6683984997
 21
5.6795203986
 31
0.0
 11
4.6724014996
 21
5.681055333
 31
0.0
 11
4.6764309746
 21
5.6824949737
 31
0.0
 11
4.6804833541
 21
5.6838460936
 31
0.0
 11
4.6886447566
 21
5.6863070516
 31
0.0
 11
4.6927494262
 21
5.6874268935
 31
0.0
 11
4.6968673405
 21
5.688479423
 31
0.0
 11
4.7009969128
 21
5.6894687609
 31
0.0
 11
4.7051368718
 21
5.6903985428
 31
0.0
 11
4.7092859522
 21
5.6912723946
 31
0.0
 11
4.7134429864
 21
5.6920937671
 31
0.0
 11
4.7176071299
 21
5.6928655292
 31
0.0
 11
4.721777606
 21
5.6935904285
 31
0.0
 11
4.7259536381
 21
5.6942712116
 31
0.0
 11
4.7301345403
 21
5.6949104318
 31
0.0
 11
4.7343198168
 21
5.6955102359
 31
0.0
 11
4.7385089958
 21
5.6960727194
 31
0.0
 11
4.7427016054
 21
5.6965999776
 31
0.0
 11
4.7468972065
 21
5.6970940211
 31
0.0
 11
4.7637036729
 21
5.6987705811
 31
0.0
 11
4.7721177108
 21
5.6994504624
 31
0.0
 11
4.7805369679
 21
5.7000383392
 31
0.0
 11
4.7889602377
 21
5.7005434308
 31
0.0
 11
4.797386569
 21
5.7009736785
 31
0.0
 11
4.8058153287
 21
5.701335431
 31
0.0
 11
4.814245907
 21
5.7016349044
 31
0.0
 11
4.8226778268
 21
5.7018771488
 31
0.0
 11
4.831110777
 21
5.7020657518
 31
0.0
 11
4.8395444568
 21
5.7022042025
 31
0.0
 11
4.8479786024
 21
5.7022951913
 31
0.0
 11
4.8564130232
 21
5.7023397887
 31
0.0
 11
4.8648475379
 21
5.7023388692
 31
0.0
  0
SPLINE
  5
23A
100
AcDbEntity
  8
0
100
AcDbSpline
 62
7
  6
CONTINUOUS
 70
0
 71
3
 72
95
 73
91
 74
89
 42
0.0000001
 43
0.0000001
 44
0.0000000001
 12
0.3464053127
 22
-0.1092048968
 32
0.0
 13
-0.3632109081
 23
-0.0004317361
 33
0.0
 40
0.0
 40
0.0
 40
0.0
 40
0.0
 40
0.0153301569
 40
0.0306954486
 40
0.0383932652
 40
0.0461023288
 40
0.0615568591
 40
0.0770696397
 40
0.0926548002
 40
0.1004787658
 40
0.1083264513
 40
0.1162013858
 40
0.1241066612
 40
0.1320439091
 40
0.1400163699
 40
0.1480294185
 40
0.1560895665
 40
0.1641990543
 40
0.1723615529
 40
0.1805855415
 40
0.1888805216
 40
0.1972445433
 40
0.2056795782
 40
0.2099277291
 40
0.2141978402
 40
0.2227930446
 40
0.2271153715
 40
0.2314519693
 40
0.2358026375
 40
0.2401675628
 40
0.2445440472
 40
0.2489280479
 40
0.2533155998
 40
0.2577029204
 40
0.2620865113
 40
0.2664635785
 40
0.2708329616
 40
0.275193272
 40
0.2838754356
 40
0.2881928855
 40
0.2924893436
 40
0.3010201745
 40
0.3094772678
 40
0.317858573
 40
0.326163071
 40
0.3344009942
 40
0.3425773598
 40
0.3506954003
 40
0.3587628317
 40
0.3667845885
 40
0.3747643194
 40
0.3906150315
 40
0.3984944723
 40
0.4063471635
 40
0.4141756509
 40
0.4219818755
 40
0.4297683055
 40
0.4375368996
 40
0.4452889865
 40
0.4530260789
 40
0.4607497517
 40
0.4684611706
 40
0.483850267
 40
0.4992017104
 40
0.5068653474
 40
0.5145215682
 40
0.5298142719
 40
0.5450843753
 40
0.5603350296
 40
0.575569464
 40
0.5907898273
 40
0.6059982355
 40
0.6211965776
 40
0.6363860803
 40
0.6515681236
 40
0.6667438807
 40
0.6819140914
 40
0.6970795861
 40
0.7273990152
 40
0.75770662
 40
0.772857238
 40
0.7880060289
 40
0.8182990101
 40
0.8485876755
 40
0.8788731022
 40
0.909156469
 40
0.9242976496
 40
0.9394385406
 40
0.9697196055
 40
1.0
 40
1.0
 40
1.0
 40
1.0
 10
5.0391792955
 20
5.6842661956
 30
0.0
 10
5.0409494448
 20
5.6837081529
 30
0.0
 10
5.0444799791
 20
5.6825463045
 30
0.0
 10
5.048853905
 20
5.6809709115
 30
0.0
 10
5.0523294237
 20
5.6796285545
 30
0.0
 10
5.0557931158
 20
5.6782269473
 30
0.0
 10
5.0600886595
 20
5.6763601462
 30
0.0
 10
5.0651701774
 20
5.6739188915
 30
0.0
 10
5.0693302009
 20
5.6717015696
 30
0.0
 10
5.0726036768
 20
5.669802179
 30
0.0
 10
5.0750322841
 20
5.6683085827
 30
0.0
 10
5.0774278139
 20
5.6667443636
 30
0.0
 10
5.0797862981
 20
5.665105632
 30
0.0
 10
5.0821016758
 20
5.6633865221
 30
0.0
 10
5.0843677241
 20
5.6615817333
 30
0.0
 10
5.0865779223
 20
5.6596859066
 30
0.0
 10
5.0887254268
 20
5.6576946928
 30
0.0
 10
5.0907993251
 20
5.6556011322
 30
0.0
 10
5.0927870814
 20
5.6533985584
 30
0.0
 10
5.0946756183
 20
5.651081063
 30
0.0
 10
5.0964506036
 20
5.6486448944
 30
0.0
 10
5.0980916542
 20
5.646085826
 30
0.0
 10
5.0993258859
 20
5.643854036
 30
0.0
 10
5.1002232098
 20
5.6420075714
 30
0.0
 10
5.1010602046
 20
5.6401118392
 30
0.0
 10
5.1017925177
 20
5.6381613529
 30
0.0
 10
5.1024079892
 20
5.6361646331
 30
0.0
 10
5.1028090499
 20
5.6346409625
 30
0.0
 10
5.1031452254
 20
5.6330963847
 30
0.0
 10
5.1034127944
 20
5.6315335256
 30
0.0
 10
5.1036107404
 20
5.6299562733
 30
0.0
 10
5.1037383717
 20
5.6283690291
 30
0.0
 10
5.103794849
 20
5.6267763428
 30
0.0
 10
5.1037793458
 20
5.6251827726
 30
0.0
 10
5.1036910843
 20
5.6235928167
 30
0.0
 10
5.1035290257
 20
5.6220108779
 30
0.0
 10
5.1032958142
 20
5.6204407061
 30
0.0
 10
5.102894609
 20
5.6183706515
 30
0.0
 10
5.1023626202
 20
5.6163342906
 30
0.0
 10
5.1017099185
 20
5.6143441143
 30
0.0
 10
5.1009840828
 20
5.6123988966
 30
0.0
 10
5.0999430295
 20
5.6100387489
 30
0.0
 10
5.0985037573
 20
5.607322721
 30
0.0
 10
5.0969033055
 20
5.6047309498
 30
0.0
 10
5.0951641553
 20
5.6022629296
 30
0.0
 10
5.0933047651
 20
5.599916094
 30
0.0
 10
5.0913425527
 20
5.5976848472
 30
0.0
 10
5.0892924272
 20
5.5955629508
 30
0.0
 10
5.0871653726
 20
5.5935455059
 30
0.0
 10
5.0849719149
 20
5.591625966
 30
0.0
 10
5.081977859
 20
5.5891944274
 30
0.0
 10
5.0788744776
 20
5.5869290287
 30
0.0
 10
5.075688894
 20
5.5848134795
 30
0.0
 10
5.073269356
 20
5.583301941
 30
0.0
 10
5.0708191378
 20
5.5818582383
 30
0.0
 10
5.0683417708
 20
5.580478089
 30
0.0
 10
5.0658398966
 20
5.5791584159
 30
0.0
 10
5.06331603
 20
5.5778959532
 30
0.0
 10
5.0607726098
 20
5.5766872699
 30
0.0
 10
5.0582115255
 20
5.5755296683
 30
0.0
 10
5.0556343488
 20
5.5744207748
 30
0.0
 10
5.05218128
 20
5.5730049746
 30
0.0
 10
5.0478315136
 20
5.5713437163
 30
0.0
 10
5.0434402202
 20
5.5698135934
 30
0.0
 10
5.0399097374
 20
5.5686622599
 30
0.0
 10
5.0363717006
 20
5.5675579878
 30
0.0
 10
5.031929691
 20
5.5662603887
 30
0.0
 10
5.026571772
 20
5.5648242299
 30
0.0
 10
5.0211925854
 20
5.5634992834
 30
0.0
 10
5.0157952414
 20
5.5622776128
 30
0.0
 10
5.0103826278
 20
5.5611505307
 30
0.0
 10
5.0049569714
 20
5.5601111655
 30
0.0
 10
4.9995201583
 20
5.5591533247
 30
0.0
 10
4.9940739275
 20
5.5582704717
 30
0.0
 10
4.988619601
 20
5.5574575759
 30
0.0
 10
4.9831583377
 20
5.5567098518
 30
0.0
 10
4.9776912088
 20
5.5560222791
 30
0.0
 10
4.9703959634
 20
5.555180522
 30
0.0
 10
4.9612655479
 20
5.5542593945
 30
0.0
 10
4.9521231628
 20
5.5534888641
 30
0.0
 10
4.9448050546
 20
5.5529521506
 30
0.0
 10
4.9374852718
 20
5.5524647505
 30
0.0
 10
4.928331244
 20
5.5519418266
 30
0.0
 10
4.9173413324
 20
5.5514369497
 30
0.0
 10
4.9063482184
 20
5.5510392737
 30
0.0
 10
4.8971852721
 20
5.550789411
 30
0.0
 10
4.889854234
 20
5.5506335024
 30
0.0
 10
4.8825229305
 20
5.5505056245
 30
0.0
 10
4.8733581697
 20
5.5503974172
 30
0.0
 10
4.8660259799
 20
5.5503635333
 30
0.0
 10
4.8623599233
 20
5.5503591756
 30
0.0
 11
5.0391792955
 21
5.6842661956
 31
0.0
 11
5.044467563
 21
5.6825232703
 31
0.0
 11
5.0497173771
 21
5.6806297847
 31
0.0
 11
5.0523254235
 21
5.6796221462
 31
0.0
 11
5.0549208111
 21
5.678571402
 31
0.0
 11
5.0600674819
 21
5.6763307671
 31
0.0
 11
5.0651446681
 21
5.6738876514
 31
0.0
 11
5.0701373887
 21
5.6712200094
 31
0.0
 11
5.0725949903
 21
5.6697932135
 31
0.0
 11
5.0750225997
 21
5.6682994583
 31
0.0
 11
5.0774170949
 21
5.6667350082
 31
0.0
 11
5.0797743723
 21
5.6650956436
 31
0.0
 11
5.0820883526
 21
5.6633761696
 31
0.0
 11
5.0843527193
 21
5.6615712748
 31
0.0
 11
5.086561156
 21
5.6596756475
 31
0.0
 11
5.0887066998
 21
5.6576838877
 31
0.0
 11
5.0907782904
 21
5.6555900333
 31
0.0
 11
5.092763267
 21
5.6533879032
 31
0.0
 11
5.0946489649
 21
5.6510713155
 31
0.0
 11
5.0964211561
 21
5.6486348264
 31
0.0
 11
5.0980588805
 21
5.6460761682
 31
0.0
 11
5.0995393667
 21
5.6433939282
 31
0.0
 11
5.1002135294
 21
5.6420060236
 31
0.0
 11
5.1008397394
 21
5.6405871109
 31
0.0
 11
5.1019349039
 21
5.6376636347
 31
0.0
 11
5.1023970311
 21
5.6361632751
 31
0.0
 11
5.1027976367
 21
5.6346399703
 31
0.0
 11
5.103133307
 21
5.6330958223
 31
0.0
 11
5.1034008836
 21
5.6315331761
 31
0.0
 11
5.1035988778
 21
5.6299559671
 31
0.0
 11
5.1037264717
 21
5.6283687694
 31
0.0
 11
5.1037828494
 21
5.6267761591
 31
0.0
 11
5.1037671949
 21
5.6251827122
 31
0.0
 11
5.1036786923
 21
5.6235930047
 31
0.0
 11
5.1035169914
 21
5.6220114499
 31
0.0
 11
5.1032841737
 21
5.6204416115
 31
0.0
 11
5.102983111
 21
5.6188867773
 31
0.0
 11
5.1021877392
 21
5.6158352718
 31
0.0
 11
5.1016991746
 21
5.6143451756
 31
0.0
 11
5.101153885
 21
5.6128830242
 31
0.0
 11
5.0999059166
 21
5.6100469646
 31
0.0
 11
5.0984700591
 21
5.6073315052
 31
0.0
 11
5.0968726319
 21
5.6047401194
 31
0.0
 11
5.0951368188
 21
5.602273353
 31
0.0
 11
5.0932804423
 21
5.5999267463
 31
0.0
 11
5.0913207854
 21
5.5976953469
 31
0.0
 11
5.0892730402
 21
5.5955738467
 31
0.0
 11
5.0871481566
 21
5.5935562166
 31
0.0
 11
5.0849565595
 21
5.591636342
 31
0.0
 11
5.082707379
 21
5.5898083681
 31
0.0
 11
5.0780626208
 21
5.5864067418
 31
0.0
 11
5.0756789748
 21
5.5848228515
 31
0.0
 11
5.0732604749
 21
5.5833109592
 31
0.0
 11
5.0708111148
 21
5.5818668246
 31
0.0
 11
5.0683345175
 21
5.5804864491
 31
0.0
 11
5.0658333391
 21
5.5791664643
 31
0.0
 11
5.0633100802
 21
5.5779036036
 31
0.0
 11
5.0607671966
 21
5.5766946383
 31
0.0
 11
5.0582066062
 21
5.575536799
 31
0.0
 11
5.0556298704
 21
5.5744276208
 31
0.0
 11
5.053038544
 21
5.5733646441
 31
0.0
 11
5.0478178395
 21
5.5713679815
 31
0.0
 11
5.0425533528
 21
5.5695308915
 31
0.0
 11
5.039907091
 21
5.5686675989
 31
0.0
 11
5.0372526233
 21
5.5678388722
 31
0.0
 11
5.0319215114
 21
5.5662795448
 31
0.0
 11
5.0265648084
 21
5.5648418847
 31
0.0
 11
5.0211866714
 21
5.5635158126
 31
0.0
 11
5.0157901988
 21
5.5622928341
 31
0.0
 11
5.0103783206
 21
5.5611647231
 31
0.0
 11
5.004953301
 21
5.5601244195
 31
0.0
 11
4.999517009
 21
5.5591655551
 31
0.0
 11
4.9940712356
 21
5.5582819221
 31
0.0
 11
4.9886173061
 21
5.5574682748
 31
0.0
 11
4.9831563633
 21
5.5567197459
 31
0.0
 11
4.9776895215
 21
5.5560315385
 31
0.0
 11
4.9722176206
 21
5.5553995443
 31
0.0
 11
4.9612613699
 21
5.5542893482
 31
0.0
 11
4.950292502
 21
5.5533612677
 31
0.0
 11
4.9448044038
 21
5.5529582838
 31
0.0
 11
4.9393143779
 21
5.5525923204
 31
0.0
 11
4.9283296853
 21
5.5519622287
 31
0.0
 11
4.917340213
 21
5.5514547922
 31
0.0
 11
4.9063474548
 21
5.5510555688
 31
0.0
 11
4.8953523301
 21
5.550754096
 31
0.0
 11
4.8898541309
 21
5.5506370048
 31
0.0
 11
4.8843556277
 21
5.5505410353
 31
0.0
 11
4.8733579805
 21
5.5504105869
 31
0.0
 11
4.8623599233
 21
5.5503591756
 31
0.0
  0
SPLINE
  5
23B
100
AcDbEntity
  8
0
100
AcDbSpline
 62
7
  6
CONTINUOUS
 70
0
 71
3
 72
130
 73
126
 74
124
 42
0.0000001
 43
0.0000001
 44
0.0000000001
 12
-0.5727235412
 22
0.0007750137
 32
0.0
 13
0.5726155662
 23
-0.0111475799
 33
0.0
 40
0.0
 40
0.0
 40
0.0
 40
0.0
 40
0.0153053732
 40
0.0306109974
 40
0.0459169471
 40
0.0612233419
 40
0.0765303211
 40
0.0918381469
 40
0.1224575136
 40
0.1377701245
 40
0.1530854261
 40
0.1684040717
 40
0.1760650451
 40
0.1837272922
 40
0.1990560297
 40
0.2067230709
 40
0.21439222
 40
0.2220636779
 40
0.2297377289
 40
0.2374147804
 40
0.2450952737
 40
0.252779559
 40
0.2604681394
 40
0.2681617098
 40
0.2758608974
 40
0.2912785752
 40
0.2989996183
 40
0.3067299579
 40
0.3144710023
 40
0.3222245937
 40
0.3299922243
 40
0.3377759361
 40
0.3416748425
 40
0.3455789503
 40
0.3534035971
 40
0.3612531704
 40
0.3651890008
 40
0.3691331907
 40
0.3730862631
 40
0.3770485585
 40
0.3850030879
 40
0.3889979759
 40
0.3930064366
 40
0.3970297846
 40
0.4010683958
 40
0.4051231275
 40
0.4091955877
 40
0.4132881826
 40
0.4153430941
 40
0.4174042324
 40
0.4215446883
 40
0.425709251
 40
0.4298989966
 40
0.4341168711
 40
0.442649537
 40
0.4469636037
 40
0.4513043386
 40
0.4556724932
 40
0.4600699858
 40
0.4644891911
 40
0.4689200091
 40
0.4733540656
 40
0.4755707437
 40
0.4777862732
 40
0.4822107396
 40
0.4866215473
 40
0.4910096494
 40
0.4931923029
 40
0.4953667826
 40
0.4996930604
 40
0.5039916139
 40
0.5082617685
 40
0.5125000158
 40
0.5167051814
 40
0.5208818962
 40
0.5250337017
 40
0.5291624506
 40
0.533268435
 40
0.53735196
 40
0.5414157369
 40
0.5454622252
 40
0.5494931727
 40
0.5535096543
 40
0.5575121428
 40
0.5615014502
 40
0.5694457568
 40
0.5773518659
 40
0.581292271
 40
0.5852246369
 40
0.5930679693
 40
0.6008871889
 40
0.6047888876
 40
0.6086855843
 40
0.6164653235
 40
0.6242294876
 40
0.6319800713
 40
0.6397185163
 40
0.6474465886
 40
0.6551656482
 40
0.6628766133
 40
0.6705805497
 40
0.678278403
 40
0.6859708046
 40
0.6936583531
 40
0.7013417262
 40
0.7090214206
 40
0.7243710068
 40
0.7397104266
 40
0.7550417657
 40
0.7703669274
 40
0.778027667
 40
0.7856872939
 40
0.8010037842
 40
0.8163174274
 40
0.831628741
 40
0.8469383455
 40
0.8622466687
 40
0.8775539531
 40
0.908166426
 40
0.9234721128
 40
0.9387775882
 40
0.9540829982
 40
0.9693884548
 40
0.9846940692
 40
1.0
 40
1.0
 40
1.0
 40
1.0
 10
5.5483620661
 20
5.5503595044
 30
0.0
 10
5.5454401503
 20
5.5503634583
 30
0.0
 10
5.5395962786
 20
5.550387387
 30
0.0
 10
5.5308307371
 20
5.550473058
 30
0.0
 10
5.5220656503
 20
5.5506103171
 30
0.0
 10
5.5133012951
 20
5.5508006486
 30
0.0
 10
5.5045379894
 20
5.5510482486
 30
0.0
 10
5.4928551368
 20
5.5514613094
 30
0.0
 10
5.4811760657
 20
5.5520075694
 30
0.0
 10
5.4695048549
 20
5.5527171078
 30
0.0
 10
5.4607552019
 20
5.5533391705
 30
0.0
 10
5.4534690758
 20
5.5539417961
 30
0.0
 10
5.4476440505
 20
5.5544798066
 30
0.0
 10
5.4418208809
 20
5.5550573176
 30
0.0
 10
5.4360028859
 20
5.5556977159
 30
0.0
 10
5.430191928
 20
5.5564082318
 30
0.0
 10
5.4258366597
 20
5.5569781785
 30
0.0
 10
5.4214853802
 20
5.557587577
 30
0.0
 10
5.4171386364
 20
5.5582388473
 30
0.0
 10
5.4127970012
 20
5.5589343858
 30
0.0
 10
5.4084611242
 20
5.5596766901
 30
0.0
 10
5.4041318499
 20
5.5604689797
 30
0.0
 10
5.3998100912
 20
5.5613144319
 30
0.0
 10
5.3954967688
 20
5.5622160926
 30
0.0
 10
5.3897562257
 20
5.5634987055
 30
0.0
 10
5.3840393458
 20
5.5649094313
 30
0.0
 10
5.3783546988
 20
5.5664640657
 30
0.0
 10
5.3741054192
 20
5.5677089883
 30
0.0
 10
5.3698750973
 20
5.5690378347
 30
0.0
 10
5.3656662905
 20
5.5704559586
 30
0.0
 10
5.3614826696
 20
5.5719709812
 30
0.0
 10
5.3580227513
 20
5.5733200967
 30
0.0
 10
5.3552721078
 20
5.574455356
 30
0.0
 10
5.3525299433
 20
5.575630923
 30
0.0
 10
5.3491265424
 20
5.5771773072
 30
0.0
 10
5.3457679118
 20
5.5788327588
 30
0.0
 10
5.3431093059
 20
5.5802292028
 30
0.0
 10
5.3411282619
 20
5.5813151384
 30
0.0
 10
5.3391635108
 20
5.5824405416
 30
0.0
 10
5.3365650157
 20
5.5839986503
 30
0.0
 10
5.3340096565
 20
5.5856433197
 30
0.0
 10
5.3315071493
 20
5.5873811302
 30
0.0
 10
5.3296537367
 20
5.5887367094
 30
0.0
 10
5.3278291929
 20
5.5901446404
 30
0.0
 10
5.3260375928
 20
5.5916083407
 30
0.0
 10
5.3242831961
 20
5.5931308507
 30
0.0
 10
5.3225703421
 20
5.5947152196
 30
0.0
 10
5.3211830758
 20
5.5960877495
 30
0.0
 10
5.3200986784
 20
5.5972191687
 30
0.0
 10
5.3190287989
 20
5.5983767941
 30
0.0
 10
5.317727065
 20
5.5998681211
 30
0.0
 10
5.3162329342
 20
5.6017284242
 30
0.0
 10
5.3148133748
 20
5.6036648949
 30
0.0
 10
5.3130260915
 20
5.606361187
 30
0.0
 10
5.3114324449
 20
5.6092110431
 30
0.0
 10
5.3100777483
 20
5.6122012415
 30
0.0
 10
5.3091896741
 20
5.6145251945
 30
0.0
 10
5.3084479489
 20
5.6169167654
 30
0.0
 10
5.3078678213
 20
5.6193681471
 30
0.0
 10
5.3074559121
 20
5.6218655035
 30
0.0
 10
5.3072194244
 20
5.6243925745
 30
0.0
 10
5.3071746989
 20
5.6265097561
 30
0.0
 10
5.3072343702
 20
5.6282016924
 30
0.0
 10
5.3073564364
 20
5.6298884206
 30
0.0
 10
5.3076226299
 20
5.6319832046
 30
0.0
 10
5.308114496
 20
5.634461179
 30
0.0
 10
5.3086608858
 20
5.6364869664
 30
0.0
 10
5.3091755725
 20
5.6380754551
 30
0.0
 10
5.3097375795
 20
5.6396352842
 30
0.0
 10
5.3105275366
 20
5.6415411316
 30
0.0
 10
5.3116032621
 20
5.6437568598
 30
0.0
 10
5.3127914003
 20
5.6458950429
 30
0.0
 10
5.3140785513
 20
5.6479539326
 30
0.0
 10
5.3154534956
 20
5.6499334409
 30
0.0
 10
5.3169073244
 20
5.6518348931
 30
0.0
 10
5.3184317197
 20
5.6536611558
 30
0.0
 10
5.320018552
 20
5.6554151406
 30
0.0
 10
5.321659777
 20
5.6571000612
 30
0.0
 10
5.3233485103
 20
5.6587194083
 30
0.0
 10
5.3250805248
 20
5.6602753716
 30
0.0
 10
5.3268518377
 20
5.6617708625
 30
0.0
 10
5.3286585949
 20
5.6632088147
 30
0.0
 10
5.330496964
 20
5.6645921284
 30
0.0
 10
5.3323631539
 20
5.6659239908
 30
0.0
 10
5.3348809614
 20
5.6676321661
 30
0.0
 10
5.3380871123
 20
5.6696511018
 30
0.0
 10
5.3413654514
 20
5.671531247
 30
0.0
 10
5.3440191088
 20
5.6729570545
 30
0.0
 10
5.34668648
 20
5.6743310687
 30
0.0
 10
5.3500546043
 20
5.6759604113
 30
0.0
 10
5.3534658481
 20
5.6774827814
 30
0.0
 10
5.3562136265
 20
5.6786402271
 30
0.0
 10
5.3589696101
 20
5.6797580964
 30
0.0
 10
5.3624354343
 20
5.6810867827
 30
0.0
 10
5.3666250761
 20
5.682579101
 30
0.0
 10
5.3708390917
 20
5.6839761368
 30
0.0
 10
5.3750739536
 20
5.6852853396
 30
0.0
 10
5.3793271706
 20
5.6865119643
 30
0.0
 10
5.3835963967
 20
5.6876615
 30
0.0
 10
5.3878794496
 20
5.6887395582
 30
0.0
 10
5.3921746929
 20
5.6897503548
 30
0.0
 10
5.3964806838
 20
5.6906978883
 30
0.0
 10
5.4007960351
 20
5.6915863581
 30
0.0
 10
5.4051195924
 20
5.6924194271
 30
0.0
 10
5.4094504479
 20
5.693200077
 30
0.0
 10
5.4152322278
 20
5.6941749593
 30
0.0
 10
5.4224740685
 20
5.6952784757
 30
0.0
 10
5.4311833624
 20
5.6964376557
 30
0.0
 10
5.4399060853
 20
5.6974507082
 30
0.0
 10
5.4471844134
 20
5.6981855432
 30
0.0
 10
5.453010933
 20
5.6987148135
 30
0.0
 10
5.4588390178
 20
5.6992072996
 30
0.0
 10
5.4661282978
 20
5.6997572632
 30
0.0
 10
5.4748807908
 20
5.7003226602
 30
0.0
 10
5.4836369743
 20
5.7008039396
 30
0.0
 10
5.4923960135
 20
5.7012081785
 30
0.0
 10
5.5011572117
 20
5.7015425757
 30
0.0
 10
5.5128406239
 20
5.7019042957
 30
0.0
 10
5.52452689
 20
5.7021476479
 30
0.0
 10
5.5362141656
 20
5.7022884458
 30
0.0
 10
5.5449798865
 20
5.7023436083
 30
0.0
 10
5.5537457254
 20
5.7023495695
 30
0.0
 10
5.5625114946
 20
5.7023073394
 30
0.0
 10
5.57127698
 20
5.7022151163
 30
0.0
 10
5.5771202236
 20
5.7021191728
 30
0.0
 10
5.580041695
 20
5.7020622981
 30
0.0
 11
5.5483620661
 21
5.5503595044
 31
0.0
 11
5.5395963852
 21
5.5503956829
 31
0.0
 11
5.5308309075
 21
5.5504816548
 31
0.0
 11
5.5220659003
 21
5.55061916
 31
0.0
 11
5.5133016412
 21
5.550810189
 31
0.0
 11
5.5045384862
 21
5.5510586046
 31
0.0
 11
5.4957768265
 21
5.5513691183
 31
0.0
 11
5.478260002
 21
5.5521984987
 31
0.0
 11
5.4695063457
 21
5.5527320358
 31
0.0
 11
5.4607571218
 21
5.5533559519
 31
0.0
 11
5.4520137677
 21
5.554080902
 31
0.0
 11
5.4476447642
 21
5.554484698
 31
0.0
 11
5.4432778654
 21
5.5549181025
 31
0.0
 11
5.4345517017
 21
5.5558810729
 31
0.0
 11
5.4301931016
 21
5.5564143224
 31
0.0
 11
5.4258379823
 21
5.5569846646
 31
0.0
 11
5.4214868749
 21
5.5575944485
 31
0.0
 11
5.417140338
 21
5.5582460934
 31
0.0
 11
5.4127989304
 21
5.5589420193
 31
0.0
 11
5.4084632987
 21
5.5596848306
 31
0.0
 11
5.4041343169
 21
5.56047761
 31
0.0
 11
5.3998128956
 21
5.5613235168
 31
0.0
 11
5.3954999594
 21
5.5622257353
 31
0.0
 11
5.3911967137
 21
5.563187949
 31
0.0
 11
5.3826251555
 21
5.5653089429
 31
0.0
 11
5.3783600188
 21
5.5664763904
 31
0.0
 11
5.3741115251
 21
5.5677220803
 31
0.0
 11
5.3698820888
 21
5.5690516046
 31
0.0
 11
5.3656742995
 21
5.570470775
 31
0.0
 11
5.3614918843
 21
5.5719868273
 31
0.0
 11
5.3573390237
 21
5.5736075651
 31
0.0
 11
5.3552749832
 21
5.5744596302
 31
0.0
 11
5.3532199978
 21
5.575340894
 31
0.0
 11
5.3491408917
 21
5.5771965643
 31
0.0
 11
5.3451093729
 21
5.5791859439
 31
0.0
 11
5.3431138716
 21
5.5802343443
 31
0.0
 11
5.3411331911
 21
5.5813204754
 31
0.0
 11
5.3391688506
 21
5.5824461536
 31
0.0
 11
5.337222832
 21
5.5836135193
 31
0.0
 11
5.3333937511
 21
5.5860819199
 31
0.0
 11
5.3315146843
 21
5.5873872581
 31
0.0
 11
5.3296619323
 21
5.5887428913
 31
0.0
 11
5.3278381182
 21
5.5901512073
 31
0.0
 11
5.3260473422
 21
5.5916151525
 31
0.0
 11
5.3242939187
 21
5.5931377542
 31
0.0
 11
5.3225821621
 21
5.5947220396
 31
0.0
 11
5.3209163869
 21
5.5963710361
 31
0.0
 11
5.3201020905
 21
5.597220747
 31
0.0
 11
5.3193009807
 21
5.5980877632
 31
0.0
 11
5.3177424668
 21
5.5998750187
 31
0.0
 11
5.316249788
 21
5.6017353488
 31
0.0
 11
5.3148320174
 21
5.6036712862
 31
0.0
 11
5.3134982282
 21
5.6056853635
 31
0.0
 11
5.3111210476
 21
5.6099550759
 31
0.0
 11
5.3101027
 21
5.6122062248
 31
0.0
 11
5.3092166416
 21
5.6145290059
 31
0.0
 11
5.3084770215
 21
5.6169189225
 31
0.0
 11
5.3078970843
 21
5.619369793
 31
0.0
 11
5.3074856024
 21
5.6218671054
 31
0.0
 11
5.3072499689
 21
5.6243937779
 31
0.0
 11
5.3071975764
 21
5.6269327282
 31
0.0
 11
5.3072421962
 21
5.6282014888
 31
0.0
 11
5.3073336104
 21
5.6294670787
 31
0.0
 11
5.3076520029
 21
5.6319809947
 31
0.0
 11
5.3081431086
 21
5.6344589735
 31
0.0
 11
5.3087972803
 21
5.6368855124
 31
0.0
 11
5.3091824701
 21
5.6380747451
 31
0.0
 11
5.3096044404
 21
5.6392464552
 31
0.0
 11
5.3105518583
 21
5.6415359335
 31
0.0
 11
5.3116257954
 21
5.6437512296
 31
0.0
 11
5.3128125111
 21
5.645889632
 31
0.0
 11
5.314098295
 21
5.6479484592
 31
0.0
 11
5.3154714587
 21
5.649927047
 31
0.0
 11
5.3169235694
 21
5.6518279787
 31
0.0
 11
5.3184464889
 21
5.6536541315
 31
0.0
 11
5.320032079
 21
5.6554083827
 31
0.0
 11
5.3216722054
 21
5.6570936096
 31
0.0
 11
5.323359873
 21
5.658712699
 31
0.0
 11
5.3250908237
 21
5.6602685609
 31
0.0
 11
5.3268612026
 21
5.6617641088
 31
0.0
 11
5.3286671544
 21
5.663202256
 31
0.0
 11
5.3305048239
 21
5.664585916
 31
0.0
 11
5.3323703847
 21
5.6659179898
 31
0.0
 11
5.334260908
 21
5.6672009965
 31
0.0
 11
5.3381093986
 21
5.6696280667
 31
0.0
 11
5.3420357086
 21
5.6718835147
 31
0.0
 11
5.3440235067
 21
5.6729519933
 31
0.0
 11
5.3460255459
 21
5.6739835291
 31
0.0
 11
5.3500684639
 21
5.6759414525
 31
0.0
 11
5.3541571526
 21
5.6777683064
 31
0.0
 11
5.3562164052
 21
5.6786360051
 31
0.0
 11
5.3582844209
 21
5.6794750155
 31
0.0
 11
5.3624443548
 21
5.681071171
 31
0.0
 11
5.3666328323
 21
5.6825644919
 31
0.0
 11
5.3708458664
 21
5.6839625561
 31
0.0
 11
5.375079871
 21
5.6852724314
 31
0.0
 11
5.3793323382
 21
5.6864998137
 31
0.0
 11
5.3836009396
 21
5.6876501707
 31
0.0
 11
5.3878834406
 21
5.6887288255
 31
0.0
 11
5.3921781924
 21
5.6897402003
 31
0.0
 11
5.3964837717
 21
5.69068837
 31
0.0
 11
5.4007987632
 21
5.691577396
 31
0.0
 11
5.4051219898
 21
5.692410911
 31
0.0
 11
5.4094525586
 21
5.6931920371
 31
0.0
 11
5.4137895934
 21
5.6939238665
 31
0.0
 11
5.4224798669
 21
5.6952513414
 31
0.0
 11
5.4311879025
 21
5.696413589
 31
0.0
 11
5.4399096179
 21
5.6974290143
 31
0.0
 11
5.4486420735
 21
5.6983130445
 31
0.0
 11
5.4530115464
 21
5.6987102522
 31
0.0
 11
5.4573828023
 21
5.6990798449
 31
0.0
 11
5.4661299317
 21
5.699741555
 31
0.0
 11
5.4748820686
 21
5.7003086804
 31
0.0
 11
5.4836379452
 21
5.7007911247
 31
0.0
 11
5.4923967458
 21
5.701196554
 31
0.0
 11
5.5011577688
 21
5.7015320692
 31
0.0
 11
5.5099204001
 21
5.7018040128
 31
0.0
 11
5.5274489893
 21
5.7021743042
 31
0.0
 11
5.5362142867
 21
5.7022800406
 31
0.0
 11
5.544979926
 21
5.7023354082
 31
0.0
 11
5.5537457005
 21
5.7023415377
 31
0.0
 11
5.5625114006
 21
5.7022990076
 31
0.0
 11
5.5712768062
 21
5.7022065018
 31
0.0
 11
5.580041695
 21
5.7020622981
 31
0.0
  0
SPLINE
  5
23C
100
AcDbEntity
  8
0
100
AcDbSpline
 62
7
  6
CONTINUOUS
 70
0
 71
3
 72
98
 73
94
 74
92
 42
0.0000001
 43
0.0000001
 44
0.0000000001
 12
0.3502189493
 22
-0.1104071526
 32
0.0
 13
-0.3672094837
 23
0.0004969106
 33
0.0
 40
0.0
 40
0.0
 40
0.0
 40
0.0
 40
0.0153355637
 40
0.0307067434
 40
0.0384077463
 40
0.0461201842
 40
0.0538448283
 40
0.0615827526
 40
0.077104196
 40
0.0926996475
 40
0.1005295311
 40
0.1083838284
 40
0.1162662548
 40
0.1241798026
 40
0.1321262111
 40
0.1401090515
 40
0.1481341572
 40
0.1562079832
 40
0.1643324479
 40
0.1725119455
 40
0.180756004
 40
0.1890729062
 40
0.1974597274
 40
0.2059199261
 40
0.2144645718
 40
0.2230844772
 40
0.2274180913
 40
0.2317655008
 40
0.2361267634
 40
0.2405010733
 40
0.244884669
 40
0.2492734321
 40
0.2536633307
 40
0.2580505257
 40
0.2602421385
 40
0.2624318078
 40
0.2668045483
 40
0.2711681643
 40
0.2755210286
 40
0.2798607318
 40
0.2841841727
 40
0.2884876647
 40
0.2927692233
 40
0.3012713883
 40
0.3096993641
 40
0.3138851194
 40
0.3180507744
 40
0.3263270339
 40
0.3345389541
 40
0.3386223764
 40
0.3426907623
 40
0.3507862116
 40
0.3588332841
 40
0.3628402103
 40
0.3668364035
 40
0.37479921
 40
0.3827269714
 40
0.3906227256
 40
0.3984896698
 40
0.4063311398
 40
0.4141493259
 40
0.4219463255
 40
0.42972452
 40
0.4374856318
 40
0.4529612952
 40
0.4683855766
 40
0.4837664486
 40
0.4991115134
 40
0.5144261021
 40
0.5297152215
 40
0.5373516334
 40
0.5449829893
 40
0.560232104
 40
0.5754658298
 40
0.6058942929
 40
0.6210938233
 40
0.6362849862
 40
0.6514691434
 40
0.6666473801
 40
0.6969886101
 40
0.7273149969
 40
0.7424739316
 40
0.7576305835
 40
0.7727853223
 40
0.7879383641
 40
0.8182402148
 40
0.8485381173
 40
0.8788330738
 40
0.9091261997
 40
0.9242723311
 40
0.9394182166
 40
0.969709379
 40
1.0
 40
1.0
 40
1.0
 40
1.0
 10
5.7291792955
 20
5.6842661956
 30
0.0
 10
5.7309695639
 20
5.6837018103
 30
0.0
 10
5.7345401236
 20
5.6825262314
 30
0.0
 10
5.7389631123
 20
5.6809307191
 30
0.0
 10
5.7424772266
 20
5.6795702378
 30
0.0
 10
5.7451016316
 20
5.6785051199
 30
0.0
 10
5.7477114987
 20
5.677393217
 30
0.0
 10
5.7511730667
 20
5.6758432821
 30
0.0
 10
5.7554569834
 20
5.6737745308
 30
0.0
 10
5.759659254
 20
5.6715196167
 30
0.0
 10
5.7629644035
 20
5.6695862358
 30
0.0
 10
5.7654156864
 20
5.6680649342
 30
0.0
 10
5.7678325611
 20
5.6664708095
 30
0.0
 10
5.7702106657
 20
5.6647995908
 30
0.0
 10
5.7725435742
 20
5.663045169
 30
0.0
 10
5.7748247412
 20
5.6612020263
 30
0.0
 10
5.777047319
 20
5.6592646891
 30
0.0
 10
5.7792038361
 20
5.6572285488
 30
0.0
 10
5.7812823162
 20
5.655086128
 30
0.0
 10
5.783269537
 20
5.6528306775
 30
0.0
 10
5.7851516514
 20
5.6504564087
 30
0.0
 10
5.7869128635
 20
5.6479596423
 30
0.0
 10
5.7885310333
 20
5.6453362993
 30
0.0
 10
5.7899822188
 20
5.6425849455
 30
0.0
 10
5.7912400967
 20
5.639708521
 30
0.0
 10
5.7921051079
 20
5.6372200135
 30
0.0
 10
5.7926751055
 20
5.6351799234
 30
0.0
 10
5.7930384269
 20
5.6336248549
 30
0.0
 10
5.7933329871
 20
5.6320502249
 30
0.0
 10
5.7935559398
 20
5.6304593855
 30
0.0
 10
5.793707043
 20
5.6288567522
 30
0.0
 10
5.7937855527
 20
5.6272470059
 30
0.0
 10
5.7937908331
 20
5.625634925
 30
0.0
 10
5.793733617
 20
5.6242930186
 30
0.0
 10
5.7936505121
 20
5.6232228652
 30
0.0
 10
5.7935424494
 20
5.6221567206
 30
0.0
 10
5.7933612247
 20
5.6208311602
 30
0.0
 10
5.793072907
 20
5.6192546332
 30
0.0
 10
5.7927169143
 20
5.6176961575
 30
0.0
 10
5.7922963392
 20
5.6161589854
 30
0.0
 10
5.7918142869
 20
5.6146463394
 30
0.0
 10
5.791273672
 20
5.6131611927
 30
0.0
 10
5.7904806101
 20
5.6112253543
 30
0.0
 10
5.7893597445
 20
5.6088805737
 30
0.0
 10
5.7880830699
 20
5.6066309117
 30
0.0
 10
5.7869841316
 20
5.6048954598
 30
0.0
 10
5.7858427624
 20
5.6032099929
 30
0.0
 10
5.7843328614
 20
5.6011804691
 30
0.0
 10
5.7827210506
 20
5.5992443587
 30
0.0
 10
5.7813827251
 20
5.5977539092
 30
0.0
 10
5.7800192016
 20
5.596305995
 30
0.0
 10
5.7782617939
 20
5.5945636101
 30
0.0
 10
5.7764377969
 20
5.5929024555
 30
0.0
 10
5.7749472204
 20
5.591622532
 30
0.0
 10
5.7734410708
 20
5.5903770952
 30
0.0
 10
5.7715235908
 20
5.5888766789
 30
0.0
 10
5.7691713766
 20
5.5871600273
 30
0.0
 10
5.7667769562
 20
5.5855235556
 30
0.0
 10
5.7643452643
 20
5.5839625681
 30
0.0
 10
5.7618803064
 20
5.5824730258
 30
0.0
 10
5.7593860578
 20
5.5810503597
 30
0.0
 10
5.7568657525
 20
5.57969069
 30
0.0
 10
5.7543219087
 20
5.5783909081
 30
0.0
 10
5.7509055377
 20
5.5767349288
 30
0.0
 10
5.7465870524
 20
5.5747967826
 30
0.0
 10
5.741338655
 20
5.5726620171
 30
0.0
 10
5.7360404063
 20
5.5707001661
 30
0.0
 10
5.7307005011
 20
5.5688967322
 30
0.0
 10
5.7253262778
 20
5.5672364107
 30
0.0
 10
5.7208219619
 20
5.5659619156
 30
0.0
 10
5.7172067114
 20
5.5650027712
 30
0.0
 10
5.7135864224
 20
5.5640824995
 30
0.0
 10
5.7090478562
 20
5.5630010508
 30
0.0
 10
5.7017641325
 20
5.5614072657
 30
0.0
 10
5.6944471674
 20
5.5599995389
 30
0.0
 10
5.6871076782
 20
5.5587528991
 30
0.0
 10
5.6815957616
 20
5.5578923845
 30
0.0
 10
5.6760761503
 20
5.5571011256
 30
0.0
 10
5.6687091394
 20
5.5561321659
 30
0.0
 10
5.6594857209
 20
5.5550692463
 30
0.0
 10
5.650246651
 20
5.5541787125
 30
0.0
 10
5.6428500236
 20
5.5535555261
 30
0.0
 10
5.6373005298
 20
5.5531301924
 30
0.0
 10
5.6317489017
 20
5.5527440861
 30
0.0
 10
5.6243447083
 20
5.5522778123
 30
0.0
 10
5.6150854545
 20
5.55178011
 30
0.0
 10
5.6039696619
 20
5.5513037949
 30
0.0
 10
5.5928509375
 20
5.5509333468
 30
0.0
 10
5.5835835087
 20
5.5507054965
 30
0.0
 10
5.5761689681
 20
5.5505669853
 30
0.0
 10
5.568754196
 20
5.5504564834
 30
0.0
 10
5.5594851964
 20
5.5503701836
 30
0.0
 10
5.5520697339
 20
5.5503544871
 30
0.0
 10
5.5483620661
 20
5.5503595044
 30
0.0
 11
5.7291792955
 21
5.6842661956
 31
0.0
 11
5.7345273999
 21
5.6825026472
 31
0.0
 11
5.7398360866
 21
5.6805849297
 31
0.0
 11
5.7424731201
 21
5.6795636651
 31
0.0
 11
5.7450971337
 21
5.6784981857
 31
0.0
 11
5.7477065513
 21
5.6773859619
 31
0.0
 11
5.7502997078
 21
5.6762243549
 31
0.0
 11
5.7554305777
 21
5.6737424371
 31
0.0
 11
5.760473955
 21
5.6710293914
 31
0.0
 11
5.7629553762
 21
5.6695770201
 31
0.0
 11
5.7654056148
 21
5.6680555745
 31
0.0
 11
5.7678213982
 21
5.6664611635
 31
0.0
 11
5.7701982237
 21
5.6647892953
 31
0.0
 11
5.7725296406
 21
5.6630345261
 31
0.0
 11
5.7748090253
 21
5.6611913281
 31
0.0
 11
5.7770297542
 21
5.6592541732
 31
0.0
 11
5.7791841765
 21
5.6572174029
 31
0.0
 11
5.7812601795
 21
5.6550747908
 31
0.0
 11
5.7832444391
 21
5.6528199564
 31
0.0
 11
5.785123627
 21
5.6504465214
 31
0.0
 11
5.7868818771
 21
5.6479493697
 31
0.0
 11
5.7884964494
 21
5.645326804
 31
0.0
 11
5.7899434518
 21
5.6425777005
 31
0.0
 11
5.79119875
 21
5.6397020704
 31
0.0
 11
5.7922357546
 21
5.6367114461
 31
0.0
 11
5.7926636419
 21
5.6351787056
 31
0.0
 11
5.7930264466
 21
5.6336240666
 31
0.0
 11
5.7933206735
 21
5.6320498278
 31
0.0
 11
5.7935437637
 21
5.6304591057
 31
0.0
 11
5.7936948726
 21
5.6288565146
 31
0.0
 11
5.7937733387
 21
5.627246829
 31
0.0
 11
5.7937785005
 21
5.6256348234
 31
0.0
 11
5.7937096967
 21
5.6240252722
 31
0.0
 11
5.793647351
 21
5.6232229091
 31
0.0
 11
5.7935662986
 21
5.6224229366
 31
0.0
 11
5.7933491658
 21
5.620831972
 31
0.0
 11
5.7930612253
 21
5.6192556927
 31
0.0
 11
5.7927055567
 21
5.617697351
 31
0.0
 11
5.7922852393
 21
5.6161601992
 31
0.0
 11
5.7918033526
 21
5.6146474895
 31
0.0
 11
5.7912629767
 21
5.6131624666
 31
0.0
 11
5.7906672798
 21
5.6117074568
 31
0.0
 11
5.7893232954
 21
5.6088894646
 31
0.0
 11
5.7877982418
 21
5.6061964704
 31
0.0
 11
5.786976208
 21
5.6048977077
 31
0.0
 11
5.786118702
 21
5.6036309906
 31
0.0
 11
5.784306364
 21
5.6011913792
 31
0.0
 11
5.7823787387
 21
5.5988724382
 31
0.0
 11
5.7813771237
 21
5.5977565592
 31
0.0
 11
5.7803530429
 21
5.5966688327
 31
0.0
 11
5.7782430937
 21
5.5945747388
 31
0.0
 11
5.7760594646
 21
5.5925838656
 31
0.0
 11
5.7749432835
 21
5.591625165
 31
0.0
 11
5.7738124785
 21
5.5906899303
 31
0.0
 11
5.7715103583
 21
5.5888871158
 31
0.0
 11
5.7691595459
 21
5.5871700002
 31
0.0
 11
5.7667663378
 21
5.5855332148
 31
0.0
 11
5.7643357309
 21
5.5839719889
 31
0.0
 11
5.761871737
 21
5.5824820051
 31
0.0
 11
5.7593783191
 21
5.5810589737
 31
0.0
 11
5.756858761
 21
5.579699059
 31
0.0
 11
5.7543155912
 21
5.5783989306
 31
0.0
 11
5.7517512985
 21
5.5771552848
 31
0.0
 11
5.7465681203
 21
5.5748252513
 31
0.0
 11
5.7413229114
 21
5.5726879431
 31
0.0
 11
5.7360272233
 21
5.5707243564
 31
0.0
 11
5.7306894515
 21
5.5689188584
 31
0.0
 11
5.7253169447
 21
5.5672569904
 31
0.0
 11
5.7199152265
 21
5.5657266407
 31
0.0
 11
5.7172048902
 21
5.5650073206
 31
0.0
 11
5.7144890003
 21
5.5643167581
 31
0.0
 11
5.7090422013
 21
5.5630174595
 31
0.0
 11
5.7035778358
 21
5.5618202746
 31
0.0
 11
5.6926070804
 21
5.5597007127
 31
0.0
 11
5.6871046554
 21
5.5587650132
 31
0.0
 11
5.6815932015
 21
5.5579037355
 31
0.0
 11
5.6760739689
 21
5.5571117123
 31
0.0
 11
5.6705480744
 21
5.5563840584
 31
0.0
 11
5.659480314
 21
5.5551034819
 31
0.0
 11
5.6483960023
 21
5.5540302601
 31
0.0
 11
5.6428491811
 21
5.5535624944
 31
0.0
 11
5.6372998207
 21
5.5531367044
 31
0.0
 11
5.6317482949
 21
5.5527501296
 31
0.0
 11
5.6261949741
 21
5.5524000258
 31
0.0
 11
5.6150840142
 21
5.5518002329
 31
0.0
 11
5.6039686351
 21
5.5513214187
 31
0.0
 11
5.592850248
 21
5.5509495085
 31
0.0
 11
5.5817297143
 21
5.5506745139
 31
0.0
 11
5.5761688791
 21
5.5505704855
 31
0.0
 11
5.5706077793
 21
5.5504875631
 31
0.0
 11
5.5594850537
 21
5.5503835189
 31
0.0
 11
5.5483620661
 21
5.5503595044
 31
0.0
  0
SPLINE
  5
23D
100
AcDbEntity
  8
0
100
AcDbSpline
 62
7
  6
CONTINUOUS
 70
0
 71
3
 72
37
 73
33
 74
31
 42
0.0000001
 43
0.0000001
 44
0.0000000001
 12
-0.0678482156
 22
-0.0615618856
 32
0.0
 13
0.0678482156
 23
-0.0615618856
 33
0.0
 40
0.0
 40
0.0
 40
0.0
 40
0.0
 40
0.0285057197
 40
0.0573572153
 40
0.0865676623
 40
0.1161539033
 40
0.1461324321
 40
0.1765119687
 40
0.2072980698
 40
0.2384894524
 40
0.2700782136
 40
0.3020470348
 40
0.3669853944
 40
0.399898109
 40
0.4330236785
 40
0.4663019025
 40
0.4996615001
 40
0.5330246047
 40
0.5663171665
 40
0.5994730778
 40
0.6324241225
 40
0.665104569
 40
0.697475703
 40
0.7295027006
 40
0.7611444439
 40
0.8231947314
 40
0.8536353889
 40
0.8836764439
 40
0.9133217332
 40
0.9425860206
 40
0.9714780795
 40
1.0
 40
1.0
 40
1.0
 40
1.0
 10
5.1579801983
 20
4.8399593663
 30
0.0
 10
5.1573355109
 20
4.839374411
 30
0.0
 10
5.1560648211
 20
4.8381677997
 30
0.0
 10
5.1542330599
 20
4.8362603894
 30
0.0
 10
5.1524713276
 20
4.8342439404
 30
0.0
 10
5.1507871714
 20
4.8321181223
 30
0.0
 10
5.1491884513
 20
4.8298832064
 30
0.0
 10
5.1476836352
 20
4.8275402789
 30
0.0
 10
5.146281639
 20
4.8250915611
 30
0.0
 10
5.1449917764
 20
4.8225404868
 30
0.0
 10
5.143823407
 20
4.8198918096
 30
0.0
 10
5.1424334462
 20
4.8162206958
 30
0.0
 10
5.141334373
 20
4.8124016601
 30
0.0
 10
5.1405501132
 20
4.808477925
 30
0.0
 10
5.1401217074
 20
4.8054736717
 30
0.0
 10
5.1398626332
 20
4.8024365058
 30
0.0
 10
5.1397746455
 20
4.799382312
 30
0.0
 10
5.13985857
 20
4.7963275403
 30
0.0
 10
5.1401156187
 20
4.7932886927
 30
0.0
 10
5.1405407708
 20
4.7902815454
 30
0.0
 10
5.1411288631
 20
4.7873210308
 30
0.0
 10
5.1418755597
 20
4.78442125
 30
0.0
 10
5.1427718878
 20
4.7815938791
 30
0.0
 10
5.1438083718
 20
4.7788486422
 30
0.0
 10
5.145355211
 20
4.7753332909
 30
0.0
 10
5.147155072
 20
4.7719877241
 30
0.0
 10
5.1491764681
 20
4.7688374027
 30
0.0
 10
5.1507776365
 20
4.7665972639
 30
0.0
 10
5.1524647302
 20
4.7644669557
 30
0.0
 10
5.1542293207
 20
4.7624467693
 30
0.0
 10
5.1560632644
 20
4.7605367713
 30
0.0
 10
5.1573351445
 20
4.759328892
 30
0.0
 10
5.1579801983
 20
4.7587436043
 30
0.0
 11
5.1579801983
 21
4.8399593663
 31
0.0
 11
5.1560865646
 21
4.8381609497
 31
0.0
 11
5.1542558497
 21
4.8362543573
 31
0.0
 11
5.1524952654
 21
4.8342389461
 31
0.0
 11
5.1508121964
 21
4.8321142649
 31
0.0
 11
5.1492144036
 21
4.8298803959
 31
0.0
 11
5.1477104174
 21
4.8275385401
 31
0.0
 11
5.1463091184
 21
4.8250908175
 31
0.0
 11
5.1450197924
 21
4.8225406318
 31
0.0
 11
5.1438518641
 21
4.8198927755
 31
0.0
 11
5.1428148773
 21
4.8171536877
 31
0.0
 11
5.1411700467
 21
4.8114362781
 31
0.0
 11
5.1405788509
 21
4.8084795156
 31
0.0
 11
5.1401507331
 21
4.8054750769
 31
0.0
 11
5.1398913793
 21
4.8024373551
 31
0.0
 11
5.1398033194
 21
4.7993823958
 31
0.0
 11
5.1398876228
 21
4.7963270091
 31
0.0
 11
5.1401443586
 21
4.7932877467
 31
0.0
 11
5.1405695162
 21
4.7902800801
 31
0.0
 11
5.141158036
 21
4.7873192035
 31
0.0
 11
5.1419044128
 21
4.7844197198
 31
0.0
 11
5.1428004368
 21
4.7815926467
 31
0.0
 11
5.1438368838
 21
4.7788476567
 31
0.0
 11
5.145004528
 21
4.7761943711
 31
0.0
 11
5.1476965435
 21
4.771187471
 31
0.0
 11
5.1492024996
 21
4.7688402257
 31
0.0
 11
5.1508028259
 21
4.7666011262
 31
0.0
 11
5.152488827
 21
4.7644718664
 31
0.0
 11
5.1542524196
 21
4.7624525337
 31
0.0
 11
5.1560855585
 21
4.7605431168
 31
0.0
 11
5.1579801983
 21
4.7587436043
 31
0.0
  0
SPLINE
  5
23E
100
AcDbEntity
  8
0
100
AcDbSpline
 62
7
  6
CONTINUOUS
 70
0
 71
3
 72
29
 73
25
 74
23
 42
0.0000001
 43
0.0000001
 44
0.0000000001
 12
0.0552051072
 22
0.0675204218
 32
0.0
 13
-0.0552051072
 23
0.0675204218
 33
0.0
 40
0.0
 40
0.0
 40
0.0
 40
0.0
 40
0.0529983304
 40
0.1087834208
 40
0.1675137831
 40
0.2292246007
 40
0.2937783819
 40
0.3270251433
 40
0.3608265746
 40
0.429724956
 40
0.4646217639
 40
0.4996542595
 40
0.5695919821
 40
0.6042601307
 40
0.6385727942
 40
0.6724201031
 40
0.7057141184
 40
0.7383945123
 40
0.770399768
 40
0.8016775458
 40
0.8322182152
 40
0.8910627139
 40
0.9469504222
 40
1.0
 40
1.0
 40
1.0
 40
1.0
 10
5.1108525935
 20
4.7587436043
 30
0.0
 10
5.111827853
 20
4.7599364275
 30
0.0
 10
5.1137190875
 20
4.7624772519
 30
0.0
 10
5.1162756264
 20
4.7666291028
 30
0.0
 10
5.1185761275
 20
4.7712140771
 30
0.0
 10
5.1205689945
 20
4.7762162713
 30
0.0
 10
5.1219148884
 20
4.780660264
 30
0.0
 10
5.1227922719
 20
4.7843852254
 30
0.0
 10
5.1235358635
 20
4.7882678499
 30
0.0
 10
5.1240382078
 20
4.7922420165
 30
0.0
 10
5.1242936877
 20
4.7962708712
 30
0.0
 10
5.1243799097
 20
4.8003371224
 30
0.0
 10
5.1242124048
 20
4.8043989212
 30
0.0
 10
5.1237907118
 20
4.8084163861
 30
0.0
 10
5.123354723
 20
4.8113747755
 30
0.0
 10
5.1228020145
 20
4.8142728777
 30
0.0
 10
5.122137745
 20
4.8170987351
 30
0.0
 10
5.1213694509
 20
4.819842505
 30
0.0
 10
5.1205039802
 20
4.8224955843
 30
0.0
 10
5.1195475423
 20
4.8250509868
 30
0.0
 10
5.1181778634
 20
4.828281355
 30
0.0
 10
5.1162825991
 20
4.8320620848
 30
0.0
 10
5.1137224675
 20
4.836220756
 30
0.0
 10
5.111828796
 20
4.8387653896
 30
0.0
 10
5.1108525935
 20
4.8399593663
 30
0.0
 11
5.1108525935
 21
4.7587436043
 31
0.0
 11
5.1136158053
 21
4.7624490442
 31
0.0
 11
5.1161706897
 21
4.7665895948
 31
0.0
 11
5.1184718755
 21
4.7711658039
 31
0.0
 11
5.1204679451
 21
4.7761641429
 31
0.0
 11
5.1221035986
 21
4.7815514277
 31
0.0
 11
5.1227688369
 21
4.7843737324
 31
0.0
 11
5.1233236574
 21
4.7872690747
 31
0.0
 11
5.1240795369
 21
4.7932303775
 31
0.0
 11
5.1242721259
 21
4.7962678342
 31
0.0
 11
5.1243371598
 21
4.7993225322
 31
0.0
 11
5.1240842478
 21
4.8054169673
 31
0.0
 11
5.1237686474
 21
4.8084240646
 31
0.0
 11
5.1233318853
 21
4.8113846305
 31
0.0
 11
5.1227784104
 21
4.8142843039
 31
0.0
 11
5.1221137211
 21
4.8171109718
 31
0.0
 11
5.1213447173
 21
4.819855522
 31
0.0
 11
5.1204783962
 21
4.8225090511
 31
0.0
 11
5.1195217137
 21
4.8250637138
 31
0.0
 11
5.1184814612
 21
4.8275158166
 31
0.0
 11
5.1161772509
 21
4.8321016467
 31
0.0
 11
5.1136182498
 21
4.8362501737
 31
0.0
 11
5.1108525935
 21
4.8399593663
 31
0.0
  0
SPLINE
  5
23F
100
AcDbEntity
  8
0
100
AcDbSpline
 62
7
  6
CONTINUOUS
 70
0
 71
3
 72
37
 73
33
 74
31
 42
0.0000001
 43
0.0000001
 44
0.0000000001
 12
-0.0709316597
 22
-0.0601035844
 32
0.0
 13
0.0709316597
 23
-0.0601035844
 33
0.0
 40
0.0
 40
0.0
 40
0.0
 40
0.0
 40
0.0291523661
 40
0.0585656807
 40
0.0882491405
 40
0.1182163629
 40
0.1484814817
 40
0.1790517922
 40
0.2099326894
 40
0.2411241809
 40
0.2726213711
 40
0.3044117896
 40
0.3364766866
 40
0.3687870651
 40
0.4013106523
 40
0.4340002982
 40
0.4668101711
 40
0.4996848363
 40
0.5325627901
 40
0.5653864349
 40
0.5981052814
 40
0.6306657109
 40
0.6630155383
 40
0.6951269501
 40
0.726973879
 40
0.7585224881
 40
0.7897564815
 40
0.8206868009
 40
0.8513177349
 40
0.8816452624
 40
0.9413921375
 40
1.0
 40
1.0
 40
1.0
 40
1.0
 10
5.1108525935
 20
4.8399593663
 30
0.0
 10
5.1101633182
 20
4.8393753124
 30
0.0
 10
5.1088047274
 20
4.8381707152
 30
0.0
 10
5.1068432163
 20
4.8362635506
 30
0.0
 10
5.1049566483
 20
4.834247327
 30
0.0
 10
5.1031531007
 20
4.8321217005
 30
0.0
 10
5.101440993
 20
4.8298869347
 30
0.0
 10
5.0998293917
 20
4.8275440979
 30
0.0
 10
5.0983278527
 20
4.8250954104
 30
0.0
 10
5.0969463434
 20
4.8225442512
 30
0.0
 10
5.0956949434
 20
4.81989552
 30
0.0
 10
5.0945839022
 20
4.8171556032
 30
0.0
 10
5.0936230975
 20
4.8143327584
 30
0.0
 10
5.0928216695
 20
4.811436936
 30
0.0
 10
5.0921885856
 20
4.8084798676
 30
0.0
 10
5.0917296763
 20
4.8054750983
 30
0.0
 10
5.0914521195
 20
4.8024372159
 30
0.0
 10
5.0913578599
 20
4.7993823224
 30
0.0
 10
5.0914477691
 20
4.7963268309
 30
0.0
 10
5.0917231464
 20
4.793287305
 30
0.0
 10
5.0921786017
 20
4.7902795366
 30
0.0
 10
5.0928086049
 20
4.787318446
 30
0.0
 10
5.0936084767
 20
4.7844182221
 30
0.0
 10
5.0945686105
 20
4.7815904892
 30
0.0
 10
5.0956787808
 20
4.7788450648
 30
0.0
 10
5.0969296662
 20
4.7761909165
 30
0.0
 10
5.0983118706
 20
4.7736350603
 30
0.0
 10
5.0998146698
 20
4.7711816127
 30
0.0
 10
5.1014282264
 20
4.7688335749
 30
0.0
 10
5.1037028717
 20
4.7658621441
 30
0.0
 10
5.1067741286
 20
4.7624169071
 30
0.0
 10
5.1094668758
 20
4.7599177851
 30
0.0
 10
5.1108525935
 20
4.7587436043
 30
0.0
 11
5.1108525935
 21
4.8399593663
 31
0.0
 11
5.1088248677
 21
4.8381609497
 31
0.0
 11
5.1068645162
 21
4.8362543573
 31
0.0
 11
5.1049792614
 21
4.8342389461
 31
0.0
 11
5.1031770109
 21
4.8321142649
 31
0.0
 11
5.1014660753
 21
4.8298803959
 31
0.0
 11
5.0998555887
 21
4.8275385401
 31
0.0
 11
5.098355061
 21
4.8250908175
 31
0.0
 11
5.0969744353
 21
4.8225406318
 31
0.0
 11
5.0957238036
 21
4.8198927755
 31
0.0
 11
5.0946133856
 21
4.8171536877
 31
0.0
 11
5.0936530267
 21
4.814331483
 31
0.0
 11
5.0928520813
 21
4.8114362781
 31
0.0
 11
5.0922190217
 21
4.8084795156
 31
0.0
 11
5.0917605881
 21
4.8054750769
 31
0.0
 11
5.0914828689
 21
4.8024373551
 31
0.0
 11
5.0913885734
 21
4.7993823958
 31
0.0
 11
5.0914788464
 21
4.7963270091
 31
0.0
 11
5.0917537622
 21
4.7932877467
 31
0.0
 11
5.0922090261
 21
4.7902800801
 31
0.0
 11
5.0928392202
 21
4.7873192035
 31
0.0
 11
5.0936384493
 21
4.7844197198
 31
0.0
 11
5.0945979226
 21
4.7815926467
 31
0.0
 11
5.0957077625
 21
4.7788476567
 31
0.0
 11
5.0969580899
 21
4.7761943711
 31
0.0
 11
5.0983390333
 21
4.7736398645
 31
0.0
 11
5.0998407324
 21
4.771187471
 31
0.0
 11
5.1014533283
 21
4.7688402257
 31
0.0
 11
5.103166977
 21
4.7666011262
 31
0.0
 11
5.1068608433
 21
4.7624525337
 31
0.0
 11
5.1108525935
 21
4.7587436043
 31
0.0
  0
SPLINE
  5
240
100
AcDbEntity
  8
0
100
AcDbSpline
 62
7
  6
CONTINUOUS
 70
0
 71
3
 72
31
 73
27
 74
25
 42
0.0000001
 43
0.0000001
 44
0.0000000001
 12
0.0496023663
 22
0.0700081171
 32
0.0
 13
-0.0496023663
 23
0.0700081171
 33
0.0
 40
0.0
 40
0.0
 40
0.0
 40
0.0
 40
0.0514201978
 40
0.106144618
 40
0.1643249144
 40
0.2259708618
 40
0.2580505893
 40
0.2909085694
 40
0.3244820038
 40
0.3586896136
 40
0.39343329
 40
0.4285990313
 40
0.464054285
 40
0.4996631479
 40
0.5707403016
 40
0.6059329714
 40
0.6407194947
 40
0.6749746827
 40
0.708596836
 40
0.74151429
 40
0.773655375
 40
0.8353969965
 40
0.8649855171
 40
0.8937036597
 40
0.9485296673
 40
1.0
 40
1.0
 40
1.0
 40
1.0
 10
5.0644869985
 20
4.7587436043
 30
0.0
 10
5.0653371863
 20
4.759943548
 30
0.0
 10
5.0669837468
 20
4.7624989617
 30
0.0
 10
5.0691967772
 20
4.7666505269
 30
0.0
 10
5.0711877676
 20
4.7712340278
 30
0.0
 10
5.0726058705
 20
4.7753454036
 30
0.0
 10
5.073592802
 20
4.7788292479
 30
0.0
 10
5.0742586483
 20
4.7815675497
 30
0.0
 10
5.0748342851
 20
4.7843883165
 30
0.0
 10
5.0753143469
 20
4.7872816093
 30
0.0
 10
5.0756936836
 20
4.7902357488
 30
0.0
 10
5.0759681144
 20
4.7932372882
 30
0.0
 10
5.0761348435
 20
4.7962715832
 30
0.0
 10
5.0762094996
 20
4.8003367646
 30
0.0
 10
5.0760645634
 20
4.8043961793
 30
0.0
 10
5.0756991528
 20
4.8084144575
 30
0.0
 10
5.0753214913
 20
4.8113722271
 30
0.0
 10
5.0748427251
 20
4.8142697696
 30
0.0
 10
5.0742673121
 20
4.8170951315
 30
0.0
 10
5.0736017673
 20
4.8198385052
 30
0.0
 10
5.0726153018
 20
4.8233288479
 30
0.0
 10
5.0714635906
 20
4.8266714218
 30
0.0
 10
5.0701550378
 20
4.8298464249
 30
0.0
 10
5.0688047556
 20
4.8327875907
 30
0.0
 10
5.0669866508
 20
4.8361990886
 30
0.0
 10
5.0653380153
 20
4.8387582526
 30
0.0
 10
5.0644869985
 20
4.8399593663
 30
0.0
 11
5.0644869985
 21
4.7587436043
 31
0.0
 11
5.0668815494
 21
4.7624490442
 31
0.0
 11
5.0690955673
 21
4.7665895948
 31
0.0
 11
5.0710897345
 21
4.7711658039
 31
0.0
 11
5.0728194934
 21
4.7761641429
 31
0.0
 11
5.0735702911
 21
4.7788121838
 31
0.0
 11
5.074236922
 21
4.7815514277
 31
0.0
 11
5.0748134058
 21
4.7843737324
 31
0.0
 11
5.0752942036
 21
4.7872690747
 31
0.0
 11
5.0756742092
 21
4.79022574
 31
0.0
 11
5.0759492355
 21
4.7932303775
 31
0.0
 11
5.0761161297
 21
4.7962678342
 31
0.0
 11
5.076172487
 21
4.7993225322
 31
0.0
 11
5.0759533179
 21
4.8054169673
 31
0.0
 11
5.0756798241
 21
4.8084240646
 31
0.0
 11
5.0753013338
 21
4.8113846305
 31
0.0
 11
5.0748217021
 21
4.8142843039
 31
0.0
 11
5.074245694
 21
4.8171109718
 31
0.0
 11
5.0735792888
 21
4.819855522
 31
0.0
 11
5.0728285502
 21
4.8225090511
 31
0.0
 11
5.0710980414
 21
4.8275158166
 31
0.0
 11
5.0701300074
 21
4.8298626843
 31
0.0
 11
5.0691012532
 21
4.8321016467
 31
0.0
 11
5.0668836677
 21
4.8362501737
 31
0.0
 11
5.0644869985
 21
4.8399593663
 31
0.0
  0
SPLINE
  5
241
100
AcDbEntity
  8
0
100
AcDbSpline
 62
7
  6
CONTINUOUS
 70
0
 71
3
 72
37
 73
33
 74
31
 42
0.0000001
 43
0.0000001
 44
0.0000000001
 12
-0.075689463
 22
-0.0579027089
 32
0.0
 13
0.075689463
 23
-0.0579027089
 33
0.0
 40
0.0
 40
0.0
 40
0.0
 40
0.0
 40
0.0604990425
 40
0.0909523991
 40
0.121544419
 40
0.1522842288
 40
0.1831755401
 40
0.2142221769
 40
0.2454249658
 40
0.2767827342
 40
0.3082899241
 40
0.3399383475
 40
0.3717133376
 40
0.4036005266
 40
0.4355745584
 40
0.4515897094
 40
0.4676182359
 40
0.4996940341
 40
0.5317727512
 40
0.5638247763
 40
0.5958260925
 40
0.6277476313
 40
0.659559723
 40
0.6912523316
 40
0.7228132843
 40
0.7542199089
 40
0.816533491
 40
0.8782652945
 40
0.9089173178
 40
0.9394261927
 40
0.969790455
 40
1.0
 40
1.0
 40
1.0
 40
1.0
 10
5.0192567426
 20
4.8399593663
 30
0.0
 10
5.0177303626
 20
4.8387916801
 30
0.0
 10
5.0155108589
 20
4.8369338369
 30
0.0
 10
5.0127313278
 20
4.8342525184
 30
0.0
 10
5.0107334438
 20
4.8321272205
 30
0.0
 10
5.0088368434
 20
4.8298927984
 30
0.0
 10
5.007051452
 20
4.8275502043
 30
0.0
 10
5.0053878886
 20
4.8251016579
 30
0.0
 10
5.0038571917
 20
4.8225504997
 30
0.0
 10
5.0024705487
 20
4.8199016132
 30
0.0
 10
5.0012393306
 20
4.8171613526
 30
0.0
 10
5.0001745131
 20
4.8143379727
 30
0.0
 10
4.9992862598
 20
4.8114414071
 30
0.0
 10
4.9985845272
 20
4.8084834553
 30
0.0
 10
4.9981608559
 20
4.8059797036
 30
0.0
 10
4.997922133
 20
4.8039598541
 30
0.0
 10
4.9977508091
 20
4.8019299356
 30
0.0
 10
4.9976636544
 20
4.7993822965
 30
0.0
 10
4.9977633423
 20
4.7963255852
 30
0.0
 10
4.9980686019
 20
4.7932848516
 30
0.0
 10
4.9985734643
 20
4.7902760115
 30
0.0
 10
4.999271784
 20
4.7873139519
 30
0.0
 10
5.0001583195
 20
4.7844129995
 30
0.0
 10
5.001222373
 20
4.7815847667
 30
0.0
 10
5.0024526688
 20
4.7788389201
 30
0.0
 10
5.0042957116
 20
4.7753094823
 30
0.0
 10
5.0069617319
 20
4.7711394183
 30
0.0
 10
5.0100492428
 20
4.767304197
 30
0.0
 10
5.0127234509
 20
4.7644584247
 30
0.0
 10
5.0148165511
 20
4.762438851
 30
0.0
 10
5.0169917479
 20
4.7605295529
 30
0.0
 10
5.0184945612
 20
4.7593266757
 30
0.0
 10
5.0192567426
 20
4.7587436043
 30
0.0
 11
5.0192567426
 21
4.8399593663
 31
0.0
 11
5.0148394074
 21
4.8362543573
 31
0.0
 11
5.0127512326
 21
4.8342389461
 31
0.0
 11
5.0107549963
 21
4.8321142649
 31
0.0
 11
5.0088599036
 21
4.8298803959
 31
0.0
 11
5.0070760718
 21
4.8275385401
 31
0.0
 11
5.0054140343
 21
4.8250908175
 31
0.0
 11
5.0038848045
 21
4.8225406318
 31
0.0
 11
5.0024995607
 21
4.8198927755
 31
0.0
 11
5.0012696226
 21
4.8171536877
 31
0.0
 11
5.0002058951
 21
4.814331483
 31
0.0
 11
4.9993187396
 21
4.8114362781
 31
0.0
 11
4.9986175406
 21
4.8084795156
 31
0.0
 11
4.9981097633
 21
4.8054750769
 31
0.0
 11
4.9979306439
 21
4.80395942
 31
0.0
 11
4.9978021517
 21
4.8024373551
 31
0.0
 11
4.9976977066
 21
4.7993823958
 31
0.0
 11
4.9977976962
 21
4.7963270091
 31
0.0
 11
4.9981022027
 21
4.7932877467
 31
0.0
 11
4.998606469
 21
4.7902800801
 31
0.0
 11
4.9993044942
 21
4.7873192035
 31
0.0
 11
5.0001897487
 21
4.7844197198
 31
0.0
 11
5.0012524952
 21
4.7815926467
 31
0.0
 11
5.0024817931
 21
4.7788476567
 31
0.0
 11
5.0038666998
 21
4.7761943711
 31
0.0
 11
5.0070596165
 21
4.771187471
 31
0.0
 11
5.0107438824
 21
4.7666011262
 31
0.0
 11
5.0127435962
 21
4.7644718664
 31
0.0
 11
5.0148353391
 21
4.7624525337
 31
0.0
 11
5.0170095687
 21
4.7605431168
 31
0.0
 11
5.0192567426
 21
4.7587436043
 31
0.0
  0
SPLINE
  5
242
100
AcDbEntity
  8
0
100
AcDbSpline
 62
7
  6
CONTINUOUS
 70
0
 71
3
 72
38
 73
34
 74
32
 42
0.0000001
 43
0.0000001
 44
0.0000000001
 12
0.0357044078
 22
0.0752992987
 32
0.0
 13
-0.0357044078
 23
0.0752992987
 33
0.0
 40
0.0
 40
0.0
 40
0.0
 40
0.0
 40
0.0236947661
 40
0.048451055
 40
0.0742892461
 40
0.1012282346
 40
0.1292771164
 40
0.1584348628
 40
0.1886869427
 40
0.2200067424
 40
0.2523494114
 40
0.2856526172
 40
0.3198343895
 40
0.3547915221
 40
0.3904016252
 40
0.4265239638
 40
0.4629971729
 40
0.4996554335
 40
0.5728080165
 40
0.6089590678
 40
0.6446147651
 40
0.6796225207
 40
0.7138556522
 40
0.7472214147
 40
0.7796287005
 40
0.8109985256
 40
0.841300485
 40
0.8705154691
 40
0.8986238632
 40
0.9256156308
 40
0.9515008447
 40
0.9762916808
 40
1.0
 40
1.0
 40
1.0
 40
1.0
 10
4.9755260135
 20
4.7587436043
 30
0.0
 10
4.975808016
 20
4.7593383373
 30
0.0
 10
4.9763629084
 20
4.7605648673
 30
0.0
 10
4.977150078
 20
4.7624728575
 30
0.0
 10
4.9779070421
 20
4.7644896026
 30
0.0
 10
4.9786305817
 20
4.7666154131
 30
0.0
 10
4.9793173409
 20
4.7688500375
 30
0.0
 10
4.9799636545
 20
4.7711922997
 30
0.0
 10
4.980565732
 20
4.7736399894
 30
0.0
 10
4.9811195872
 20
4.7761896444
 30
0.0
 10
4.9816211643
 20
4.7788364063
 30
0.0
 10
4.9820664446
 20
4.7815737935
 30
0.0
 10
4.982451403
 20
4.7843936276
 30
0.0
 10
4.9827724443
 20
4.7872859337
 30
0.0
 10
4.983026125
 20
4.7902390349
 30
0.0
 10
4.983209649
 20
4.793239508
 30
0.0
 10
4.983321152
 20
4.7962726862
 30
0.0
 10
4.9833710571
 20
4.8003362189
 30
0.0
 10
4.9832743021
 20
4.8043915911
 30
0.0
 10
4.9830297836
 20
4.8084112147
 30
0.0
 10
4.9827772216
 20
4.8113679089
 30
0.0
 10
4.9824570525
 20
4.8142644364
 30
0.0
 10
4.982072238
 20
4.8170889063
 30
0.0
 10
4.9816271615
 20
4.8198313476
 30
0.0
 10
4.9811257971
 20
4.8224831616
 30
0.0
 10
4.9805717269
 20
4.82503745
 30
0.0
 10
4.9799691797
 20
4.8274895206
 30
0.0
 10
4.9793221625
 20
4.8298363908
 30
0.0
 10
4.9786344989
 20
4.8320756661
 30
0.0
 10
4.9779097756
 20
4.8342057512
 30
0.0
 10
4.9771516435
 20
4.8362260455
 30
0.0
 10
4.9763635709
 20
4.8381365221
 30
0.0
 10
4.9758081773
 20
4.839364293
 30
0.0
 10
4.9755260135
 20
4.8399593663
 30
0.0
 11
4.9755260135
 21
4.7587436043
 31
0.0
 11
4.9763408247
 21
4.7605422644
 31
0.0
 11
4.9771285243
 21
4.7624490442
 31
0.0
 11
4.9778860329
 21
4.7644646349
 31
0.0
 11
4.9786102167
 21
4.7665895948
 31
0.0
 11
4.979297679
 21
4.7688236802
 31
0.0
 11
4.9799447778
 21
4.7711658039
 31
0.0
 11
4.9805476696
 21
4.7736137237
 31
0.0
 11
4.9811023884
 21
4.7761641429
 31
0.0
 11
4.9816048464
 21
4.7788121838
 31
0.0
 11
4.9820509774
 21
4.7815514277
 31
0.0
 11
4.982436779
 21
4.7843737324
 31
0.0
 11
4.9827585444
 21
4.7872690747
 31
0.0
 11
4.9830128564
 21
4.79022574
 31
0.0
 11
4.9831969129
 21
4.7932303775
 31
0.0
 11
4.9833086039
 21
4.7962678342
 31
0.0
 11
4.98334632
 21
4.7993225322
 31
0.0
 11
4.983199645
 21
4.8054169673
 31
0.0
 11
4.9830166141
 21
4.8084240646
 31
0.0
 11
4.9827633161
 21
4.8113846305
 31
0.0
 11
4.9824423311
 21
4.8142843039
 31
0.0
 11
4.9820568479
 21
4.8171109718
 31
0.0
 11
4.981610868
 21
4.819855522
 31
0.0
 11
4.9811084494
 21
4.8225090511
 31
0.0
 11
4.9805536262
 21
4.8250637138
 31
0.0
 11
4.979950337
 21
4.8275158166
 31
0.0
 11
4.9793024974
 21
4.8298626843
 31
0.0
 11
4.9786140218
 21
4.8321016467
 31
0.0
 11
4.9778886798
 21
4.8342308587
 31
0.0
 11
4.9771299419
 21
4.8362501737
 31
0.0
 11
4.9763412419
 21
4.8381596551
 31
0.0
 11
4.9755260135
 21
4.8399593663
 31
0.0
  0
SPLINE
  5
243
100
AcDbEntity
  8
0
100
AcDbSpline
 62
7
  6
CONTINUOUS
 70
0
 71
3
 72
38
 73
34
 74
32
 42
0.0000001
 43
0.0000001
 44
0.0000000001
 12
-0.0774177826
 22
-0.0571288107
 32
0.0
 13
0.0774177826
 23
-0.0571288107
 33
0.0
 40
0.0
 40
0.0
 40
0.0
 40
0.0
 40
0.061222705
 40
0.0919637894
 40
0.1227905182
 40
0.1537098066
 40
0.1847236478
 40
0.215834877
 40
0.2470442242
 40
0.2783515329
 40
0.3097535107
 40
0.341245689
 40
0.3570243873
 40
0.3728229272
 40
0.404469013
 40
0.4361711864
 40
0.4520418798
 40
0.4679218567
 40
0.4996933692
 40
0.5314676569
 40
0.5632260234
 40
0.5949547412
 40
0.6266342162
 40
0.6582433746
 40
0.6897788485
 40
0.7212335445
 40
0.7525887404
 40
0.7838382349
 40
0.8149972144
 40
0.8460706215
 40
0.8770521161
 40
0.9387175879
 40
1.0
 40
1.0
 40
1.0
 40
1.0
 10
4.9755260135
 20
4.8399593663
 30
0.0
 10
4.9739461048
 20
4.8387935062
 30
0.0
 10
4.9716469452
 20
4.8369376504
 30
0.0
 10
4.9687630461
 20
4.8342543406
 30
0.0
 10
4.966691835
 20
4.8321292064
 30
0.0
 10
4.9647255869
 20
4.8298949315
 30
0.0
 10
4.9628745921
 20
4.827552459
 30
0.0
 10
4.9611498576
 20
4.8251039956
 30
0.0
 10
4.9595628287
 20
4.8225528737
 30
0.0
 10
4.9581251076
 20
4.819903944
 30
0.0
 10
4.9568484969
 20
4.8171636325
 30
0.0
 10
4.9559289649
 20
4.8148119782
 30
0.0
 10
4.955284639
 20
4.8128942846
 30
0.0
 10
4.9547024369
 20
4.8109516624
 30
0.0
 10
4.954095601
 20
4.8084848424
 30
0.0
 10
4.9536561974
 20
4.8059803215
 30
0.0
 10
4.9534086515
 20
4.8039600432
 30
0.0
 10
4.9532310403
 20
4.8019302
 30
0.0
 10
4.9531406614
 20
4.7993822997
 30
0.0
 10
4.9532440428
 20
4.7963250784
 30
0.0
 10
4.9535606052
 20
4.7932838651
 30
0.0
 10
4.9540841492
 20
4.7902746008
 30
0.0
 10
4.9548082977
 20
4.7873121659
 30
0.0
 10
4.9557275843
 20
4.7844109494
 30
0.0
 10
4.9568309164
 20
4.7815825232
 30
0.0
 10
4.9581065419
 20
4.7788366186
 30
0.0
 10
4.9595437024
 20
4.7761822398
 30
0.0
 10
4.961131517
 20
4.7736264482
 30
0.0
 10
4.9628576977
 20
4.7711732303
 30
0.0
 10
4.9647109404
 20
4.7688255494
 30
0.0
 10
4.9673321713
 20
4.7658446358
 30
0.0
 10
4.9708718113
 20
4.7623912982
 30
0.0
 10
4.973944564
 20
4.7599106014
 30
0.0
 10
4.9755260135
 20
4.7587436043
 30
0.0
 11
4.9755260135
 21
4.8399593663
 31
0.0
 11
4.9709466053
 21
4.8362543573
 31
0.0
 11
4.9687818149
 21
4.8342389461
 31
0.0
 11
4.9667123362
 21
4.8321142649
 31
0.0
 11
4.9647477121
 21
4.8298803959
 31
0.0
 11
4.9628984312
 21
4.8275385401
 31
0.0
 11
4.9611754131
 21
4.8250908175
 31
0.0
 11
4.9595900755
 21
4.8225406318
 31
0.0
 11
4.9581540068
 21
4.8198927755
 31
0.0
 11
4.956878942
 21
4.8171536877
 31
0.0
 11
4.9557761861
 21
4.814331483
 31
0.0
 11
4.9552927851
 21
4.8128923627
 31
0.0
 11
4.9548564807
 21
4.8114362781
 31
0.0
 11
4.9541295545
 21
4.8084795156
 31
0.0
 11
4.9536031467
 21
4.8054750769
 31
0.0
 11
4.9534174554
 21
4.80395942
 31
0.0
 11
4.9532842488
 21
4.8024373551
 31
0.0
 11
4.9531759716
 21
4.7993823958
 31
0.0
 11
4.9532796298
 21
4.7963270091
 31
0.0
 11
4.9535953087
 21
4.7932877467
 31
0.0
 11
4.9541180767
 21
4.7902800801
 31
0.0
 11
4.9548417126
 21
4.7873192035
 31
0.0
 11
4.9557594472
 21
4.7844197198
 31
0.0
 11
4.9568611861
 21
4.7815926467
 31
0.0
 11
4.9581355873
 21
4.7788476567
 31
0.0
 11
4.9595713066
 21
4.7761943711
 31
0.0
 11
4.9611570089
 21
4.7736398645
 31
0.0
 11
4.9628813721
 21
4.771187471
 31
0.0
 11
4.964733075
 21
4.7688402257
 31
0.0
 11
4.9667008145
 21
4.7666011262
 31
0.0
 11
4.9709423877
 21
4.7624525337
 31
0.0
 11
4.9755260135
 21
4.7587436043
 31
0.0
  0
SPLINE
  5
244
100
AcDbEntity
  8
0
100
AcDbSpline
 62
7
  6
CONTINUOUS
 70
0
 71
3
 72
39
 73
35
 74
33
 42
0.0000001
 43
0.0000001
 44
0.0000000001
 12
-0.0787285019
 22
-0.0565499616
 32
0.0
 13
0.0787285019
 23
-0.0565499616
 33
0.0
 40
0.0
 40
0.0
 40
0.0
 40
0.0
 40
0.0617780963
 40
0.1237305642
 40
0.154789259
 40
0.1858990151
 40
0.2170617657
 40
0.248278019
 40
0.2795482563
 40
0.2952046551
 40
0.3108747357
 40
0.3422478778
 40
0.3579534938
 40
0.3736706228
 40
0.4051315743
 40
0.4366245815
 40
0.4523840196
 40
0.4681495376
 40
0.499686503
 40
0.5312261315
 40
0.5627582748
 40
0.5942772504
 40
0.6257708443
 40
0.6415051492
 40
0.6572291365
 40
0.6886448858
 40
0.7200193414
 40
0.7513367201
 40
0.7825926282
 40
0.8138027845
 40
0.8449718947
 40
0.8760927637
 40
0.9381617635
 40
1.0
 40
1.0
 40
1.0
 40
1.0
 10
4.9336469247
 20
4.8399593663
 30
0.0
 10
4.9320256924
 20
4.8387948499
 30
0.0
 10
4.9288770152
 20
4.8363216077
 30
0.0
 10
4.9252433875
 20
4.8328725674
 30
0.0
 10
4.9225526247
 20
4.8298965655
 30
0.0
 10
4.9206509288
 20
4.8275541744
 30
0.0
 10
4.9188789486
 20
4.8251057822
 30
0.0
 10
4.9172484103
 20
4.8225547384
 30
0.0
 10
4.9160178905
 20
4.8203480386
 30
0.0
 10
4.9151161455
 20
4.8185372754
 30
0.0
 10
4.9142709256
 20
4.8166958279
 30
0.0
 10
4.9135144247
 20
4.8148129148
 30
0.0
 10
4.9128522805
 20
4.812894667
 30
0.0
 10
4.9122542681
 20
4.8109524606
 30
0.0
 10
4.9116308467
 20
4.8084859695
 30
0.0
 10
4.9111792576
 20
4.8059808095
 30
0.0
 10
4.9109248939
 20
4.8039601944
 30
0.0
 10
4.9107424249
 20
4.8019304105
 30
0.0
 10
4.9106495543
 20
4.7993823017
 30
0.0
 10
4.9107557895
 20
4.7963246772
 30
0.0
 10
4.9110810976
 20
4.7932830703
 30
0.0
 10
4.9116190578
 20
4.7902735192
 30
0.0
 10
4.9122394294
 20
4.7878036517
 30
0.0
 10
4.9128358943
 20
4.7858586728
 30
0.0
 10
4.9134969917
 20
4.7839373629
 30
0.0
 10
4.914441476
 20
4.7815807344
 30
0.0
 10
4.9157521458
 20
4.778834807
 30
0.0
 10
4.9172287601
 20
4.776180393
 30
0.0
 10
4.9188601094
 20
4.7736246491
 30
0.0
 10
4.9206335805
 20
4.7711715074
 30
0.0
 10
4.9225375587
 20
4.7688239276
 30
0.0
 10
4.9252323313
 20
4.7658411606
 30
0.0
 10
4.9288712142
 20
4.7623863778
 30
0.0
 10
4.9320241142
 20
4.7599092542
 30
0.0
 10
4.9336469247
 20
4.7587436043
 30
0.0
 11
4.9336469247
 21
4.8399593663
 31
0.0
 11
4.9289423162
 21
4.8362543573
 31
0.0
 11
4.924592283
 21
4.8321142649
 31
0.0
 11
4.9225739464
 21
4.8298803959
 31
0.0
 11
4.9206741064
 21
4.8275385401
 31
0.0
 11
4.9189039813
 21
4.8250908175
 31
0.0
 11
4.9172753008
 21
4.8225406318
 31
0.0
 11
4.9157999703
 21
4.8198927755
 31
0.0
 11
4.9151235818
 21
4.8185342133
 31
0.0
 11
4.9144900453
 21
4.8171536877
 31
0.0
 11
4.9133571403
 21
4.814331483
 31
0.0
 11
4.9128605232
 21
4.8128923627
 31
0.0
 11
4.9124122903
 21
4.8114362781
 31
0.0
 11
4.91166549
 21
4.8084795156
 31
0.0
 11
4.9111246904
 21
4.8054750769
 31
0.0
 11
4.9109339223
 21
4.80395942
 31
0.0
 11
4.9107970739
 21
4.8024373551
 31
0.0
 11
4.9106858364
 21
4.7993823958
 31
0.0
 11
4.9107923286
 21
4.7963270091
 31
0.0
 11
4.9111166381
 21
4.7932877467
 31
0.0
 11
4.9116536985
 21
4.7902800801
 31
0.0
 11
4.9123971185
 21
4.7873192035
 31
0.0
 11
4.9128441742
 21
4.7858610156
 31
0.0
 11
4.9133399438
 21
4.7844197198
 31
0.0
 11
4.9144718041
 21
4.7815926467
 31
0.0
 11
4.9157810471
 21
4.7788476567
 31
0.0
 11
4.9172560188
 21
4.7761943711
 31
0.0
 11
4.9188850739
 21
4.7736398645
 31
0.0
 11
4.9206565809
 21
4.771187471
 31
0.0
 11
4.9225589091
 21
4.7688402257
 31
0.0
 11
4.9245804462
 21
4.7666011262
 31
0.0
 11
4.9289379834
 21
4.7624525337
 31
0.0
 11
4.9336469247
 21
4.7587436043
 31
0.0
  0
SPLINE
  5
245
100
AcDbEntity
  8
0
100
AcDbSpline
 62
7
  6
CONTINUOUS
 70
0
 71
3
 72
39
 73
35
 74
33
 42
0.0000001
 43
0.0000001
 44
0.0000000001
 12
-0.0796309197
 22
-0.0561558842
 32
0.0
 13
0.0796309197
 23
-0.0561558842
 33
0.0
 40
0.0
 40
0.0
 40
0.0
 40
0.0
 40
0.062164541
 40
0.1244310406
 40
0.1556017451
 40
0.1867879867
 40
0.2179991259
 40
0.2492447837
 40
0.2805136311
 40
0.311802317
 40
0.3274592705
 40
0.3431242303
 40
0.3744653667
 40
0.405818747
 40
0.4215020569
 40
0.4371895497
 40
0.4528814311
 40
0.4685763798
 40
0.4999646505
 40
0.5313488398
 40
0.5470396542
 40
0.5627281337
 40
0.594094937
 40
0.6254512641
 40
0.6411243148
 40
0.6567901285
 40
0.6881008498
 40
0.719395344
 40
0.750667437
 40
0.781907
 40
0.8131272428
 40
0.8755086668
 40
0.9378142234
 40
1.0
 40
1.0
 40
1.0
 40
1.0
 10
4.8939566809
 20
4.8399593663
 30
0.0
 10
4.8923066077
 20
4.8387957313
 30
0.0
 10
4.8891013442
 20
4.8363241276
 30
0.0
 10
4.8853974237
 20
4.8328730246
 30
0.0
 10
4.8826543351
 20
4.8298942611
 30
0.0
 10
4.8807167066
 20
4.8275509485
 30
0.0
 10
4.8789113432
 20
4.825101149
 30
0.0
 10
4.8772501626
 20
4.8225479773
 30
0.0
 10
4.8757448299
 20
4.819896952
 30
0.0
 10
4.8746308512
 20
4.8176116857
 30
0.0
 10
4.873830587
 20
4.8157418157
 30
0.0
 10
4.8730924395
 20
4.8138447359
 30
0.0
 10
4.872289531
 20
4.8114274077
 30
0.0
 10
4.8716545314
 20
4.8089598745
 30
0.0
 10
4.8712520379
 20
4.8069623717
 30
0.0
 10
4.8710041507
 20
4.8054536605
 30
0.0
 10
4.8708109634
 20
4.8039365928
 30
0.0
 10
4.8706264216
 20
4.8019056541
 30
0.0
 10
4.8705331957
 20
4.7993563809
 30
0.0
 10
4.8706244662
 20
4.7968071337
 30
0.0
 10
4.8708090971
 20
4.7947765513
 30
0.0
 10
4.8710674416
 20
4.7927546015
 30
0.0
 10
4.8715260802
 20
4.7902471046
 30
0.0
 10
4.8721595073
 20
4.7877785918
 30
0.0
 10
4.8727672799
 20
4.7858346967
 30
0.0
 10
4.8734410712
 20
4.7839142595
 30
0.0
 10
4.8744039733
 20
4.7815592242
 30
0.0
 10
4.8757398338
 20
4.7788160462
 30
0.0
 10
4.8772439174
 20
4.7761641212
 30
0.0
 10
4.8789051138
 20
4.7736106457
 30
0.0
 10
4.8813114577
 20
4.7703446961
 30
0.0
 10
4.8846518336
 20
4.7665245272
 30
0.0
 10
4.8890991453
 20
4.762380825
 30
0.0
 10
4.892306044
 20
4.7599076367
 30
0.0
 10
4.8939566809
 20
4.7587436043
 30
0.0
 11
4.8939566809
 21
4.8399593663
 31
0.0
 11
4.8891647024
 21
4.8362542304
 31
0.0
 11
4.8847316166
 21
4.8321118523
 31
0.0
 11
4.8826749766
 21
4.8298768412
 31
0.0
 11
4.8807394961
 21
4.8275341597
 31
0.0
 11
4.8789362673
 21
4.8250852094
 31
0.0
 11
4.8772767491
 21
4.8225326693
 31
0.0
 11
4.875773362
 21
4.8198825651
 31
0.0
 11
4.8744386816
 21
4.8171414637
 31
0.0
 11
4.8738385313
 21
4.815738852
 31
0.0
 11
4.8732851028
 21
4.8143163198
 31
0.0
 11
4.8723232586
 21
4.8114178627
 31
0.0
 11
4.8715627892
 21
4.8084589486
 31
0.0
 11
4.8712610791
 21
4.8069608453
 31
0.0
 11
4.8710132971
 21
4.8054524712
 31
0.0
 11
4.8708201089
 21
4.8039357067
 31
0.0
 11
4.87068172
 21
4.8024126642
 31
0.0
 11
4.870570095
 21
4.7993562267
 31
0.0
 11
4.8706799326
 21
4.7963001223
 31
0.0
 11
4.8708183277
 21
4.7947774848
 31
0.0
 11
4.8710119477
 21
4.7932611097
 31
0.0
 11
4.8715611324
 21
4.790254471
 31
0.0
 11
4.872319974
 21
4.7872948427
 31
0.0
 11
4.8727756652
 21
4.7858372303
 31
0.0
 11
4.8732808946
 21
4.7843967866
 31
0.0
 11
4.8744343597
 21
4.7815723178
 31
0.0
 11
4.8757683919
 21
4.7788302715
 31
0.0
 11
4.8772708604
 21
4.7761792828
 31
0.0
 11
4.8789297116
 21
4.7736270175
 31
0.0
 11
4.8807332091
 21
4.7711771635
 31
0.0
 11
4.884727526
 21
4.7665953528
 31
0.0
 11
4.889163158
 21
4.7624501255
 31
0.0
 11
4.8939566809
 21
4.7587436043
 31
0.0
  0
SPLINE
  5
246
100
AcDbEntity
  8
0
100
AcDbSpline
 62
7
  6
CONTINUOUS
 70
0
 71
3
 72
39
 73
35
 74
33
 42
0.0000001
 43
0.0000001
 44
0.0000000001
 12
-0.080233207
 22
-0.055898273
 32
0.0
 13
0.080233207
 23
-0.055898273
 33
0.0
 40
0.0
 40
0.0
 40
0.0
 40
0.0
 40
0.0624181132
 40
0.1248367476
 40
0.1560573004
 40
0.1872788591
 40
0.2185021621
 40
0.2497273021
 40
0.2809553424
 40
0.2965720494
 40
0.3121904092
 40
0.3434257312
 40
0.3590465535
 40
0.3746691213
 40
0.405914748
 40
0.4371641646
 40
0.4527939501
 40
0.4684260403
 40
0.4996895136
 40
0.5309555179
 40
0.5622239821
 40
0.5934986913
 40
0.6247760851
 40
0.6404154112
 40
0.6560542069
 40
0.6873313329
 40
0.7186132978
 40
0.7498876133
 40
0.7811518378
 40
0.8124221495
 40
0.8437028205
 40
0.8749855142
 40
0.9375212462
 40
1.0
 40
1.0
 40
1.0
 40
1.0
 10
4.8224008515
 20
4.8399593663
 30
0.0
 10
4.8207315164
 20
4.8387963447
 30
0.0
 10
4.8174897275
 20
4.8363271131
 30
0.0
 10
4.8137406604
 20
4.8328764886
 30
0.0
 10
4.8109643261
 20
4.8298984088
 30
0.0
 10
4.8090036217
 20
4.8275561478
 30
0.0
 10
4.8071766143
 20
4.8251078551
 30
0.0
 10
4.8054953965
 20
4.8225568692
 30
0.0
 10
4.8042260836
 20
4.8203492867
 30
0.0
 10
4.8032959908
 20
4.818537801
 30
0.0
 10
4.8024248593
 20
4.8166970158
 30
0.0
 10
4.8016447823
 20
4.8148140407
 30
0.0
 10
4.8009618519
 20
4.8128951169
 30
0.0
 10
4.8003454407
 20
4.810953411
 30
0.0
 10
4.7997027026
 20
4.8084873134
 30
0.0
 10
4.7992369057
 20
4.8059813932
 30
0.0
 10
4.7989745968
 20
4.8039603754
 30
0.0
 10
4.7987864701
 20
4.8019306626
 30
0.0
 10
4.7986906948
 20
4.7993823049
 30
0.0
 10
4.7988002587
 20
4.7963241933
 30
0.0
 10
4.7991357531
 20
4.7932821312
 30
0.0
 10
4.799690544
 20
4.7902721859
 30
0.0
 10
4.8003301415
 20
4.7878026982
 30
0.0
 10
4.8009449578
 20
4.7858582217
 30
0.0
 10
4.8016268086
 20
4.783936235
 30
0.0
 10
4.8026010784
 20
4.7815786786
 30
0.0
 10
4.8039525776
 20
4.7788326744
 30
0.0
 10
4.8054751432
 20
4.7761782488
 30
0.0
 10
4.8071571947
 20
4.773622569
 30
0.0
 10
4.808985738
 20
4.7711695289
 30
0.0
 10
4.8109487984
 20
4.7688220763
 30
0.0
 10
4.8137292792
 20
4.7658372191
 30
0.0
 10
4.817483761
 20
4.7623808601
 30
0.0
 10
4.8207298946
 20
4.7599077557
 30
0.0
 10
4.8224008515
 20
4.7587436043
 30
0.0
 11
4.8224008515
 21
4.8399593663
 31
0.0
 11
4.817550429
 21
4.8362543573
 31
0.0
 11
4.8130655713
 21
4.8321142649
 31
0.0
 11
4.8109846786
 21
4.8298803959
 31
0.0
 11
4.8090259552
 21
4.8275385401
 31
0.0
 11
4.807200967
 21
4.8250908175
 31
0.0
 11
4.8055218074
 21
4.8225406318
 31
0.0
 11
4.8040007507
 21
4.8198927755
 31
0.0
 11
4.8033033983
 21
4.8185342133
 31
0.0
 11
4.8026502261
 21
4.8171536877
 31
0.0
 11
4.8014822079
 21
4.814331483
 31
0.0
 11
4.8009701987
 21
4.8128923627
 31
0.0
 11
4.8005080734
 21
4.8114362781
 31
0.0
 11
4.7997381268
 21
4.8084795156
 31
0.0
 11
4.7991805657
 21
4.8054750769
 31
0.0
 11
4.798983885
 21
4.80395942
 31
0.0
 11
4.7988427951
 21
4.8024373551
 31
0.0
 11
4.7987281099
 21
4.7993823958
 31
0.0
 11
4.7988379027
 21
4.7963270091
 31
0.0
 11
4.7991722639
 21
4.7932877467
 31
0.0
 11
4.7997259698
 21
4.7902800801
 31
0.0
 11
4.8004924313
 21
4.7873192035
 31
0.0
 11
4.800953343
 21
4.7858610156
 31
0.0
 11
4.8014644784
 21
4.7844197198
 31
0.0
 11
4.8026314194
 21
4.7815926467
 31
0.0
 11
4.803981241
 21
4.7788476567
 31
0.0
 11
4.8055019278
 21
4.7761943711
 31
0.0
 11
4.8071814736
 21
4.7736398645
 31
0.0
 11
4.8090078865
 21
4.771187471
 31
0.0
 11
4.8109691753
 21
4.7688402257
 31
0.0
 11
4.8130533676
 21
4.7666011262
 31
0.0
 11
4.8175459618
 21
4.7624525337
 31
0.0
 11
4.8224008515
 21
4.7587436043
 31
0.0
  0
SPLINE
  5
247
100
AcDbEntity
  8
0
100
AcDbSpline
 62
7
  6
CONTINUOUS
 70
0
 71
3
 72
39
 73
35
 74
33
 42
0.0000001
 43
0.0000001
 44
0.0000000001
 12
-0.0799327613
 22
-0.0560273492
 32
0.0
 13
0.0799327613
 23
-0.0560273492
 33
0.0
 40
0.0
 40
0.0
 40
0.0
 40
0.0
 40
0.0622900772
 40
0.1246152919
 40
0.1558033459
 40
0.1870024088
 40
0.2182134709
 40
0.2494367219
 40
0.2806731218
 40
0.2962977431
 40
0.3119264352
 40
0.3431893373
 40
0.3588271474
 40
0.3744686707
 40
0.4057574903
 40
0.4370558014
 40
0.45271162
 40
0.4683705053
 40
0.499688909
 40
0.5310098703
 40
0.5623312834
 40
0.5936550234
 40
0.6249757863
 40
0.640634152
 40
0.6562900156
 40
0.687594883
 40
0.7188953107
 40
0.7501781595
 40
0.7814406092
 40
0.8126987594
 40
0.8439569826
 40
0.8752071838
 40
0.9376493824
 40
1.0
 40
1.0
 40
1.0
 40
1.0
 10
4.7911114234
 20
4.8399593663
 30
0.0
 10
4.7894517508
 20
4.8387960503
 30
0.0
 10
4.7862286603
 20
4.8363260251
 30
0.0
 10
4.7825027874
 20
4.8328757099
 30
0.0
 10
4.7797436501
 20
4.8298980417
 30
0.0
 10
4.7777948006
 20
4.8275557538
 30
0.0
 10
4.7759788484
 20
4.8251074401
 30
0.0
 10
4.7743078126
 20
4.8225564416
 30
0.0
 10
4.7730462964
 20
4.8203490356
 30
0.0
 10
4.772121901
 20
4.8185376951
 30
0.0
 10
4.7712559738
 20
4.8166967762
 30
0.0
 10
4.770480634
 20
4.8148138131
 30
0.0
 10
4.7698018814
 20
4.8128950258
 30
0.0
 10
4.7691891658
 20
4.8109532185
 30
0.0
 10
4.7685503085
 20
4.8084870407
 30
0.0
 10
4.7680873675
 20
4.8059812746
 30
0.0
 10
4.7678266554
 20
4.8039603386
 30
0.0
 10
4.7676396654
 20
4.8019306114
 30
0.0
 10
4.7675444739
 20
4.7993823042
 30
0.0
 10
4.7676533687
 20
4.7963242917
 30
0.0
 10
4.7679868159
 20
4.793282322
 30
0.0
 10
4.7685382242
 20
4.7902724565
 30
0.0
 10
4.7691739591
 20
4.7878028914
 30
0.0
 10
4.7697850893
 20
4.785858313
 30
0.0
 10
4.7704627689
 20
4.7839364631
 30
0.0
 10
4.7714310518
 20
4.7815790933
 30
0.0
 10
4.7727743472
 20
4.7788331036
 30
0.0
 10
4.7742876804
 20
4.7761786792
 30
0.0
 10
4.7759595454
 20
4.7736229854
 30
0.0
 10
4.7777770244
 20
4.7711699239
 30
0.0
 10
4.7797282151
 20
4.768822445
 30
0.0
 10
4.7824914715
 20
4.7658380018
 30
0.0
 10
4.786222727
 20
4.7623819506
 30
0.0
 10
4.7894501377
 20
4.7599080509
 30
0.0
 10
4.7911114234
 20
4.7587436043
 30
0.0
 11
4.7911114234
 21
4.8399593663
 31
0.0
 11
4.7862902966
 21
4.8362543573
 31
0.0
 11
4.7818325267
 21
4.8321142649
 31
0.0
 11
4.7797642023
 21
4.8298803959
 31
0.0
 11
4.7778173092
 21
4.8275385401
 31
0.0
 11
4.7760033438
 21
4.8250908175
 31
0.0
 11
4.774334326
 21
4.8225406318
 31
0.0
 11
4.7728224562
 21
4.8198927755
 31
0.0
 11
4.7721293157
 21
4.8185342133
 31
0.0
 11
4.7714800885
 21
4.8171536877
 31
0.0
 11
4.770319125
 21
4.814331483
 31
0.0
 11
4.7698102082
 21
4.8128923627
 31
0.0
 11
4.7693508741
 21
4.8114362781
 31
0.0
 11
4.7685855779
 21
4.8084795156
 31
0.0
 11
4.7680313843
 21
4.8054750769
 31
0.0
 11
4.7678358915
 21
4.80395942
 31
0.0
 11
4.7676956538
 21
4.8024373551
 31
0.0
 11
4.7675816613
 21
4.7993823958
 31
0.0
 11
4.767690791
 21
4.7963270091
 31
0.0
 11
4.7680231326
 21
4.7932877467
 31
0.0
 11
4.7685734943
 21
4.7902800801
 31
0.0
 11
4.7693353265
 21
4.7873192035
 31
0.0
 11
4.7697934544
 21
4.7858610156
 31
0.0
 11
4.7703015026
 21
4.7844197198
 31
0.0
 11
4.7714613955
 21
4.7815926467
 31
0.0
 11
4.7728030644
 21
4.7788476567
 31
0.0
 11
4.7743145664
 21
4.7761943711
 31
0.0
 11
4.7759839681
 21
4.7736398645
 31
0.0
 11
4.7777993497
 21
4.771187471
 31
0.0
 11
4.7797487926
 21
4.7688402257
 31
0.0
 11
4.7818203968
 21
4.7666011262
 31
0.0
 11
4.7862858564
 21
4.7624525337
 31
0.0
 11
4.7911114234
 21
4.7587436043
 31
0.0
  0
SPLINE
  5
248
100
AcDbEntity
  8
0
100
AcDbSpline
 62
7
  6
CONTINUOUS
 70
0
 71
3
 72
37
 73
33
 74
31
 42
0.0000001
 43
0.0000001
 44
0.0000000001
 12
-0.0226985831
 22
0.0788074418
 32
0.0
 13
0.0226985831
 23
0.0788074418
 33
0.0
 40
0.0
 40
0.0
 40
0.0
 40
0.0
 40
0.0227470851
 40
0.0467181567
 40
0.071927467
 40
0.0983874399
 40
0.1261004522
 40
0.1550584277
 40
0.1852392053
 40
0.2166078667
 40
0.2491103993
 40
0.2826743013
 40
0.3172063809
 40
0.3525909566
 40
0.4253523137
 40
0.4623986433
 40
0.4996470139
 40
0.5739671748
 40
0.6106591332
 40
0.6468073783
 40
0.6822442573
 40
0.7168291626
 40
0.7504573431
 40
0.7830263234
 40
0.8144463841
 40
0.8446780412
 40
0.8736939719
 40
0.90146682
 40
0.9279793026
 40
0.9532349122
 40
0.9772397397
 40
1.0
 40
1.0
 40
1.0
 40
1.0
 10
4.763158516
 20
4.7587436043
 30
0.0
 10
4.7629864071
 20
4.7593411508
 30
0.0
 10
4.7626480788
 20
4.7605728031
 30
0.0
 10
4.7621702271
 20
4.7624802944
 30
0.0
 10
4.7617106936
 20
4.7644965272
 30
0.0
 10
4.761271432
 20
4.7666218281
 30
0.0
 10
4.7608544842
 20
4.7688559462
 30
0.0
 10
4.7604620804
 20
4.7711976989
 30
0.0
 10
4.7600965243
 20
4.773644879
 30
0.0
 10
4.7597602397
 20
4.77619402
 30
0.0
 10
4.7594556913
 20
4.7788402618
 30
0.0
 10
4.7591853222
 20
4.7815771229
 30
0.0
 10
4.7589515741
 20
4.7843964255
 30
0.0
 10
4.7586892448
 20
4.7882881117
 30
0.0
 10
4.758513205
 20
4.792254049
 30
0.0
 10
4.7584234577
 20
4.7962732441
 30
0.0
 10
4.7583931645
 20
4.8003359445
 30
0.0
 10
4.7584518605
 20
4.8043892342
 30
0.0
 10
4.7586003815
 20
4.8084095391
 30
0.0
 10
4.7587537389
 20
4.8113656601
 30
0.0
 10
4.7589481445
 20
4.8142616327
 30
0.0
 10
4.7591818038
 20
4.8170855843
 30
0.0
 10
4.7594520505
 20
4.8198275
 30
0.0
 10
4.7597564665
 20
4.8224787689
 30
0.0
 10
4.7600928816
 20
4.8250325465
 30
0.0
 10
4.7604587236
 20
4.8274841133
 30
0.0
 10
4.7608515542
 20
4.8298304699
 30
0.0
 10
4.7612690477
 20
4.8320692229
 30
0.0
 10
4.7617090288
 20
4.8341988047
 30
0.0
 10
4.7621692727
 20
4.8362185929
 30
0.0
 10
4.7626476735
 20
4.8381285743
 30
0.0
 10
4.7629863074
 20
4.8393614736
 30
0.0
 10
4.763158516
 20
4.8399593663
 30
0.0
 11
4.763158516
 21
4.7587436043
 31
0.0
 11
4.7626635702
 21
4.7605422644
 31
0.0
 11
4.762185093
 21
4.7624490442
 31
0.0
 11
4.7617249549
 21
4.7644646349
 31
0.0
 11
4.7612850595
 21
4.7665895948
 31
0.0
 11
4.7608674701
 21
4.7688236802
 31
0.0
 11
4.7604743989
 21
4.7711658039
 31
0.0
 11
4.7601081807
 21
4.7736137237
 31
0.0
 11
4.7597712244
 21
4.7761641429
 31
0.0
 11
4.7594660133
 21
4.7788121838
 31
0.0
 11
4.7591950172
 21
4.7815514277
 31
0.0
 11
4.7589606674
 21
4.7843737324
 31
0.0
 11
4.7587652154
 21
4.7872690747
 31
0.0
 11
4.7584989346
 21
4.7932303775
 31
0.0
 11
4.7584310894
 21
4.7962678342
 31
0.0
 11
4.7584081793
 21
4.7993225322
 31
0.0
 11
4.758497275
 21
4.8054169673
 31
0.0
 11
4.7586084546
 21
4.8084240646
 31
0.0
 11
4.7587623169
 21
4.8113846305
 31
0.0
 11
4.7589572948
 21
4.8142843039
 31
0.0
 11
4.7591914512
 21
4.8171109718
 31
0.0
 11
4.7594623556
 21
4.819855522
 31
0.0
 11
4.7597675427
 21
4.8225090511
 31
0.0
 11
4.7601045624
 21
4.8250637138
 31
0.0
 11
4.760471022
 21
4.8275158166
 31
0.0
 11
4.7608645432
 21
4.8298626843
 31
0.0
 11
4.7612827482
 21
4.8321016467
 31
0.0
 11
4.7617233471
 21
4.8342308587
 31
0.0
 11
4.7621842319
 21
4.8362501737
 31
0.0
 11
4.7626633168
 21
4.8381596551
 31
0.0
 11
4.763158516
 21
4.8399593663
 31
0.0
  0
SPLINE
  5
249
100
AcDbEntity
  8
0
100
AcDbSpline
 62
7
  6
CONTINUOUS
 70
0
 71
3
 72
41
 73
37
 74
35
 42
0.0000001
 43
0.0000001
 44
0.0000000001
 12
-0.0792333025
 22
-0.0563329715
 32
0.0
 13
0.0792333025
 23
-0.0563329715
 33
0.0
 40
0.0
 40
0.0
 40
0.0
 40
0.0
 40
0.0309860077
 40
0.0620046764
 40
0.0930516206
 40
0.1241285976
 40
0.1552399894
 40
0.1863857518
 40
0.2175674381
 40
0.2487854371
 40
0.2800404422
 40
0.2956830511
 40
0.3113353503
 40
0.3426615293
 40
0.3583384
 40
0.3740235487
 40
0.4054118654
 40
0.4368228859
 40
0.452538732
 40
0.4682594098
 40
0.499704501
 40
0.5311522115
 40
0.5625957243
 40
0.5940324885
 40
0.6254531566
 40
0.6411553421
 40
0.6568504516
 40
0.6882189698
 40
0.7195614941
 40
0.750863351
 40
0.7821208136
 40
0.8133497716
 40
0.8445548051
 40
0.8757283575
 40
0.9379504977
 40
1.0
 40
1.0
 40
1.0
 40
1.0
 10
4.763158516
 20
4.8399593663
 30
0.0
 10
4.7623401414
 20
4.8393775216
 30
0.0
 10
4.7607272161
 20
4.8381779937
 30
0.0
 10
4.7583895693
 20
4.8362716211
 30
0.0
 10
4.7561411099
 20
4.8342561775
 30
0.0
 10
4.7539914368
 20
4.8321312793
 30
0.0
 10
4.7519505793
 20
4.8298971594
 30
0.0
 10
4.7500293284
 20
4.8275548389
 30
0.0
 10
4.748239072
 20
4.8251064707
 30
0.0
 10
4.7465917128
 20
4.8225554467
 30
0.0
 10
4.7453483186
 20
4.8203484523
 30
0.0
 10
4.7444371664
 20
4.8185374495
 30
0.0
 10
4.7435833427
 20
4.8166962208
 30
0.0
 10
4.7428190163
 20
4.8148132865
 30
0.0
 10
4.7421499742
 20
4.8128948154
 30
0.0
 10
4.7415458531
 20
4.8109527739
 30
0.0
 10
4.7409160192
 20
4.8084864119
 30
0.0
 10
4.7404597157
 20
4.8059810014
 30
0.0
 10
4.7402027152
 20
4.8039602539
 30
0.0
 10
4.7400183682
 20
4.8019304934
 30
0.0
 10
4.7399245336
 20
4.7993823027
 30
0.0
 10
4.7400318734
 20
4.7963245182
 30
0.0
 10
4.7403605619
 20
4.7932827615
 30
0.0
 10
4.7409041076
 20
4.7902730803
 30
0.0
 10
4.7415308615
 20
4.7878033374
 30
0.0
 10
4.7421334195
 20
4.785858524
 30
0.0
 10
4.7428014039
 20
4.7839369905
 30
0.0
 10
4.7437557718
 20
4.7815800543
 30
0.0
 10
4.7450799942
 20
4.7788341001
 30
0.0
 10
4.7465718618
 20
4.7761796807
 30
0.0
 10
4.7482200421
 20
4.7736239565
 30
0.0
 10
4.7500117951
 20
4.7711708472
 30
0.0
 10
4.7519353867
 20
4.7688233085
 30
0.0
 10
4.7546586039
 20
4.7658398395
 30
0.0
 10
4.7583358586
 20
4.762384521
 30
0.0
 10
4.7615197203
 20
4.7599087485
 30
0.0
 10
4.763158516
 20
4.7587436043
 30
0.0
 11
4.763158516
 21
4.8399593663
 31
0.0
 11
4.7607418615
 21
4.8381609497
 31
0.0
 11
4.758405504
 21
4.8362543573
 31
0.0
 11
4.7561586471
 21
4.8342389461
 31
0.0
 11
4.7540107152
 21
4.8321142649
 31
0.0
 11
4.7519716129
 21
4.8298803959
 31
0.0
 11
4.7500522263
 21
4.8275385401
 31
0.0
 11
4.7482638893
 21
4.8250908175
 31
0.0
 11
4.7466184521
 21
4.8225406318
 31
0.0
 11
4.7451279425
 21
4.8198927755
 31
0.0
 11
4.744444595
 21
4.8185342133
 31
0.0
 11
4.7438045404
 21
4.8171536877
 31
0.0
 11
4.7426599794
 21
4.814331483
 31
0.0
 11
4.7421582528
 21
4.8128923627
 31
0.0
 11
4.7417054083
 21
4.8114362781
 31
0.0
 11
4.7409509246
 21
4.8084795156
 31
0.0
 11
4.7404045608
 21
4.8054750769
 31
0.0
 11
4.7402118301
 21
4.80395942
 31
0.0
 11
4.7400735737
 21
4.8024373551
 31
0.0
 11
4.7399611917
 21
4.7993823958
 31
0.0
 11
4.7400687796
 21
4.7963270091
 31
0.0
 11
4.7403964257
 21
4.7932877467
 31
0.0
 11
4.7409390117
 21
4.7902800801
 31
0.0
 11
4.7416900804
 21
4.7873192035
 31
0.0
 11
4.7421417357
 21
4.7858610156
 31
0.0
 11
4.742642606
 21
4.7844197198
 31
0.0
 11
4.7437861114
 21
4.7815926467
 31
0.0
 11
4.7451088247
 21
4.7788476567
 31
0.0
 11
4.7465989716
 21
4.7761943711
 31
0.0
 11
4.7482447873
 21
4.7736398645
 31
0.0
 11
4.7500345205
 21
4.771187471
 31
0.0
 11
4.751956421
 21
4.7688402257
 31
0.0
 11
4.7539987567
 21
4.7666011262
 31
0.0
 11
4.7584011265
 21
4.7624525337
 31
0.0
 11
4.763158516
 21
4.7587436043
 31
0.0
  0
SPLINE
  5
24A
100
AcDbEntity
  8
0
100
AcDbSpline
 62
7
  6
CONTINUOUS
 70
0
 71
3
 72
38
 73
34
 74
32
 42
0.0000001
 43
0.0000001
 44
0.0000000001
 12
-0.0395479098
 22
0.0739839426
 32
0.0
 13
0.0395479098
 23
0.0739839426
 33
0.0
 40
0.0
 40
0.0
 40
0.0
 40
0.0
 40
0.0240746494
 40
0.049147933
 40
0.0752417974
 40
0.1023770036
 40
0.1305647553
 40
0.1598063891
 40
0.1900900864
 40
0.2213923186
 40
0.2536717567
 40
0.286870079
 40
0.3209098248
 40
0.3556928715
 40
0.3911024019
 40
0.4270037719
 40
0.4632421502
 40
0.4996584807
 40
0.5723324828
 40
0.6082621594
 40
0.6437166577
 40
0.6785496325
 40
0.7126401327
 40
0.7459003036
 40
0.7782436077
 40
0.8095953044
 40
0.8399284764
 40
0.8692270618
 40
0.8974742024
 40
0.9246623046
 40
0.9508034902
 40
0.9759116439
 40
1.0
 40
1.0
 40
1.0
 40
1.0
 10
4.7181338772
 20
4.7587436043
 30
0.0
 10
4.7178165098
 20
4.7593373167
 30
0.0
 10
4.7171918431
 20
4.7605619226
 30
0.0
 10
4.7163042524
 20
4.7624700368
 30
0.0
 10
4.7154507242
 20
4.7644869239
 30
0.0
 10
4.7146348902
 20
4.766612888
 30
0.0
 10
4.7138605336
 20
4.7688476755
 30
0.0
 10
4.7131317853
 20
4.7711901121
 30
0.0
 10
4.7124529189
 20
4.7736379847
 30
0.0
 10
4.7118284277
 20
4.7761878319
 30
0.0
 10
4.7112628839
 20
4.7788347954
 30
0.0
 10
4.7107608181
 20
4.7815723912
 30
0.0
 10
4.7103267676
 20
4.7843924445
 30
0.0
 10
4.709964786
 20
4.7872849748
 30
0.0
 10
4.7096787553
 20
4.7902383093
 30
0.0
 10
4.7094718279
 20
4.7932390192
 30
0.0
 10
4.7093461068
 20
4.7962724438
 30
0.0
 10
4.7092898325
 20
4.8003363386
 30
0.0
 10
4.7093989681
 20
4.804392601
 30
0.0
 10
4.7096746304
 20
4.8084119307
 30
0.0
 10
4.7099593995
 20
4.8113688664
 30
0.0
 10
4.7103203989
 20
4.8142656242
 30
0.0
 10
4.7107542859
 20
4.8170903049
 30
0.0
 10
4.7112561216
 20
4.8198329557
 30
0.0
 10
4.7118214279
 20
4.8224849814
 30
0.0
 10
4.7124461616
 20
4.8250394606
 30
0.0
 10
4.7131255569
 20
4.8274917117
 30
0.0
 10
4.7138550989
 20
4.8298387579
 30
0.0
 10
4.7146304777
 20
4.8320782026
 30
0.0
 10
4.7154476459
 20
4.8342084386
 30
0.0
 10
4.7163024899
 20
4.8362288721
 30
0.0
 10
4.7171910982
 20
4.8381394715
 30
0.0
 10
4.7178163291
 20
4.8393653157
 30
0.0
 10
4.7181338772
 20
4.8399593663
 30
0.0
 11
4.7181338772
 21
4.7587436043
 31
0.0
 11
4.7172153073
 21
4.7605422644
 31
0.0
 11
4.7163273016
 21
4.7624490442
 31
0.0
 11
4.7154733314
 21
4.7644646349
 31
0.0
 11
4.7146569296
 21
4.7665895948
 31
0.0
 11
4.7138819254
 21
4.7688236802
 31
0.0
 11
4.7131524246
 21
4.7711658039
 31
0.0
 11
4.7124727602
 21
4.7736137237
 31
0.0
 11
4.7118474032
 21
4.7761641429
 31
0.0
 11
4.7112809618
 21
4.7788121838
 31
0.0
 11
4.7107780202
 21
4.7815514277
 31
0.0
 11
4.7103430904
 21
4.7843737324
 31
0.0
 11
4.7099803512
 21
4.7872690747
 31
0.0
 11
4.7096936549
 21
4.79022574
 31
0.0
 11
4.7094861606
 21
4.7932303775
 31
0.0
 11
4.7093602468
 21
4.7962678342
 31
0.0
 11
4.7093177278
 21
4.7993225322
 31
0.0
 11
4.7094830806
 21
4.8054169673
 31
0.0
 11
4.7096894188
 21
4.8084240646
 31
0.0
 11
4.7099749718
 21
4.8113846305
 31
0.0
 11
4.7103368313
 21
4.8142843039
 31
0.0
 11
4.7107714022
 21
4.8171109718
 31
0.0
 11
4.7112741735
 21
4.819855522
 31
0.0
 11
4.7118405703
 21
4.8225090511
 31
0.0
 11
4.7124660451
 21
4.8250637138
 31
0.0
 11
4.7131461575
 21
4.8275158166
 31
0.0
 11
4.7138764934
 21
4.8298626843
 31
0.0
 11
4.7146526399
 21
4.8321016467
 31
0.0
 11
4.7154703474
 21
4.8342308587
 31
0.0
 11
4.7163257034
 21
4.8362501737
 31
0.0
 11
4.717214837
 21
4.8381596551
 31
0.0
 11
4.7181338772
 21
4.8399593663
 31
0.0
  0
SPLINE
  5
24B
100
AcDbEntity
  8
0
100
AcDbSpline
 62
7
  6
CONTINUOUS
 70
0
 71
3
 72
37
 73
33
 74
31
 42
0.0000001
 43
0.0000001
 44
0.0000000001
 12
-0.0766056971
 22
-0.0574909646
 32
0.0
 13
0.0766056971
 23
-0.0574909646
 33
0.0
 40
0.0
 40
0.0
 40
0.0
 40
0.0
 40
0.0608814203
 40
0.0914866553
 40
0.1222024567
 40
0.1530368042
 40
0.1839925259
 40
0.2150729502
 40
0.2462788798
 40
0.2776097047
 40
0.3090610866
 40
0.3406268193
 40
0.3722950166
 40
0.4040548586
 40
0.435885372
 40
0.451824281
 40
0.4677744149
 40
0.4996896516
 40
0.5316077317
 40
0.5635047797
 40
0.595362188
 40
0.627155874
 40
0.6588606982
 40
0.6904701471
 40
0.7219747408
 40
0.7533539104
 40
0.7846002902
 40
0.8157286779
 40
0.8467440979
 40
0.8776406735
 40
0.9390591378
 40
1.0
 40
1.0
 40
1.0
 40
1.0
 10
4.7181338772
 20
4.8399593663
 30
0.0
 10
4.716579256
 20
4.8387926557
 30
0.0
 10
4.7143177249
 20
4.8369358693
 30
0.0
 10
4.7114831474
 20
4.8342534879
 30
0.0
 10
4.7094465824
 20
4.8321282753
 30
0.0
 10
4.7075132422
 20
4.8298939295
 30
0.0
 10
4.7056932446
 20
4.8275513976
 30
0.0
 10
4.7039974136
 20
4.8251028935
 30
0.0
 10
4.702437002
 20
4.8225517502
 30
0.0
 10
4.7010234172
 20
4.8199028464
 30
0.0
 10
4.6997682538
 20
4.8171625287
 30
0.0
 10
4.6986827072
 20
4.8143390489
 30
0.0
 10
4.6977771459
 20
4.8114423398
 30
0.0
 10
4.6970617272
 20
4.8084842001
 30
0.0
 10
4.6966297472
 20
4.8059800247
 30
0.0
 10
4.6963863727
 20
4.8039599535
 30
0.0
 10
4.6962117319
 20
4.8019300737
 30
0.0
 10
4.696122877
 20
4.7993822983
 30
0.0
 10
4.6962245127
 20
4.7963253201
 30
0.0
 10
4.6965357331
 20
4.7932843353
 30
0.0
 10
4.6970504478
 20
4.7902752728
 30
0.0
 10
4.69776239
 20
4.7873130152
 30
0.0
 10
4.6986661979
 20
4.7844119249
 30
0.0
 10
4.6997509732
 20
4.7815835817
 30
0.0
 10
4.7010051618
 20
4.7788377293
 30
0.0
 10
4.7024181926
 20
4.7761833679
 30
0.0
 10
4.7039793781
 20
4.7736275546
 30
0.0
 10
4.7056766315
 20
4.7711742943
 30
0.0
 10
4.7074988385
 20
4.7688265556
 30
0.0
 10
4.7100751108
 20
4.7658468025
 30
0.0
 10
4.7135540558
 20
4.7623943926
 30
0.0
 10
4.7165777381
 20
4.7599114539
 30
0.0
 10
4.7181338772
 20
4.7587436043
 30
0.0
 11
4.7181338772
 21
4.8399593663
 31
0.0
 11
4.7136310499
 21
4.8362543573
 31
0.0
 11
4.7115024611
 21
4.8342389461
 31
0.0
 11
4.7094675901
 21
4.8321142649
 31
0.0
 11
4.7075358202
 21
4.8298803959
 31
0.0
 11
4.7057174646
 21
4.8275385401
 31
0.0
 11
4.7040232604
 21
4.8250908175
 31
0.0
 11
4.7024644342
 21
4.8225406318
 31
0.0
 11
4.7010523807
 21
4.8198927755
 31
0.0
 11
4.6997986386
 21
4.8171536877
 31
0.0
 11
4.698714324
 21
4.814331483
 31
0.0
 11
4.6978099988
 21
4.8114362781
 31
0.0
 11
4.6970952288
 21
4.8084795156
 31
0.0
 11
4.6965776241
 21
4.8054750769
 31
0.0
 11
4.6963950381
 21
4.80395942
 31
0.0
 11
4.6962640591
 21
4.8024373551
 31
0.0
 11
4.6961575926
 21
4.7993823958
 31
0.0
 11
4.6962595174
 21
4.7963270091
 31
0.0
 11
4.6965699172
 21
4.7932877467
 31
0.0
 11
4.697083943
 21
4.7902800801
 31
0.0
 11
4.6977954776
 21
4.7873192035
 31
0.0
 11
4.6986978651
 21
4.7844197198
 31
0.0
 11
4.6997811797
 21
4.7815926467
 31
0.0
 11
4.7010342692
 21
4.7788476567
 31
0.0
 11
4.7024459791
 21
4.7761943711
 31
0.0
 11
4.7040051639
 21
4.7736398645
 31
0.0
 11
4.7057006907
 21
4.771187471
 31
0.0
 11
4.7075214279
 21
4.7688402257
 31
0.0
 11
4.709456261
 21
4.7666011262
 31
0.0
 11
4.7136269029
 21
4.7624525337
 31
0.0
 11
4.7181338772
 21
4.7587436043
 31
0.0
  0
SPLINE
  5
24C
100
AcDbEntity
  8
0
100
AcDbSpline
 62
7
  6
CONTINUOUS
 70
0
 71
3
 72
35
 73
31
 74
29
 42
0.0000001
 43
0.0000001
 44
0.0000000001
 12
-0.0464864261
 22
0.0713155618
 32
0.0
 13
0.0464864261
 23
0.0713155618
 33
0.0
 40
0.0
 40
0.0
 40
0.0
 40
0.0
 40
0.0506457798
 40
0.104877256
 40
0.1628117824
 40
0.193191039
 40
0.224482743
 40
0.2566520584
 40
0.2896591204
 40
0.3234248832
 40
0.3578565526
 40
0.3928594947
 40
0.4283066311
 40
0.4640521079
 40
0.4819919268
 40
0.4999516702
 40
0.5358524285
 40
0.5715996863
 40
0.5893674706
 40
0.6070390451
 40
0.6420327856
 40
0.7102180488
 40
0.7432183738
 40
0.7753981841
 40
0.8066976479
 40
0.8370792462
 40
0.8665373916
 40
0.8950673269
 40
0.9493363599
 40
1.0
 40
1.0
 40
1.0
 40
1.0
 10
4.7014246779
 20
4.7587436043
 30
0.0
 10
4.7006398974
 20
4.7599475483
 30
0.0
 10
4.699121054
 20
4.7625113276
 30
0.0
 10
4.6970858298
 20
4.7666636056
 30
0.0
 10
4.6955840598
 20
4.7704237973
 30
0.0
 10
4.6944967873
 20
4.7736394728
 30
0.0
 10
4.6937346428
 20
4.7761915328
 30
0.0
 10
4.6930443588
 20
4.7788410451
 30
0.0
 10
4.6924320557
 20
4.7815816523
 30
0.0
 10
4.6919025443
 20
4.7844047829
 30
0.0
 10
4.6914608463
 20
4.7873002924
 30
0.0
 10
4.6911125896
 20
4.7902565752
 30
0.0
 10
4.6908608249
 20
4.7932600186
 30
0.0
 10
4.6907335799
 20
4.795786571
 30
0.0
 10
4.6906823827
 20
4.7978190259
 30
0.0
 10
4.6906654849
 20
4.7998564637
 30
0.0
 10
4.6907081355
 20
4.8023993349
 30
0.0
 10
4.6908349328
 20
4.8049339515
 30
0.0
 10
4.6909866503
 20
4.8069483347
 30
0.0
 10
4.6911705297
 20
4.8089385866
 30
0.0
 10
4.6915721515
 20
4.8123447686
 30
0.0
 10
4.6922168076
 20
4.816158528
 30
0.0
 10
4.6930423695
 20
4.8198524021
 30
0.0
 10
4.6937321857
 20
4.8225024088
 30
0.0
 10
4.6944939293
 20
4.8250551581
 30
0.0
 10
4.6953223625
 20
4.8275056613
 30
0.0
 10
4.6962118591
 20
4.8298508351
 30
0.0
 10
4.6974517084
 20
4.8327857356
 30
0.0
 10
4.6991201066
 20
4.83618989
 30
0.0
 10
4.7006396207
 20
4.8387549976
 30
0.0
 10
4.7014246779
 20
4.8399593663
 30
0.0
 11
4.7014246779
 21
4.7587436043
 31
0.0
 11
4.6992214475
 21
4.7624495496
 31
0.0
 11
4.6971836452
 21
4.7665921177
 31
0.0
 11
4.6953486685
 21
4.7711699353
 31
0.0
 11
4.6945195794
 21
4.7736195816
 31
0.0
 11
4.6937566777
 21
4.776171822
 31
0.0
 11
4.6930657085
 21
4.7788217504
 31
0.0
 11
4.6924523556
 21
4.7815638385
 31
0.0
 11
4.6919219454
 21
4.7843889131
 31
0.0
 11
4.6914796746
 21
4.7872864779
 31
0.0
 11
4.691130581
 21
4.7902457135
 31
0.0
 11
4.6908781785
 21
4.7932527079
 31
0.0
 11
4.6907251304
 21
4.796291823
 31
0.0
 11
4.6906866934
 21
4.7978185328
 31
0.0
 11
4.6906739671
 21
4.7993473696
 31
0.0
 11
4.6907251558
 21
4.8024031261
 31
0.0
 11
4.6908774591
 21
4.8054424304
 31
0.0
 11
4.6909911261
 21
4.8069507019
 31
0.0
 11
4.6911295322
 21
4.8084486798
 31
0.0
 11
4.6914785877
 21
4.8114071311
 31
0.0
 11
4.6924502844
 21
4.817129744
 31
0.0
 11
4.6930634823
 21
4.8198712791
 31
0.0
 11
4.6937542353
 21
4.8225221872
 31
0.0
 11
4.6945168495
 21
4.8250752028
 31
0.0
 11
4.6953458095
 21
4.8275251033
 31
0.0
 11
4.6962358542
 21
4.8298695755
 31
0.0
 11
4.6971817417
 21
4.832106529
 31
0.0
 11
4.699220749
 21
4.8362520674
 31
0.0
 11
4.7014246779
 21
4.8399593663
 31
0.0
  0
SPLINE
  5
24D
100
AcDbEntity
  8
0
100
AcDbSpline
 62
7
  6
CONTINUOUS
 70
0
 71
3
 72
42
 73
38
 74
36
 42
0.0000001
 43
0.0000001
 44
0.0000000001
 12
-0.074667566
 22
-0.0583705117
 32
0.0
 13
0.074667566
 23
-0.0583705117
 33
0.0
 40
0.0
 40
0.0
 40
0.0
 40
0.0
 40
0.0600727866
 40
0.0903712051
 40
0.1208427115
 40
0.1514910349
 40
0.1823191034
 40
0.2133394647
 40
0.2445622269
 40
0.2759729556
 40
0.2917471207
 40
0.3075656621
 40
0.339332458
 40
0.3712557744
 40
0.3872680111
 40
0.403308236
 40
0.4193738748
 40
0.4354629372
 40
0.4515720204
 40
0.4676959443
 40
0.4999627169
 40
0.532225394
 40
0.5483450324
 40
0.5644504676
 40
0.5966020018
 40
0.6286541178
 40
0.6446336026
 40
0.6605746619
 40
0.6923342855
 40
0.7239300019
 40
0.755344969
 40
0.7865620833
 40
0.8175921084
 40
0.8484439984
 40
0.8791162655
 40
0.9399066524
 40
1.0
 40
1.0
 40
1.0
 40
1.0
 10
4.7014246779
 20
4.8399593663
 30
0.0
 10
4.699929515
 20
4.8387905398
 30
0.0
 10
4.6977561955
 20
4.8369310971
 30
0.0
 10
4.6950367567
 20
4.8342502353
 30
0.0
 10
4.6930807032
 20
4.832123703
 30
0.0
 10
4.6912240294
 20
4.8298880982
 30
0.0
 10
4.6894763854
 20
4.827544445
 30
0.0
 10
4.6878481258
 20
4.8250943725
 30
0.0
 10
4.6863500822
 20
4.8225411684
 30
0.0
 10
4.6852204248
 20
4.8203350051
 30
0.0
 10
4.6843924561
 20
4.8185247165
 30
0.0
 10
4.6836147859
 20
4.8166800332
 30
0.0
 10
4.6827457766
 20
4.8143215341
 30
0.0
 10
4.6820229293
 20
4.8119077517
 30
0.0
 10
4.6815349824
 20
4.8099461373
 30
0.0
 10
4.6812151116
 20
4.80845976
 30
0.0
 10
4.6809427968
 20
4.8069614776
 30
0.0
 10
4.6807192352
 20
4.8054529438
 30
0.0
 10
4.6805450024
 20
4.8039360539
 30
0.0
 10
4.6803785327
 20
4.8019049014
 30
0.0
 10
4.6802945047
 20
4.7993563872
 30
0.0
 10
4.6803767657
 20
4.7968079208
 30
0.0
 10
4.6805433138
 20
4.7947771297
 30
0.0
 10
4.6807761955
 20
4.7927564139
 30
0.0
 10
4.6811893468
 20
4.7902512765
 30
0.0
 10
4.6817607602
 20
4.7877815848
 30
0.0
 10
4.6823093963
 20
4.7858361612
 30
0.0
 10
4.6829164765
 20
4.7839178714
 30
0.0
 10
4.6837836435
 20
4.7815657983
 30
0.0
 10
4.6849881015
 20
4.7788229045
 30
0.0
 10
4.6863443695
 20
4.7761710797
 30
0.0
 10
4.6878424392
 20
4.7736175241
 30
0.0
 10
4.689470964
 20
4.7711666064
 30
0.0
 10
4.691219249
 20
4.7688211197
 30
0.0
 10
4.6936884382
 20
4.765846867
 30
0.0
 10
4.6970227038
 20
4.7623994506
 30
0.0
 10
4.6999290032
 20
4.7599128307
 30
0.0
 10
4.7014246779
 20
4.7587436043
 30
0.0
 11
4.7014246779
 21
4.8399593663
 31
0.0
 11
4.6971018472
 21
4.8362542156
 31
0.0
 11
4.6950573773
 21
4.8342378082
 31
0.0
 11
4.6931027785
 21
4.8321118306
 31
0.0
 11
4.6912475001
 21
4.8298768246
 31
0.0
 11
4.6895015209
 21
4.8275341504
 31
0.0
 11
4.6878748446
 21
4.8250852084
 31
0.0
 11
4.686377806
 21
4.8225326745
 31
0.0
 11
4.6850216099
 21
4.8198825736
 31
0.0
 11
4.6843998734
 21
4.8185229879
 31
0.0
 11
4.683817602
 21
4.8171414732
 31
0.0
 11
4.6827769644
 21
4.8143163292
 31
0.0
 11
4.6819092889
 21
4.8114178732
 31
0.0
 11
4.6815430305
 21
4.8099451688
 31
0.0
 11
4.681223273
 21
4.8084589601
 31
0.0
 11
4.6809511022
 21
4.8069608568
 31
0.0
 11
4.6807275799
 21
4.8054524824
 31
0.0
 11
4.6805533057
 21
4.8039357179
 31
0.0
 11
4.6804284651
 21
4.8024126757
 31
0.0
 11
4.6803277668
 21
4.7993562402
 31
0.0
 11
4.6804268496
 21
4.7963001403
 31
0.0
 11
4.6805516949
 21
4.794777506
 31
0.0
 11
4.6807263568
 21
4.7932611342
 31
0.0
 11
4.6812217672
 21
4.7902545038
 31
0.0
 11
4.6819063079
 21
4.7872948878
 31
0.0
 11
4.6823173826
 21
4.7858372838
 31
0.0
 11
4.6827731455
 21
4.7843968483
 31
0.0
 11
4.6838136711
 21
4.7815723875
 31
0.0
 11
4.6850170829
 21
4.7788303452
 31
0.0
 11
4.6863724429
 21
4.7761793655
 31
0.0
 11
4.6878688833
 21
4.7736271014
 31
0.0
 11
4.6894958156
 21
4.7711772299
 31
0.0
 11
4.6912427216
 21
4.7688324308
 31
0.0
 11
4.6930990861
 21
4.7665953771
 31
0.0
 11
4.6971004601
 21
4.7624501309
 31
0.0
 11
4.7014246779
 21
4.7587436043
 31
0.0
  0
SPLINE
  5
24E
100
AcDbEntity
  8
0
100
AcDbSpline
 62
7
  6
CONTINUOUS
 70
0
 71
3
 72
37
 73
33
 74
31
 42
0.0000001
 43
0.0000001
 44
0.0000000001
 12
-0.0722900869
 22
-0.0594677691
 32
0.0
 13
0.0722900869
 23
-0.0594677691
 33
0.0
 40
0.0
 40
0.0
 40
0.0
 40
0.0
 40
0.0294446484
 40
0.0591126902
 40
0.0890113697
 40
0.1191526691
 40
0.1495494605
 40
0.1802081893
 40
0.2111339713
 40
0.2423272019
 40
0.273784174
 40
0.3054944746
 40
0.3374423976
 40
0.3696029999
 40
0.4019490126
 40
0.4344393249
 40
0.4670347627
 40
0.4996872638
 40
0.5323429519
 40
0.5649518994
 40
0.597470884
 40
0.6298530512
 40
0.6620524531
 40
0.6940462449
 40
0.7258122921
 40
0.7573199687
 40
0.7885552221
 40
0.8195300829
 40
0.8502492141
 40
0.8807083664
 40
0.9408447717
 40
1.0
 40
1.0
 40
1.0
 40
1.0
 10
4.6887741443
 20
4.8399593663
 30
0.0
 10
4.6880646255
 20
4.8393756971
 30
0.0
 10
4.6866661371
 20
4.838171969
 30
0.0
 10
4.6846456822
 20
4.8362649225
 30
0.0
 10
4.6827024023
 20
4.8342488106
 30
0.0
 10
4.6808446147
 20
4.832123283
 30
0.0
 10
4.6790809922
 20
4.8298885991
 30
0.0
 10
4.6774208729
 20
4.8275458196
 30
0.0
 10
4.6758741017
 20
4.8250971588
 30
0.0
 10
4.6744509477
 20
4.8225459876
 30
0.0
 10
4.6731617992
 20
4.8198972016
 30
0.0
 10
4.6720172186
 20
4.8171571802
 30
0.0
 10
4.6710273894
 20
4.8143341795
 30
0.0
 10
4.6702017356
 20
4.8114381522
 30
0.0
 10
4.6695495022
 20
4.808480826
 30
0.0
 10
4.6690767064
 20
4.805475767
 30
0.0
 10
4.6687907468
 20
4.8024375572
 30
0.0
 10
4.6686936334
 20
4.7993823266
 30
0.0
 10
4.6687862651
 20
4.7963264929
 30
0.0
 10
4.6690699786
 20
4.7932866447
 30
0.0
 10
4.6695392157
 20
4.7902785838
 30
0.0
 10
4.6701882776
 20
4.7873172264
 30
0.0
 10
4.6710123289
 20
4.7844167989
 30
0.0
 10
4.6720014642
 20
4.7815889167
 30
0.0
 10
4.6731451495
 20
4.7788433813
 30
0.0
 10
4.6744337737
 20
4.776189169
 30
0.0
 10
4.6758576414
 20
4.7736333067
 30
0.0
 10
4.6774057102
 20
4.7711798869
 30
0.0
 10
4.6790678452
 20
4.7688319041
 30
0.0
 10
4.681412611
 20
4.765858456
 30
0.0
 10
4.6845787195
 20
4.7624113963
 30
0.0
 10
4.6873486987
 20
4.7599162141
 30
0.0
 10
4.6887741443
 20
4.7587436043
 30
0.0
 11
4.6887741443
 21
4.8399593663
 31
0.0
 11
4.68668549
 21
4.8381609497
 31
0.0
 11
4.6846662343
 21
4.8362543573
 31
0.0
 11
4.6827243319
 21
4.8342389461
 31
0.0
 11
4.6808679279
 21
4.8321142649
 31
0.0
 11
4.6791055825
 21
4.8298803959
 31
0.0
 11
4.6774467045
 21
4.8275385401
 31
0.0
 11
4.6759010893
 21
4.8250908175
 31
0.0
 11
4.6744789788
 21
4.8225406318
 31
0.0
 11
4.6731907686
 21
4.8198927755
 31
0.0
 11
4.672046985
 21
4.8171536877
 31
0.0
 11
4.6710577695
 21
4.814331483
 31
0.0
 11
4.6702327575
 21
4.8114362781
 31
0.0
 11
4.6695806759
 21
4.8084795156
 31
0.0
 11
4.6691084674
 21
4.8054750769
 31
0.0
 11
4.6688224034
 21
4.8024373551
 31
0.0
 11
4.6687252744
 21
4.7993823958
 31
0.0
 11
4.66881826
 21
4.7963270091
 31
0.0
 11
4.6691014364
 21
4.7932877467
 31
0.0
 11
4.6695703799
 21
4.7902800801
 31
0.0
 11
4.6702195099
 21
4.7873192035
 31
0.0
 11
4.6710427541
 21
4.7844197198
 31
0.0
 11
4.6720310574
 21
4.7815926467
 31
0.0
 11
4.6731742455
 21
4.7788476567
 31
0.0
 11
4.6744621424
 21
4.7761943711
 31
0.0
 11
4.6758845799
 21
4.7736398645
 31
0.0
 11
4.6774314018
 21
4.771187471
 31
0.0
 11
4.6790924525
 21
4.7688402257
 31
0.0
 11
4.6808575924
 21
4.7666011262
 31
0.0
 11
4.684662451
 21
4.7624525337
 31
0.0
 11
4.6887741443
 21
4.7587436043
 31
0.0
  0
SPLINE
  5
24F
100
AcDbEntity
  8
0
100
AcDbSpline
 62
7
  6
CONTINUOUS
 70
0
 71
3
 72
35
 73
31
 74
29
 42
0.0000001
 43
0.0000001
 44
0.0000000001
 12
-0.0577217756
 22
0.0663635275
 32
0.0
 13
0.0577217756
 23
0.0663635275
 33
0.0
 40
0.0
 40
0.0
 40
0.0
 40
0.0
 40
0.0537760361
 40
0.1100884338
 40
0.1690948177
 40
0.1996350579
 40
0.230854885
 40
0.2952216572
 40
0.3283034478
 40
0.3618992709
 40
0.3788667034
 40
0.3959332459
 40
0.4303096671
 40
0.4649227097
 40
0.4996622145
 40
0.5344081105
 40
0.5517462098
 40
0.5690402514
 40
0.6034420857
 40
0.6375144554
 40
0.6543961222
 40
0.6711574061
 40
0.7042857052
 40
0.7368467821
 40
0.768784086
 40
0.8000495363
 40
0.8306365323
 40
0.8897566281
 40
0.9461721634
 40
1.0
 40
1.0
 40
1.0
 40
1.0
 10
4.6802841367
 20
4.7587436043
 30
0.0
 10
4.6792494539
 20
4.7599331934
 30
0.0
 10
4.6772420177
 20
4.7624671137
 30
0.0
 10
4.6745211737
 20
4.7666186755
 30
0.0
 10
4.6725038395
 20
4.7703963421
 30
0.0
 10
4.6710463057
 20
4.7736241521
 30
0.0
 10
4.6696762056
 20
4.7770598364
 30
0.0
 10
4.6685170459
 20
4.7806559393
 30
0.0
 10
4.6675828957
 20
4.7843835348
 30
0.0
 10
4.6670931325
 20
4.7867874028
 30
0.0
 10
4.6667621691
 20
4.7887424925
 30
0.0
 10
4.6664717459
 20
4.7907271615
 30
0.0
 10
4.6661900984
 20
4.7932352903
 30
0.0
 10
4.6659853067
 20
4.7962705148
 30
0.0
 10
4.6659164577
 20
4.7993226958
 30
0.0
 10
4.6659719659
 20
4.8018684918
 30
0.0
 10
4.6660842607
 20
4.8038995644
 30
0.0
 10
4.6662413834
 20
4.8059175464
 30
0.0
 10
4.6665204813
 20
4.8084174528
 30
0.0
 10
4.6669083242
 20
4.8108905677
 30
0.0
 10
4.6672815249
 20
4.8128406043
 30
0.0
 10
4.6676926551
 20
4.8147546908
 30
0.0
 10
4.6682793225
 20
4.8171006093
 30
0.0
 10
4.6690968114
 20
4.8198445688
 30
0.0
 10
4.6700176836
 20
4.8224978425
 30
0.0
 10
4.6710353351
 20
4.8250533806
 30
0.0
 10
4.6724941301
 20
4.8282871756
 30
0.0
 10
4.6745137347
 20
4.8320724669
 30
0.0
 10
4.6772384472
 20
4.836230938
 30
0.0
 10
4.6792484573
 20
4.8387686312
 30
0.0
 10
4.6802841367
 20
4.8399593663
 30
0.0
 11
4.6802841367
 21
4.7587436043
 31
0.0
 11
4.6773445905
 21
4.7624490442
 31
0.0
 11
4.6746266662
 21
4.7665895948
 31
0.0
 11
4.6721786303
 21
4.7711658039
 31
0.0
 11
4.6710727231
 21
4.7736137237
 31
0.0
 11
4.6700551814
 21
4.7761641429
 31
0.0
 11
4.6683151487
 21
4.7815514277
 31
0.0
 11
4.6676074583
 21
4.7843737324
 31
0.0
 11
4.6670172319
 21
4.7872690747
 31
0.0
 11
4.6667681393
 21
4.7887404946
 31
0.0
 11
4.6665507377
 21
4.79022574
 31
0.0
 11
4.6662131159
 21
4.7932303775
 31
0.0
 11
4.6660082369
 21
4.7962678342
 31
0.0
 11
4.6659390528
 21
4.7993225322
 31
0.0
 11
4.666005794
 21
4.8023778468
 31
0.0
 11
4.6660900386
 21
4.8039004747
 31
0.0
 11
4.6662081044
 21
4.8054169673
 31
0.0
 11
4.6665438449
 21
4.8084240646
 31
0.0
 11
4.6670084789
 21
4.8113846305
 31
0.0
 11
4.6672876604
 21
4.8128429593
 31
0.0
 11
4.6675972738
 21
4.8142843039
 31
0.0
 11
4.6683043802
 21
4.8171109718
 31
0.0
 11
4.6691224581
 21
4.819855522
 31
0.0
 11
4.6700440634
 21
4.8225090511
 31
0.0
 11
4.6710617966
 21
4.8250637138
 31
0.0
 11
4.6721684328
 21
4.8275158166
 31
0.0
 11
4.6746196863
 21
4.8321016467
 31
0.0
 11
4.6773419901
 21
4.8362501737
 31
0.0
 11
4.6802841367
 21
4.8399593663
 31
0.0
  0
SPLINE
  5
250
100
AcDbEntity
  8
0
100
AcDbSpline
 62
7
  6
CONTINUOUS
 70
0
 71
3
 72
37
 73
33
 74
31
 42
0.0000001
 43
0.0000001
 44
0.0000000001
 12
-0.0694510487
 22
-0.0608020876
 32
0.0
 13
0.0694510487
 23
-0.0608020876
 33
0.0
 40
0.0
 40
0.0
 40
0.0
 40
0.0
 40
0.0288385923
 40
0.0579789732
 40
0.0874323309
 40
0.1172139167
 40
0.1473390853
 40
0.1778159022
 40
0.2086499197
 40
0.2398405934
 40
0.2713816329
 40
0.3032582659
 40
0.3354484174
 40
0.3679187228
 40
0.4006315677
 40
0.4335333969
 40
0.4665713478
 40
0.4996822211
 40
0.5327964901
 40
0.5658484898
 40
0.5987800776
 40
0.6315304922
 40
0.6640409339
 40
0.6962782857
 40
0.728212241
 40
0.7598054605
 40
0.7910391481
 40
0.8219229567
 40
0.8524606368
 40
0.8826482688
 40
0.9419791957
 40
1.0
 40
1.0
 40
1.0
 40
1.0
 10
4.6802841367
 20
4.8399593663
 30
0.0
 10
4.6796165132
 20
4.8393748841
 30
0.0
 10
4.6783006028
 20
4.838169326
 30
0.0
 10
4.6764021129
 20
4.8362620393
 30
0.0
 10
4.6745761795
 20
4.8342457024
 30
0.0
 10
4.6728306228
 20
4.8321199781
 30
0.0
 10
4.6711735908
 20
4.8298851341
 30
0.0
 10
4.6696138591
 20
4.8275422465
 30
0.0
 10
4.6681606744
 20
4.8250935414
 30
0.0
 10
4.6668236812
 20
4.8225424057
 30
0.0
 10
4.6656126296
 20
4.8198937422
 30
0.0
 10
4.6645374343
 20
4.8171539442
 30
0.0
 10
4.6636076473
 20
4.81433127
 30
0.0
 10
4.6628321065
 20
4.8114356668
 30
0.0
 10
4.6622194833
 20
4.8084788706
 30
0.0
 10
4.6617754104
 20
4.8054744042
 30
0.0
 10
4.6615068306
 20
4.8024368621
 30
0.0
 10
4.6614156197
 20
4.799382318
 30
0.0
 10
4.6615026205
 20
4.7963271813
 30
0.0
 10
4.6617690918
 20
4.7932879903
 30
0.0
 10
4.6622098226
 20
4.7902805277
 30
0.0
 10
4.6628194622
 20
4.7873197185
 30
0.0
 10
4.6635934966
 20
4.7844197127
 30
0.0
 10
4.6645226371
 20
4.7815921435
 30
0.0
 10
4.6655969877
 20
4.7788468445
 30
0.0
 10
4.6668075357
 20
4.7761927739
 30
0.0
 10
4.6681452037
 20
4.7736369347
 30
0.0
 10
4.6695996086
 20
4.7711834683
 30
0.0
 10
4.671161231
 20
4.7688353822
 30
0.0
 10
4.6733609893
 20
4.7658661597
 30
0.0
 10
4.6763308989
 20
4.7624229797
 30
0.0
 10
4.6789409348
 20
4.7599195329
 30
0.0
 10
4.6802841367
 20
4.7587436043
 30
0.0
 11
4.6802841367
 21
4.8399593663
 31
0.0
 11
4.6783215458
 21
4.8381609497
 31
0.0
 11
4.6764241649
 21
4.8362543573
 31
0.0
 11
4.6745994685
 21
4.8342389461
 31
0.0
 11
4.6728551101
 21
4.8321142649
 31
0.0
 11
4.6711991333
 21
4.8298803959
 31
0.0
 11
4.669640379
 21
4.8275385401
 31
0.0
 11
4.6681880514
 21
4.8250908175
 31
0.0
 11
4.6668517742
 21
4.8225406318
 31
0.0
 11
4.6656413155
 21
4.8198927755
 31
0.0
 11
4.6645665665
 21
4.8171536877
 31
0.0
 11
4.6636370563
 21
4.814331483
 31
0.0
 11
4.662861839
 21
4.8114362781
 31
0.0
 11
4.6622491146
 21
4.8084795156
 31
0.0
 11
4.6618054068
 21
4.8054750769
 31
0.0
 11
4.6615366086
 21
4.8024373551
 31
0.0
 11
4.661445342
 21
4.7993823958
 31
0.0
 11
4.6615327153
 21
4.7963270091
 31
0.0
 11
4.6617988002
 21
4.7932877467
 31
0.0
 11
4.6622394401
 21
4.7902800801
 31
0.0
 11
4.662849391
 21
4.7873192035
 31
0.0
 11
4.6636229472
 21
4.7844197198
 31
0.0
 11
4.6645516002
 21
4.7815926467
 31
0.0
 11
4.6656257897
 21
4.7788476567
 31
0.0
 11
4.666835954
 21
4.7761943711
 31
0.0
 11
4.6681725385
 21
4.7736398645
 31
0.0
 11
4.6696259999
 21
4.771187471
 31
0.0
 11
4.6711867958
 21
4.7688402257
 31
0.0
 11
4.6728453984
 21
4.7666011262
 31
0.0
 11
4.6764206099
 21
4.7624525337
 31
0.0
 11
4.6802841367
 21
4.7587436043
 31
0.0
  0
SPLINE
  5
251
100
AcDbEntity
  8
0
100
AcDbSpline
 62
7
  6
CONTINUOUS
 70
0
 71
3
 72
37
 73
33
 74
31
 42
0.0000001
 43
0.0000001
 44
0.0000000001
 12
-0.062228201
 22
0.0642406642
 32
0.0
 13
0.062228201
 23
0.0642406642
 33
0.0
 40
0.0
 40
0.0
 40
0.0
 40
0.0
 40
0.02740114
 40
0.0552980708
 40
0.0837102916
 40
0.1126603238
 40
0.1722186755
 40
0.2340440898
 40
0.2657981346
 40
0.2980760817
 40
0.3308393129
 40
0.3640356279
 40
0.3807772509
 40
0.3976028232
 40
0.4314593804
 40
0.4655165388
 40
0.4996816464
 40
0.5338528927
 40
0.5509095179
 40
0.5679288727
 40
0.6018098222
 40
0.6354134054
 40
0.6520852963
 40
0.6686555568
 40
0.701463825
 40
0.7337969853
 40
0.7656079275
 40
0.7968564708
 40
0.8275413634
 40
0.887212639
 40
0.9446635062
 40
1.0
 40
1.0
 40
1.0
 40
1.0
 10
4.6760230155
 20
4.7587436043
 30
0.0
 10
4.6754546409
 20
4.7593303601
 30
0.0
 10
4.6743344967
 20
4.7605408745
 30
0.0
 10
4.6727245238
 20
4.7624488352
 30
0.0
 10
4.6711761713
 20
4.7644658401
 30
0.0
 10
4.6691841186
 20
4.7673275638
 30
0.0
 10
4.6668878453
 20
4.7711848135
 30
0.0
 10
4.6649337205
 20
4.7753192109
 30
0.0
 10
4.6635774959
 20
4.7788189871
 30
0.0
 10
4.6626662849
 20
4.7815583482
 30
0.0
 10
4.6618784876
 20
4.7843803104
 30
0.0
 10
4.6613325565
 20
4.7867857706
 30
0.0
 10
4.6609637488
 20
4.7887418855
 30
0.0
 10
4.6606403794
 20
4.7907259744
 30
0.0
 10
4.6603266643
 20
4.7932338546
 30
0.0
 10
4.6600984823
 20
4.7962697789
 30
0.0
 10
4.6600217675
 20
4.7993226858
 30
0.0
 10
4.6600836126
 20
4.8018688614
 30
0.0
 10
4.6602086779
 20
4.8038998356
 30
0.0
 10
4.6603837273
 20
4.8059184297
 30
0.0
 10
4.6606947799
 20
4.8084195476
 30
0.0
 10
4.6611267278
 20
4.8108921135
 30
0.0
 10
4.6615422181
 20
4.8128413602
 30
0.0
 10
4.6620004034
 20
4.8147566367
 30
0.0
 10
4.6626544268
 20
4.8171043534
 30
0.0
 10
4.6635652033
 20
4.8198486999
 30
0.0
 10
4.6645911446
 20
4.8225023079
 30
0.0
 10
4.6657248664
 20
4.8250580647
 30
0.0
 10
4.6673531838
 20
4.8282984277
 30
0.0
 10
4.6696094083
 20
4.8320920356
 30
0.0
 10
4.6726460156
 20
4.8362495883
 30
0.0
 10
4.6748751853
 20
4.8387744152
 30
0.0
 10
4.6760230155
 20
4.8399593663
 30
0.0
 11
4.6760230155
 21
4.7587436043
 31
0.0
 11
4.6743584406
 21
4.7605422644
 31
0.0
 11
4.6727492521
 21
4.7624490442
 31
0.0
 11
4.6712017405
 21
4.7644646349
 31
0.0
 11
4.6697223082
 21
4.7665895948
 31
0.0
 11
4.6669959382
 21
4.7711658039
 31
0.0
 11
4.6646310599
 21
4.7761641429
 31
0.0
 11
4.6636045902
 21
4.7788121838
 31
0.0
 11
4.6626931909
 21
4.7815514277
 31
0.0
 11
4.6619050382
 21
4.7843737324
 31
0.0
 11
4.6612477049
 21
4.7872690747
 31
0.0
 11
4.6609702914
 21
4.7887404946
 31
0.0
 11
4.6607281719
 21
4.79022574
 31
0.0
 11
4.6603521635
 21
4.7932303775
 31
0.0
 11
4.6601239904
 21
4.7962678342
 31
0.0
 11
4.6600469403
 21
4.7993225322
 31
0.0
 11
4.6601212698
 21
4.8023778468
 31
0.0
 11
4.6602150927
 21
4.8039004747
 31
0.0
 11
4.6603465822
 21
4.8054169673
 31
0.0
 11
4.6607204953
 21
4.8084240646
 31
0.0
 11
4.6612379568
 21
4.8113846305
 31
0.0
 11
4.6615488804
 21
4.8128429593
 31
0.0
 11
4.6618936958
 21
4.8142843039
 31
0.0
 11
4.6626811981
 21
4.8171109718
 31
0.0
 11
4.6635922888
 21
4.819855522
 31
0.0
 11
4.6646186778
 21
4.8225090511
 31
0.0
 11
4.6657521241
 21
4.8250637138
 31
0.0
 11
4.6669845813
 21
4.8275158166
 31
0.0
 11
4.6697145347
 21
4.8321016467
 31
0.0
 11
4.672746356
 21
4.8362501737
 31
0.0
 11
4.6760230155
 21
4.8399593663
 31
0.0
  0
SPLINE
  5
252
100
AcDbEntity
  8
0
100
AcDbSpline
 62
7
  6
CONTINUOUS
 70
0
 71
3
 72
32
 73
28
 74
26
 42
0.0000001
 43
0.0000001
 44
0.0000000001
 12
0.062217269
 22
-0.0642416453
 32
0.0
 13
-0.062217269
 23
-0.0642416453
 33
0.0
 40
0.0
 40
0.0
 40
0.0
 40
0.0
 40
0.0273971924
 40
0.0552915112
 40
0.0837016794
 40
0.1126486594
 40
0.1722031418
 40
0.2340266858
 40
0.2657806626
 40
0.2980589433
 40
0.3308235036
 40
0.3640207761
 40
0.3975890282
 40
0.4314462747
 40
0.4655087953
 40
0.4996795541
 40
0.5338541757
 40
0.5679319609
 40
0.6018214219
 40
0.6354304504
 40
0.6686709039
 40
0.7014857177
 40
0.7656155741
 40
0.8275358558
 40
0.8872150086
 40
0.9446677754
 40
1.0
 40
1.0
 40
1.0
 40
1.0
 10
5.7349535266
 20
4.8399593663
 30
0.0
 10
5.7355217194
 20
4.839372686
 30
0.0
 10
5.7366415315
 20
4.8381623043
 30
0.0
 10
5.7382510487
 20
4.8362545477
 30
0.0
 10
5.739798986
 20
4.8342377617
 30
0.0
 10
5.7417905158
 20
4.8313763285
 30
0.0
 10
5.7440862495
 20
4.8275194674
 30
0.0
 10
5.7460399342
 20
4.8233854502
 30
0.0
 10
5.7473959762
 20
4.8198859629
 30
0.0
 10
5.7483070225
 20
4.8171467385
 30
0.0
 10
5.7490947752
 20
4.8143248936
 30
0.0
 10
5.7497518097
 20
4.8114302818
 30
0.0
 10
5.7502707864
 20
4.8084746748
 30
0.0
 10
5.7506469655
 20
4.8054715004
 30
0.0
 10
5.7508744711
 20
4.8024353875
 30
0.0
 10
5.7509517332
 20
4.7993822999
 30
0.0
 10
5.7508780386
 20
4.7963286417
 30
0.0
 10
5.7506523177
 20
4.7932908583
 30
0.0
 10
5.7502789673
 20
4.7902846946
 30
0.0
 10
5.749762532
 20
4.7873251288
 30
0.0
 10
5.749106756
 20
4.7844260532
 30
0.0
 10
5.748065293
 20
4.7806862439
 30
0.0
 10
5.7464655487
 20
4.7762200977
 30
0.0
 10
5.7440981139
 20
4.7712058736
 30
0.0
 10
5.7413659952
 20
4.7666109979
 30
0.0
 10
5.7383297384
 20
4.7624532535
 30
0.0
 10
5.7361010666
 20
4.759928482
 30
0.0
 10
5.7349535266
 20
4.7587436043
 30
0.0
 11
5.7349535266
 21
4.8399593663
 31
0.0
 11
5.7366175666
 21
4.8381609497
 31
0.0
 11
5.7382263163
 21
4.8362543573
 31
0.0
 11
5.7397734384
 21
4.8342389461
 31
0.0
 11
5.7412524436
 21
4.8321142649
 31
0.0
 11
5.7439781472
 21
4.8275385401
 31
0.0
 11
5.7463425471
 21
4.8225406318
 31
0.0
 11
5.7473688698
 21
4.8198927755
 31
0.0
 11
5.7482801271
 21
4.8171536877
 31
0.0
 11
5.7490682395
 21
4.814331483
 31
0.0
 11
5.7497255301
 21
4.8114362781
 31
0.0
 11
5.7502450463
 21
4.8084795156
 31
0.0
 11
5.7506212569
 21
4.8054750769
 31
0.0
 11
5.7508491654
 21
4.8024373551
 31
0.0
 11
5.7509265484
 21
4.7993823958
 31
0.0
 11
5.7508524665
 21
4.7963270091
 31
0.0
 11
5.7506268586
 21
4.7932877467
 31
0.0
 11
5.7502532492
 21
4.7902800801
 31
0.0
 11
5.7497360845
 21
4.7873192035
 31
0.0
 11
5.7490802023
 21
4.7844197198
 31
0.0
 11
5.7482928168
 21
4.7815926467
 31
0.0
 11
5.7463559608
 21
4.7761943711
 31
0.0
 11
5.7439903389
 21
4.771187471
 31
0.0
 11
5.7412606779
 21
4.7666011262
 31
0.0
 11
5.7382293305
 21
4.7624525337
 31
0.0
 11
5.7349535266
 21
4.7587436043
 31
0.0
  0
SPLINE
  5
253
100
AcDbEntity
  8
0
100
AcDbSpline
 62
7
  6
CONTINUOUS
 70
0
 71
3
 72
39
 73
35
 74
33
 42
0.0000001
 43
0.0000001
 44
0.0000000001
 12
0.0694564281
 22
0.0607987179
 32
0.0
 13
-0.0694564281
 23
0.0607987179
 33
0.0
 40
0.0
 40
0.0
 40
0.0
 40
0.0
 40
0.0288439327
 40
0.0579882869
 40
0.0874450728
 40
0.1172311684
 40
0.1473596342
 40
0.177839989
 40
0.2086763778
 40
0.2398696557
 40
0.2714123532
 40
0.3032903444
 40
0.3354808664
 40
0.3679519817
 40
0.3842816723
 40
0.4006665178
 40
0.4335694063
 40
0.4666041258
 40
0.4997113856
 40
0.5328243072
 40
0.54936297
 40
0.5658773384
 40
0.5988026957
 40
0.6315498517
 40
0.6478402095
 40
0.6640643752
 40
0.6962972018
 40
0.7282272752
 40
0.7598236278
 40
0.7910588963
 40
0.8219395529
 40
0.882640541
 40
0.9419722381
 40
1.0
 40
1.0
 40
1.0
 40
1.0
 10
5.7306841384
 20
4.7587436043
 30
0.0
 10
5.7313519372
 20
4.7593281623
 30
0.0
 10
5.7326681626
 20
4.7605338535
 30
0.0
 10
5.7345670793
 20
4.7624413443
 30
0.0
 10
5.7363933978
 20
4.7644579001
 30
0.0
 10
5.7381393128
 20
4.7665838482
 30
0.0
 10
5.7397966885
 20
4.7688189412
 30
0.0
 10
5.7413566802
 20
4.7711620641
 30
0.0
 10
5.7428100913
 20
4.7736110044
 30
0.0
 10
5.7441472789
 20
4.7761623354
 30
0.0
 10
5.745358414
 20
4.7788112117
 30
0.0
 10
5.7464337404
 20
4.7815511423
 30
0.0
 10
5.7473635263
 20
4.7843739276
 30
0.0
 10
5.7480085121
 20
4.7867825643
 30
0.0
 10
5.7484439569
 20
4.78874068
 30
0.0
 10
5.7488251467
 20
4.7907236106
 30
0.0
 10
5.7491952278
 20
4.7932309724
 30
0.0
 10
5.7494645844
 20
4.7962682957
 30
0.0
 10
5.7495551477
 20
4.7993226657
 30
0.0
 10
5.7494821499
 20
4.8018696063
 30
0.0
 10
5.7493346481
 20
4.8039003809
 30
0.0
 10
5.749128057
 20
4.8059202017
 30
0.0
 10
5.7487606968
 20
4.8084237231
 30
0.0
 10
5.7482512692
 20
4.810895164
 30
0.0
 10
5.7477615967
 20
4.8128428424
 30
0.0
 10
5.747220526
 20
4.8147604274
 30
0.0
 10
5.7464477389
 20
4.8171115454
 30
0.0
 10
5.7453729009
 20
4.8198565034
 30
0.0
 10
5.7441622148
 20
4.8225105875
 30
0.0
 10
5.7428244672
 20
4.8250665707
 30
0.0
 10
5.740896532
 20
4.8283184092
 30
0.0
 10
5.7382221513
 20
4.8321252276
 30
0.0
 10
5.7346381772
 20
4.8362796956
 30
0.0
 10
5.7320276054
 20
4.8387833618
 30
0.0
 10
5.7306841384
 20
4.8399593663
 30
0.0
 11
5.7306841384
 21
4.7587436043
 31
0.0
 11
5.7326472462
 21
4.7605422644
 31
0.0
 11
5.7345450343
 21
4.7624490442
 31
0.0
 11
5.7363700841
 21
4.7644646349
 31
0.0
 11
5.7381148449
 21
4.7665895948
 31
0.0
 11
5.7397711334
 21
4.7688236802
 31
0.0
 11
5.7413301751
 21
4.7711658039
 31
0.0
 11
5.7427827097
 21
4.7736137237
 31
0.0
 11
5.7441191821
 21
4.7761641429
 31
0.0
 11
5.7453297438
 21
4.7788121838
 31
0.0
 11
5.7464045979
 21
4.7815514277
 31
0.0
 11
5.7473341016
 21
4.7843737324
 31
0.0
 11
5.7481093243
 21
4.7872690747
 31
0.0
 11
5.7484364905
 21
4.7887404946
 31
0.0
 11
5.7487220329
 21
4.79022574
 31
0.0
 11
5.7491654764
 21
4.7932303775
 31
0.0
 11
5.7494345712
 21
4.7962678342
 31
0.0
 11
5.7495254399
 21
4.7993225322
 31
0.0
 11
5.7494377797
 21
4.8023778468
 31
0.0
 11
5.7493271302
 21
4.8039004747
 31
0.0
 11
5.7491720587
 21
4.8054169673
 31
0.0
 11
5.7487310862
 21
4.8084240646
 31
0.0
 11
5.7481208207
 21
4.8113846305
 31
0.0
 11
5.7477541345
 21
4.8128429593
 31
0.0
 11
5.7473474783
 21
4.8142843039
 31
0.0
 11
5.7464187416
 21
4.8171109718
 31
0.0
 11
5.7453442514
 21
4.819855522
 31
0.0
 11
5.7441337849
 21
4.8225090511
 31
0.0
 11
5.7427970609
 21
4.8250637138
 31
0.0
 11
5.7413435688
 21
4.8275158166
 31
0.0
 11
5.7381240125
 21
4.8321016467
 31
0.0
 11
5.7345484498
 21
4.8362501737
 31
0.0
 11
5.7306841384
 21
4.8399593663
 31
0.0
  0
SPLINE
  5
254
100
AcDbEntity
  8
0
100
AcDbSpline
 62
7
  6
CONTINUOUS
 70
0
 71
3
 72
30
 73
26
 74
24
 42
0.0000001
 43
0.0000001
 44
0.0000000001
 12
0.0577093808
 22
-0.0663644892
 32
0.0
 13
-0.0577093808
 23
-0.0663644892
 33
0.0
 40
0.0
 40
0.0
 40
0.0
 40
0.0
 40
0.0537697541
 40
0.110077315
 40
0.1690801027
 40
0.2308231628
 40
0.2951905315
 40
0.3282738298
 40
0.3450131879
 40
0.3618729089
 40
0.3959086573
 40
0.4302859436
 40
0.4649047212
 40
0.4996501991
 40
0.5343997854
 40
0.5690344711
 40
0.6034452751
 40
0.6375235053
 40
0.6711652975
 40
0.7043004923
 40
0.7687882156
 40
0.8306302639
 40
0.8897585906
 40
0.9461761977
 40
1.0
 40
1.0
 40
1.0
 40
1.0
 10
5.7306841384
 20
4.8399593663
 30
0.0
 10
5.7317184781
 20
4.8387698988
 30
0.0
 10
5.7337252554
 20
4.8362362582
 30
0.0
 10
5.7364453134
 20
4.8320850392
 30
0.0
 10
5.7388933134
 20
4.8275001486
 30
0.0
 10
5.7410142562
 20
4.8224974359
 30
0.0
 10
5.7424478844
 20
4.818049187
 30
0.0
 10
5.7432617869
 20
4.8148011091
 30
0.0
 10
5.7436736943
 20
4.812890002
 30
0.0
 10
5.7440480414
 20
4.8109427673
 30
0.0
 10
5.7444374255
 20
4.8084725514
 30
0.0
 10
5.7447750212
 20
4.8054700585
 30
0.0
 10
5.7449791989
 20
4.8024346546
 30
0.0
 10
5.7450485369
 20
4.7993822912
 30
0.0
 10
5.7449824005
 20
4.7963293661
 30
0.0
 10
5.7447798267
 20
4.7932922866
 30
0.0
 10
5.7444447575
 20
4.7902867873
 30
0.0
 10
5.7439812728
 20
4.7873278621
 30
0.0
 10
5.743392724
 20
4.7844293351
 30
0.0
 10
5.7424592262
 20
4.780695146
 30
0.0
 10
5.7410270756
 20
4.7762379954
 30
0.0
 10
5.7389039966
 20
4.7712251579
 30
0.0
 10
5.7364532945
 20
4.7666305576
 30
0.0
 10
5.7337290043
 20
4.7624719106
 30
0.0
 10
5.7317195178
 20
4.7599342673
 30
0.0
 10
5.7306841384
 20
4.7587436043
 30
0.0
 11
5.7306841384
 21
4.8399593663
 31
0.0
 11
5.7336226978
 21
4.8362543573
 31
0.0
 11
5.7363397849
 21
4.8321142649
 31
0.0
 11
5.7387871287
 21
4.8275385401
 31
0.0
 11
5.7409100667
 21
4.8225406318
 31
0.0
 11
5.7426497734
 21
4.8171536877
 31
0.0
 11
5.7433574005
 21
4.814331483
 31
0.0
 11
5.743667594
 21
4.8128923627
 31
0.0
 11
5.743947566
 21
4.8114362781
 31
0.0
 11
5.7444140272
 21
4.8084795156
 31
0.0
 11
5.7447518177
 21
4.8054750769
 31
0.0
 11
5.7449564512
 21
4.8024373551
 31
0.0
 11
5.7450259315
 21
4.7993823958
 31
0.0
 11
5.7449594151
 21
4.7963270091
 31
0.0
 11
5.7447568472
 21
4.7932877467
 31
0.0
 11
5.7444213923
 21
4.7902800801
 31
0.0
 11
5.7439570426
 21
4.7873192035
 31
0.0
 11
5.7433681417
 21
4.7844197198
 31
0.0
 11
5.7426611671
 21
4.7815926467
 31
0.0
 11
5.7409221105
 21
4.7761943711
 31
0.0
 11
5.7387980754
 21
4.771187471
 31
0.0
 11
5.7363471783
 21
4.7666011262
 31
0.0
 11
5.7336254041
 21
4.7624525337
 31
0.0
 11
5.7306841384
 21
4.7587436043
 31
0.0
  0
SPLINE
  5
255
100
AcDbEntity
  8
0
100
AcDbSpline
 62
7
  6
CONTINUOUS
 70
0
 71
3
 72
40
 73
36
 74
34
 42
0.0000001
 43
0.0000001
 44
0.0000000001
 12
0.0722960077
 22
0.0594661187
 32
0.0
 13
-0.0722960077
 23
0.0594661187
 33
0.0
 40
0.0
 40
0.0
 40
0.0
 40
0.0
 40
0.0294492983
 40
0.059120599
 40
0.0890219874
 40
0.1191671009
 40
0.1495664865
 40
0.1802280475
 40
0.2111554984
 40
0.2423506422
 40
0.2738085756
 40
0.3055195718
 40
0.3374671956
 40
0.3696279593
 40
0.3857805418
 40
0.4019754382
 40
0.4344661394
 40
0.4670578406
 40
0.4997061783
 40
0.5323599661
 40
0.5486740963
 40
0.5649697575
 40
0.5974820751
 40
0.6298605117
 40
0.6459872937
 40
0.6620636091
 40
0.6940523442
 40
0.7258140638
 40
0.7573242554
 40
0.7885603901
 40
0.8195314388
 40
0.8502460835
 40
0.880703564
 40
0.9408392492
 40
1.0
 40
1.0
 40
1.0
 40
1.0
 10
5.7221859638
 20
4.7587436043
 30
0.0
 10
5.7228956527
 20
4.7593273494
 30
0.0
 10
5.7242944439
 20
4.7605312109
 30
0.0
 10
5.7263153061
 20
4.7624384615
 30
0.0
 10
5.7282589509
 20
4.7644547925
 30
0.0
 10
5.7301170766
 20
4.7665805438
 30
0.0
 10
5.7318810235
 20
4.7688154762
 30
0.0
 10
5.7335413814
 20
4.7711584916
 30
0.0
 10
5.7350883577
 20
4.7736073878
 30
0.0
 10
5.736511685
 20
4.7761587532
 30
0.0
 10
5.7378008934
 20
4.778807754
 30
0.0
 10
5.738945586
 20
4.7815479065
 30
0.0
 10
5.7399353912
 20
4.7843710152
 30
0.0
 10
5.7406223437
 20
4.7867810854
 30
0.0
 10
5.7410859893
 20
4.788740121
 30
0.0
 10
5.7414915677
 20
4.7907225092
 30
0.0
 10
5.7418854609
 20
4.7932296197
 30
0.0
 10
5.742172238
 20
4.7962675968
 30
0.0
 10
5.7422686615
 20
4.7993226562
 30
0.0
 10
5.7421909459
 20
4.8018699573
 30
0.0
 10
5.74203397
 20
4.8039006373
 30
0.0
 10
5.7418140403
 20
4.8059210328
 30
0.0
 10
5.7414228338
 20
4.8084256694
 30
0.0
 10
5.7408806944
 20
4.8108965722
 30
0.0
 10
5.7403597461
 20
4.8128435224
 30
0.0
 10
5.7397835896
 20
4.8147621556
 30
0.0
 10
5.7389604861
 20
4.817114781
 30
0.0
 10
5.7378163181
 20
4.8198599551
 30
0.0
 10
5.7365275653
 20
4.8225141992
 30
0.0
 10
5.7351036816
 20
4.825070163
 30
0.0
 10
5.7335555296
 20
4.8275233906
 30
0.0
 10
5.731893316
 20
4.8298710678
 30
0.0
 10
5.7295484396
 20
4.8328443346
 30
0.0
 10
5.7263820069
 20
4.83629147
 30
0.0
 10
5.7236116592
 20
4.8387866795
 30
0.0
 10
5.7221859638
 20
4.8399593663
 30
0.0
 11
5.7221859638
 21
4.7587436043
 31
0.0
 11
5.7242751197
 21
4.7605422644
 31
0.0
 11
5.7262947618
 21
4.7624490442
 31
0.0
 11
5.7282369952
 21
4.7644646349
 31
0.0
 11
5.7300937843
 21
4.7665895948
 31
0.0
 11
5.7318564206
 21
4.7688236802
 31
0.0
 11
5.733515566
 21
4.7711658039
 31
0.0
 11
5.7350613655
 21
4.7736137237
 31
0.0
 11
5.7364836507
 21
4.7761641429
 31
0.0
 11
5.7377719407
 21
4.7788121838
 31
0.0
 11
5.7389158094
 21
4.7815514277
 31
0.0
 11
5.7399049952
 21
4.7843737324
 31
0.0
 11
5.7407299936
 21
4.7872690747
 31
0.0
 11
5.7410781668
 21
4.7887404946
 31
0.0
 11
5.7413820434
 21
4.79022574
 31
0.0
 11
5.7418539597
 21
4.7932303775
 31
0.0
 11
5.7421403326
 21
4.7962678342
 31
0.0
 11
5.7422370358
 21
4.7993225322
 31
0.0
 11
5.7421437471
 21
4.8023778468
 31
0.0
 11
5.742025993
 21
4.8039004747
 31
0.0
 11
5.7418609646
 21
4.8054169673
 31
0.0
 11
5.7413916779
 21
4.8084240646
 31
0.0
 11
5.7407422283
 21
4.8113846305
 31
0.0
 11
5.7403519978
 21
4.8128429593
 31
0.0
 11
5.7399192307
 21
4.8142843039
 31
0.0
 11
5.7389308613
 21
4.8171109718
 31
0.0
 11
5.7377873798
 21
4.819855522
 31
0.0
 11
5.7364991912
 21
4.8225090511
 31
0.0
 11
5.7350766381
 21
4.8250637138
 31
0.0
 11
5.7335298196
 21
4.8275158166
 31
0.0
 11
5.7318687749
 21
4.8298626843
 31
0.0
 11
5.7301035406
 21
4.8321016467
 31
0.0
 11
5.7262983967
 21
4.8362501737
 31
0.0
 11
5.7221859638
 21
4.8399593663
 31
0.0
  0
SPLINE
  5
256
100
AcDbEntity
  8
0
100
AcDbSpline
 62
7
  6
CONTINUOUS
 70
0
 71
3
 72
43
 73
39
 74
37
 42
0.0000001
 43
0.0000001
 44
0.0000000001
 12
0.0746732413
 22
0.058369758
 32
0.0
 13
-0.0746732413
 23
0.058369758
 33
0.0
 40
0.0
 40
0.0
 40
0.0
 40
0.0
 40
0.060085572
 40
0.0903858092
 40
0.120856876
 40
0.1515025599
 40
0.1823327487
 40
0.213361066
 40
0.2445812028
 40
0.2759885608
 40
0.307584902
 40
0.3393509376
 40
0.3552923228
 40
0.3712688079
 40
0.3872792973
 40
0.403321163
 40
0.4354750409
 40
0.4515816301
 40
0.4677007232
 40
0.4838284314
 40
0.4999610878
 40
0.5322193133
 40
0.5644412855
 40
0.5805279803
 40
0.596590699
 40
0.6286308494
 40
0.6605448856
 40
0.6764477273
 40
0.6923083786
 40
0.7238981512
 40
0.7553126645
 40
0.78653682
 40
0.8175656437
 40
0.8484126446
 40
0.8790828989
 40
0.9095747413
 40
0.9398939416
 40
1.0
 40
1.0
 40
1.0
 40
1.0
 10
5.709527429
 20
4.7587436043
 30
0.0
 10
5.7110230238
 20
4.7599126643
 30
0.0
 10
5.7131968763
 20
4.7617723849
 30
0.0
 10
5.7159168008
 20
4.7644536225
 30
0.0
 10
5.7178729557
 20
4.7665801729
 30
0.0
 10
5.7197297417
 20
4.7688158051
 30
0.0
 10
5.7214775474
 20
4.7711597926
 30
0.0
 10
5.7231059448
 20
4.7736101847
 30
0.0
 10
5.7246045577
 20
4.7761633085
 30
0.0
 10
5.725962187
 20
4.7788144475
 30
0.0
 10
5.7271667724
 20
4.7815574296
 30
0.0
 10
5.7280340435
 20
4.7839098156
 30
0.0
 10
5.7286417995
 20
4.7858280848
 30
0.0
 10
5.7290537054
 20
4.7872854582
 30
0.0
 10
5.7294197538
 20
4.7887583077
 30
0.0
 10
5.7298456159
 20
4.790741841
 30
0.0
 10
5.7301762267
 20
4.7927479778
 30
0.0
 10
5.7304093285
 20
4.7947687979
 30
0.0
 10
5.7305349003
 20
4.79629155
 30
0.0
 10
5.7306104079
 20
4.7978184274
 30
0.0
 10
5.730643611
 20
4.7998568124
 30
0.0
 10
5.730559643
 20
4.8024041736
 30
0.0
 10
5.7303103321
 20
4.8049392038
 30
0.0
 10
5.7300127736
 20
4.8069513289
 30
0.0
 10
5.7296507667
 20
4.8089470249
 30
0.0
 10
5.7290795954
 20
4.8114115129
 30
0.0
 10
5.7283556996
 20
4.813830178
 30
0.0
 10
5.727689586
 20
4.8157287686
 30
0.0
 10
5.7269688336
 20
4.8175963139
 30
0.0
 10
5.72596611
 20
4.8198790042
 30
0.0
 10
5.7246093672
 20
4.8225306746
 30
0.0
 10
5.7231114324
 20
4.8250846594
 30
0.0
 10
5.7214828038
 20
4.8275357107
 30
0.0
 10
5.7197344999
 20
4.829880972
 30
0.0
 10
5.7178768207
 20
4.8321184191
 30
0.0
 10
5.7159194438
 20
4.8342466126
 30
0.0
 10
5.7131982634
 20
4.8369292869
 30
0.0
 10
5.7110235338
 20
4.8387899076
 30
0.0
 10
5.709527429
 20
4.8399593663
 30
0.0
 11
5.709527429
 21
4.7587436043
 31
0.0
 11
5.7138515068
 21
4.7624495318
 31
0.0
 11
5.7158962295
 21
4.7644661013
 31
0.0
 11
5.7178509273
 21
4.7665920972
 31
0.0
 11
5.7197061595
 21
4.768826976
 31
0.0
 11
5.7214522998
 21
4.7711699348
 31
0.0
 11
5.7230794888
 21
4.7736195908
 31
0.0
 11
5.7245767737
 21
4.7761718367
 31
0.0
 11
5.7259328807
 21
4.7788217657
 31
0.0
 11
5.7271366553
 21
4.7815638517
 31
0.0
 11
5.7281776444
 21
4.784388925
 31
0.0
 11
5.7286339077
 21
4.7858293015
 31
0.0
 11
5.7290456507
 21
4.7872864879
 31
0.0
 11
5.7294116076
 21
4.7887591627
 31
0.0
 11
5.729730787
 21
4.7902457204
 31
0.0
 11
5.730226155
 21
4.7932527135
 31
0.0
 11
5.7304010416
 21
4.7947692345
 31
0.0
 11
5.7305265287
 21
4.796291829
 31
0.0
 11
5.7306019658
 21
4.7978185398
 31
0.0
 11
5.7306269423
 21
4.7993473782
 31
0.0
 11
5.7305264762
 21
4.8024031401
 31
0.0
 11
5.7302275607
 21
4.8054424534
 31
0.0
 11
5.7300044756
 21
4.8069507308
 31
0.0
 11
5.7297328365
 21
4.8084487147
 31
0.0
 11
5.7290477674
 21
4.8114071763
 31
0.0
 11
5.7281808283
 21
4.8143050681
 31
0.0
 11
5.7276818516
 21
4.8157273399
 31
0.0
 11
5.7271406874
 21
4.8171298155
 31
0.0
 11
5.7259372091
 21
4.8198713516
 31
0.0
 11
5.7245815191
 21
4.8225222558
 31
0.0
 11
5.7230847969
 21
4.8250752732
 31
0.0
 11
5.7214578727
 21
4.8275251626
 31
0.0
 11
5.7197110683
 21
4.8298696138
 31
0.0
 11
5.7178546658
 21
4.8321065478
 31
0.0
 11
5.7158988088
 21
4.8342341527
 31
0.0
 11
5.7138528906
 21
4.8362520696
 31
0.0
 11
5.709527429
 21
4.8399593663
 31
0.0
  0
SPLINE
  5
257
100
AcDbEntity
  8
0
100
AcDbSpline
 62
7
  6
CONTINUOUS
 70
0
 71
3
 72
33
 73
29
 74
27
 42
0.0000001
 43
0.0000001
 44
0.0000000001
 12
0.0464737167
 22
-0.0713204932
 32
0.0
 13
-0.0464737167
 23
-0.0713204932
 33
0.0
 40
0.0
 40
0.0
 40
0.0
 40
0.0
 40
0.0506323978
 40
0.1048601499
 40
0.1333660756
 40
0.162802574
 40
0.224458037
 40
0.2566299324
 40
0.2896266704
 40
0.3233937226
 40
0.3578363988
 40
0.3928372376
 40
0.428279627
 40
0.4640340204
 40
0.4999439475
 40
0.535849734
 40
0.5715947537
 40
0.607038661
 40
0.6420465107
 40
0.6764833707
 40
0.7102422566
 40
0.7432489561
 40
0.7754295279
 40
0.8370921744
 40
0.866554428
 40
0.8950854002
 40
0.9493495959
 40
1.0
 40
1.0
 40
1.0
 40
1.0
 10
5.709527429
 20
4.8399593663
 30
0.0
 10
5.7103117876
 20
4.8387556571
 30
0.0
 10
5.7118299033
 20
4.8361922299
 30
0.0
 10
5.7134967552
 20
4.8327905378
 30
0.0
 10
5.714735648
 20
4.8298579895
 30
0.0
 10
5.7159394446
 20
4.8266843481
 30
0.0
 10
5.7169970895
 20
4.8233466618
 30
0.0
 10
5.717904206
 20
4.819863673
 30
0.0
 10
5.7185168869
 20
4.8171233854
 30
0.0
 10
5.7190459566
 20
4.8143002125
 30
0.0
 10
5.71948702
 20
4.811404417
 30
0.0
 10
5.7198359659
 20
4.8084482103
 30
0.0
 10
5.7200880465
 20
4.8054448038
 30
0.0
 10
5.7202397951
 20
4.8024088396
 30
0.0
 10
5.7202909904
 20
4.79935638
 30
0.0
 10
5.7202409198
 20
4.7963041506
 30
0.0
 10
5.7200885226
 20
4.7932685515
 30
0.0
 10
5.7198365526
 20
4.7902651767
 30
0.0
 10
5.7194887211
 20
4.7873087625
 30
0.0
 10
5.7190480432
 20
4.7844130946
 30
0.0
 10
5.7185186403
 20
4.7815901037
 30
0.0
 10
5.7179065253
 20
4.7788493963
 30
0.0
 10
5.7170001926
 20
4.7753654356
 30
0.0
 10
5.7159420302
 20
4.772026666
 30
0.0
 10
5.7147381174
 20
4.768851316
 30
0.0
 10
5.7134986422
 20
4.765916321
 30
0.0
 10
5.7118308683
 20
4.7625125603
 30
0.0
 10
5.7103120665
 20
4.7599477415
 30
0.0
 10
5.709527429
 20
4.7587436043
 30
0.0
 11
5.709527429
 21
4.8399593663
 31
0.0
 11
5.7117294635
 21
4.8362542007
 31
0.0
 11
5.7137665702
 21
4.8321118134
 31
0.0
 11
5.7147116349
 21
4.8298768181
 31
0.0
 11
5.7156010226
 21
4.827534156
 31
0.0
 11
5.7171922222
 21
4.8225326969
 31
0.0
 11
5.7178830618
 21
4.819882601
 31
0.0
 11
5.7184963778
 21
4.8171415002
 31
0.0
 11
5.7190264741
 21
4.8143163515
 31
0.0
 11
5.7194684654
 21
4.811417894
 31
0.0
 11
5.7198179198
 21
4.8084589803
 31
0.0
 11
5.7200704228
 21
4.8054524997
 31
0.0
 11
5.720222791
 21
4.802412691
 31
0.0
 11
5.7202740879
 21
4.7993562565
 31
0.0
 11
5.7202236164
 21
4.7963001608
 31
0.0
 11
5.7200710495
 21
4.793261161
 31
0.0
 11
5.7198186933
 21
4.7902545385
 31
0.0
 11
5.7194699953
 21
4.7872949345
 31
0.0
 11
5.7190284343
 21
4.7843969123
 31
0.0
 11
5.7184984003
 21
4.7815724592
 31
0.0
 11
5.7178853944
 21
4.7788304201
 31
0.0
 11
5.7171949852
 21
4.7761794489
 31
0.0
 11
5.7156039509
 21
4.7711772955
 31
0.0
 11
5.7147140804
 21
4.7688324716
 31
0.0
 11
5.7137684531
 21
4.7665953992
 31
0.0
 11
5.7117301665
 21
4.7624501351
 31
0.0
 11
5.709527429
 21
4.7587436043
 31
0.0
  0
SPLINE
  5
258
100
AcDbEntity
  8
0
100
AcDbSpline
 62
7
  6
CONTINUOUS
 70
0
 71
3
 72
40
 73
36
 74
34
 42
0.0000001
 43
0.0000001
 44
0.0000000001
 12
0.076610041
 22
0.0574902001
 32
0.0
 13
-0.076610041
 23
0.0574902001
 33
0.0
 40
0.0
 40
0.0
 40
0.0
 40
0.0
 40
0.0608887703
 40
0.0914964409
 40
0.1222158421
 40
0.153052581
 40
0.1840109523
 40
0.2150928929
 40
0.2463006261
 40
0.2776323191
 40
0.2933457518
 40
0.3090881038
 40
0.3406535348
 40
0.3723219467
 40
0.3881923819
 40
0.4040840138
 40
0.4359149652
 40
0.4677959808
 40
0.4997073155
 40
0.5316237531
 40
0.5475775445
 40
0.5635225028
 40
0.5953736765
 40
0.6271639927
 40
0.6430308463
 40
0.6588729831
 40
0.6904775975
 40
0.7219782016
 40
0.7533599212
 40
0.7846070608
 40
0.8157315507
 40
0.8467423749
 40
0.8776370779
 40
0.9390542163
 40
1.0
 40
1.0
 40
1.0
 40
1.0
 10
5.6928104587
 20
4.7587436043
 30
0.0
 10
5.6943653558
 20
4.7599104401
 30
0.0
 10
5.6966272602
 20
4.7617674123
 30
0.0
 10
5.6994622905
 20
4.7644501165
 30
0.0
 10
5.7014991449
 20
4.7665755526
 30
0.0
 10
5.7034327639
 20
4.7688101469
 30
0.0
 10
5.7052529499
 20
4.7711529129
 30
0.0
 10
5.7069489453
 20
4.7736016629
 30
0.0
 10
5.7085094584
 20
4.7761529606
 30
0.0
 10
5.7096864319
 20
4.7783586124
 30
0.0
 10
5.7105489164
 20
4.7801685288
 30
0.0
 10
5.7113583795
 20
4.7820109316
 30
0.0
 10
5.7122637953
 20
4.784366179
 30
0.0
 10
5.7130177573
 20
4.7867785838
 30
0.0
 10
5.7135264035
 20
4.7887391739
 30
0.0
 10
5.7139707909
 20
4.7907206329
 30
0.0
 10
5.7144026252
 20
4.7932273017
 30
0.0
 10
5.7147171954
 20
4.7962663946
 30
0.0
 10
5.7148229697
 20
4.79932264
 30
0.0
 10
5.7147377284
 20
4.8018705609
 30
0.0
 10
5.7145656622
 20
4.8039010774
 30
0.0
 10
5.7143244606
 20
4.8059224566
 30
0.0
 10
5.7138951796
 20
4.8084289852
 30
0.0
 10
5.7133009463
 20
4.8108989516
 30
0.0
 10
5.7127302473
 20
4.8128446653
 30
0.0
 10
5.7120980965
 20
4.8147650449
 30
0.0
 10
5.7111946471
 20
4.8171201285
 30
0.0
 10
5.7099399908
 20
4.8198655922
 30
0.0
 10
5.7085268732
 20
4.8225199942
 30
0.0
 10
5.706965726
 20
4.8250759181
 30
0.0
 10
5.7052684506
 20
4.8275289825
 30
0.0
 10
5.7034462336
 20
4.8298764111
 30
0.0
 10
5.7008699438
 20
4.8328559814
 30
0.0
 10
5.6973907796
 20
4.8363084689
 30
0.0
 10
5.6943668117
 20
4.8387914378
 30
0.0
 10
5.6928104587
 20
4.8399593663
 30
0.0
 11
5.6928104587
 21
4.7587436043
 31
0.0
 11
5.6973140808
 21
4.7624490442
 31
0.0
 11
5.699442948
 21
4.7644646349
 31
0.0
 11
5.7014781604
 21
4.7665895948
 31
0.0
 11
5.7034101725
 21
4.7688236802
 31
0.0
 11
5.7052287491
 21
4.7711658039
 31
0.0
 11
5.7069230881
 21
4.7736137237
 31
0.0
 11
5.7084820441
 21
4.7761641429
 31
0.0
 11
5.7098941289
 21
4.7788121838
 31
0.0
 11
5.7105415153
 21
4.7801709023
 31
0.0
 11
5.7111479147
 21
4.7815514277
 31
0.0
 11
5.7122321536
 21
4.7843737324
 31
0.0
 11
5.7131364282
 21
4.7872690747
 31
0.0
 11
5.713518058
 21
4.7887404946
 31
0.0
 11
5.7138511349
 21
4.79022574
 31
0.0
 11
5.7143683987
 21
4.7932303775
 31
0.0
 11
5.7146822899
 21
4.7962678342
 31
0.0
 11
5.7147882856
 21
4.7993225322
 31
0.0
 11
5.7146860326
 21
4.8023778468
 31
0.0
 11
5.7145569632
 21
4.8039004747
 31
0.0
 11
5.7143760768
 21
4.8054169673
 31
0.0
 11
5.7138616952
 21
4.8084240646
 31
0.0
 11
5.7131498384
 21
4.8113846305
 31
0.0
 11
5.7127221098
 21
4.8128429593
 31
0.0
 11
5.7122477571
 21
4.8142843039
 31
0.0
 11
5.7111644129
 21
4.8171109718
 31
0.0
 11
5.7099110516
 21
4.819855522
 31
0.0
 11
5.7084990779
 21
4.8225090511
 31
0.0
 11
5.7069398283
 21
4.8250637138
 31
0.0
 11
5.7052443724
 21
4.8275158166
 31
0.0
 11
5.703423714
 21
4.8298626843
 31
0.0
 11
5.7014888542
 21
4.8321016467
 31
0.0
 11
5.6973180649
 21
4.8362501737
 31
0.0
 11
5.6928104587
 21
4.8399593663
 31
0.0
  0
SPLINE
  5
259
100
AcDbEntity
  8
0
100
AcDbSpline
 62
7
  6
CONTINUOUS
 70
0
 71
3
 72
34
 73
30
 74
28
 42
0.0000001
 43
0.0000001
 44
0.0000000001
 12
0.0395322627
 22
-0.0739868608
 32
0.0
 13
-0.0395322627
 23
-0.0739868608
 33
0.0
 40
0.0
 40
0.0
 40
0.0
 40
0.0
 40
0.0491329141
 40
0.1023484728
 40
0.1597655931
 40
0.2213412249
 40
0.2868108202
 40
0.3208511019
 40
0.3556343478
 40
0.3910469668
 40
0.426948079
 40
0.4631916016
 40
0.4996131598
 40
0.5360395155
 40
0.5723007657
 40
0.6082390905
 40
0.643699039
 40
0.6785317495
 40
0.7126286658
 40
0.7458952689
 40
0.7782368079
 40
0.8095877706
 40
0.8399253182
 40
0.8692290471
 40
0.8974781992
 40
0.9246670269
 40
0.9508082724
 40
0.9759150952
 40
1.0
 40
1.0
 40
1.0
 40
1.0
 10
5.6928104587
 20
4.8399593663
 30
0.0
 10
5.6934579038
 20
4.8387476362
 30
0.0
 10
5.6947082282
 20
4.8361700159
 30
0.0
 10
5.6963734754
 20
4.8320211907
 30
0.0
 10
5.6978716416
 20
4.8274413886
 30
0.0
 10
5.6991693191
 20
4.8224461971
 30
0.0
 10
5.7000426664
 20
4.8180246017
 30
0.0
 10
5.7006138579
 20
4.8143127998
 30
0.0
 10
5.7009757595
 20
4.8114202935
 30
0.0
 10
5.701261605
 20
4.8084670384
 30
0.0
 10
5.701468797
 20
4.8054662844
 30
0.0
 10
5.7015940962
 20
4.8024327604
 30
0.0
 10
5.7016366493
 20
4.7993822674
 30
0.0
 10
5.7015960624
 20
4.7963312439
 30
0.0
 10
5.7014717441
 20
4.7932960062
 30
0.0
 10
5.7012661095
 20
4.7902922865
 30
0.0
 10
5.7009816694
 20
4.7873351204
 30
0.0
 10
5.7006204732
 20
4.7844382219
 30
0.0
 10
5.7001868311
 20
4.7816133193
 30
0.0
 10
5.6996853861
 20
4.7788704428
 30
0.0
 10
5.6991203194
 20
4.7762184107
 30
0.0
 10
5.6984957825
 20
4.773663985
 30
0.0
 10
5.6978166478
 20
4.7712115592
 30
0.0
 10
5.6970873865
 20
4.7688642355
 30
0.0
 10
5.6963122828
 20
4.7666246057
 30
0.0
 10
5.6954954234
 20
4.7644943076
 30
0.0
 10
5.6946409386
 20
4.7624738754
 30
0.0
 10
5.6937527516
 20
4.7605633592
 30
0.0
 10
5.6931278356
 20
4.7593375931
 30
0.0
 10
5.6928104587
 20
4.7587436043
 30
0.0
 11
5.6928104587
 21
4.8399593663
 31
0.0
 11
5.694616056
 21
4.8362543573
 31
0.0
 11
5.6962855696
 21
4.8321142649
 31
0.0
 11
5.6977893396
 21
4.8275385401
 31
0.0
 11
5.6990937784
 21
4.8225406318
 31
0.0
 11
5.7001627408
 21
4.8171536877
 31
0.0
 11
5.7005975422
 21
4.814331483
 31
0.0
 11
5.7009601693
 21
4.8114362781
 31
0.0
 11
5.7012467862
 21
4.8084795156
 31
0.0
 11
5.7014543415
 21
4.8054750769
 31
0.0
 11
5.7015800785
 21
4.8024373551
 31
0.0
 11
5.7016227708
 21
4.7993823958
 31
0.0
 11
5.7015818998
 21
4.7963270091
 31
0.0
 11
5.7014574319
 21
4.7932877467
 31
0.0
 11
5.7012513118
 21
4.7902800801
 31
0.0
 11
5.7009659921
 21
4.7873192035
 31
0.0
 11
5.7006041421
 21
4.7844197198
 31
0.0
 11
5.7001697417
 21
4.7815926467
 31
0.0
 11
5.699667263
 21
4.7788476567
 31
0.0
 11
5.6991011787
 21
4.7761943711
 31
0.0
 11
5.6984759583
 21
4.7736398645
 31
0.0
 11
5.6977960657
 21
4.771187471
 31
0.0
 11
5.6970659649
 21
4.7688402257
 31
0.0
 11
5.6962901125
 21
4.7666011262
 31
0.0
 11
5.6954727242
 21
4.7644718664
 31
0.0
 11
5.6946177189
 21
4.7624525337
 31
0.0
 11
5.6937289969
 21
4.7605431168
 31
0.0
 11
5.6928104587
 21
4.7587436043
 31
0.0
  0
SPLINE
  5
25A
100
AcDbEntity
  8
0
100
AcDbSpline
 62
7
  6
CONTINUOUS
 70
0
 71
3
 72
41
 73
37
 74
35
 42
0.0000001
 43
0.0000001
 44
0.0000000001
 12
0.0792351496
 22
0.0563322723
 32
0.0
 13
-0.0792351496
 23
0.0563322723
 33
0.0
 40
0.0
 40
0.0
 40
0.0
 40
0.0
 40
0.0309904672
 40
0.0620121901
 40
0.0930616763
 40
0.1241424145
 40
0.1552563857
 40
0.1864050187
 40
0.2175884823
 40
0.2488085951
 40
0.2800648102
 40
0.3113568305
 40
0.3270176074
 40
0.3426874048
 40
0.3740456186
 40
0.3897376369
 40
0.4054371239
 40
0.4368491031
 40
0.4682778691
 40
0.4997197295
 40
0.5311664674
 40
0.5468908687
 40
0.5626127401
 40
0.594044039
 40
0.6254620479
 40
0.6411649027
 40
0.6568597042
 40
0.6882239732
 40
0.7195631468
 40
0.7508679786
 40
0.7821265038
 40
0.8133518669
 40
0.8445525708
 40
0.8757244394
 40
0.9379454476
 40
1.0
 40
1.0
 40
1.0
 40
1.0
 10
5.6477712164
 20
4.7587436043
 30
0.0
 10
5.6485897279
 20
4.7593255254
 30
0.0
 10
5.6502028851
 20
4.7605251879
 30
0.0
 10
5.6525408305
 20
4.7624317648
 30
0.0
 10
5.6547895464
 20
4.7644474281
 30
0.0
 10
5.6569394514
 20
4.7665725504
 30
0.0
 10
5.6589805321
 20
4.7688069165
 30
0.0
 10
5.6609019193
 20
4.7711494787
 30
0.0
 10
5.6626922775
 20
4.773598067
 30
0.0
 10
5.6643397254
 20
4.7761493422
 30
0.0
 10
5.665832118
 20
4.7787984432
 30
0.0
 10
5.6669362596
 20
4.7810818363
 30
0.0
 10
5.667730062
 20
4.7829498677
 30
0.0
 10
5.6684625645
 20
4.7848450348
 30
0.0
 10
5.6691000733
 20
4.78677694
 30
0.0
 10
5.6696372604
 20
4.7887385345
 30
0.0
 10
5.6701062094
 20
4.7907193724
 30
0.0
 10
5.6705620826
 20
4.79322573
 30
0.0
 10
5.6708942889
 20
4.7962655771
 30
0.0
 10
5.6710059975
 20
4.7993226289
 30
0.0
 10
5.6709159816
 20
4.8018709715
 30
0.0
 10
5.670734357
 20
4.8039013761
 30
0.0
 10
5.6704796637
 20
4.805923421
 30
0.0
 10
5.6700262041
 20
4.8084312182
 30
0.0
 10
5.6693989811
 20
4.8109005402
 30
0.0
 10
5.6687968126
 20
4.8128454242
 30
0.0
 10
5.6681291232
 20
4.8147669529
 30
0.0
 10
5.6671746539
 20
4.8171236185
 30
0.0
 10
5.6658499836
 20
4.8198692226
 30
0.0
 10
5.6643580764
 20
4.8225236734
 30
0.0
 10
5.6627099884
 20
4.825079518
 30
0.0
 10
5.6609182749
 20
4.827532428
 30
0.0
 10
5.6589947411
 20
4.8298796543
 30
0.0
 10
5.6562716008
 20
4.8328629389
 30
0.0
 10
5.6525942406
 20
4.8363183358
 30
0.0
 10
5.6494101837
 20
4.8387941416
 30
0.0
 10
5.6477712164
 20
4.8399593663
 30
0.0
 11
5.6477712164
 21
4.7587436043
 31
0.0
 11
5.6501882725
 21
4.7605422644
 31
0.0
 11
5.6525249045
 21
4.7624490442
 31
0.0
 11
5.6547719781
 21
4.7644646349
 31
0.0
 11
5.6569201968
 21
4.7665895948
 31
0.0
 11
5.6589594848
 21
4.7688236802
 31
0.0
 11
5.6608790388
 21
4.7711658039
 31
0.0
 11
5.662667457
 21
4.7736137237
 31
0.0
 11
5.6643129748
 21
4.7761641429
 31
0.0
 11
5.6658034663
 21
4.7788121838
 31
0.0
 11
5.6671268692
 21
4.7815514277
 31
0.0
 11
5.6677221882
 21
4.7829527406
 31
0.0
 11
5.6682713111
 21
4.7843737324
 31
0.0
 11
5.6692257959
 21
4.7872690747
 31
0.0
 11
5.669628616
 21
4.7887404946
 31
0.0
 11
5.6699801871
 21
4.79022574
 31
0.0
 11
5.6705261723
 21
4.7932303775
 31
0.0
 11
5.6708574925
 21
4.7962678342
 31
0.0
 11
5.6709693736
 21
4.7993225322
 31
0.0
 11
5.6708614429
 21
4.8023778468
 31
0.0
 11
5.6707252069
 21
4.8039004747
 31
0.0
 11
5.6705342768
 21
4.8054169673
 31
0.0
 11
5.6699913338
 21
4.8084240646
 31
0.0
 11
5.6692399508
 21
4.8113846305
 31
0.0
 11
5.6687884723
 21
4.8128429593
 31
0.0
 11
5.668287781
 21
4.8142843039
 31
0.0
 11
5.6671442835
 21
4.8171109718
 31
0.0
 11
5.6658213287
 21
4.819855522
 31
0.0
 11
5.6643309544
 21
4.8225090511
 31
0.0
 11
5.6626851267
 21
4.8250637138
 31
0.0
 11
5.6608955297
 21
4.8275158166
 31
0.0
 11
5.6589737782
 21
4.8298626843
 31
0.0
 11
5.6569314843
 21
4.8321016467
 31
0.0
 11
5.6525291098
 21
4.8362501737
 31
0.0
 11
5.6477712164
 21
4.8399593663
 31
0.0
  0
SPLINE
  5
25B
100
AcDbEntity
  8
0
100
AcDbSpline
 62
7
  6
CONTINUOUS
 70
0
 71
3
 72
39
 73
35
 74
33
 42
0.0000001
 43
0.0000001
 44
0.0000000001
 12
0.0226804378
 22
-0.078811615
 32
0.0
 13
-0.0226804378
 23
-0.078811615
 33
0.0
 40
0.0
 40
0.0
 40
0.0
 40
0.0
 40
0.0227429279
 40
0.0467107538
 40
0.0719170995
 40
0.0983730381
 40
0.1260829504
 40
0.1550373439
 40
0.1852155448
 40
0.2165813051
 40
0.2490816591
 40
0.2826438149
 40
0.317174935
 40
0.352558158
 40
0.3886608569
 40
0.4253211474
 40
0.4623711311
 40
0.499623154
 40
0.5368803001
 40
0.5739488799
 40
0.6106481521
 40
0.6468005069
 40
0.6822354436
 40
0.7168255073
 40
0.7504591144
 40
0.7830251343
 40
0.8144432521
 40
0.8446782988
 40
0.8736985425
 40
0.9014726291
 40
0.9279851317
 40
0.9532402282
 40
0.9772433375
 40
1.0
 40
1.0
 40
1.0
 40
1.0
 10
5.6477712164
 20
4.8399593663
 30
0.0
 10
5.6479431563
 20
4.8393618973
 30
0.0
 10
5.64828116
 20
4.8381303823
 30
0.0
 10
5.6487585606
 20
4.8362230954
 30
0.0
 10
5.6492176674
 20
4.834207079
 30
0.0
 10
5.6496565224
 20
4.8320820036
 30
0.0
 10
5.6500730829
 20
4.82984814
 30
0.0
 10
5.6504651405
 20
4.8275066159
 30
0.0
 10
5.6508303767
 20
4.8250596693
 30
0.0
 10
5.6511663695
 20
4.8225107331
 30
0.0
 10
5.6514706801
 20
4.8198646854
 30
0.0
 10
5.6517408194
 20
4.8171279683
 30
0.0
 10
5.651974401
 20
4.8143088051
 30
0.0
 10
5.652169214
 20
4.811417087
 30
0.0
 10
5.6523230858
 20
4.8084646183
 30
0.0
 10
5.6524346195
 20
4.8054646517
 30
0.0
 10
5.6525020689
 20
4.8024319432
 30
0.0
 10
5.6525249758
 20
4.7993822574
 30
0.0
 10
5.6525031276
 20
4.7963320531
 30
0.0
 10
5.6524362058
 20
4.7932976182
 30
0.0
 10
5.6523255103
 20
4.7902946888
 30
0.0
 10
5.6521723963
 20
4.7873383376
 30
0.0
 10
5.6519779639
 20
4.7844422002
 30
0.0
 10
5.6517445336
 20
4.7816180295
 30
0.0
 10
5.6514746119
 20
4.7788759061
 30
0.0
 10
5.6511704518
 20
4.7762246261
 30
0.0
 10
5.6508342814
 20
4.7736708904
 30
0.0
 10
5.6504687324
 20
4.771219152
 30
0.0
 10
5.6500762181
 20
4.7688725246
 30
0.0
 10
5.6496590467
 20
4.7666335851
 30
0.0
 10
5.6492194148
 20
4.764503938
 30
0.0
 10
5.648759556
 20
4.7624841505
 30
0.0
 10
5.6482815814
 20
4.7605742519
 30
0.0
 10
5.6479432601
 20
4.759341434
 30
0.0
 10
5.6477712164
 20
4.7587436043
 30
0.0
 11
5.6477712164
 21
4.8399593663
 31
0.0
 11
5.6482656759
 21
4.8381609497
 31
0.0
 11
5.6487437062
 21
4.8362543573
 31
0.0
 11
5.6492034242
 21
4.8342389461
 31
0.0
 11
5.6496429016
 21
4.8321142649
 31
0.0
 11
5.650060112
 21
4.8298803959
 31
0.0
 11
5.650452828
 21
4.8275385401
 31
0.0
 11
5.6508187306
 21
4.8250908175
 31
0.0
 11
5.6511553952
 21
4.8225406318
 31
0.0
 11
5.6514603608
 21
4.8198927755
 31
0.0
 11
5.6517311354
 21
4.8171536877
 31
0.0
 11
5.6519653182
 21
4.814331483
 31
0.0
 11
5.6521606282
 21
4.8114362781
 31
0.0
 11
5.6523149993
 21
4.8084795156
 31
0.0
 11
5.652426788
 21
4.8054750769
 31
0.0
 11
5.6524945096
 21
4.8024373551
 31
0.0
 11
5.6525175035
 21
4.7993823958
 31
0.0
 11
5.6524954905
 21
4.7963270091
 31
0.0
 11
5.6524284525
 21
4.7932877467
 31
0.0
 11
5.6523174367
 21
4.7902800801
 31
0.0
 11
5.6521637643
 21
4.7873192035
 31
0.0
 11
5.6519688729
 21
4.7844197198
 31
0.0
 11
5.651734906
 21
4.7815926467
 31
0.0
 11
5.6514642724
 21
4.7788476567
 31
0.0
 11
5.651159381
 21
4.7761943711
 31
0.0
 11
5.6508226389
 21
4.7736398645
 31
0.0
 11
5.6504564507
 21
4.771187471
 31
0.0
 11
5.6500632204
 21
4.7688402257
 31
0.0
 11
5.6496453484
 21
4.7666011262
 31
0.0
 11
5.6492051053
 21
4.7644718664
 31
0.0
 11
5.6487446018
 21
4.7624525337
 31
0.0
 11
5.6482659386
 21
4.7605431168
 31
0.0
 11
5.6477712164
 21
4.7587436043
 31
0.0
  0
SPLINE
  5
25C
100
AcDbEntity
  8
0
100
AcDbSpline
 62
7
  6
CONTINUOUS
 70
0
 71
3
 72
38
 73
34
 74
32
 42
0.0000001
 43
0.0000001
 44
0.0000000001
 12
0.0799320431
 22
0.0560257447
 32
0.0
 13
-0.0799320431
 23
0.0560257447
 33
0.0
 40
0.0
 40
0.0
 40
0.0
 40
0.0
 40
0.0622986713
 40
0.1246313408
 40
0.1558225831
 40
0.1870251462
 40
0.2182386382
 40
0.2494646811
 40
0.28070299
 40
0.3119540808
 40
0.3275862187
 40
0.3432222057
 40
0.3744984157
 40
0.3901430286
 40
0.4057913348
 40
0.4370914016
 40
0.4683990793
 40
0.4997150978
 40
0.5310359321
 40
0.5466988891
 40
0.5623610556
 40
0.5936801955
 40
0.6249991419
 40
0.6406585541
 40
0.656314485
 40
0.6876158924
 40
0.718913762
 40
0.7502003083
 40
0.7814644978
 40
0.8127197174
 40
0.8752010501
 40
0.9376432535
 40
1.0
 40
1.0
 40
1.0
 40
1.0
 10
5.6198115941
 20
4.7587436043
 30
0.0
 10
5.6214714808
 20
4.7599070474
 30
0.0
 10
5.6246949538
 20
4.7623773329
 30
0.0
 10
5.6284212016
 20
4.765828053
 30
0.0
 10
5.6311805842
 20
4.7688060347
 30
0.0
 10
5.6331295406
 20
4.7711485648
 30
0.0
 10
5.6349455668
 20
4.7735970983
 30
0.0
 10
5.636616666
 20
4.7761483491
 30
0.0
 10
5.6381305026
 20
4.7787974485
 30
0.0
 10
5.6392507252
 20
4.7810812707
 30
0.0
 10
5.6400560462
 20
4.7829496352
 30
0.0
 10
5.6407989372
 20
4.7848445237
 30
0.0
 10
5.64144563
 20
4.7867764762
 30
0.0
 10
5.6419905951
 20
4.788738357
 30
0.0
 10
5.6424662236
 20
4.790719019
 30
0.0
 10
5.6429286401
 20
4.7932252889
 30
0.0
 10
5.6432656499
 20
4.7962653471
 30
0.0
 10
5.6433789751
 20
4.7993226258
 30
0.0
 10
5.6432876587
 20
4.801871087
 30
0.0
 10
5.643103433
 20
4.8039014601
 30
0.0
 10
5.6428450658
 20
4.8059236917
 30
0.0
 10
5.6423850178
 20
4.8084318432
 30
0.0
 10
5.6417488186
 20
4.8109009829
 30
0.0
 10
5.6411380925
 20
4.8128456351
 30
0.0
 10
5.6404607222
 20
4.8147674816
 30
0.0
 10
5.6394923529
 20
4.8171245791
 30
0.0
 10
5.6381486236
 20
4.8198702185
 30
0.0
 10
5.6366352856
 20
4.8225246632
 30
0.0
 10
5.6349634979
 20
4.8250805255
 30
0.0
 10
5.6325410994
 20
4.8283499615
 30
0.0
 10
5.62917797
 20
4.8321738807
 30
0.0
 10
5.6247007922
 20
4.8363206663
 30
0.0
 10
5.6214730281
 20
4.8387948385
 30
0.0
 10
5.6198115941
 20
4.8399593663
 30
0.0
 11
5.6198115941
 21
4.7587436043
 31
0.0
 11
5.6246333292
 21
4.7624490442
 31
0.0
 11
5.6290915381
 21
4.7665895948
 31
0.0
 11
5.6311600177
 21
4.7688236802
 31
0.0
 11
5.6331070493
 21
4.7711658039
 31
0.0
 11
5.6349210679
 21
4.7736137237
 31
0.0
 11
5.6365901406
 21
4.7761641429
 31
0.0
 11
5.6381019678
 21
4.7788121838
 31
0.0
 11
5.6394443147
 21
4.7815514277
 31
0.0
 11
5.6400481554
 21
4.7829527406
 31
0.0
 11
5.6406051388
 21
4.7843737324
 31
0.0
 11
5.6415732867
 21
4.7872690747
 31
0.0
 11
5.6419818729
 21
4.7887404946
 31
0.0
 11
5.6423384766
 21
4.79022574
 31
0.0
 11
5.6428922774
 21
4.7932303775
 31
0.0
 11
5.6432283403
 21
4.7962678342
 31
0.0
 11
5.6433418229
 21
4.7993225322
 31
0.0
 11
5.6432323472
 21
4.8023778468
 31
0.0
 11
5.643094161
 21
4.8039004747
 31
0.0
 11
5.6429004978
 21
4.8054169673
 31
0.0
 11
5.6423497829
 21
4.8084240646
 31
0.0
 11
5.6415876442
 21
4.8113846305
 31
0.0
 11
5.6411297029
 21
4.8128429593
 31
0.0
 11
5.6406218444
 21
4.8142843039
 31
0.0
 11
5.6394619783
 21
4.8171109718
 31
0.0
 11
5.6381200859
 21
4.819855522
 31
0.0
 11
5.6366083775
 21
4.8225090511
 31
0.0
 11
5.6349389905
 21
4.8250637138
 31
0.0
 11
5.6331237762
 21
4.8275158166
 31
0.0
 11
5.6291029873
 21
4.8321016467
 31
0.0
 11
5.6246375947
 21
4.8362501737
 31
0.0
 11
5.6198115941
 21
4.8399593663
 31
0.0
  0
SPLINE
  5
25D
100
AcDbEntity
  8
0
100
AcDbSpline
 62
7
  6
CONTINUOUS
 70
0
 71
3
 72
39
 73
35
 74
33
 42
0.0000001
 43
0.0000001
 44
0.0000000001
 12
0.0796279762
 22
0.0561553614
 32
0.0
 13
-0.0796279762
 23
0.0561553614
 33
0.0
 40
0.0
 40
0.0
 40
0.0
 40
0.0
 40
0.0621778036
 40
0.1244463601
 40
0.1867817992
 40
0.249219984
 40
0.2804867574
 40
0.3117835428
 40
0.343102307
 40
0.3587695792
 40
0.374440991
 40
0.3901178891
 40
0.4058005284
 40
0.4371715631
 40
0.4528622582
 40
0.4685537238
 40
0.4842458563
 40
0.4999389213
 40
0.5313210938
 40
0.5626984562
 40
0.5783846084
 40
0.5940659469
 40
0.6254129157
 40
0.6567465629
 40
0.6724082048
 40
0.6880630738
 40
0.7193533522
 40
0.7506264879
 40
0.7818740956
 40
0.8130940947
 40
0.8442994246
 40
0.8754922474
 40
0.9378009619
 40
1.0
 40
1.0
 40
1.0
 40
1.0
 10
5.5169491756
 20
4.7587436043
 30
0.0
 10
5.5185995398
 20
4.7599074766
 30
0.0
 10
5.5218052239
 20
4.7623795159
 30
0.0
 10
5.5262504233
 20
4.7665215077
 30
0.0
 10
5.5302576452
 20
4.7711023528
 30
0.0
 10
5.5331561168
 20
4.7752751207
 30
0.0
 10
5.5351618791
 20
4.7788075861
 30
0.0
 10
5.5364977731
 20
4.7815509441
 30
0.0
 10
5.5374606634
 20
4.7839062917
 30
0.0
 10
5.5381351194
 20
4.7858266843
 30
0.0
 10
5.5385917598
 20
4.7872841574
 30
0.0
 10
5.5389975694
 20
4.7887571343
 30
0.0
 10
5.5394693789
 20
4.7907395077
 30
0.0
 10
5.539836104
 20
4.7927462079
 30
0.0
 10
5.5400946573
 20
4.7947682448
 30
0.0
 10
5.5402338759
 20
4.7962911776
 30
0.0
 10
5.540317588
 20
4.7978182444
 30
0.0
 10
5.5403544025
 20
4.7998569249
 30
0.0
 10
5.5402612415
 20
4.8024056727
 30
0.0
 10
5.5399847509
 20
4.8049408142
 30
0.0
 10
5.5396550073
 20
4.8069522462
 30
0.0
 10
5.539253387
 20
4.8089495631
 30
0.0
 10
5.5386193198
 20
4.8114167282
 30
0.0
 10
5.5378171672
 20
4.8138336515
 30
0.0
 10
5.5370794812
 20
4.8157304016
 30
0.0
 10
5.5362795466
 20
4.8176002153
 30
0.0
 10
5.5351662425
 20
4.8198858568
 30
0.0
 10
5.5336618154
 20
4.8225375967
 30
0.0
 10
5.5320009807
 20
4.8250914891
 30
0.0
 10
5.5301954321
 20
4.8275422528
 30
0.0
 10
5.5282573116
 20
4.8298871561
 30
0.0
 10
5.5255130429
 20
4.8328683719
 30
0.0
 10
5.5218071248
 20
4.8363218654
 30
0.0
 10
5.5186001034
 20
4.8387950964
 30
0.0
 10
5.5169491756
 20
4.8399593663
 30
0.0
 11
5.5169491756
 21
4.7587436043
 31
0.0
 11
5.5217419753
 21
4.7624495156
 31
0.0
 11
5.5261749358
 21
4.7665920744
 31
0.0
 11
5.5301667195
 21
4.7711699252
 31
0.0
 11
5.5336299019
 21
4.7761718383
 31
0.0
 11
5.5351330143
 21
4.7788217688
 31
0.0
 11
5.5364672805
 21
4.7815638553
 31
0.0
 11
5.5376211147
 21
4.7843889283
 31
0.0
 11
5.5381268377
 21
4.7858293045
 31
0.0
 11
5.5385832143
 21
4.7872864906
 31
0.0
 11
5.5389888414
 21
4.7887591652
 31
0.0
 11
5.5393426206
 21
4.7902457228
 31
0.0
 11
5.5398916876
 21
4.7932527157
 31
0.0
 11
5.5400855323
 21
4.794769237
 31
0.0
 11
5.5402246223
 21
4.7962918322
 31
0.0
 11
5.5403082366
 21
4.7978185442
 31
0.0
 11
5.5403359199
 21
4.7993473844
 31
0.0
 11
5.5402245609
 21
4.8024031521
 31
0.0
 11
5.5398932404
 21
4.8054424739
 31
0.0
 11
5.5396459717
 21
4.8069507569
 31
0.0
 11
5.5393448849
 21
4.8084487464
 31
0.0
 11
5.5385855451
 21
4.811407218
 31
0.0
 11
5.5376246193
 21
4.8143051215
 31
0.0
 11
5.5370715499
 21
4.815727401
 31
0.0
 11
5.5364717202
 21
4.8171298829
 31
0.0
 11
5.535137775
 21
4.8198714205
 31
0.0
 11
5.5336351175
 21
4.8225223215
 31
0.0
 11
5.5319761434
 21
4.825075341
 31
0.0
 11
5.5301728628
 21
4.8275252202
 31
0.0
 11
5.5282367128
 21
4.8298696516
 31
0.0
 11
5.526179084
 21
4.8321065669
 31
0.0
 11
5.5217435216
 21
4.8362520723
 31
0.0
 11
5.5169491756
 21
4.8399593663
 31
0.0
  0
SPLINE
  5
25E
100
AcDbEntity
  8
0
100
AcDbSpline
 62
7
  6
CONTINUOUS
 70
0
 71
3
 72
39
 73
35
 74
33
 42
0.0000001
 43
0.0000001
 44
0.0000000001
 12
0.0787264141
 22
0.0565509496
 32
0.0
 13
-0.0787264141
 23
0.0565509496
 33
0.0
 40
0.0
 40
0.0
 40
0.0
 40
0.0
 40
0.061783944
 40
0.1237415198
 40
0.1548023878
 40
0.1859147423
 40
0.2170791338
 40
0.2482974994
 40
0.2795690814
 40
0.2952267902
 40
0.3108968976
 40
0.3422705601
 40
0.3736900514
 40
0.3894172855
 40
0.4051546856
 40
0.4366493105
 40
0.4681672709
 40
0.4997017176
 40
0.5312410862
 40
0.5470107276
 40
0.5627765982
 40
0.5942907205
 40
0.6257822011
 40
0.6415174412
 40
0.6572413589
 40
0.6886532144
 40
0.720024536
 40
0.7513450106
 40
0.7826019828
 40
0.8138084008
 40
0.8449729012
 40
0.8760916804
 40
0.9381583695
 40
1.0
 40
1.0
 40
1.0
 40
1.0
 10
5.4772543596
 20
4.7587436043
 30
0.0
 10
5.4788757024
 20
4.7599082512
 30
0.0
 10
5.4820245625
 20
4.762381763
 30
0.0
 10
5.4856583177
 20
4.7658312037
 30
0.0
 10
5.4883491449
 20
4.768807516
 30
0.0
 10
5.4902508215
 20
4.7711501455
 30
0.0
 10
5.492022769
 20
4.7735987722
 30
0.0
 10
5.4936532349
 20
4.776150014
 30
0.0
 10
5.4948836943
 20
4.7783568985
 30
0.0
 10
5.4957852597
 20
4.7801678118
 30
0.0
 10
5.4966305235
 20
4.7820093132
 30
0.0
 10
5.497576192
 20
4.7843635987
 30
0.0
 10
5.4983644055
 20
4.7867772474
 30
0.0
 10
5.498896034
 20
4.7887386646
 30
0.0
 10
5.4993601896
 20
4.7907196208
 30
0.0
 10
5.4998113739
 20
4.7932260435
 30
0.0
 10
5.500140137
 20
4.7962657399
 30
0.0
 10
5.5002506873
 20
4.7993226312
 30
0.0
 10
5.5001616033
 20
4.8018708897
 30
0.0
 10
5.4999818435
 20
4.8039013166
 30
0.0
 10
5.4997297836
 20
4.805923229
 30
0.0
 10
5.4992810449
 20
4.8084307746
 30
0.0
 10
5.4986602576
 20
4.8109002256
 30
0.0
 10
5.498064226
 20
4.8128452742
 30
0.0
 10
5.4974034743
 20
4.8147665763
 30
0.0
 10
5.4964589665
 20
4.8171229322
 30
0.0
 10
5.4951479571
 20
4.8198685116
 30
0.0
 10
5.493671422
 20
4.8225229561
 30
0.0
 10
5.4920402952
 20
4.8250788195
 30
0.0
 10
5.4902670048
 20
4.8275317625
 30
0.0
 10
5.4883632353
 20
4.8298790308
 30
0.0
 10
5.485668759
 20
4.8328616077
 30
0.0
 10
5.4820300698
 20
4.8363164643
 30
0.0
 10
5.4788772162
 20
4.838793632
 30
0.0
 10
5.4772543596
 20
4.8399593663
 30
0.0
 11
5.4772543596
 21
4.7587436043
 31
0.0
 11
5.4819592622
 21
4.7624490442
 31
0.0
 11
5.486309447
 21
4.7665895948
 31
0.0
 11
5.4883278066
 21
4.7688236802
 31
0.0
 11
5.4902276609
 21
4.7711658039
 31
0.0
 11
5.4919977251
 21
4.7736137237
 31
0.0
 11
5.4936263555
 21
4.7761641429
 31
0.0
 11
5.4951015506
 21
4.7788121838
 31
0.0
 11
5.4957778707
 21
4.7801709023
 31
0.0
 11
5.4964113719
 21
4.7815514277
 31
0.0
 11
5.4975440688
 21
4.7843737324
 31
0.0
 11
5.498488758
 21
4.7872690747
 31
0.0
 11
5.4988874441
 21
4.7887404946
 31
0.0
 11
5.4992354072
 21
4.79022574
 31
0.0
 11
5.4997757891
 21
4.7932303775
 31
0.0
 11
5.5001037091
 21
4.7962678342
 31
0.0
 11
5.500214442
 21
4.7993225322
 31
0.0
 11
5.500107619
 21
4.8023778468
 31
0.0
 11
5.499972781
 21
4.8039004747
 31
0.0
 11
5.4997838104
 21
4.8054169673
 31
0.0
 11
5.4992464395
 21
4.8084240646
 31
0.0
 11
5.4985027677
 21
4.8113846305
 31
0.0
 11
5.4980559225
 21
4.8128429593
 31
0.0
 11
5.4975603696
 21
4.8142843039
 31
0.0
 11
5.4964286075
 21
4.8171109718
 31
0.0
 11
5.4951192297
 21
4.819855522
 31
0.0
 11
5.4936441506
 21
4.8225090511
 31
0.0
 11
5.4920152134
 21
4.8250637138
 31
0.0
 11
5.4902439825
 21
4.8275158166
 31
0.0
 11
5.4883419533
 21
4.8298626843
 31
0.0
 11
5.4863206188
 21
4.8321016467
 31
0.0
 11
5.4819634243
 21
4.8362501737
 31
0.0
 11
5.4772543596
 21
4.8399593663
 31
0.0
  0
SPLINE
  5
25F
100
AcDbEntity
  8
0
100
AcDbSpline
 62
7
  6
CONTINUOUS
 70
0
 71
3
 72
39
 73
35
 74
33
 42
0.0000001
 43
0.0000001
 44
0.0000000001
 12
0.0774140976
 22
0.0571295812
 32
0.0
 13
-0.0774140976
 23
0.0571295812
 33
0.0
 40
0.0
 40
0.0
 40
0.0
 40
0.0
 40
0.0612287985
 40
0.1227837176
 40
0.153705423
 40
0.1847221438
 40
0.2158353298
 40
0.2470471351
 40
0.2783561714
 40
0.2940485894
 40
0.3097636975
 40
0.3412568277
 40
0.3728314282
 40
0.3886479106
 40
0.4044814441
 40
0.4361857325
 40
0.4679300501
 40
0.4996994954
 40
0.5314739756
 40
0.5473584337
 40
0.5632359587
 40
0.594960197
 40
0.6266379342
 40
0.6424551915
 40
0.6582527705
 40
0.6897847111
 40
0.7212365601
 40
0.752595195
 40
0.7838461043
 40
0.8150016416
 40
0.8460706989
 40
0.877050348
 40
0.9387139326
 40
1.0
 40
1.0
 40
1.0
 40
1.0
 10
5.435371338
 20
4.7587436043
 30
0.0
 10
5.4369513288
 20
4.7599095961
 30
0.0
 10
5.4400200925
 20
4.762386677
 30
0.0
 10
5.4435546757
 20
4.7658346637
 30
0.0
 10
5.4461720305
 20
4.7688091324
 30
0.0
 10
5.4480230033
 20
4.7711518651
 30
0.0
 10
5.4497476706
 20
4.7736005672
 30
0.0
 10
5.451334596
 20
4.7761518481
 30
0.0
 10
5.4525317549
 20
4.7783579669
 30
0.0
 10
5.4534089889
 20
4.7801682591
 30
0.0
 10
5.4542319734
 20
4.7820103238
 30
0.0
 10
5.4551525901
 20
4.7843652122
 30
0.0
 10
5.455919477
 20
4.7867780841
 30
0.0
 10
5.4564367969
 20
4.7887389836
 30
0.0
 10
5.4568886492
 20
4.7907202551
 30
0.0
 10
5.4573277885
 20
4.7932268327
 30
0.0
 10
5.4576477153
 20
4.7962661508
 30
0.0
 10
5.4577552921
 20
4.7993226367
 30
0.0
 10
5.4576686004
 20
4.8018706834
 30
0.0
 10
5.4574936295
 20
4.8039011665
 30
0.0
 10
5.4572483295
 20
4.8059227445
 30
0.0
 10
5.4568117061
 20
4.8084296531
 30
0.0
 10
5.4562074469
 20
4.8108994279
 30
0.0
 10
5.4556271811
 20
4.8128448932
 30
0.0
 10
5.4549842362
 20
4.8147656187
 30
0.0
 10
5.4540652928
 20
4.8171211816
 30
0.0
 10
5.4527893622
 20
4.8198666916
 30
0.0
 10
5.4513523022
 20
4.8225211127
 30
0.0
 10
5.4497647339
 20
4.8250770169
 30
0.0
 10
5.4480387579
 20
4.8275300384
 30
0.0
 10
5.446185749
 20
4.8298774089
 30
0.0
 10
5.4435648526
 20
4.8328581309
 30
0.0
 10
5.4400254646
 20
4.8363115399
 30
0.0
 10
5.4369528066
 20
4.8387922838
 30
0.0
 10
5.435371338
 20
4.8399593663
 30
0.0
 11
5.435371338
 21
4.7587436043
 31
0.0
 11
5.4399509543
 21
4.7624490442
 31
0.0
 11
5.4441852985
 21
4.7665895948
 31
0.0
 11
5.4461499113
 21
4.7688236802
 31
0.0
 11
5.4479991746
 21
4.7711658039
 31
0.0
 11
5.4497221039
 21
4.7736137237
 31
0.0
 11
5.4513073657
 21
4.7761641429
 31
0.0
 11
5.452743278
 21
4.7788121838
 31
0.0
 11
5.4534015884
 21
4.7801709023
 31
0.0
 11
5.4540182202
 21
4.7815514277
 31
0.0
 11
5.4551207546
 21
4.7843737324
 31
0.0
 11
5.4560402878
 21
4.7872690747
 31
0.0
 11
5.4564283573
 21
4.7887404946
 31
0.0
 11
5.4567670545
 21
4.79022574
 31
0.0
 11
5.4572930467
 21
4.7932303775
 31
0.0
 11
5.4576122345
 21
4.7962678342
 31
0.0
 11
5.4577200187
 21
4.7993225322
 31
0.0
 11
5.4576160403
 21
4.8023778468
 31
0.0
 11
5.4574847929
 21
4.8039004747
 31
0.0
 11
5.4573008543
 21
4.8054169673
 31
0.0
 11
5.4567777931
 21
4.8084240646
 31
0.0
 11
5.4560539244
 21
4.8113846305
 31
0.0
 11
5.4556189782
 21
4.8128429593
 31
0.0
 11
5.4551366214
 21
4.8142843039
 31
0.0
 11
5.4540349968
 21
4.8171109718
 31
0.0
 11
5.4527604863
 21
4.819855522
 31
0.0
 11
5.4513246869
 21
4.8225090511
 31
0.0
 11
5.4497391266
 21
4.8250637138
 31
0.0
 11
5.4480150616
 21
4.8275158166
 31
0.0
 11
5.4461636813
 21
4.8298626843
 31
0.0
 11
5.4441961727
 21
4.8321016467
 31
0.0
 11
5.4399550056
 21
4.8362501737
 31
0.0
 11
5.435371338
 21
4.8399593663
 31
0.0
  0
SPLINE
  5
260
100
AcDbEntity
  8
0
100
AcDbSpline
 62
7
  6
CONTINUOUS
 70
0
 71
3
 72
39
 73
35
 74
33
 42
0.0000001
 43
0.0000001
 44
0.0000000001
 12
-0.0357200193
 22
-0.0752946662
 32
0.0
 13
0.0357200193
 23
-0.0752946662
 33
0.0
 40
0.0
 40
0.0
 40
0.0
 40
0.0
 40
0.0236928773
 40
0.0484478505
 40
0.0742846486
 40
0.1012207866
 40
0.129267421
 40
0.1584221175
 40
0.1886718365
 40
0.219988645
 40
0.2523287805
 40
0.2856295967
 40
0.3198095526
 40
0.3547642623
 40
0.390374629
 40
0.4264936686
 40
0.4629689371
 40
0.4996292592
 40
0.5362944737
 40
0.5727877223
 40
0.6089444881
 40
0.6446028597
 40
0.6796076859
 40
0.713844944
 40
0.7472152144
 40
0.779619084
 40
0.8109868811
 40
0.8412923739
 40
0.8705121149
 40
0.8986225831
 40
0.9256156098
 40
0.9515019223
 40
0.9762929997
 40
1.0
 40
1.0
 40
1.0
 40
1.0
 10
5.435371338
 20
4.8399593663
 30
0.0
 10
5.4350892347
 20
4.8393647172
 30
0.0
 10
5.4345341301
 20
4.8381383363
 30
0.0
 10
5.4337466391
 20
4.8362305498
 30
0.0
 10
5.4329893545
 20
4.8342140205
 30
0.0
 10
5.432265506
 20
4.8320884341
 30
0.0
 10
5.4315784557
 20
4.8298540624
 30
0.0
 10
5.4309318389
 20
4.8275120286
 30
0.0
 10
5.4303294742
 20
4.8250645716
 30
0.0
 10
5.4297753504
 20
4.8225151188
 30
0.0
 10
5.4292734868
 20
4.8198685522
 30
0.0
 10
5.4288279835
 20
4.8171313062
 30
0.0
 10
5.4284427743
 20
4.8143116063
 30
0.0
 10
5.428121503
 20
4.8114193467
 30
0.0
 10
5.4278677497
 20
4.8084663181
 30
0.0
 10
5.4276838187
 20
4.8054657985
 30
0.0
 10
5.4275725869
 20
4.8024325167
 30
0.0
 10
5.4275348112
 20
4.7993822645
 30
0.0
 10
5.4275708413
 20
4.7963314851
 30
0.0
 10
5.4276812025
 20
4.7932964862
 30
0.0
 10
5.427863751
 20
4.7902930006
 30
0.0
 10
5.4281162562
 20
4.7873360741
 30
0.0
 10
5.4284369004
 20
4.7844393971
 30
0.0
 10
5.4288218577
 20
4.7816147047
 30
0.0
 10
5.4292670029
 20
4.7788720414
 30
0.0
 10
5.4297686236
 20
4.776220218
 30
0.0
 10
5.4303230383
 20
4.7736659783
 30
0.0
 10
5.4309259178
 20
4.7712137327
 30
0.0
 10
5.4315732906
 20
4.7688665855
 30
0.0
 10
5.4322613535
 20
4.7666271234
 30
0.0
 10
5.4329864813
 20
4.7644969741
 30
0.0
 10
5.433745004
 20
4.7624766798
 30
0.0
 10
5.4345334402
 20
4.7605662852
 30
0.0
 10
5.4350890665
 20
4.7593386078
 30
0.0
 10
5.435371338
 20
4.7587436043
 30
0.0
 11
5.435371338
 21
4.8399593663
 31
0.0
 11
5.4345562267
 21
4.8381609497
 31
0.0
 11
5.4337681987
 21
4.8362543573
 31
0.0
 11
5.4330103582
 21
4.8342389461
 31
0.0
 11
5.4322858841
 21
4.8321142649
 31
0.0
 11
5.431598117
 21
4.8298803959
 31
0.0
 11
5.4309507287
 21
4.8275385401
 31
0.0
 11
5.430347542
 21
4.8250908175
 31
0.0
 11
5.4297925539
 21
4.8225406318
 31
0.0
 11
5.4292898212
 21
4.8198927755
 31
0.0
 11
5.428843452
 21
4.8171536877
 31
0.0
 11
5.428457404
 21
4.814331483
 31
0.0
 11
5.4281354375
 21
4.8114362781
 31
0.0
 11
5.4278809584
 21
4.8084795156
 31
0.0
 11
5.4276966758
 21
4.8054750769
 31
0.0
 11
5.4275850374
 21
4.8024373551
 31
0.0
 11
5.4275471322
 21
4.7993823958
 31
0.0
 11
5.4275834204
 21
4.7963270091
 31
0.0
 11
5.4276939319
 21
4.7932877467
 31
0.0
 11
5.4278769403
 21
4.7902800801
 31
0.0
 11
5.4281302676
 21
4.7873192035
 31
0.0
 11
5.4284515442
 21
4.7844197198
 31
0.0
 11
5.4288372361
 21
4.7815926467
 31
0.0
 11
5.429283373
 21
4.7788476567
 31
0.0
 11
5.4297859834
 21
4.7761943711
 31
0.0
 11
5.4303410992
 21
4.7736398645
 31
0.0
 11
5.4309447567
 21
4.771187471
 31
0.0
 11
5.4315929929
 21
4.7688402257
 31
0.0
 11
5.4322818506
 21
4.7666011262
 31
0.0
 11
5.4330075868
 21
4.7644718664
 31
0.0
 11
5.4337667222
 21
4.7624525337
 31
0.0
 11
5.4345557936
 21
4.7605431168
 31
0.0
 11
5.435371338
 21
4.7587436043
 31
0.0
  0
SPLINE
  5
261
100
AcDbEntity
  8
0
100
AcDbSpline
 62
7
  6
CONTINUOUS
 70
0
 71
3
 72
39
 73
35
 74
33
 42
0.0000001
 43
0.0000001
 44
0.0000000001
 12
0.0756872973
 22
0.0579056435
 32
0.0
 13
-0.0756872973
 23
0.0579056435
 33
0.0
 40
0.0
 40
0.0
 40
0.0
 40
0.0
 40
0.060502875
 40
0.0909572279
 40
0.121551624
 40
0.1522928366
 40
0.1831860487
 40
0.2142336949
 40
0.2454380191
 40
0.2767966268
 40
0.308304685
 40
0.3399532078
 40
0.3717289957
 40
0.3876610655
 40
0.4036190034
 40
0.4355943527
 40
0.4676310596
 40
0.4997039255
 40
0.531781971
 40
0.547814716
 40
0.5638364901
 40
0.5958323697
 40
0.6277512232
 40
0.6436748005
 40
0.6595679771
 40
0.6912561065
 40
0.7228131834
 40
0.7542223049
 40
0.7854663802
 40
0.8165568024
 40
0.8475026026
 40
0.8783018052
 40
0.9394404006
 40
1.0
 40
1.0
 40
1.0
 40
1.0
 10
5.3916373472
 20
4.7587436043
 30
0.0
 10
5.3931637802
 20
4.7599114236
 30
0.0
 10
5.3953833263
 20
4.7617694612
 30
0.0
 10
5.3981628764
 20
4.7644510937
 30
0.0
 10
5.4001607461
 20
4.7665766159
 30
0.0
 10
5.4020573362
 20
4.7688112865
 30
0.0
 10
5.403842647
 20
4.7711541177
 30
0.0
 10
5.4055061161
 20
4.7736029001
 30
0.0
 10
5.4070367086
 20
4.7761542511
 30
0.0
 10
5.4084231546
 20
4.7788033553
 30
0.0
 10
5.4096542581
 20
4.7815437437
 30
0.0
 10
5.4107188474
 20
4.7843672302
 30
0.0
 10
5.411458174
 20
4.7867791474
 30
0.0
 10
5.4119569891
 20
4.7887393858
 30
0.0
 10
5.4123929107
 20
4.7907210552
 30
0.0
 10
5.4128164628
 20
4.7932278245
 30
0.0
 10
5.4131249622
 20
4.7962666663
 30
0.0
 10
5.4132286939
 20
4.7993226437
 30
0.0
 10
5.4131450963
 20
4.8018704245
 30
0.0
 10
5.4129763235
 20
4.803900978
 30
0.0
 10
5.4127397674
 20
4.8059221355
 30
0.0
 10
5.4123188062
 20
4.8084282393
 30
0.0
 10
5.4117359412
 20
4.8108984186
 30
0.0
 10
5.4111760933
 20
4.8128444099
 30
0.0
 10
5.4105561747
 20
4.8147644009
 30
0.0
 10
5.409670282
 20
4.8171189432
 30
0.0
 10
5.408439745
 20
4.8198643505
 30
0.0
 10
5.407053773
 20
4.8225187263
 30
0.0
 10
5.4055225833
 20
4.8250746679
 30
0.0
 10
5.4038578514
 20
4.8275277766
 30
0.0
 10
5.4020705502
 20
4.8298752672
 30
0.0
 10
5.3995448143
 20
4.8328535075
 30
0.0
 10
5.3961339261
 20
4.8363049092
 30
0.0
 10
5.3931652113
 20
4.8387904521
 30
0.0
 10
5.3916373472
 20
4.8399593663
 30
0.0
 11
5.3916373472
 21
4.7587436043
 31
0.0
 11
5.3960548026
 21
4.7624490442
 31
0.0
 11
5.3981429387
 21
4.7644646349
 31
0.0
 11
5.4001392118
 21
4.7665895948
 31
0.0
 11
5.4020342592
 21
4.7688236802
 31
0.0
 11
5.4038180414
 21
4.7711658039
 31
0.0
 11
5.4054799631
 21
4.7736137237
 31
0.0
 11
5.407009092
 21
4.7761641429
 31
0.0
 11
5.4083941597
 21
4.7788121838
 31
0.0
 11
5.4096239571
 21
4.7815514277
 31
0.0
 11
5.4106874516
 21
4.7843737324
 31
0.0
 11
5.4115744248
 21
4.7872690747
 31
0.0
 11
5.4119487531
 21
4.7887404946
 31
0.0
 11
5.4122754572
 21
4.79022574
 31
0.0
 11
5.4127828244
 21
4.7932303775
 31
0.0
 11
5.41309071
 21
4.7962678342
 31
0.0
 11
5.4131946777
 21
4.7993225322
 31
0.0
 11
5.413094381
 21
4.8023778468
 31
0.0
 11
5.4129677811
 21
4.8039004747
 31
0.0
 11
5.4127903556
 21
4.8054169673
 31
0.0
 11
5.4122858155
 21
4.8084240646
 31
0.0
 11
5.4115875785
 21
4.8113846305
 31
0.0
 11
5.4111680335
 21
4.8128429593
 31
0.0
 11
5.4107027565
 21
4.8142843039
 31
0.0
 11
5.4096401397
 21
4.8171109718
 31
0.0
 11
5.4084107586
 21
4.819855522
 31
0.0
 11
5.4070257998
 21
4.8225090511
 31
0.0
 11
5.405496383
 21
4.8250637138
 31
0.0
 11
5.4038333659
 21
4.8275158166
 31
0.0
 11
5.4020475416
 21
4.8298626843
 31
0.0
 11
5.400149701
 21
4.8321016467
 31
0.0
 11
5.3960587105
 21
4.8362501737
 31
0.0
 11
5.3916373472
 21
4.8399593663
 31
0.0
  0
SPLINE
  5
262
100
AcDbEntity
  8
0
100
AcDbSpline
 62
7
  6
CONTINUOUS
 70
0
 71
3
 72
31
 73
27
 74
25
 42
0.0000001
 43
0.0000001
 44
0.0000000001
 12
-0.0496140778
 22
-0.0700031149
 32
0.0
 13
0.0496140778
 23
-0.0700031149
 33
0.0
 40
0.0
 40
0.0
 40
0.0
 40
0.0
 40
0.0514174133
 40
0.106138191
 40
0.1643138494
 40
0.2259550738
 40
0.2908769284
 40
0.3244487692
 40
0.3586541247
 40
0.3933980984
 40
0.4285607345
 40
0.4640178908
 40
0.4996287406
 40
0.5352440601
 40
0.5707180751
 40
0.6059161574
 40
0.6407051411
 40
0.6749577281
 40
0.7085839237
 40
0.7415056207
 40
0.7736434218
 40
0.8049451786
 40
0.8353985155
 40
0.8937011246
 40
0.9485302583
 40
1.0
 40
1.0
 40
1.0
 40
1.0
 10
5.346404527
 20
4.8399593663
 30
0.0
 10
5.3455541844
 20
4.8387595732
 30
0.0
 10
5.3439072984
 20
4.8362044669
 30
0.0
 10
5.3416937674
 20
4.832053397
 30
0.0
 10
5.339702209
 20
4.82747023
 30
0.0
 10
5.3379771409
 20
4.8224707838
 30
0.0
 10
5.3368138607
 20
4.8180361827
 30
0.0
 10
5.3360544819
 20
4.8143169484
 30
0.0
 10
5.3355741616
 20
4.8114236675
 30
0.0
 10
5.3351947895
 20
4.8084696022
 30
0.0
 10
5.3349198048
 20
4.8054680245
 30
0.0
 10
5.3347535066
 20
4.802433634
 30
0.0
 10
5.3346970302
 20
4.7993822782
 30
0.0
 10
5.3347508976
 20
4.7963303788
 30
0.0
 10
5.3349158933
 20
4.7932942883
 30
0.0
 10
5.3351888097
 20
4.7902897404
 30
0.0
 10
5.3355663224
 20
4.7873317371
 30
0.0
 10
5.3360456998
 20
4.7844340804
 30
0.0
 10
5.3366212191
 20
4.7816084778
 30
0.0
 10
5.3372867328
 20
4.7788649071
 30
0.0
 10
5.3380366854
 20
4.776212235
 30
0.0
 10
5.3388655663
 20
4.7736572201
 30
0.0
 10
5.3400501018
 20
4.7704335798
 30
0.0
 10
5.3416872426
 20
4.7666622705
 30
0.0
 10
5.3439041966
 20
4.7625037866
 30
0.0
 10
5.345553319
 20
4.7599446183
 30
0.0
 10
5.346404527
 20
4.7587436043
 30
0.0
 11
5.346404527
 21
4.8399593663
 31
0.0
 11
5.3440094947
 21
4.8362543573
 31
0.0
 11
5.3417949703
 21
4.8321142649
 31
0.0
 11
5.3398002965
 21
4.8275385401
 31
0.0
 11
5.3380700252
 21
4.8225406318
 31
0.0
 11
5.3366521013
 21
4.8171536877
 31
0.0
 11
5.3360753595
 21
4.814331483
 31
0.0
 11
5.3355943532
 21
4.8114362781
 31
0.0
 11
5.3352141705
 21
4.8084795156
 31
0.0
 11
5.3349388591
 21
4.8054750769
 31
0.0
 11
5.3347720753
 21
4.8024373551
 31
0.0
 11
5.3347154463
 21
4.7993823958
 31
0.0
 11
5.3347696596
 21
4.7963270091
 31
0.0
 11
5.3349347598
 21
4.7932877467
 31
0.0
 11
5.3352081677
 21
4.7902800801
 31
0.0
 11
5.3355866295
 21
4.7873192035
 31
0.0
 11
5.3360666051
 21
4.7844197198
 31
0.0
 11
5.336642815
 21
4.7815926467
 31
0.0
 11
5.3373093273
 21
4.7788476567
 31
0.0
 11
5.338060209
 21
4.7761943711
 31
0.0
 11
5.3388895319
 21
4.7736398645
 31
0.0
 11
5.3397913746
 21
4.771187471
 31
0.0
 11
5.3417889444
 21
4.7666011262
 31
0.0
 11
5.3440072889
 21
4.7624525337
 31
0.0
 11
5.346404527
 21
4.7587436043
 31
0.0
  0
SPLINE
  5
263
100
AcDbEntity
  8
0
100
AcDbSpline
 62
7
  6
CONTINUOUS
 70
0
 71
3
 72
40
 73
36
 74
34
 42
0.0000001
 43
0.0000001
 44
0.0000000001
 12
0.0709269456
 22
0.0601068587
 32
0.0
 13
-0.0709269456
 23
0.0601068587
 33
0.0
 40
0.0
 40
0.0
 40
0.0
 40
0.0
 40
0.0291547242
 40
0.058569319
 40
0.0882538283
 40
0.1182235232
 40
0.1484902371
 40
0.1790627271
 40
0.2099449858
 40
0.2411384206
 40
0.2726369382
 40
0.3044287181
 40
0.3364942771
 40
0.3688060272
 40
0.3850448582
 40
0.4013323031
 40
0.4340239503
 40
0.466831737
 40
0.4997039723
 40
0.5325817614
 40
0.5490054189
 40
0.5654077463
 40
0.5981214276
 40
0.6306794751
 40
0.646885868
 40
0.6630340851
 40
0.6951413386
 40
0.7269845052
 40
0.7585359622
 40
0.7897708747
 40
0.8206970564
 40
0.8513228298
 40
0.8816476857
 40
0.9413908739
 40
1.0
 40
1.0
 40
1.0
 40
1.0
 10
5.3000370856
 20
4.7587436043
 30
0.0
 10
5.3007263708
 20
4.7593277372
 30
0.0
 10
5.3020849495
 20
4.7605324748
 30
0.0
 10
5.3040464037
 20
4.7624398444
 30
0.0
 10
5.3059328905
 20
4.7644562879
 30
0.0
 10
5.30773635
 20
4.7665821389
 30
0.0
 10
5.3094483774
 20
4.7688171541
 30
0.0
 10
5.3110598378
 20
4.7711602269
 30
0.0
 10
5.3125612287
 20
4.7736091499
 30
0.0
 10
5.3139425869
 20
4.7761605036
 30
0.0
 10
5.3151937548
 20
4.7788094482
 30
0.0
 10
5.3163046478
 20
4.781549496
 30
0.0
 10
5.3172652065
 20
4.784372449
 30
0.0
 10
5.3179317019
 20
4.7867818148
 30
0.0
 10
5.318381603
 20
4.7887403969
 30
0.0
 10
5.3187753012
 20
4.7907230533
 30
0.0
 10
5.3191575921
 20
4.7932302887
 30
0.0
 10
5.3194358791
 20
4.7962679427
 30
0.0
 10
5.3195294465
 20
4.7993226609
 30
0.0
 10
5.3194540301
 20
4.8018697836
 30
0.0
 10
5.3193016701
 20
4.8039005105
 30
0.0
 10
5.3190882406
 20
4.8059206218
 30
0.0
 10
5.3187086576
 20
4.8084247079
 30
0.0
 10
5.3181824552
 20
4.8108958776
 30
0.0
 10
5.317676741
 20
4.8128431873
 30
0.0
 10
5.3171176852
 20
4.8147613048
 30
0.0
 10
5.3163191084
 20
4.817113192
 30
0.0
 10
5.3152087236
 20
4.8198582624
 30
0.0
 10
5.3139580034
 20
4.8225124394
 30
0.0
 10
5.312576105
 20
4.8250683943
 30
0.0
 10
5.311073572
 20
4.8275216509
 30
0.0
 10
5.3094603108
 20
4.829869385
 30
0.0
 10
5.3071860963
 20
4.8328406183
 30
0.0
 10
5.3041152539
 20
4.8362859153
 30
0.0
 10
5.301422741
 20
4.8387850961
 30
0.0
 10
5.3000370856
 20
4.8399593663
 30
0.0
 11
5.3000370856
 21
4.7587436043
 31
0.0
 11
5.3020648306
 21
4.7605422644
 31
0.0
 11
5.3040251053
 21
4.7624490442
 31
0.0
 11
5.3059102466
 21
4.7644646349
 31
0.0
 11
5.3077124554
 21
4.7665895948
 31
0.0
 11
5.3094232788
 21
4.7688236802
 31
0.0
 11
5.3110336536
 21
4.7711658039
 31
0.0
 11
5.3125340143
 21
4.7736137237
 31
0.0
 11
5.3139144913
 21
4.7761641429
 31
0.0
 11
5.3151649119
 21
4.7788121838
 31
0.0
 11
5.3162751566
 21
4.7815514277
 31
0.0
 11
5.3172352652
 21
4.7843737324
 31
0.0
 11
5.3180360128
 21
4.7872690747
 31
0.0
 11
5.3183739514
 21
4.7887404946
 31
0.0
 11
5.3186688955
 21
4.79022574
 31
0.0
 11
5.3191269398
 21
4.7932303775
 31
0.0
 11
5.3194048948
 21
4.7962678342
 31
0.0
 11
5.3194987554
 21
4.7993225322
 31
0.0
 11
5.319408209
 21
4.8023778468
 31
0.0
 11
5.3192939162
 21
4.8039004747
 31
0.0
 11
5.3191337389
 21
4.8054169673
 31
0.0
 11
5.3186782469
 21
4.8084240646
 31
0.0
 11
5.3180478878
 21
4.8113846305
 31
0.0
 11
5.3176691281
 21
4.8128429593
 31
0.0
 11
5.3172490823
 21
4.8142843039
 31
0.0
 11
5.3162897661
 21
4.8171109718
 31
0.0
 11
5.3151798973
 21
4.819855522
 31
0.0
 11
5.313929575
 21
4.8225090511
 31
0.0
 11
5.3125488379
 21
4.8250637138
 31
0.0
 11
5.3110474882
 21
4.8275158166
 31
0.0
 11
5.30943527
 21
4.8298626843
 31
0.0
 11
5.3077219249
 21
4.8321016467
 31
0.0
 11
5.3040286333
 21
4.8362501737
 31
0.0
 11
5.3000370856
 21
4.8399593663
 31
0.0
  0
SPLINE
  5
264
100
AcDbEntity
  8
0
100
AcDbSpline
 62
7
  6
CONTINUOUS
 70
0
 71
3
 72
30
 73
26
 74
24
 42
0.0000001
 43
0.0000001
 44
0.0000000001
 12
-0.0552161223
 22
-0.0675168859
 32
0.0
 13
0.0552161223
 23
-0.0675168859
 33
0.0
 40
0.0
 40
0.0
 40
0.0
 40
0.0
 40
0.0529945499
 40
0.1087751219
 40
0.1675000245
 40
0.2292053015
 40
0.2937538114
 40
0.3269985271
 40
0.3607972222
 40
0.3950683185
 40
0.4297069687
 40
0.4646050148
 40
0.4996388801
 40
0.5346769755
 40
0.5695912494
 40
0.6042640651
 40
0.6385784921
 40
0.672422808
 40
0.7057202423
 40
0.738404154
 40
0.770405618
 40
0.8322110269
 40
0.8910619236
 40
0.9469519729
 40
1.0
 40
1.0
 40
1.0
 40
1.0
 10
5.3000370856
 20
4.8399593663
 30
0.0
 10
5.2990617011
 20
4.8387666906
 30
0.0
 10
5.2971701993
 20
4.8362261751
 30
0.0
 10
5.2946132137
 20
4.8320747919
 30
0.0
 10
5.2923122405
 20
4.8274902777
 30
0.0
 10
5.2903188825
 20
4.8224885148
 30
0.0
 10
5.288972602
 20
4.8180447609
 30
0.0
 10
5.2880948903
 20
4.8143200544
 30
0.0
 10
5.2875404174
 20
4.8114262186
 30
0.0
 10
5.2871024779
 20
4.8084715539
 30
0.0
 10
5.286785039
 20
4.805469356
 30
0.0
 10
5.2865930643
 20
4.8024343045
 30
0.0
 10
5.2865278683
 20
4.7993822864
 30
0.0
 10
5.286590053
 20
4.7963297147
 30
0.0
 10
5.2867805235
 20
4.7932929738
 30
0.0
 10
5.2870955739
 20
4.7902878016
 30
0.0
 10
5.2875313715
 20
4.7873291798
 30
0.0
 10
5.288084752
 20
4.7844309754
 30
0.0
 10
5.2887490999
 20
4.7816048993
 30
0.0
 10
5.2895173449
 20
4.7788608278
 30
0.0
 10
5.2906584145
 20
4.7753638791
 30
0.0
 10
5.2923022361
 20
4.7712349142
 30
0.0
 10
5.2946056737
 20
4.7666408856
 30
0.0
 10
5.2971666633
 20
4.7624820059
 30
0.0
 10
5.2990607168
 20
4.7599374834
 30
0.0
 10
5.3000370856
 20
4.7587436043
 30
0.0
 11
5.3000370856
 21
4.8399593663
 31
0.0
 11
5.2972734721
 21
4.8362543573
 31
0.0
 11
5.2947181455
 21
4.8321142649
 31
0.0
 11
5.2924165032
 21
4.8275385401
 31
0.0
 11
5.2904199534
 21
4.8225406318
 31
0.0
 11
5.2887838194
 21
4.8171536877
 31
0.0
 11
5.2881183205
 21
4.814331483
 31
0.0
 11
5.2875632902
 21
4.8114362781
 31
0.0
 11
5.2871245997
 21
4.8084795156
 31
0.0
 11
5.2868069194
 21
4.8054750769
 31
0.0
 11
5.2866144686
 21
4.8024373551
 31
0.0
 11
5.2865491248
 21
4.7993823958
 31
0.0
 11
5.2866116811
 21
4.7963270091
 31
0.0
 11
5.2868021893
 21
4.7932877467
 31
0.0
 11
5.287117673
 21
4.7902800801
 31
0.0
 11
5.2875543779
 21
4.7873192035
 31
0.0
 11
5.2881082188
 21
4.7844197198
 31
0.0
 11
5.288773104
 21
4.7815926467
 31
0.0
 11
5.2895421886
 21
4.7788476567
 31
0.0
 11
5.2904086266
 21
4.7761943711
 31
0.0
 11
5.2924062082
 21
4.771187471
 31
0.0
 11
5.2947111923
 21
4.7666011262
 31
0.0
 11
5.2972709268
 21
4.7624525337
 31
0.0
 11
5.3000370856
 21
4.7587436043
 31
0.0
  0
SPLINE
  5
265
100
AcDbEntity
  8
0
100
AcDbSpline
 62
7
  6
CONTINUOUS
 70
0
 71
3
 72
39
 73
35
 74
33
 42
0.0000001
 43
0.0000001
 44
0.0000000001
 12
0.0678420145
 22
0.0615652306
 32
0.0
 13
-0.0678420145
 23
0.0615652306
 33
0.0
 40
0.0
 40
0.0
 40
0.0
 40
0.0
 40
0.0285080516
 40
0.0573608745
 40
0.0865724712
 40
0.1161613068
 40
0.1461416065
 40
0.1765235455
 40
0.2073112688
 40
0.2385048826
 40
0.2700953002
 40
0.302065808
 40
0.3343900441
 40
0.3670313669
 40
0.3834579981
 40
0.3999467041
 40
0.4330746924
 40
0.4663510836
 40
0.4997085558
 40
0.5330718042
 40
0.5497329276
 40
0.5663666277
 40
0.5995175452
 40
0.6324664025
 40
0.6488464018
 40
0.6651517142
 40
0.697518904
 40
0.7295422352
 40
0.7611870727
 40
0.7924232267
 40
0.8232555887
 40
0.8837108583
 40
0.9425999707
 40
1.0
 40
1.0
 40
1.0
 40
1.0
 10
5.2529083673
 20
4.7587436043
 30
0.0
 10
5.2535530485
 20
4.7593286392
 30
0.0
 10
5.2548236964
 20
4.7605353921
 30
0.0
 10
5.2566553588
 20
4.7624430075
 30
0.0
 10
5.2584169712
 20
4.7644596761
 30
0.0
 10
5.2601010034
 20
4.7665857189
 30
0.0
 10
5.2616996089
 20
4.7688208841
 30
0.0
 10
5.2632042559
 20
4.7711640486
 30
0.0
 10
5.2646060771
 20
4.773612995
 30
0.0
 10
5.2658957738
 20
4.7761642899
 30
0.0
 10
5.2670638705
 20
4.7788130826
 30
0.0
 10
5.2681009633
 20
4.7815528799
 30
0.0
 10
5.2689976722
 20
4.784375481
 30
0.0
 10
5.2696195544
 20
4.7867833488
 30
0.0
 10
5.2700394661
 20
4.7887409758
 30
0.0
 10
5.2704072016
 20
4.7907241921
 30
0.0
 10
5.270764156
 20
4.7932316839
 30
0.0
 10
5.2710239163
 20
4.7962686626
 30
0.0
 10
5.2711112518
 20
4.7993226707
 30
0.0
 10
5.271040853
 20
4.801869422
 30
0.0
 10
5.270898575
 20
4.8039002462
 30
0.0
 10
5.2706993332
 20
4.8059197643
 30
0.0
 10
5.2703451031
 20
4.8084226958
 30
0.0
 10
5.2698537135
 20
4.8108944172
 30
0.0
 10
5.2693812985
 20
4.8128424807
 30
0.0
 10
5.268859551
 20
4.8147595054
 30
0.0
 10
5.2681144646
 20
4.8171098084
 30
0.0
 10
5.2670778417
 20
4.8198546345
 30
0.0
 10
5.2659101837
 20
4.8225086228
 30
0.0
 10
5.2646199471
 20
4.8250645728
 30
0.0
 10
5.2627619602
 20
4.8283137678
 30
0.0
 10
5.2601851711
 20
4.8321176896
 30
0.0
 10
5.256728544
 20
4.8362730198
 30
0.0
 10
5.2542064118
 20
4.8387814176
 30
0.0
 10
5.2529083673
 20
4.8399593663
 30
0.0
 11
5.2529083673
 21
4.7587436043
 31
0.0
 11
5.2548019721
 21
4.7605422644
 31
0.0
 11
5.2566325698
 21
4.7624490442
 31
0.0
 11
5.2583930045
 21
4.7644646349
 31
0.0
 11
5.2600759928
 21
4.7665895948
 31
0.0
 11
5.2616736411
 21
4.7688236802
 31
0.0
 11
5.2631774857
 21
4.7711658039
 31
0.0
 11
5.2645785939
 21
4.7736137237
 31
0.0
 11
5.2658677491
 21
4.7761641429
 31
0.0
 11
5.2670354513
 21
4.7788121838
 31
0.0
 11
5.2680722506
 21
4.7815514277
 31
0.0
 11
5.2689688457
 21
4.7843737324
 31
0.0
 11
5.2697166219
 21
4.7872690747
 31
0.0
 11
5.270032205
 21
4.7887404946
 31
0.0
 11
5.2703076379
 21
4.79022574
 31
0.0
 11
5.2707353815
 21
4.7932303775
 31
0.0
 11
5.2709949491
 21
4.7962678342
 31
0.0
 11
5.2710826006
 21
4.7993225322
 31
0.0
 11
5.270998044
 21
4.8023778468
 31
0.0
 11
5.270891312
 21
4.8039004747
 31
0.0
 11
5.2707417307
 21
4.8054169673
 31
0.0
 11
5.2703163706
 21
4.8084240646
 31
0.0
 11
5.2697277114
 21
4.8113846305
 31
0.0
 11
5.2693740076
 21
4.8128429593
 31
0.0
 11
5.2689817488
 21
4.8142843039
 31
0.0
 11
5.2680858936
 21
4.8171109718
 31
0.0
 11
5.2670494453
 21
4.819855522
 31
0.0
 11
5.2658818349
 21
4.8225090511
 31
0.0
 11
5.2645924369
 21
4.8250637138
 31
0.0
 11
5.2631904052
 21
4.8275158166
 31
0.0
 11
5.2600848358
 21
4.8321016467
 31
0.0
 11
5.2566358644
 21
4.8362501737
 31
0.0
 11
5.2529083673
 21
4.8399593663
 31
0.0
  0
SPLINE
  5
266
100
AcDbEntity
  8
0
100
AcDbSpline
 62
7
  6
CONTINUOUS
 70
0
 71
3
 72
57
 73
53
 74
51
 42
0.0000001
 43
0.0000001
 44
0.0000000001
 12
0.0663481369
 22
-0.2513883524
 32
0.0
 13
-0.0663550921
 23
-0.2513865178
 33
0.0
 40
0.0
 40
0.0
 40
0.0
 40
0.0
 40
0.0006225979
 40
0.0024845586
 40
0.0055771409
 40
0.0098916136
 40
0.0154164982
 40
0.0221301296
 40
0.0300085444
 40
0.0390278592
 40
0.0491622806
 40
0.0603791307
 40
0.0859240573
 40
0.115383265
 40
0.1484463275
 40
0.1847918698
 40
0.2240753027
 40
0.2447097924
 40
0.2659430452
 40
0.3100114404
 40
0.3327500208
 40
0.3558875121
 40
0.4031403791
 40
0.4271476058
 40
0.4513315738
 40
0.4756332147
 40
0.4999936285
 40
0.5243541044
 40
0.5486558388
 40
0.5728398123
 40
0.596846859
 40
0.6206188247
 40
0.6441009506
 40
0.667238794
 40
0.6899775168
 40
0.7340468788
 40
0.7759154585
 40
0.8152002643
 40
0.8515473061
 40
0.8846117089
 40
0.9140721613
 40
0.9396181541
 40
0.9508355379
 40
0.9609703091
 40
0.9699899321
 40
0.9778687703
 40
0.9845827944
 40
0.9901078943
 40
0.9944224847
 40
0.9975152315
 40
0.9993773388
 40
1.0
 40
1.0
 40
1.0
 40
1.0
 10
4.7154903482
 20
3.7788514853
 30
0.0
 10
4.7155041176
 20
3.778799314
 30
0.0
 10
4.7155589622
 20
3.7785910902
 30
0.0
 10
4.7156812888
 20
3.7781234799
 30
0.0
 10
4.7158834512
 20
3.7773460305
 30
0.0
 10
4.7161637165
 20
3.7762608857
 30
0.0
 10
4.716520033
 20
3.7748712668
 30
0.0
 10
4.716948147
 20
3.7731812005
 30
0.0
 10
4.717443729
 20
3.7711958239
 30
0.0
 10
4.7180022642
 20
3.7689206174
 30
0.0
 10
4.7186189735
 20
3.7663617947
 30
0.0
 10
4.7195515511
 20
3.7624059373
 30
0.0
 10
4.7208198218
 20
3.7568086027
 30
0.0
 10
4.722409869
 20
3.7493434278
 30
0.0
 10
4.7240673311
 20
3.7409364496
 30
0.0
 10
4.72573082
 20
3.7316641415
 30
0.0
 10
4.7270476195
 20
3.7234253787
 30
0.0
 10
4.7280499409
 20
3.7164640405
 30
0.0
 10
4.7290314816
 20
3.7090811925
 30
0.0
 10
4.7299082697
 20
3.7015008594
 30
0.0
 10
4.7306648535
 20
3.693742418
 30
0.0
 10
4.7313497983
 20
3.6857003121
 30
0.0
 10
4.7318903599
 20
3.6775360988
 30
0.0
 10
4.7322745262
 20
3.6692731343
 30
0.0
 10
4.7324839156
 20
3.6629938064
 30
0.0
 10
4.7326110763
 20
3.6566816701
 30
0.0
 10
4.7326540182
 20
3.6503530896
 30
0.0
 10
4.7326110054
 20
3.6440245033
 30
0.0
 10
4.7324839969
 20
3.6377123475
 30
0.0
 10
4.7322747607
 20
3.6314330322
 30
0.0
 10
4.7319850732
 20
3.6252028754
 30
0.0
 10
4.731616836
 20
3.6190378069
 30
0.0
 10
4.7311752067
 20
3.6129531019
 30
0.0
 10
4.7306652069
 20
3.6069636119
 30
0.0
 10
4.7299085971
 20
3.5992050473
 30
0.0
 10
4.7288262464
 20
3.5898479869
 30
0.0
 10
4.7273384192
 20
3.5790971359
 30
0.0
 10
4.7257311381
 20
3.5690408494
 30
0.0
 10
4.7240676643
 20
3.559768154
 30
0.0
 10
4.7224101221
 20
3.5513608337
 30
0.0
 10
4.7208200441
 20
3.5438953413
 30
0.0
 10
4.7195517311
 20
3.5382977634
 30
0.0
 10
4.7186190955
 20
3.5343417461
 30
0.0
 10
4.718002379
 20
3.531782819
 30
0.0
 10
4.7174438415
 20
3.5295075165
 30
0.0
 10
4.7169482253
 20
3.527522048
 30
0.0
 10
4.7165200747
 20
3.5258318987
 30
0.0
 10
4.7161637479
 20
3.5244422175
 30
0.0
 10
4.7158834886
 20
3.5233570267
 30
0.0
 10
4.715681315
 20
3.5225795418
 30
0.0
 10
4.7155589747
 20
3.5221119015
 30
0.0
 10
4.7155041204
 20
3.5219036615
 30
0.0
 10
4.7154903482
 20
3.5218514853
 30
0.0
 11
4.7154903482
 21
3.7788514853
 31
0.0
 11
4.7155315823
 21
3.7786949519
 31
0.0
 11
4.7156542108
 21
3.7782266378
 31
0.0
 11
4.7158566226
 21
3.7774484717
 31
0.0
 11
4.7161372068
 21
3.7763623824
 31
0.0
 11
4.7164938343
 21
3.7749709061
 31
0.0
 11
4.7169224565
 21
3.7732788293
 31
0.0
 11
4.7174185805
 21
3.7712914596
 31
0.0
 11
4.7179777131
 21
3.7690141042
 31
0.0
 11
4.7185949725
 21
3.7664525111
 31
0.0
 11
4.7192641112
 21
3.7636139731
 31
0.0
 11
4.7207318388
 21
3.7571365901
 31
0.0
 11
4.7223268887
 21
3.7496452269
 31
0.0
 11
4.7239893105
 21
3.741211227
 31
0.0
 11
4.7256574646
 21
3.7319099204
 31
0.0
 11
4.7272685222
 21
3.7218242302
 31
0.0
 11
4.7280330922
 21
3.7165140968
 31
0.0
 11
4.7287605651
 21
3.7110416681
 31
0.0
 11
4.7300757144
 21
3.6996597718
 31
0.0
 11
4.7306495866
 21
3.6937757408
 31
0.0
 11
4.7311600502
 21
3.6877817726
 31
0.0
 11
4.7319701638
 21
3.6755229345
 31
0.0
 11
4.7322602212
 21
3.6692878843
 31
0.0
 11
4.7324697904
 21
3.6630036324
 31
0.0
 11
4.7325969255
 21
3.6566865717
 31
0.0
 11
4.7326396809
 21
3.6503530953
 31
0.0
 11
4.732596892
 21
3.6440196031
 31
0.0
 11
4.732469872
 21
3.6377025157
 31
0.0
 11
4.7322604242
 21
3.6314182583
 31
0.0
 11
4.7319703523
 21
3.6251832557
 31
0.0
 11
4.7316021067
 21
3.6190136094
 31
0.0
 11
4.731160282
 21
3.6129243483
 31
0.0
 11
4.7306499169
 21
3.6069302799
 31
0.0
 11
4.7300760499
 21
3.6010462112
 31
0.0
 11
4.728760891
 21
3.5896640629
 31
0.0
 11
4.7272688929
 21
3.5788811135
 31
0.0
 11
4.7256577952
 21
3.5687950683
 31
0.0
 11
4.7239896263
 21
3.5594933682
 31
0.0
 11
4.7223271479
 21
3.5510590243
 31
0.0
 11
4.7207320553
 21
3.5435673393
 31
0.0
 11
4.7192642726
 21
3.5370896846
 31
0.0
 11
4.718595096
 21
3.534251013
 31
0.0
 11
4.7179778286
 21
3.5316893282
 31
0.0
 11
4.7174186904
 21
3.5294118917
 31
0.0
 11
4.7169225324
 21
3.527424417
 31
0.0
 11
4.7164938753
 21
3.5257322437
 31
0.0
 11
4.7161372396
 21
3.5243407118
 31
0.0
 11
4.7158566588
 21
3.52325459
 31
0.0
 11
4.7156542348
 21
3.5224763828
 31
0.0
 11
4.7155315903
 21
3.5220080335
 31
0.0
 11
4.7154903482
 21
3.5218514853
 31
0.0
  0
SPLINE
  5
267
100
AcDbEntity
  8
0
100
AcDbSpline
 62
6
  6
CONTINUOUS
 70
0
 71
3
 72
57
 73
53
 74
51
 42
0.0000001
 43
0.0000001
 44
0.0000000001
 12
0.0072479385
 22
-0.16720469
 32
0.0
 13
0.1035188112
 23
0.1315058808
 33
0.0
 40
0.0
 40
0.0
 40
0.0
 40
0.0
 40
0.0312422757
 40
0.0625003455
 40
0.0781298309
 40
0.0937574075
 40
0.1250052857
 40
0.1406324412
 40
0.1562600025
 40
0.1875098028
 40
0.2187587261
 40
0.2500070862
 40
0.2656340601
 40
0.2812610411
 40
0.2968879572
 40
0.3125148755
 40
0.3281418085
 40
0.3437686342
 40
0.3593953046
 40
0.3750219109
 40
0.3906484571
 40
0.4062748675
 40
0.421901165
 40
0.4375274889
 40
0.4531538152
 40
0.4687800892
 40
0.4844063813
 40
0.500032809
 40
0.5312800176
 40
0.5469063927
 40
0.5625328021
 40
0.5937795396
 40
0.6250258159
 40
0.6562715229
 40
0.6875169845
 40
0.7031425203
 40
0.7187680252
 40
0.7343936107
 40
0.7500191356
 40
0.7656444847
 40
0.7812697055
 40
0.796894868
 40
0.8125199476
 40
0.8281450225
 40
0.8437702764
 40
0.8593954768
 40
0.8750202439
 40
0.8906443386
 40
0.9062680545
 40
0.9375121882
 40
0.9687642122
 40
1.0
 40
1.0
 40
1.0
 40
1.0
 10
5.1327498626
 20
4.3013514853
 30
0.0
 10
5.1328253433
 20
4.2996102003
 30
0.0
 10
5.1331021209
 20
4.2961309888
 30
0.0
 10
5.1337602714
 20
4.2918183434
 30
0.0
 10
5.1344733092
 20
4.2884037485
 30
0.0
 10
5.1353095385
 20
4.2850179085
 30
0.0
 10
5.1363297367
 20
4.2816798076
 30
0.0
 10
5.1375299936
 20
4.2784053911
 30
0.0
 10
5.1388488719
 20
4.2751767525
 30
0.0
 10
5.1407173968
 20
4.2712344359
 30
0.0
 10
5.1433003323
 20
4.2666817274
 30
0.0
 10
5.1457261019
 20
4.2630556325
 30
0.0
 10
5.1478229222
 20
4.2602689031
 30
0.0
 10
5.1494718868
 20
4.2582380755
 30
0.0
 10
5.151194855
 20
4.2562696909
 30
0.0
 10
5.1529897432
 20
4.254366644
 30
0.0
 10
5.1548541456
 20
4.2525316573
 30
0.0
 10
5.1567854849
 20
4.2507672775
 30
0.0
 10
5.1587812084
 20
4.2490760883
 30
0.0
 10
5.1608387721
 20
4.2474607251
 30
0.0
 10
5.1629553203
 20
4.2459234829
 30
0.0
 10
5.1651279181
 20
4.2444665594
 30
0.0
 10
5.1673536443
 20
4.2430921831
 30
0.0
 10
5.1696295428
 20
4.2418025959
 30
0.0
 10
5.1719523813
 20
4.2405996074
 30
0.0
 10
5.1743188971
 20
4.2394850258
 30
0.0
 10
5.1767259122
 20
4.2384606711
 30
0.0
 10
5.1799841987
 20
4.2372176981
 30
0.0
 10
5.1833110668
 20
4.2361608084
 30
0.0
 10
5.1866896182
 20
4.2352964118
 30
0.0
 10
5.1900987296
 20
4.2345615379
 30
0.0
 10
5.1944090369
 20
4.2338876026
 30
0.0
 10
5.1996274698
 20
4.2334779591
 30
0.0
 10
5.2048618993
 20
4.2334701436
 30
0.0
 10
5.2092120251
 20
4.2338005809
 30
0.0
 10
5.2126680494
 20
4.2342659934
 30
0.0
 10
5.2152449559
 20
4.2347154464
 30
0.0
 10
5.2178023726
 20
4.2352648721
 30
0.0
 10
5.2203364739
 20
4.2359134006
 30
0.0
 10
5.2228433523
 20
4.2366602078
 30
0.0
 10
5.225319078
 20
4.2375045192
 30
0.0
 10
5.2277598027
 20
4.2384451923
 30
0.0
 10
5.2301617746
 20
4.2394808065
 30
0.0
 10
5.2325212149
 20
4.2406099937
 30
0.0
 10
5.2348342852
 20
4.2418313754
 30
0.0
 10
5.237097371
 20
4.2431430285
 30
0.0
 10
5.2393068518
 20
4.2445429567
 30
0.0
 10
5.2414591384
 20
4.2460292606
 30
0.0
 10
5.2442474881
 20
4.2481231103
 30
0.0
 10
5.2475742677
 20
4.250946235
 30
0.0
 10
5.2512818591
 20
4.2546409237
 30
0.0
 10
5.2535495987
 20
4.2572943724
 30
0.0
 10
5.2546274293
 20
4.2586636024
 30
0.0
 11
5.1327498626
 21
4.3013514853
 31
0.0
 11
5.1331644477
 21
4.2961391867
 31
0.0
 11
5.1339540648
 21
4.2909677177
 31
0.0
 11
5.1344887486
 21
4.28840717
 31
0.0
 11
5.1351158982
 21
4.2858680159
 31
0.0
 11
5.1366447148
 21
4.2808667697
 31
0.0
 11
5.1375448097
 21
4.2784111475
 31
0.0
 11
5.1385339062
 21
4.2759899299
 31
0.0
 11
5.140774222
 21
4.2712640339
 31
0.0
 11
5.1433550023
 21
4.2667152817
 31
0.0
 11
5.1462631786
 21
4.2623686626
 31
0.0
 11
5.1478356238
 21
4.2602788041
 31
0.0
 11
5.1494842234
 21
4.2582484795
 31
0.0
 11
5.1512068419
 21
4.2562805803
 31
0.0
 11
5.1530013289
 21
4.2543779874
 31
0.0
 11
5.1548653078
 21
4.2525434194
 31
0.0
 11
5.1567962243
 21
4.2507794682
 31
0.0
 11
5.1587915198
 21
4.2490887221
 31
0.0
 11
5.1608486074
 21
4.2474737418
 31
0.0
 11
5.1629646705
 21
4.2459368634
 31
0.0
 11
5.1651367799
 21
4.2444803127
 31
0.0
 11
5.1673620058
 21
4.2431063149
 31
0.0
 11
5.1696373662
 21
4.241817029
 31
0.0
 11
5.1719596637
 21
4.2406143405
 31
0.0
 11
5.1743256452
 21
4.2395000644
 31
0.0
 11
5.176732057
 21
4.2384760147
 31
0.0
 11
5.1791755621
 21
4.2375438682
 31
0.0
 11
5.1841597875
 21
4.2359608113
 31
0.0
 11
5.1866934399
 21
4.2353126034
 31
0.0
 11
5.1892499803
 21
4.2347615142
 31
0.0
 11
5.194416782
 21
4.2339541067
 31
0.0
 11
5.1996301795
 21
4.2335449286
 31
0.0
 11
5.2048595091
 21
4.2335375318
 31
0.0
 11
5.2100737776
 21
4.2339336604
 31
0.0
 11
5.2126654933
 21
4.2342827207
 31
0.0
 11
5.2152417033
 21
4.2347321077
 31
0.0
 11
5.2177984914
 21
4.2352813904
 31
0.0
 11
5.2203319495
 21
4.2359297839
 31
0.0
 11
5.2228381702
 21
4.2366764617
 31
0.0
 11
5.2253132499
 21
4.2375205814
 31
0.0
 11
5.2277533494
 21
4.2384610181
 31
0.0
 11
5.2301546855
 21
4.2394964017
 31
0.0
 11
5.2325134767
 21
4.2406253545
 31
0.0
 11
5.2348259595
 21
4.2418464235
 31
0.0
 11
5.2370884667
 21
4.2431577592
 31
0.0
 11
5.2392973623
 21
4.2445573809
 31
0.0
 11
5.241449012
 21
4.2460433068
 31
0.0
 11
5.2435399228
 21
4.2476134445
 31
0.0
 11
5.2475265979
 21
4.2509971719
 31
0.0
 11
5.2512314793
 21
4.2546891706
 31
0.0
 11
5.2546274293
 21
4.2586636024
 31
0.0
  0
SPLINE
  5
268
100
AcDbEntity
  8
0
100
AcDbSpline
 62
7
  6
CONTINUOUS
 70
0
 71
3
 72
57
 73
53
 74
51
 42
0.0000001
 43
0.0000001
 44
0.0000000001
 12
-0.0638501837
 22
0.2466939088
 32
0.0
 13
0.0638444382
 23
0.2466953949
 33
0.0
 40
0.0
 40
0.0
 40
0.0
 40
0.0
 40
0.0006219254
 40
0.0024819044
 40
0.0055712488
 40
0.0098812806
 40
0.0154007956
 40
0.0221084399
 40
0.0299803715
 40
0.0389928269
 40
0.0491204135
 40
0.0603308269
 40
0.0858644837
 40
0.1153160527
 40
0.1483759039
 40
0.1847231305
 40
0.2240125135
 40
0.2658892994
 40
0.3099695217
 40
0.3327142886
 40
0.3558584297
 40
0.3793470489
 40
0.4031256286
 40
0.4271393063
 40
0.4513298907
 40
0.4756382344
 40
0.5000053305
 40
0.5243723776
 40
0.5486806484
 40
0.5728712321
 40
0.5968850595
 40
0.6441511245
 40
0.6672949817
 40
0.6900396354
 40
0.7341190585
 40
0.7553569391
 40
0.7759952422
 40
0.815283483
 40
0.8516294606
 40
0.8846881889
 40
0.9141387113
 40
0.9396714696
 40
0.9508814309
 40
0.9610087215
 40
0.9700209168
 40
0.9778924912
 40
0.984599804
 40
0.9901191371
 40
0.9944290689
 40
0.9975182736
 40
0.9993781283
 40
1.0
 40
1.0
 40
1.0
 40
1.0
 10
5.6954903482
 20
3.5243514853
 30
0.0
 10
5.6954771115
 20
3.524402627
 30
0.0
 10
5.6954243893
 20
3.5246067433
 30
0.0
 10
5.6953068041
 20
3.5250651296
 30
0.0
 10
5.6951124867
 20
3.5258272458
 30
0.0
 10
5.6948431142
 20
3.5268910132
 30
0.0
 10
5.6945006242
 20
3.5282533066
 30
0.0
 10
5.6940890986
 20
3.5299102049
 30
0.0
 10
5.6936127237
 20
3.5318566939
 30
0.0
 10
5.6930758648
 20
3.5340874306
 30
0.0
 10
5.6924830816
 20
3.5365963593
 30
0.0
 10
5.6915866001
 20
3.5404754537
 30
0.0
 10
5.6903674793
 20
3.5459645631
 30
0.0
 10
5.6888392239
 20
3.5532856222
 30
0.0
 10
5.6872462814
 20
3.5615306603
 30
0.0
 10
5.6856478684
 20
3.5706245184
 30
0.0
 10
5.6841037128
 20
3.5804867168
 30
0.0
 10
5.6826746178
 20
3.5910296277
 30
0.0
 10
5.6816352177
 20
3.6002050586
 30
0.0
 10
5.6809087376
 20
3.6078126673
 30
0.0
 10
5.6804190846
 20
3.6136854338
 30
0.0
 10
5.6799951131
 20
3.6196513452
 30
0.0
 10
5.6796416372
 20
3.6256958496
 30
0.0
 10
5.679363579
 20
3.6318039861
 30
0.0
 10
5.6791627398
 20
3.6379601714
 30
0.0
 10
5.6790408317
 20
3.6441484537
 30
0.0
 10
5.6789995576
 20
3.6503527957
 30
0.0
 10
5.6790407758
 20
3.6565571333
 30
0.0
 10
5.6791628054
 20
3.6627454005
 30
0.0
 10
5.6793637655
 20
3.6689015985
 30
0.0
 10
5.6797325214
 20
3.6770027377
 30
0.0
 10
5.6802514311
 20
3.6850073931
 30
0.0
 10
5.6809090206
 20
3.6928928088
 30
0.0
 10
5.6816354804
 20
3.7005003188
 30
0.0
 10
5.6824774912
 20
3.7079336245
 30
0.0
 10
5.6834202567
 20
3.7151737605
 30
0.0
 10
5.6843830612
 20
3.7220004995
 30
0.0
 10
5.6856481264
 20
3.7300801189
 30
0.0
 10
5.6872465511
 20
3.7391736589
 30
0.0
 10
5.6888394288
 20
3.7474184167
 30
0.0
 10
5.6903676601
 20
3.7547392141
 30
0.0
 10
5.6915867464
 20
3.7602281225
 30
0.0
 10
5.6924831807
 20
3.7641070843
 30
0.0
 10
5.6930759582
 20
3.7666159264
 30
0.0
 10
5.6936128152
 20
3.7688465837
 30
0.0
 10
5.6940891622
 20
3.7707929965
 30
0.0
 10
5.6945006581
 20
3.7724498259
 30
0.0
 10
5.6948431398
 20
3.7738120677
 30
0.0
 10
5.6951125173
 20
3.774875797
 30
0.0
 10
5.6953068256
 20
3.7756378835
 30
0.0
 10
5.6954243995
 20
3.7760962449
 30
0.0
 10
5.6954771138
 20
3.7763003476
 30
0.0
 10
5.6954903482
 20
3.7763514853
 30
0.0
 11
5.6954903482
 21
3.5243514853
 31
0.0
 11
5.6954507102
 21
3.5245049291
 31
0.0
 11
5.6953328344
 21
3.5249640024
 31
0.0
 11
5.6951382783
 21
3.5257268181
 31
0.0
 11
5.6948685992
 21
3.5267914891
 31
0.0
 11
5.6945258173
 21
3.5281555783
 31
0.0
 11
5.6941138094
 21
3.5298144403
 31
0.0
 11
5.693636918
 21
3.5317628764
 31
0.0
 11
5.6930994859
 21
3.5339956875
 31
0.0
 11
5.6925061772
 21
3.536507302
 31
0.0
 11
5.691862977
 21
3.5392906194
 31
0.0
 11
5.6904521953
 21
3.5456423921
 31
0.0
 11
5.688919121
 21
3.5529890723
 31
0.0
 11
5.6873214245
 21
3.561260589
 31
0.0
 11
5.6857184697
 21
3.5703829308
 31
0.0
 11
5.6841706135
 21
3.5802743894
 31
0.0
 11
5.6827374685
 21
3.5908488783
 31
0.0
 11
5.6814744517
 21
3.6020102936
 31
0.0
 11
5.6809234272
 21
3.6077799276
 31
0.0
 11
5.6804334211
 21
3.6136571929
 31
0.0
 11
5.6800092601
 21
3.6196275823
 31
0.0
 11
5.6796557705
 21
3.6256765886
 31
0.0
 11
5.6793773392
 21
3.6317894853
 31
0.0
 11
5.6791762983
 21
3.6379505203
 31
0.0
 11
5.6790543803
 21
3.6441436424
 31
0.0
 11
5.6790133174
 21
3.6503528002
 31
0.0
 11
5.679054354
 21
3.6565619456
 31
0.0
 11
5.6791763639
 21
3.6627550473
 31
0.0
 11
5.6793775014
 21
3.668916079
 31
0.0
 11
5.6796559208
 21
3.6750290144
 31
0.0
 11
5.6804336076
 21
3.687048356
 31
0.0
 11
5.6809236925
 21
3.6929255421
 31
0.0
 11
5.6814747206
 21
3.6986951468
 31
0.0
 11
5.6827377308
 21
3.7098563579
 31
0.0
 11
5.6834364658
 21
3.715222959
 31
0.0
 11
5.6841709124
 21
3.7204305347
 31
0.0
 11
5.6857187366
 21
3.7303217036
 31
0.0
 11
5.6873216803
 21
3.7394437243
 31
0.0
 11
5.6889193311
 21
3.7477149584
 31
0.0
 11
5.6904523713
 21
3.7550613732
 31
0.0
 11
5.6918631082
 21
3.7614129213
 31
0.0
 11
5.6925062776
 21
3.7641961276
 31
0.0
 11
5.6930995798
 21
3.7667076662
 31
0.0
 11
5.6936370075
 21
3.7689404102
 31
0.0
 11
5.6941138711
 21
3.7708887593
 31
0.0
 11
5.6945258506
 21
3.7725475414
 31
0.0
 11
5.6948686259
 21
3.7739115844
 31
0.0
 11
5.6951383079
 21
3.7749762284
 31
0.0
 11
5.6953328541
 21
3.7757390099
 31
0.0
 11
5.6954507167
 21
3.7761980539
 31
0.0
 11
5.6954903482
 21
3.7763514853
 31
0.0
  0
SPLINE
  5
269
100
AcDbEntity
  8
0
100
AcDbSpline
 62
7
  6
CONTINUOUS
 70
0
 71
3
 72
33
 73
29
 74
27
 42
0.0000001
 43
0.0000001
 44
0.0000000001
 12
0.1758597471
 22
-0.0004876062
 32
0.0
 13
0.1677233268
 23
-0.0528750799
 33
0.0
 40
0.0
 40
0.0
 40
0.0
 40
0.0
 40
0.062361892
 40
0.1247248521
 40
0.1559071321
 40
0.187090117
 40
0.2494585144
 40
0.3118318148
 40
0.3742122904
 40
0.4366022405
 40
0.4678023352
 40
0.4990064857
 40
0.5302152387
 40
0.5614295029
 40
0.5926505796
 40
0.623879712
 40
0.6551174972
 40
0.6863650397
 40
0.7176241934
 40
0.7488974647
 40
0.7801872011
 40
0.8114965485
 40
0.8428301227
 40
0.8585080027
 40
0.8741942541
 40
0.9055915932
 40
0.9370228482
 40
1.0
 40
1.0
 40
1.0
 40
1.0
 10
4.8648475379
 20
5.7023388692
 30
0.0
 10
4.8685031868
 20
5.7023287332
 30
0.0
 10
4.8758145032
 20
5.7022833037
 30
0.0
 10
4.8849530637
 20
5.7021605145
 30
0.0
 10
4.892263332
 20
5.7020208382
 30
0.0
 10
4.8995733222
 20
5.7018528544
 30
0.0
 10
4.9087098945
 20
5.701586717
 30
0.0
 10
4.9196712002
 20
5.7011682686
 30
0.0
 10
4.9306290923
 20
5.700640562
 30
0.0
 10
4.939756141
 20
5.7000962576
 30
0.0
 10
4.9470541338
 20
5.6995904518
 30
0.0
 10
4.9525259129
 20
5.6991733242
 30
0.0
 10
4.9579952748
 20
5.6987154823
 30
0.0
 10
4.9634618172
 20
5.6982140496
 30
0.0
 10
4.9689251093
 20
5.697666178
 30
0.0
 10
4.9743846123
 20
5.6970688372
 30
0.0
 10
4.9798395508
 20
5.6964178124
 30
0.0
 10
4.9852890754
 20
5.6957090322
 30
0.0
 10
4.990732305
 20
5.6949383376
 30
0.0
 10
4.9961683269
 20
5.6941018029
 30
0.0
 10
5.0015958755
 20
5.6931937639
 30
0.0
 10
5.0070134903
 20
5.6922081571
 30
0.0
 10
5.0115176462
 20
5.6913174232
 30
0.0
 10
5.0151141817
 20
5.6905601838
 30
0.0
 10
5.018707836
 20
5.6897717995
 30
0.0
 10
5.0231902716
 20
5.6887257185
 30
0.0
 10
5.0303382457
 20
5.6869099221
 30
0.0
 10
5.0356583831
 20
5.6853761696
 30
0.0
 10
5.0391792955
 20
5.6842661956
 30
0.0
 11
4.8648475379
 21
5.7023388692
 31
0.0
 11
4.875814311
 21
5.702270104
 31
0.0
 11
4.8867804895
 21
5.7021221433
 31
0.0
 11
4.8922632161
 21
5.7020173015
 31
0.0
 11
4.8977456169
 21
5.7018911102
 31
0.0
 11
4.9087090545
 21
5.7015702172
 31
0.0
 11
4.9196700007
 21
5.7011500863
 31
0.0
 11
4.9306274282
 21
5.7006196929
 31
0.0
 11
4.9415797402
 21
5.6999639821
 31
0.0
 11
4.9470534417
 21
5.6995841857
 31
0.0
 11
4.9525251031
 21
5.6991665711
 31
0.0
 11
4.9579943183
 21
5.69870826
 31
0.0
 11
4.9634606798
 21
5.6982063671
 31
0.0
 11
4.9689237796
 21
5.6976580065
 31
0.0
 11
4.9743830907
 21
5.697059977
 31
0.0
 11
4.9798377899
 21
5.6964082937
 31
0.0
 11
4.9852870083
 21
5.6956988516
 31
0.0
 11
4.9907298772
 21
5.6949275457
 31
0.0
 11
4.9961654776
 21
5.6940901167
 31
0.0
 11
5.0015925071
 21
5.6931811355
 31
0.0
 11
5.0070094882
 21
5.6921946375
 31
0.0
 11
5.0124149425
 21
5.6911246549
 31
0.0
 11
5.015112885
 21
5.6905564921
 31
0.0
 11
5.0178073548
 21
5.6899651749
 31
0.0
 11
5.0231840559
 21
5.6887087545
 31
0.0
 11
5.0285410174
 21
5.6873462669
 31
0.0
 11
5.0391792955
 21
5.6842661956
 31
0.0
  0
SPLINE
  5
26A
100
AcDbEntity
  8
0
100
AcDbSpline
 62
7
  6
CONTINUOUS
 70
0
 71
3
 72
29
 73
25
 74
23
 42
0.0000001
 43
0.0000001
 44
0.0000000001
 12
0.1506361113
 22
-0.0029325575
 32
0.0
 13
0.1436933707
 23
-0.0452995931
 33
0.0
 40
0.0
 40
0.0
 40
0.0
 40
0.0
 40
0.0623426251
 40
0.1246881551
 40
0.1870379703
 40
0.249393677
 40
0.3117567266
 40
0.3429419932
 40
0.3741303295
 40
0.4365172089
 40
0.4989218119
 40
0.5301332257
 40
0.5613515169
 40
0.6238102518
 40
0.6550534827
 40
0.6863079609
 40
0.7488566164
 40
0.7801562336
 40
0.8114767799
 40
0.8428227565
 40
0.8741972314
 40
0.9056001001
 40
0.9370326901
 40
1.0
 40
1.0
 40
1.0
 40
1.0
 10
5.580041695
 20
5.7020622981
 30
0.0
 10
5.5831720452
 20
5.702001357
 30
0.0
 10
5.5894325172
 20
5.7018590358
 30
0.0
 10
5.5988217469
 20
5.7015784923
 30
0.0
 10
5.6082092035
 20
5.701225351
 30
0.0
 10
5.6175942555
 20
5.7007932718
 30
0.0
 10
5.6254120978
 20
5.7003591629
 30
0.0
 10
5.6316640358
 20
5.6999627047
 30
0.0
 10
5.6379148956
 20
5.6995318366
 30
0.0
 10
5.6457250683
 20
5.6989244116
 30
0.0
 10
5.6535277263
 20
5.6982134126
 30
0.0
 10
5.6597646185
 20
5.6975754914
 30
0.0
 10
5.6659989993
 20
5.696888317
 30
0.0
 10
5.6722261487
 20
5.6961223003
 30
0.0
 10
5.6784432472
 20
5.6952674154
 30
0.0
 10
5.6846559157
 20
5.6943496155
 30
0.0
 10
5.6908564511
 20
5.6933318021
 30
0.0
 10
5.6970399149
 20
5.6921993211
 30
0.0
 10
5.7016704506
 20
5.6912884551
 30
0.0
 10
5.7062916146
 20
5.6903127517
 30
0.0
 10
5.7109019362
 20
5.6892680848
 30
0.0
 10
5.7154991604
 20
5.6881483678
 30
0.0
 10
5.7216110304
 20
5.6865469257
 30
0.0
 10
5.7261633005
 20
5.6852169935
 30
0.0
 10
5.7291792955
 20
5.6842661956
 30
0.0
 11
5.580041695
 21
5.7020622981
 31
0.0
 11
5.589432077
 21
5.7018478641
 31
0.0
 11
5.5988211269
 21
5.7015664037
 31
0.0
 11
5.6082083606
 21
5.7012122133
 31
0.0
 11
5.6175931444
 21
5.7007784887
 31
0.0
 11
5.6269745117
 21
5.7002559737
 31
0.0
 11
5.6316635979
 21
5.6999584236
 31
0.0
 11
5.6363514344
 21
5.6996350017
 31
0.0
 11
5.6457224475
 21
5.6989037915
 31
0.0
 11
5.6550856109
 21
5.6980482613
 31
0.0
 11
5.6597636232
 21
5.6975694073
 31
0.0
 11
5.6644387544
 21
5.6970536599
 31
0.0
 11
5.6737782605
 21
5.6959013502
 31
0.0
 11
5.6784415755
 21
5.6952597109
 31
0.0
 11
5.6830998864
 21
5.6945710139
 31
0.0
 11
5.6923984877
 21
5.6930395542
 31
0.0
 11
5.6970369688
 21
5.6921894052
 31
0.0
 11
5.7016670234
 21
5.6912780297
 31
0.0
 11
5.7062877363
 21
5.6903017113
 31
0.0
 11
5.7108976594
 21
5.6892560687
 31
0.0
 11
5.7154943404
 21
5.6881354683
 31
0.0
 11
5.7200752158
 21
5.6869341376
 31
0.0
 11
5.7291792955
 21
5.6842661956
 31
0.0
  0
SPLINE
  5
26B
100
AcDbEntity
  8
0
100
AcDbSpline
 62
6
  6
CONTINUOUS
 70
0
 71
3
 72
35
 73
31
 74
29
 42
0.0000001
 43
0.0000001
 44
0.0000000001
 12
0.0642393168
 22
0.0632776842
 32
0.0
 13
-0.0642393168
 23
0.0632776842
 33
0.0
 40
0.0
 40
0.0
 40
0.0
 40
0.0
 40
0.0560043715
 40
0.1138514253
 40
0.1736822929
 40
0.2355547425
 40
0.2994046626
 40
0.3320172033
 40
0.3650231726
 40
0.3816568261
 40
0.3983669712
 40
0.4319739948
 40
0.4657638548
 40
0.4996525255
 40
0.5335472113
 40
0.5504684458
 40
0.5673557597
 40
0.6009866766
 40
0.6343658831
 40
0.6509376857
 40
0.6674170591
 40
0.7000739232
 40
0.73230065
 40
0.7640545337
 40
0.8260160077
 40
0.8859594418
 40
0.9151860562
 40
0.9439273977
 40
0.9721963244
 40
1.0
 40
1.0
 40
1.0
 40
1.0
 10
5.2054903482
 20
4.7587436043
 30
0.0
 10
5.2066895757
 20
4.7599248799
 30
0.0
 10
5.2090183015
 20
4.7624400658
 30
0.0
 10
5.2121971739
 20
4.7665902737
 30
0.0
 10
5.2150591636
 20
4.7711757339
 30
0.0
 10
5.2175396788
 20
4.7761807712
 30
0.0
 10
5.2192205788
 20
4.7806425268
 30
0.0
 10
5.2203137701
 20
4.7843786304
 30
0.0
 10
5.2208862029
 20
4.7867849603
 30
0.0
 10
5.2212728329
 20
4.7887415784
 30
0.0
 10
5.2216116949
 20
4.7907253765
 30
0.0
 10
5.2219405003
 20
4.7932331272
 30
0.0
 10
5.222179698
 20
4.7962694055
 30
0.0
 10
5.2222601175
 20
4.7993226808
 30
0.0
 10
5.2221952884
 20
4.801869049
 30
0.0
 10
5.2220642149
 20
4.8038999731
 30
0.0
 10
5.221880725
 20
4.8059188769
 30
0.0
 10
5.2215546155
 20
4.8084206047
 30
0.0
 10
5.2211019181
 20
4.8108928897
 30
0.0
 10
5.2206665478
 20
4.8128417383
 30
0.0
 10
5.2201861934
 20
4.8147576085
 30
0.0
 10
5.2195004265
 20
4.8171061978
 30
0.0
 10
5.2185457109
 20
4.8198507636
 30
0.0
 10
5.2171235404
 20
4.8233603269
 30
0.0
 10
5.2150708702
 20
4.827506635
 30
0.0
 10
5.2126631296
 20
4.8313674922
 30
0.0
 10
5.2105740969
 20
4.834231788
 30
0.0
 10
5.2089487984
 20
4.8362522223
 30
0.0
 10
5.2072595091
 20
4.8381625413
 30
0.0
 10
5.2060857112
 20
4.8393729155
 30
0.0
 10
5.2054903482
 20
4.8399593663
 30
0.0
 11
5.2054903482
 21
4.7587436043
 31
0.0
 11
5.2089213457
 21
4.7624490442
 31
0.0
 11
5.2120936693
 21
4.7665895948
 31
0.0
 11
5.2149509829
 21
4.7711658039
 31
0.0
 11
5.2174294429
 21
4.7761641429
 31
0.0
 11
5.2194603849
 21
4.7815514277
 31
0.0
 11
5.2202863914
 21
4.7843737324
 31
0.0
 11
5.2209752954
 21
4.7872690747
 31
0.0
 11
5.2212660328
 21
4.7887404946
 31
0.0
 11
5.221519781
 21
4.79022574
 31
0.0
 11
5.2219138484
 21
4.7932303775
 31
0.0
 11
5.2221529804
 21
4.7962678342
 31
0.0
 11
5.2222337311
 21
4.7993225322
 31
0.0
 11
5.2221558316
 21
4.8023778468
 31
0.0
 11
5.2220575026
 21
4.8039004747
 31
0.0
 11
5.2219196978
 21
4.8054169673
 31
0.0
 11
5.2215278262
 21
4.8084240646
 31
0.0
 11
5.2209855118
 21
4.8113846305
 31
0.0
 11
5.220659655
 21
4.8128429593
 31
0.0
 11
5.2202982786
 21
4.8142843039
 31
0.0
 11
5.2194729537
 21
4.8171109718
 31
0.0
 11
5.2185181046
 21
4.819855522
 31
0.0
 11
5.2174424197
 21
4.8225090511
 31
0.0
 11
5.2149628852
 21
4.8275158166
 31
0.0
 11
5.2121018161
 21
4.8321016467
 31
0.0
 11
5.210548849
 21
4.8342308587
 31
0.0
 11
5.2089243809
 21
4.8362501737
 31
0.0
 11
5.2072357634
 21
4.8381596551
 31
0.0
 11
5.2054903482
 21
4.8399593663
 31
0.0
  0
SPLINE
  5
26C
100
AcDbEntity
  8
0
100
AcDbSpline
 62
6
  6
CONTINUOUS
 70
0
 71
3
 72
31
 73
27
 74
25
 42
0.0000001
 43
0.0000001
 44
0.0000000001
 12
0.0455255084
 22
0.0968422929
 32
0.0
 13
-0.0919516398
 23
0.0547347927
 33
0.0
 40
0.0
 40
0.0
 40
0.0
 40
0.0
 40
0.0626235354
 40
0.0939513561
 40
0.1252732063
 40
0.1565861188
 40
0.1878918638
 40
0.2191932675
 40
0.2504924987
 40
0.3130648976
 40
0.3756192695
 40
0.4068964662
 40
0.4381692008
 40
0.469437417
 40
0.5007002107
 40
0.531957902
 40
0.5632107663
 40
0.6256817784
 40
0.6881297694
 40
0.7193534102
 40
0.7505717699
 40
0.8129672949
 40
0.8753319948
 40
0.9065181441
 40
0.9377035517
 40
1.0
 40
1.0
 40
1.0
 40
1.0
 10
5.2739913055
 20
4.2562780026
 30
0.0
 10
5.2749416283
 20
4.2582995381
 30
0.0
 10
5.2762426813
 20
4.2613934245
 30
0.0
 10
5.277714409
 20
4.2656135064
 30
0.0
 10
5.2786843654
 20
4.2688228396
 30
0.0
 10
5.2795174009
 20
4.2720694951
 30
0.0
 10
5.2802115565
 20
4.2753479295
 30
0.0
 10
5.2807646992
 20
4.2786526555
 30
0.0
 10
5.2813114386
 20
4.2830851068
 30
0.0
 10
5.2816343469
 20
4.2886629679
 30
0.0
 10
5.2814660768
 20
4.2942471096
 30
0.0
 10
5.2810347029
 20
4.2986899028
 30
0.0
 10
5.2805621777
 20
4.3020040363
 30
0.0
 10
5.2799407132
 20
4.3052929274
 30
0.0
 10
5.2791708594
 20
4.3085497424
 30
0.0
 10
5.2782529488
 20
4.3117674865
 30
0.0
 10
5.2768332629
 20
4.3159948424
 30
0.0
 10
5.274694023
 20
4.3211476673
 30
0.0
 10
5.2720793863
 20
4.3260754712
 30
0.0
 10
5.2697142331
 20
4.3298523466
 30
0.0
 10
5.2671706717
 20
4.3335091549
 30
0.0
 10
5.2636642
 20
4.3378409645
 30
0.0
 10
5.2597479398
 20
4.3418050562
 30
0.0
 10
5.2563904409
 20
4.3447272499
 30
0.0
 10
5.2528913521
 20
4.3474736873
 30
0.0
 10
5.2501123557
 20
4.3493304991
 30
0.0
 10
5.2482029355
 20
4.3504670935
 30
0.0
 11
5.2739913055
 21
4.2562780026
 31
0.0
 11
5.2765884108
 21
4.2624555846
 31
0.0
 11
5.2776921505
 21
4.2656210454
 31
0.0
 11
5.2786616662
 21
4.2688294935
 31
0.0
 11
5.2794943408
 21
4.2720751587
 31
0.0
 11
5.2801880989
 21
4.2753525434
 31
0.0
 11
5.280740883
 21
4.2786561577
 31
0.0
 11
5.2811508013
 21
4.2819802888
 31
0.0
 11
5.2815361264
 21
4.2886650244
 31
0.0
 11
5.2813334971
 21
4.2953558597
 31
0.0
 11
5.2810098439
 21
4.2986871267
 31
0.0
 11
5.280537314
 21
4.3020000727
 31
0.0
 11
5.2799159227
 21
4.3052878581
 31
0.0
 11
5.2791461144
 21
4.308543495
 31
0.0
 11
5.2782283537
 21
4.3117599899
 31
0.0
 11
5.2771635009
 21
4.3149302828
 31
0.0
 11
5.2745985094
 21
4.3211035973
 31
0.0
 11
5.2714652416
 21
4.3270060285
 31
0.0
 11
5.2696916957
 21
4.3298376882
 31
0.0
 11
5.267783986
 21
4.3325800648
 31
0.0
 11
5.2635813619
 21
4.3377684178
 31
0.0
 11
5.2588899595
 21
4.3425147599
 31
0.0
 11
5.2563724813
 21
4.3447054839
 31
0.0
 11
5.2537472798
 21
4.3467657644
 31
0.0
 11
5.2482029355
 21
4.3504670935
 31
0.0
  0
SPLINE
  5
26D
100
AcDbEntity
  8
0
100
AcDbSpline
 62
6
  6
CONTINUOUS
 70
0
 71
3
 72
36
 73
32
 74
30
 42
0.0000001
 43
0.0000001
 44
0.0000000001
 12
-0.0642433509
 22
-0.063281658
 32
0.0
 13
0.0642433509
 23
-0.063281658
 33
0.0
 40
0.0
 40
0.0
 40
0.0
 40
0.0
 40
0.0277823149
 40
0.0560079324
 40
0.0846938959
 40
0.1138601016
 40
0.1435247214
 40
0.1736974632
 40
0.2043830793
 40
0.2355785259
 40
0.2672714596
 40
0.2994394095
 40
0.332047868
 40
0.3650497482
 40
0.3983886743
 40
0.431990794
 40
0.4657810555
 40
0.4996698508
 40
0.5335623311
 40
0.5673682583
 40
0.6010040433
 40
0.6343841384
 40
0.7000695106
 40
0.7323000233
 40
0.7640485039
 40
0.7952905658
 40
0.8260305766
 40
0.8562682069
 40
0.8859977835
 40
0.9439493191
 40
1.0
 40
1.0
 40
1.0
 40
1.0
 10
5.2054903482
 20
4.8399593663
 30
0.0
 10
5.2048954052
 20
4.8393733293
 30
0.0
 10
5.2037228227
 20
4.8381643436
 30
0.0
 10
5.2020356488
 20
4.8362567455
 30
0.0
 10
5.2004130226
 20
4.834240148
 30
0.0
 10
5.1988618967
 20
4.8321142336
 30
0.0
 10
5.1973895
 20
4.829879281
 30
0.0
 10
5.1960036438
 20
4.8275363885
 30
0.0
 10
5.1947125137
 20
4.8250877982
 30
0.0
 10
5.193524703
 20
4.822536913
 30
0.0
 10
5.1924488042
 20
4.8198886439
 30
0.0
 10
5.191493702
 20
4.8171493887
 30
0.0
 10
5.1906677206
 20
4.8143274188
 30
0.0
 10
5.1899788991
 20
4.8114326384
 30
0.0
 10
5.1894346616
 20
4.8084768351
 30
0.0
 10
5.1890402208
 20
4.8054734048
 30
0.0
 10
5.1888017131
 20
4.8024369897
 30
0.0
 10
5.1887204617
 20
4.7993835949
 30
0.0
 10
5.1887977926
 20
4.7963295854
 30
0.0
 10
5.18903446
 20
4.7932914499
 30
0.0
 10
5.1894256938
 20
4.7902847906
 30
0.0
 10
5.1901436582
 20
4.7863597304
 30
0.0
 10
5.1911540441
 20
4.7825360801
 30
0.0
 10
5.1924342703
 20
4.7788534907
 30
0.0
 10
5.1935097524
 20
4.7761996019
 30
0.0
 10
5.1946982223
 20
4.77364384
 30
0.0
 10
5.195990499
 20
4.7711902232
 30
0.0
 10
5.1973781087
 20
4.7688418806
 30
0.0
 10
5.1993276072
 20
4.7658802623
 30
0.0
 10
5.201958457
 20
4.7624447362
 30
0.0
 10
5.2042900537
 20
4.7599259309
 30
0.0
 10
5.2054903482
 20
4.7587436043
 30
0.0
 11
5.2054903482
 21
4.8399593663
 31
0.0
 11
5.2037460938
 21
4.8381609932
 31
0.0
 11
5.2020597999
 21
4.8362544568
 31
0.0
 11
5.200438105
 21
4.8342391111
 31
0.0
 11
5.1988878019
 21
4.8321144939
 31
0.0
 11
5.1974160489
 21
4.8298807029
 31
0.0
 11
5.1960306976
 21
4.8275389246
 31
0.0
 11
5.1947399329
 21
4.8250913004
 31
0.0
 11
5.1935522995
 21
4.8225411999
 31
0.0
 11
5.1924764832
 21
4.8198934617
 31
0.0
 11
5.1915212757
 21
4.8171544557
 31
0.0
 11
5.190695129
 21
4.8143323832
 31
0.0
 11
5.1900061317
 21
4.81143725
 31
0.0
 11
5.189461494
 21
4.8084806118
 31
0.0
 11
5.1890671085
 21
4.8054762702
 31
0.0
 11
5.1888281782
 21
4.8024385693
 31
0.0
 11
5.1887469163
 21
4.7993836817
 31
0.0
 11
5.1888245709
 21
4.7963283678
 31
0.0
 11
5.1890610372
 21
4.7932890572
 31
0.0
 11
5.1894525144
 21
4.7902812738
 31
0.0
 11
5.1899945758
 21
4.7873203879
 31
0.0
 11
5.1915074625
 21
4.7815935846
 31
0.0
 11
5.1924621051
 21
4.7788484079
 31
0.0
 11
5.1935376358
 21
4.7761951479
 31
0.0
 11
5.1947255856
 21
4.7736405582
 31
0.0
 11
5.1960174467
 21
4.7711879671
 31
0.0
 11
5.1974047088
 21
4.768840521
 31
0.0
 11
5.1988788814
 21
4.7666013097
 31
0.0
 11
5.2020565372
 21
4.7624525626
 31
0.0
 11
5.2054903482
 21
4.7587436043
 31
0.0
  0
ENDSEC
  0
SECTION
  2
OBJECTS
  0
DICTIONARY
  5
C
100
AcDbDictionary
280
0
281
1
  3
ACAD_GROUP
350
D
  3
ACAD_MLINESTYLE
350
17
  3
ACAD_LAYOUT
350
1A
  3
ACAD_PLOTSETTINGS
350
19
  3
ACAD_PLOTSTYLENAME
350
E
  0
DICTIONARY
  5
D
102
{ACAD_REACTORS
330
C
102
}
100
AcDbDictionary
280
0
281
1
  0
ACDBDICTIONARYWDFLT
  5
E
102
{ACAD_REACTORS
330
C
102
}
100
AcDbDictionary
281
1
  3
Normal
350
F
100
AcDbDictionaryWithDefault
340
F
  0
DICTIONARY
  5
17
102
{ACAD_REACTORS
330
C
102
}
100
AcDbDictionary
280
0
281
1
  3
Standard
350
18
  0
DICTIONARY
  5
19
102
{ACAD_REACTORS
330
C
102
}
100
AcDbDictionary
281
1
  0
DICTIONARY
  5
1A
102
{ACAD_REACTORS
330
C
102
}
100
AcDbDictionary
281
1
  3
Model
350
26E
  3
Layout1
350
26F
  0
ACDBPLACEHOLDER
  5
F
102
{ACAD_REACTORS
330
E
102
}
  0
MLINESTYLE
  5
18
102
{ACAD_REACTORS
330
17
102
}
100
AcDbMlineStyle
  2
STANDARD
 70
0
  3

 62
256
 51
90.0
 52
90.0
 71
2
 49
0.5
 62
256
  6
BYLAYER
 49
-0.5
 62
256
  6
BYLAYER
  0
LAYOUT
  5
26E
102
{ACAD_REACTORS
330
1A
102
}
100
AcDbPlotSettings
  1

  2
none_device
  4
ANSI_A_(11.00_x_8.50_Inches)
  6

 40
0.0
 41
0.0
 42
0.0
 43
0.0
 44
279.4
 45
215.9
 46
0.0
 47
0.0
 48
0.0
 49
0.0
140
0.0
141
0.0
142
1.0
143
1.0
 70
1024
 72
0
 73
0
 74
0
  7

 75
0
147
1.0
148
0.0
149
0.0
100
AcDbLayout
  1
Model
 70
0
 71
0
 10
0.0
 20
0.0
 11
11.0
 21
8.5
 12
0.0
 22
0.0
 32
0.0
 14
0.0
 24
0.0
 34
0.0
 15
0.0
 25
0.0
 35
0.0
146
0.0
 13
0.0
 23
0.0
 33
0.0
 16
1.0
 26
0.0
 36
0.0
 17
0.0
 27
1.0
 37
0.0
 76
0
330
203
345
0
346
0
  0
LAYOUT
  5
26F
102
{ACAD_REACTORS
330
1A
102
}
100
AcDbPlotSettings
  1

  2
none_device
  4
ANSI_A_(11.00_x_8.50_Inches)
  6

 40
0.0
 41
0.0
 42
0.0
 43
0.0
 44
279.4
 45
215.9
 46
0.0
 47
0.0
 48
0.0
 49
0.0
140
0.0
141
0.0
142
1.0
143
1.0
 70
0
 72
0
 73
0
 74
0
  7

 75
0
147
1.0
148
0.0
149
0.0
100
AcDbLayout
  1
Layout1
 70
0
 71
1
 10
0.0
 20
0.0
 11
11.0
 21
8.5
 12
0.0
 22
0.0
 32
0.0
 14
0.0
 24
0.0
 34
0.0
 15
0.0
 25
0.0
 35
0.0
146
0.0
 13
0.0
 23
0.0
 33
0.0
 16
1.0
 26
0.0
 36
0.0
 17
0.0
 27
1.0
 37
0.0
 76
0
330
204
345
0
346
0
  0
ENDSEC
  0
EOF
