999
DXF file: C:\Prowork\plots\3301_front.dxf
999
Pro/ENGINEER 2018500 by Parametric Technology Corporation
  0
SECTION
  2
HEADER
  9
$ACADVER
  1
AC1032
  9
$DWGCODEPAGE
  3
ANSI_1252
  9
$EXTMAX
 10
11.0
 20
8.5
 30
0.0
  9
$EXTMIN
 10
0.0
 20
0.0
 30
0.0
  9
$LIMMIN
 10
0.0
 20
0.0
  9
$LIMMAX
 10
11.0
 20
8.5
  9
$VIEWCTR
 10
5.5
 20
4.25
  9
$VIEWSIZE
 40
8.5
  9
$CLAYER
  8
0
  9
$LTSCALE
 40
0.605
  9
$CELTYPE
  6
BYLAYER
  9
$DIMSCALE
 40
1.0
  9
$DIMASZ
 40
0.1
  9
$DIMEXO
 40
0.0625
  9
$DIMDLI
 40
0.418
  9
$DIMEXE
 40
0.125
  9
$DIMCEN
 40
0.099
  9
$DIMLFAC
 40
1.0
  9
$DIMBLK
  1
_FILLED
  9
$DIMALT
 70
1
  9
$DIMALTD
 70
2
  9
$DIMALTTD
 70
2
  9
$DIMALTF
 40
25.4
  9
$DIMTXT
 40
0.08
  9
$DIMTOL
 70
1
  9
$DIMLIM
 70
0
  9
$DIMTFAC
 40
1.0
  9
$DIMTP
 40
0.001
  9
$DIMTM
 40
0.001
  9
$DIMGAP
 40
0.09
  9
$DIMDSEP
 70
46
  9
$AUNITS
 70
0
  9
$PDMODE
 70
3
  9
$PDSIZE
 40
0.06
  9
$HANDSEED
  5
454
  9
$TILEMODE
 70
1
  9
$MEASUREMENT
 70
0
  9
$INSUNITS
 70
1
  0
ENDSEC
  0
SECTION
  2
CLASSES
  0
CLASS
  1
ACDBDICTIONARYWDFLT
  2
AcDbDictionaryWithDefault
  3
AutoCAD 2000
 90
0
 91
1
280
0
281
0
  0
CLASS
  1
ACDBPLACEHOLDER
  2
AcDbPlaceHolder
  3
AutoCAD 2000
 90
0
 91
1
280
0
281
0
  0
CLASS
  1
LAYOUT
  2
AcDbLayout
  3
AutoCAD 2000
 90
0
 91
0
280
0
281
0
  0
ENDSEC
  0
SECTION
  2
TABLES
  0
TABLE
  2
VPORT
  5
8
100
AcDbSymbolTable
 70
2
  0
VPORT
  5
1F4
100
AcDbSymbolTableRecord
100
AcDbViewportTableRecord
  2
*ACTIVE
 70
0
 10
0.0
 20
0.0
 11
1.0
 21
1.0
 12
5.5
 22
4.25
 13
0.0
 23
0.0
 14
1.0
 24
1.0
 15
0.0
 25
0.0
 16
0.0
 26
0.0
 36
1.0
 17
0.0
 27
0.0
 37
0.0
 40
8.5
 41
1.2941176471
 42
50.0
 43
0.0
 44
0.0
 50
0.0
 51
0.0
 71
0
 72
100
 73
1
 74
1
 75
0
 76
0
 77
0
 78
0
  0
ENDTAB
  0
TABLE
  2
LTYPE
  5
5
100
AcDbSymbolTable
 70
6
  0
LTYPE
  5
14
100
AcDbSymbolTableRecord
100
AcDbLinetypeTableRecord
  2
BYBLOCK
 70
0
  3

 72
65
 73
0
 40
0.0
  0
LTYPE
  5
15
100
AcDbSymbolTableRecord
100
AcDbLinetypeTableRecord
  2
BYLAYER
 70
0
  3

 72
65
 73
0
 40
0.0
  0
LTYPE
  5
16
100
AcDbSymbolTableRecord
100
AcDbLinetypeTableRecord
  2
CONTINUOUS
 70
64
  3
Solid line
 72
65
 73
0
 40
0.0
  0
LTYPE
  5
1F5
100
AcDbSymbolTableRecord
100
AcDbLinetypeTableRecord
  2
CENTER
 70
64
  3
____ _ ____ _ ____ _ ____ _ ____ _ ____ _ ____
 72
65
 73
4
 40
0.6
 49
0.375
 74
0
 49
-0.075
 74
0
 49
0.075
 74
0
 49
-0.075
 74
0
  0
LTYPE
  5
1F6
100
AcDbSymbolTableRecord
100
AcDbLinetypeTableRecord
  2
HIDDEN
 70
64
  3
- - - - - - - - - - - - - - - - - - - -
 72
65
 73
2
 40
0.2
 49
0.1
 74
0
 49
-0.1
 74
0
  0
LTYPE
  5
1F7
100
AcDbSymbolTableRecord
100
AcDbLinetypeTableRecord
  2
PHANTOM
 70
64
  3
_____ _ _ _____ _ _ _____ _ _ _____
 72
65
 73
6
 40
0.8
 49
0.45
 74
0
 49
-0.05
 74
0
 49
0.1
 74
0
 49
-0.05
 74
0
 49
0.1
 74
0
 49
-0.05
 74
0
  0
LTYPE
  5
1F8
100
AcDbSymbolTableRecord
100
AcDbLinetypeTableRecord
  2
DOT
 70
64
  3
. . . . . . . . . . . . . . . . . . . .
 72
65
 73
2
 40
0.2
 49
0.1
 74
0
 49
-0.1
 74
0
  0
LTYPE
  5
1F9
100
AcDbSymbolTableRecord
100
AcDbLinetypeTableRecord
  2
DASHED
 70
64
  3
- - - - - - - - - - - - - - - - - - - -
 72
65
 73
2
 40
0.2
 49
0.1
 74
0
 49
-0.1
 74
0
  0
ENDTAB
  0
TABLE
  2
LAYER
  5
2
100
AcDbSymbolTable
 70
36
  0
LAYER
  5
10
100
AcDbSymbolTableRecord
100
AcDbLayerTableRecord
  2
0
 70
0
 62
7
  6
CONTINUOUS
370
-3
390
F
  0
LAYER
  5
1FA
100
AcDbSymbolTableRecord
100
AcDbLayerTableRecord
  2
DEFAULT_1
 70
0
 62
7
  6
CENTER
370
-3
390
F
  0
LAYER
  5
1FB
100
AcDbSymbolTableRecord
100
AcDbLayerTableRecord
  2
DEFAULT_2
 70
0
 62
8
  6
HIDDEN
370
-3
390
F
  0
LAYER
  5
1FC
100
AcDbSymbolTableRecord
100
AcDbLayerTableRecord
  2
DEFAULT_3
 70
0
 62
7
  6
PHANTOM
370
-3
390
F
  0
LAYER
  5
1FD
100
AcDbSymbolTableRecord
100
AcDbLayerTableRecord
  2
1-708
 70
0
 62
7
  6
CONTINUOUS
370
-3
390
F
  0
LAYER
  5
1FE
100
AcDbSymbolTableRecord
100
AcDbLayerTableRecord
  2
12587
 70
0
 62
7
  6
CONTINUOUS
370
-3
390
F
  0
LAYER
  5
1FF
100
AcDbSymbolTableRecord
100
AcDbLayerTableRecord
  2
12588
 70
0
 62
7
  6
CONTINUOUS
370
-3
390
F
  0
LAYER
  5
200
100
AcDbSymbolTableRecord
100
AcDbLayerTableRecord
  2
12592
 70
0
 62
7
  6
CONTINUOUS
370
-3
390
F
  0
LAYER
  5
201
100
AcDbSymbolTableRecord
100
AcDbLayerTableRecord
  2
20-285
 70
0
 62
7
  6
CONTINUOUS
370
-3
390
F
  0
LAYER
  5
202
100
AcDbSymbolTableRecord
100
AcDbLayerTableRecord
  2
91641
 70
0
 62
7
  6
CONTINUOUS
370
-3
390
F
  0
LAYER
  5
203
100
AcDbSymbolTableRecord
100
AcDbLayerTableRecord
  2
91696
 70
0
 62
7
  6
CONTINUOUS
370
-3
390
F
  0
LAYER
  5
204
100
AcDbSymbolTableRecord
100
AcDbLayerTableRecord
  2
91698
 70
0
 62
7
  6
CONTINUOUS
370
-3
390
F
  0
LAYER
  5
205
100
AcDbSymbolTableRecord
100
AcDbLayerTableRecord
  2
91699
 70
0
 62
7
  6
CONTINUOUS
370
-3
390
F
  0
LAYER
  5
206
100
AcDbSymbolTableRecord
100
AcDbLayerTableRecord
  2
91705
 70
0
 62
7
  6
CONTINUOUS
370
-3
390
F
  0
LAYER
  5
207
100
AcDbSymbolTableRecord
100
AcDbLayerTableRecord
  2
92858
 70
0
 62
7
  6
CONTINUOUS
370
-3
390
F
  0
LAYER
  5
208
100
AcDbSymbolTableRecord
100
AcDbLayerTableRecord
  2
DEFAULT_COORDINATE_SYSTEM
 70
0
 62
7
  6
CONTINUOUS
370
-3
390
F
  0
LAYER
  5
209
100
AcDbSymbolTableRecord
100
AcDbLayerTableRecord
  2
DEFAULT_DATUM_AXES
 70
0
 62
7
  6
CONTINUOUS
370
-3
390
F
  0
LAYER
  5
20A
100
AcDbSymbolTableRecord
100
AcDbLayerTableRecord
  2
DEFAULT_DATUM_PLANES
 70
0
 62
7
  6
CONTINUOUS
370
-3
390
F
  0
LAYER
  5
20B
100
AcDbSymbolTableRecord
100
AcDbLayerTableRecord
  2
INTF_11
 70
0
 62
7
  6
CONTINUOUS
370
-3
390
F
  0
LAYER
  5
20C
100
AcDbSymbolTableRecord
100
AcDbLayerTableRecord
  2
INTF_12587
 70
0
 62
7
  6
CONTINUOUS
370
-3
390
F
  0
LAYER
  5
20D
100
AcDbSymbolTableRecord
100
AcDbLayerTableRecord
  2
INTF_12588
 70
0
 62
7
  6
CONTINUOUS
370
-3
390
F
  0
LAYER
  5
20E
100
AcDbSymbolTableRecord
100
AcDbLayerTableRecord
  2
INTF_12592
 70
0
 62
7
  6
CONTINUOUS
370
-3
390
F
  0
LAYER
  5
20F
100
AcDbSymbolTableRecord
100
AcDbLayerTableRecord
  2
INTF_91641
 70
0
 62
7
  6
CONTINUOUS
370
-3
390
F
  0
LAYER
  5
210
100
AcDbSymbolTableRecord
100
AcDbLayerTableRecord
  2
INTF_91696
 70
0
 62
7
  6
CONTINUOUS
370
-3
390
F
  0
LAYER
  5
211
100
AcDbSymbolTableRecord
100
AcDbLayerTableRecord
  2
INTF_91698
 70
0
 62
7
  6
CONTINUOUS
370
-3
390
F
  0
LAYER
  5
212
100
AcDbSymbolTableRecord
100
AcDbLayerTableRecord
  2
INTF_91699
 70
0
 62
7
  6
CONTINUOUS
370
-3
390
F
  0
LAYER
  5
213
100
AcDbSymbolTableRecord
100
AcDbLayerTableRecord
  2
INTF_91705
 70
0
 62
7
  6
CONTINUOUS
370
-3
390
F
  0
LAYER
  5
214
100
AcDbSymbolTableRecord
100
AcDbLayerTableRecord
  2
INTF_92858
 70
0
 62
7
  6
CONTINUOUS
370
-3
390
F
  0
LAYER
  5
215
100
AcDbSymbolTableRecord
100
AcDbLayerTableRecord
  2
NONE
 70
0
 62
7
  6
CONTINUOUS
370
-3
390
F
  0
LAYER
  5
216
100
AcDbSymbolTableRecord
100
AcDbLayerTableRecord
  2
NONE_1
 70
0
 62
7
  6
CONTINUOUS
370
-3
390
F
  0
LAYER
  5
217
100
AcDbSymbolTableRecord
100
AcDbLayerTableRecord
  2
NONE_10
 70
0
 62
7
  6
CONTINUOUS
370
-3
390
F
  0
LAYER
  5
218
100
AcDbSymbolTableRecord
100
AcDbLayerTableRecord
  2
NONE_11
 70
0
 62
7
  6
CONTINUOUS
370
-3
390
F
  0
LAYER
  5
219
100
AcDbSymbolTableRecord
100
AcDbLayerTableRecord
  2
NONE_12
 70
0
 62
7
  6
CONTINUOUS
370
-3
390
F
  0
LAYER
  5
21A
100
AcDbSymbolTableRecord
100
AcDbLayerTableRecord
  2
NONE_13
 70
0
 62
7
  6
CONTINUOUS
370
-3
390
F
  0
LAYER
  5
21B
100
AcDbSymbolTableRecord
100
AcDbLayerTableRecord
  2
NONE_2
 70
0
 62
7
  6
CONTINUOUS
370
-3
390
F
  0
LAYER
  5
21C
100
AcDbSymbolTableRecord
100
AcDbLayerTableRecord
  2
NONE_3
 70
0
 62
7
  6
CONTINUOUS
370
-3
390
F
  0
LAYER
  5
21D
100
AcDbSymbolTableRecord
100
AcDbLayerTableRecord
  2
NONE_4
 70
0
 62
7
  6
CONTINUOUS
370
-3
390
F
  0
LAYER
  5
21E
100
AcDbSymbolTableRecord
100
AcDbLayerTableRecord
  2
NONE_5
 70
0
 62
7
  6
CONTINUOUS
370
-3
390
F
  0
LAYER
  5
21F
100
AcDbSymbolTableRecord
100
AcDbLayerTableRecord
  2
NONE_6
 70
0
 62
7
  6
CONTINUOUS
370
-3
390
F
  0
LAYER
  5
220
100
AcDbSymbolTableRecord
100
AcDbLayerTableRecord
  2
NONE_7
 70
0
 62
7
  6
CONTINUOUS
370
-3
390
F
  0
LAYER
  5
221
100
AcDbSymbolTableRecord
100
AcDbLayerTableRecord
  2
NONE_8
 70
0
 62
7
  6
CONTINUOUS
370
-3
390
F
  0
LAYER
  5
222
100
AcDbSymbolTableRecord
100
AcDbLayerTableRecord
  2
NONE_9
 70
0
 62
7
  6
CONTINUOUS
370
-3
390
F
  0
LAYER
  5
223
100
AcDbSymbolTableRecord
100
AcDbLayerTableRecord
  2
PRODUCT_27206
 70
0
 62
7
  6
CONTINUOUS
370
-3
390
F
  0
LAYER
  5
224
100
AcDbSymbolTableRecord
100
AcDbLayerTableRecord
  2
PRODUCT_27223
 70
0
 62
7
  6
CONTINUOUS
370
-3
390
F
  0
LAYER
  5
225
100
AcDbSymbolTableRecord
100
AcDbLayerTableRecord
  2
PRODUCT_27240
 70
0
 62
7
  6
CONTINUOUS
370
-3
390
F
  0
LAYER
  5
226
100
AcDbSymbolTableRecord
100
AcDbLayerTableRecord
  2
PRODUCT_27257
 70
0
 62
7
  6
CONTINUOUS
370
-3
390
F
  0
LAYER
  5
227
100
AcDbSymbolTableRecord
100
AcDbLayerTableRecord
  2
PRODUCT_27274
 70
0
 62
7
  6
CONTINUOUS
370
-3
390
F
  0
LAYER
  5
228
100
AcDbSymbolTableRecord
100
AcDbLayerTableRecord
  2
PRODUCT_27291
 70
0
 62
7
  6
CONTINUOUS
370
-3
390
F
  0
ENDTAB
  0
TABLE
  2
STYLE
  5
3
100
AcDbSymbolTable
 70
1
  0
STYLE
  5
11
100
AcDbSymbolTableRecord
100
AcDbTextStyleTableRecord
  2
STANDARD
 70
0
 40
0.0
 41
0.8
 50
0.0
 71
0
 42
0.2
  3
txt
  4

  0
STYLE
  5
229
100
AcDbSymbolTableRecord
100
AcDbTextStyleTableRecord
  2
TEXTSTYLE_1
 70
0
 40
0.0
 41
0.8
 50
0.0
 71
0
 42
0.2
  3
gdt
  4

  0
ENDTAB
  0
TABLE
  2
VIEW
  5
6
100
AcDbSymbolTable
 70
0
  0
ENDTAB
  0
TABLE
  2
UCS
  5
7
100
AcDbSymbolTable
 70
0
  0
ENDTAB
  0
TABLE
  2
APPID
  5
9
100
AcDbSymbolTable
 70
1
  0
APPID
  5
22A
100
AcDbSymbolTableRecord
100
AcDbRegAppTableRecord
  2
ACAD
 70
0
  0
ENDTAB
  0
TABLE
  2
BLOCK_RECORD
  5
1
100
AcDbSymbolTable
 70
0
  0
BLOCK_RECORD
  5
22B
100
AcDbSymbolTableRecord
100
AcDbBlockTableRecord
  2
*Model_Space
  0
BLOCK_RECORD
  5
22C
100
AcDbSymbolTableRecord
100
AcDbBlockTableRecord
  2
*Paper_Space
  0
BLOCK_RECORD
  5
22D
100
AcDbSymbolTableRecord
100
AcDbBlockTableRecord
  2
_FILLED
  0
ENDTAB
  0
TABLE
  2
DIMSTYLE
  5
A
100
AcDbSymbolTable
 70
1
100
AcDbDimStyleTable
 71
0
  0
DIMSTYLE
105
22E
100
AcDbSymbolTableRecord
100
AcDbDimStyleTableRecord
  2
STANDARD
 70
0
  3

  4

 40
1.0
 41
0.1
 42
0.0625
 43
0.38
 44
0.125
 45
0.0
 46
0.0
 47
0.001
 48
0.001
140
0.08
141
0.09
142
0.0
143
25.4
144
1.0
145
0.0
146
1.0
147
0.09
 71
1.0
 72
0.0
 73
1
 74
1
 75
0
 76
0
 77
0
 78
4
 79
1
170
1
171
2
172
0
173
0
174
0
175
0
176
0
177
0
178
0
270
2
179
3
271
3
272
3
273
2
274
2
275
0
280
0
281
0
282
0
283
1
284
4
285
0
286
0
287
3
288
0
340
11
278
46
341
22D
342
22D
343
22D
344
22D
  0
ENDTAB
  0
ENDSEC
  0
SECTION
  2
BLOCKS
  0
BLOCK
  5
20
100
AcDbEntity
  8
0
100
AcDbBlockBegin
  2
*Model_Space
 70
0
 10
0.0
 20
0.0
 30
0.0
  3
*Model_Space
  1

  0
ENDBLK
  5
21
100
AcDbEntity
  8
0
100
AcDbBlockEnd
  0
BLOCK
  5
1C
100
AcDbEntity
  8
0
100
AcDbBlockBegin
  2
*Paper_Space
 70
0
 10
0.0
 20
0.0
 30
0.0
  3
*Paper_Space
  1

  0
ENDBLK
  5
1D
100
AcDbEntity
  8
0
100
AcDbBlockEnd
  0
BLOCK
  5
22F
100
AcDbEntity
  8
0
100
AcDbBlockBegin
  2
_FILLED
 70
64
 10
0.0
 20
0.0
  3
_FILLED
  1

  0
SOLID
  5
230
100
AcDbEntity
  8
0
  6
BYBLOCK
 62
0
100
AcDbTrace
 10
0.0
 20
0.0
 11
-1.0
 21
0.2
 12
-1.0
 22
-0.2
 13
-1.0
 23
-0.2
  0
ENDBLK
  5
231
100
AcDbEntity
  8
0
  6
BYBLOCK
 62
0
100
AcDbBlockEnd
  0
ENDSEC
  0
SECTION
  2
ENTITIES
  0
MTEXT
  5
232
100
AcDbEntity
  8
0
100
AcDbMText
 62
7
  6
CONTINUOUS
  7
STANDARD
 71
1
 72
1
 10
9.5180318323
 20
0.3180861801
 30
0.0
 11
1.0
 21
0.0
 31
0.0
 73
2
 44
0.9
  1
SCALE: 1.18
 40
0.08
 41
0.704
  0
LINE
  5
233
100
AcDbEntity
  8
0
100
AcDbLine
 62
7
  6
CONTINUOUS
 10
0.0
 20
0.0
 11
0.0
 21
8.5
  0
LINE
  5
234
100
AcDbEntity
  8
0
100
AcDbLine
 62
7
  6
CONTINUOUS
 10
0.0
 20
0.0
 11
11.0
 21
0.0
  0
LINE
  5
235
100
AcDbEntity
  8
0
100
AcDbLine
 62
7
  6
CONTINUOUS
 10
0.0
 20
8.5
 11
11.0
 21
8.5
  0
LINE
  5
236
100
AcDbEntity
  8
0
100
AcDbLine
 62
7
  6
CONTINUOUS
 10
11.0
 20
0.0
 11
11.0
 21
8.5
  0
LINE
  5
237
100
AcDbEntity
  8
0
100
AcDbLine
 62
7
  6
CONTINUOUS
 10
6.1839572005
 20
0.1304938532
 11
4.7122772715
 21
0.1304938532
  0
LINE
  5
238
100
AcDbEntity
  8
0
100
AcDbLine
 62
7
  6
CONTINUOUS
 10
4.7284020298
 20
8.1691668994
 11
4.7271181274
 21
8.1671655223
  0
LINE
  5
239
100
AcDbEntity
  8
0
100
AcDbLine
 62
7
  6
CONTINUOUS
 10
4.5770542439
 20
6.3090948172
 11
4.5774810638
 21
6.3093719481
  0
LINE
  5
23A
100
AcDbEntity
  8
0
100
AcDbLine
 62
7
  6
CONTINUOUS
 10
4.5770542439
 20
6.2510239511
 11
4.5774810626
 21
6.2513010816
  0
LINE
  5
23B
100
AcDbEntity
  8
0
100
AcDbLine
 62
7
  6
CONTINUOUS
 10
4.5770542439
 20
6.192953085
 11
4.5774810626
 21
6.1932302154
  0
LINE
  5
23C
100
AcDbEntity
  8
0
100
AcDbLine
 62
7
  6
CONTINUOUS
 10
4.6100131532
 20
6.3201673576
 11
4.5774810623
 21
6.309376672
  0
LINE
  5
23D
100
AcDbEntity
  8
0
100
AcDbLine
 62
7
  6
CONTINUOUS
 10
4.6100131532
 20
6.2620964911
 11
4.5774810611
 21
6.2513058051
  0
LINE
  5
23E
100
AcDbEntity
  8
0
100
AcDbLine
 62
7
  6
CONTINUOUS
 10
4.6100131532
 20
6.2040256249
 11
4.5774810611
 21
6.193234939
  0
LINE
  5
23F
100
AcDbEntity
  8
0
100
AcDbLine
 62
7
  6
CONTINUOUS
 10
4.6100131532
 20
6.1459547588
 11
4.5774810611
 21
6.1351640728
  0
LINE
  5
240
100
AcDbEntity
  8
0
100
AcDbLine
 62
7
  6
CONTINUOUS
 10
4.5424440077
 20
6.1078883521
 11
4.209117236
 21
5.7037151238
  0
LINE
  5
241
100
AcDbEntity
  8
0
100
AcDbLine
 62
7
  6
CONTINUOUS
 10
4.5770542439
 20
5.5541735574
 11
4.5774810626
 21
5.5544506879
  0
LINE
  5
242
100
AcDbEntity
  8
0
100
AcDbLine
 62
7
  6
CONTINUOUS
 10
4.5770542439
 20
5.4961026913
 11
4.5774810626
 21
5.4963798217
  0
LINE
  5
243
100
AcDbEntity
  8
0
100
AcDbLine
 62
7
  6
CONTINUOUS
 10
4.5770542439
 20
5.4380318251
 11
4.5774810626
 21
5.4383089556
  0
LINE
  5
244
100
AcDbEntity
  8
0
100
AcDbLine
 62
7
  6
CONTINUOUS
 10
5.9601130909
 20
6.3759800183
 11
5.940998579
 21
6.3640656528
  0
LINE
  5
245
100
AcDbEntity
  8
0
100
AcDbLine
 62
7
  6
CONTINUOUS
 10
6.2863007857
 20
6.3144051575
 11
6.3188305448
 21
6.3263281385
  0
LINE
  5
246
100
AcDbEntity
  8
0
100
AcDbLine
 62
7
  6
CONTINUOUS
 10
6.2863007857
 20
6.2563342914
 11
6.3188305448
 21
6.2682572724
  0
LINE
  5
247
100
AcDbEntity
  8
0
100
AcDbLine
 62
7
  6
CONTINUOUS
 10
6.2863007857
 20
6.1982634252
 11
6.3188305448
 21
6.2101864062
  0
LINE
  5
248
100
AcDbEntity
  8
0
100
AcDbLine
 62
7
  6
CONTINUOUS
 10
6.2863007857
 20
6.1401925591
 11
6.3188305448
 21
6.1521155401
  0
LINE
  5
249
100
AcDbEntity
  8
0
100
AcDbLine
 62
7
  6
CONTINUOUS
 10
4.6100131532
 20
5.5652460974
 11
4.5774810611
 21
5.5544554114
  0
LINE
  5
24A
100
AcDbEntity
  8
0
100
AcDbLine
 62
7
  6
CONTINUOUS
 10
4.6100131532
 20
5.5071752312
 11
4.5774810611
 21
5.4963845453
  0
LINE
  5
24B
100
AcDbEntity
  8
0
100
AcDbLine
 62
7
  6
CONTINUOUS
 10
4.0544164486
 20
7.7524403664
 11
4.0544164486
 21
7.7428339037
  0
LINE
  5
24C
100
AcDbEntity
  8
0
100
AcDbLine
 62
7
  6
CONTINUOUS
 10
4.1937865274
 20
7.2725945876
 11
4.1937865274
 21
7.1796812017
  0
LINE
  5
24D
100
AcDbEntity
  8
0
100
AcDbLine
 62
7
  6
CONTINUOUS
 10
4.209117236
 20
5.7037151238
 11
4.209117236
 21
5.5968647301
  0
LINE
  5
24E
100
AcDbEntity
  8
0
100
AcDbLine
 62
7
  6
CONTINUOUS
 10
4.2332747163
 20
5.4105820121
 11
4.2332747163
 21
5.3548339806
  0
LINE
  5
24F
100
AcDbEntity
  8
0
100
AcDbLine
 62
7
  6
CONTINUOUS
 10
4.2518573935
 20
5.1291796015
 11
4.2518573935
 21
5.1616992866
  0
LINE
  5
250
100
AcDbEntity
  8
0
100
AcDbLine
 62
7
  6
CONTINUOUS
 10
6.3191802282
 20
6.3265832574
 11
6.3188305435
 21
6.3263324592
  0
LINE
  5
251
100
AcDbEntity
  8
0
100
AcDbLine
 62
7
  6
CONTINUOUS
 10
4.5770542439
 20
5.3218900928
 11
4.5774810626
 21
5.3221672233
  0
LINE
  5
252
100
AcDbEntity
  8
0
100
AcDbLine
 62
7
  6
CONTINUOUS
 10
4.5770542439
 20
5.2638192267
 11
4.5774810626
 21
5.2640963572
  0
LINE
  5
253
100
AcDbEntity
  8
0
100
AcDbLine
 62
7
  6
CONTINUOUS
 10
4.5770542439
 20
5.2057483605
 11
4.5774810626
 21
5.206025491
  0
LINE
  5
254
100
AcDbEntity
  8
0
100
AcDbLine
 62
7
  6
CONTINUOUS
 10
4.6100131532
 20
5.4491043651
 11
4.5774810611
 21
5.4383136791
  0
LINE
  5
255
100
AcDbEntity
  8
0
100
AcDbLine
 62
7
  6
CONTINUOUS
 10
4.6100131532
 20
5.3329626328
 11
4.5774810611
 21
5.3221719469
  0
LINE
  5
256
100
AcDbEntity
  8
0
100
AcDbLine
 62
7
  6
CONTINUOUS
 10
4.6100131532
 20
5.2748917667
 11
4.5774810611
 21
5.2641010807
  0
LINE
  5
257
100
AcDbEntity
  8
0
100
AcDbLine
 62
7
  6
CONTINUOUS
 10
4.6100131532
 20
5.2168209005
 11
4.5774810611
 21
5.2060302146
  0
LINE
  5
258
100
AcDbEntity
  8
0
100
AcDbLine
 62
7
  6
CONTINUOUS
 10
4.360246448
 20
4.896896137
 11
4.360246448
 21
5.0780772393
  0
LINE
  5
259
100
AcDbEntity
  8
0
100
AcDbLine
 62
9
  6
CONTINUOUS
 10
4.3660658612
 20
5.0780772393
 11
4.3660658612
 21
4.896896137
  0
LINE
  5
25A
100
AcDbEntity
  8
0
100
AcDbLine
 62
7
  6
CONTINUOUS
 10
4.5770542439
 20
4.6715637496
 11
4.5770542439
 21
4.6831103879
  0
LINE
  5
25B
100
AcDbEntity
  8
0
100
AcDbLine
 62
7
  6
CONTINUOUS
 10
4.5770542439
 20
4.7296346157
 11
4.5770542439
 21
4.7411812541
  0
LINE
  5
25C
100
AcDbEntity
  8
0
100
AcDbLine
 62
7
  6
CONTINUOUS
 10
4.5770542439
 20
4.7877054819
 11
4.5770542439
 21
4.7992521202
  0
LINE
  5
25D
100
AcDbEntity
  8
0
100
AcDbLine
 62
7
  6
CONTINUOUS
 10
4.5770542439
 20
4.845776348
 11
4.5770542439
 21
4.8573229863
  0
LINE
  5
25E
100
AcDbEntity
  8
0
100
AcDbLine
 62
7
  6
CONTINUOUS
 10
4.5770542439
 20
5.1942015449
 11
4.5770542439
 21
5.2057481832
  0
LINE
  5
25F
100
AcDbEntity
  8
0
100
AcDbLine
 62
7
  6
CONTINUOUS
 10
4.5770542439
 20
5.252272411
 11
4.5770542439
 21
5.2638190493
  0
LINE
  5
260
100
AcDbEntity
  8
0
100
AcDbLine
 62
7
  6
CONTINUOUS
 10
4.5770542439
 20
5.3103432772
 11
4.5770542439
 21
5.3218899155
  0
LINE
  5
261
100
AcDbEntity
  8
0
100
AcDbLine
 62
7
  6
CONTINUOUS
 10
4.5770542439
 20
5.4264850094
 11
4.5770542439
 21
5.4380316478
  0
LINE
  5
262
100
AcDbEntity
  8
0
100
AcDbLine
 62
7
  6
CONTINUOUS
 10
4.5770542439
 20
5.4845558756
 11
4.5770542439
 21
5.4961025139
  0
LINE
  5
263
100
AcDbEntity
  8
0
100
AcDbLine
 62
7
  6
CONTINUOUS
 10
4.5770542439
 20
5.5426267417
 11
4.5770542439
 21
5.55417338
  0
LINE
  5
264
100
AcDbEntity
  8
0
100
AcDbLine
 62
7
  6
CONTINUOUS
 10
4.5770542439
 20
6.1233354031
 11
4.5770542439
 21
6.1348820415
  0
LINE
  5
265
100
AcDbEntity
  8
0
100
AcDbLine
 62
7
  6
CONTINUOUS
 10
4.5770542439
 20
6.1814062693
 11
4.5770542439
 21
6.1929529076
  0
LINE
  5
266
100
AcDbEntity
  8
0
100
AcDbLine
 62
7
  6
CONTINUOUS
 10
4.5770542439
 20
6.2394771354
 11
4.5770542439
 21
6.2510237738
  0
LINE
  5
267
100
AcDbEntity
  8
0
100
AcDbLine
 62
7
  6
CONTINUOUS
 10
4.5770542439
 20
6.2975480016
 11
4.5770542439
 21
6.3090946399
  0
LINE
  5
268
100
AcDbEntity
  8
0
100
AcDbLine
 62
7
  6
CONTINUOUS
 10
4.5770542439
 20
6.3556188677
 11
4.5770542439
 21
7.1796812017
  0
LINE
  5
269
100
AcDbEntity
  8
0
100
AcDbLine
 62
7
  6
CONTINUOUS
 10
4.5770542439
 20
7.2725945876
 11
4.5770542439
 21
7.4980738461
  0
LINE
  5
26A
100
AcDbEntity
  8
0
100
AcDbLine
 62
7
  6
CONTINUOUS
 10
4.6095739289
 20
6.3437045028
 11
4.6095739289
 21
6.3198757718
  0
LINE
  5
26B
100
AcDbEntity
  8
0
100
AcDbLine
 62
7
  6
CONTINUOUS
 10
4.6095739289
 20
6.2856336363
 11
4.6095739289
 21
6.2618049053
  0
LINE
  5
26C
100
AcDbEntity
  8
0
100
AcDbLine
 62
7
  6
CONTINUOUS
 10
4.6095739289
 20
6.2275627702
 11
4.6095739289
 21
6.2037340392
  0
LINE
  5
26D
100
AcDbEntity
  8
0
100
AcDbLine
 62
7
  6
CONTINUOUS
 10
4.6095739289
 20
6.169491904
 11
4.6095739289
 21
6.145663173
  0
LINE
  5
26E
100
AcDbEntity
  8
0
100
AcDbLine
 62
7
  6
CONTINUOUS
 10
4.6095739289
 20
6.1114210379
 11
4.6095739289
 21
6.1078883521
  0
LINE
  5
26F
100
AcDbEntity
  8
0
100
AcDbLine
 62
7
  6
CONTINUOUS
 10
4.6095739289
 20
5.5887832426
 11
4.6095739289
 21
5.5649545116
  0
LINE
  5
270
100
AcDbEntity
  8
0
100
AcDbLine
 62
7
  6
CONTINUOUS
 10
4.6095739289
 20
5.5307123765
 11
4.6095739289
 21
5.5068836455
  0
LINE
  5
271
100
AcDbEntity
  8
0
100
AcDbLine
 62
7
  6
CONTINUOUS
 10
4.6095739289
 20
5.4726415103
 11
4.6095739289
 21
5.4488127793
  0
LINE
  5
272
100
AcDbEntity
  8
0
100
AcDbLine
 62
7
  6
CONTINUOUS
 10
4.6095739289
 20
5.4145706442
 11
4.6095739289
 21
5.4105820121
  0
LINE
  5
273
100
AcDbEntity
  8
0
100
AcDbLine
 62
7
  6
CONTINUOUS
 10
4.6095739289
 20
5.3548339806
 11
4.6095739289
 21
5.332671047
  0
LINE
  5
274
100
AcDbEntity
  8
0
100
AcDbLine
 62
7
  6
CONTINUOUS
 10
4.6095739289
 20
5.2984289119
 11
4.6095739289
 21
5.2746001809
  0
LINE
  5
275
100
AcDbEntity
  8
0
100
AcDbLine
 62
7
  6
CONTINUOUS
 10
4.6095739289
 20
5.2403580458
 11
4.6095739289
 21
5.2165293147
  0
LINE
  5
276
100
AcDbEntity
  8
0
100
AcDbLine
 62
7
  6
CONTINUOUS
 10
4.6095739289
 20
4.8736677905
 11
4.6095739289
 21
4.8681041179
  0
LINE
  5
277
100
AcDbEntity
  8
0
100
AcDbLine
 62
7
  6
CONTINUOUS
 10
4.6095739289
 20
4.8338619828
 11
4.6095739289
 21
4.8100332518
  0
LINE
  5
278
100
AcDbEntity
  8
0
100
AcDbLine
 62
7
  6
CONTINUOUS
 10
4.6095739289
 20
4.7757911166
 11
4.6095739289
 21
4.7519623856
  0
LINE
  5
279
100
AcDbEntity
  8
0
100
AcDbLine
 62
7
  6
CONTINUOUS
 10
4.6095739289
 20
4.7177202505
 11
4.6095739289
 21
4.6938915195
  0
LINE
  5
27A
100
AcDbEntity
  8
0
100
AcDbLine
 62
7
  6
CONTINUOUS
 10
4.6095739289
 20
4.6596493817
 11
4.6095739289
 21
4.6358206505
  0
LINE
  5
27B
100
AcDbEntity
  8
0
100
AcDbLine
 62
7
  6
CONTINUOUS
 10
4.5988576159
 20
4.6322715836
 11
4.599074157
 21
4.6324869561
  0
LINE
  5
27C
100
AcDbEntity
  8
0
100
AcDbLine
 62
7
  6
CONTINUOUS
 10
6.3191802282
 20
6.2685123913
 11
6.3188305435
 21
6.2682615931
  0
LINE
  5
27D
100
AcDbEntity
  8
0
100
AcDbLine
 62
7
  6
CONTINUOUS
 10
6.3191802282
 20
6.2104415251
 11
6.3188305435
 21
6.2101907269
  0
LINE
  5
27E
100
AcDbEntity
  8
0
100
AcDbLine
 62
7
  6
CONTINUOUS
 10
6.3191802282
 20
6.152370659
 11
6.3188305435
 21
6.1521198608
  0
LINE
  5
27F
100
AcDbEntity
  8
0
100
AcDbLine
 62
7
  6
CONTINUOUS
 10
4.5770542439
 20
4.8573231637
 11
4.5774810626
 21
4.8576002942
  0
LINE
  5
280
100
AcDbEntity
  8
0
100
AcDbLine
 62
7
  6
CONTINUOUS
 10
4.5770542439
 20
4.7992522976
 11
4.5774810626
 21
4.799529428
  0
LINE
  5
281
100
AcDbEntity
  8
0
100
AcDbLine
 62
7
  6
CONTINUOUS
 10
4.5770542439
 20
4.7411814314
 11
4.5774810626
 21
4.7414585619
  0
LINE
  5
282
100
AcDbEntity
  8
0
100
AcDbLine
 62
7
  6
CONTINUOUS
 10
6.2863007857
 20
5.5594838977
 11
6.3188305448
 21
5.5714068787
  0
LINE
  5
283
100
AcDbEntity
  8
0
100
AcDbLine
 62
7
  6
CONTINUOUS
 10
6.2863007857
 20
5.5014130315
 11
6.3188305448
 21
5.5133360125
  0
LINE
  5
284
100
AcDbEntity
  8
0
100
AcDbLine
 62
7
  6
CONTINUOUS
 10
4.6100131532
 20
4.8683957037
 11
4.5774810611
 21
4.8576050177
  0
LINE
  5
285
100
AcDbEntity
  8
0
100
AcDbLine
 62
7
  6
CONTINUOUS
 10
4.63512511
 20
7.9952757585
 11
4.63512511
 21
8.0417324514
  0
LINE
  5
286
100
AcDbEntity
  8
0
100
AcDbLine
 62
7
  6
CONTINUOUS
 10
4.6362840351
 20
8.2368505616
 11
4.6362840351
 21
8.2716930813
  0
LINE
  5
287
100
AcDbEntity
  8
0
100
AcDbLine
 62
7
  6
CONTINUOUS
 10
4.7122432203
 20
0.1304938532
 11
4.7122432203
 21
4.6308466091
  0
LINE
  5
288
100
AcDbEntity
  8
0
100
AcDbLine
 62
7
  6
CONTINUOUS
 10
4.7284020298
 20
8.0417324514
 11
4.7284020298
 21
8.1319862671
  0
LINE
  5
289
100
AcDbEntity
  8
0
100
AcDbLine
 62
7
  6
CONTINUOUS
 10
4.7284020298
 20
8.1691668994
 11
4.7284020298
 21
8.2368505616
  0
LINE
  5
28A
100
AcDbEntity
  8
0
100
AcDbLine
 62
7
  6
CONTINUOUS
 10
6.1678324423
 20
8.1319862671
 11
6.1706232079
 21
8.1392915065
  0
LINE
  5
28B
100
AcDbEntity
  8
0
100
AcDbLine
 62
7
  6
CONTINUOUS
 10
4.5770542439
 20
4.6831146846
 11
4.5774810604
 21
4.6833944298
  0
LINE
  5
28C
100
AcDbEntity
  8
0
100
AcDbLine
 62
7
  6
CONTINUOUS
 10
6.2863007857
 20
5.4433421654
 11
6.3188305448
 21
5.4552651464
  0
LINE
  5
28D
100
AcDbEntity
  8
0
100
AcDbLine
 62
7
  6
CONTINUOUS
 10
6.2863007857
 20
5.3272004331
 11
6.3188305448
 21
5.3391234141
  0
LINE
  5
28E
100
AcDbEntity
  8
0
100
AcDbLine
 62
7
  6
CONTINUOUS
 10
6.2863007857
 20
5.2691295669
 11
6.3188305448
 21
5.2810525479
  0
LINE
  5
28F
100
AcDbEntity
  8
0
100
AcDbLine
 62
7
  6
CONTINUOUS
 10
6.2863007857
 20
5.2110587008
 11
6.3188305448
 21
5.2229816818
  0
LINE
  5
290
100
AcDbEntity
  8
0
100
AcDbLine
 62
7
  6
CONTINUOUS
 10
4.6100131532
 20
4.8103248375
 11
4.5774810611
 21
4.7995341516
  0
LINE
  5
291
100
AcDbEntity
  8
0
100
AcDbLine
 62
7
  6
CONTINUOUS
 10
4.6100131532
 20
4.7522539714
 11
4.5774810611
 21
4.7414632854
  0
LINE
  5
292
100
AcDbEntity
  8
0
100
AcDbLine
 62
7
  6
CONTINUOUS
 10
4.6100131532
 20
4.6941831053
 11
4.5774810611
 21
4.6833924193
  0
LINE
  5
293
100
AcDbEntity
  8
0
100
AcDbLine
 62
7
  6
CONTINUOUS
 10
4.6100075185
 20
4.6361082419
 11
4.59907812
 21
4.632482993
  0
LINE
  5
294
100
AcDbEntity
  8
0
100
AcDbLine
 62
7
  6
CONTINUOUS
 10
5.0392983384
 20
7.7756687128
 11
5.0392983384
 21
7.9952757585
  0
LINE
  5
295
100
AcDbEntity
  8
0
100
AcDbLine
 62
9
  6
CONTINUOUS
 10
5.0852271539
 20
4.896896137
 11
5.0852271539
 21
5.0780772393
  0
LINE
  5
296
100
AcDbEntity
  8
0
100
AcDbLine
 62
9
  6
CONTINUOUS
 10
5.1072494222
 20
5.0780772393
 11
5.1072494222
 21
4.896896137
  0
LINE
  5
297
100
AcDbEntity
  8
0
100
AcDbLine
 62
7
  6
CONTINUOUS
 10
6.3191802282
 20
5.5135911314
 11
6.3188305435
 21
5.5133403332
  0
LINE
  5
298
100
AcDbEntity
  8
0
100
AcDbLine
 62
7
  6
CONTINUOUS
 10
6.3191802282
 20
5.4555202653
 11
6.3188305435
 21
5.4552694671
  0
LINE
  5
299
100
AcDbEntity
  8
0
100
AcDbLine
 62
7
  6
CONTINUOUS
 10
6.3191802282
 20
5.339378533
 11
6.3188305435
 21
5.3391277348
  0
LINE
  5
29A
100
AcDbEntity
  8
0
100
AcDbLine
 62
7
  6
CONTINUOUS
 10
6.3191802282
 20
5.2813076669
 11
6.3188305435
 21
5.2810568687
  0
LINE
  5
29B
100
AcDbEntity
  8
0
100
AcDbLine
 62
7
  6
CONTINUOUS
 10
6.3191802282
 20
5.2232368007
 11
6.3188305435
 21
5.2229860025
  0
LINE
  5
29C
100
AcDbEntity
  8
0
100
AcDbLine
 62
7
  6
CONTINUOUS
 10
6.2863007857
 20
4.862633504
 11
6.3164058677
 21
4.8736677905
  0
LINE
  5
29D
100
AcDbEntity
  8
0
100
AcDbLine
 62
7
  6
CONTINUOUS
 10
4.6002825904
 20
4.6308466091
 11
4.5988603725
 21
4.632268827
  0
LINE
  5
29E
100
AcDbEntity
  8
0
100
AcDbLine
 62
7
  6
CONTINUOUS
 10
6.2863007857
 20
4.8045626378
 11
6.3188305448
 21
4.8164856188
  0
LINE
  5
29F
100
AcDbEntity
  8
0
100
AcDbLine
 62
7
  6
CONTINUOUS
 10
6.2863007857
 20
4.7464917717
 11
6.3188305448
 21
4.7584147527
  0
LINE
  5
2A0
100
AcDbEntity
  8
0
100
AcDbLine
 62
7
  6
CONTINUOUS
 10
6.2863007857
 20
4.6884209055
 11
6.3188305448
 21
4.7003438865
  0
LINE
  5
2A1
100
AcDbEntity
  8
0
100
AcDbLine
 62
7
  6
CONTINUOUS
 10
4.5770542439
 20
4.6715635724
 11
4.5774039375
 21
4.671312771
  0
LINE
  5
2A2
100
AcDbEntity
  8
0
100
AcDbLine
 62
7
  6
CONTINUOUS
 10
4.5770542439
 20
4.7296344385
 11
4.5774039285
 21
4.7293836403
  0
LINE
  5
2A3
100
AcDbEntity
  8
0
100
AcDbLine
 62
7
  6
CONTINUOUS
 10
4.5770542439
 20
4.7877053047
 11
4.5774039285
 21
4.7874545065
  0
LINE
  5
2A4
100
AcDbEntity
  8
0
100
AcDbLine
 62
7
  6
CONTINUOUS
 10
4.5770542439
 20
4.8457761708
 11
4.5774039285
 21
4.8455253726
  0
LINE
  5
2A5
100
AcDbEntity
  8
0
100
AcDbLine
 62
7
  6
CONTINUOUS
 10
6.3191802282
 20
4.8167407377
 11
6.3188305435
 21
4.8164899395
  0
LINE
  5
2A6
100
AcDbEntity
  8
0
100
AcDbLine
 62
7
  6
CONTINUOUS
 10
6.3191802282
 20
4.7586698716
 11
6.3188305435
 21
4.7584190734
  0
LINE
  5
2A7
100
AcDbEntity
  8
0
100
AcDbLine
 62
7
  6
CONTINUOUS
 10
6.3191802282
 20
4.7005990055
 11
6.3188305435
 21
4.7003482072
  0
LINE
  5
2A8
100
AcDbEntity
  8
0
100
AcDbLine
 62
7
  6
CONTINUOUS
 10
4.5774039362
 20
4.6713084472
 11
4.6099336865
 21
4.6593854695
  0
LINE
  5
2A9
100
AcDbEntity
  8
0
100
AcDbLine
 62
7
  6
CONTINUOUS
 10
4.5774039273
 20
4.7293793196
 11
4.6099336864
 21
4.7174563386
  0
LINE
  5
2AA
100
AcDbEntity
  8
0
100
AcDbLine
 62
7
  6
CONTINUOUS
 10
4.5774039273
 20
4.7874501857
 11
4.6099336864
 21
4.7755272047
  0
LINE
  5
2AB
100
AcDbEntity
  8
0
100
AcDbLine
 62
7
  6
CONTINUOUS
 10
4.5774039273
 20
4.8455210519
 11
4.6099336864
 21
4.8335980709
  0
LINE
  5
2AC
100
AcDbEntity
  8
0
100
AcDbLine
 62
7
  6
CONTINUOUS
 10
4.5770542439
 20
5.1942013677
 11
4.5774039285
 21
5.1939505694
  0
LINE
  5
2AD
100
AcDbEntity
  8
0
100
AcDbLine
 62
7
  6
CONTINUOUS
 10
4.5770542439
 20
5.2522722338
 11
4.5774039285
 21
5.2520214356
  0
LINE
  5
2AE
100
AcDbEntity
  8
0
100
AcDbLine
 62
7
  6
CONTINUOUS
 10
5.8569361337
 20
7.7756687128
 11
5.8569361337
 21
7.9952757585
  0
LINE
  5
2AF
100
AcDbEntity
  8
0
100
AcDbLine
 62
7
  6
CONTINUOUS
 10
5.940998579
 20
6.3640656528
 11
5.9409985474
 21
6.3402369215
  0
LINE
  5
2B0
100
AcDbEntity
  8
0
100
AcDbLine
 62
7
  6
CONTINUOUS
 10
5.9601130292
 20
6.3294557902
 11
5.9601130909
 21
6.3759800183
  0
LINE
  5
2B1
100
AcDbEntity
  8
0
100
AcDbLine
 62
7
  6
CONTINUOUS
 10
6.2959518817
 20
4.6308466091
 11
6.3191802276
 21
4.654074955
  0
LINE
  5
2B2
100
AcDbEntity
  8
0
100
AcDbLine
 62
7
  6
CONTINUOUS
 10
4.6093073976
 20
4.6333906299
 11
4.6096209451
 21
4.6334067467
  0
LINE
  5
2B3
100
AcDbEntity
  8
0
100
AcDbLine
 62
7
  6
CONTINUOUS
 10
4.6093073976
 20
4.6333906299
 11
4.6096795567
 21
4.633406916
  0
LINE
  5
2B4
100
AcDbEntity
  8
0
100
AcDbLine
 62
7
  6
CONTINUOUS
 10
6.1417553589
 20
4.6831423864
 11
6.1427555124
 21
4.6831550117
  0
LINE
  5
2B5
100
AcDbEntity
  8
0
100
AcDbLine
 62
7
  6
CONTINUOUS
 10
4.7616779309
 20
4.7357909619
 11
4.7604913393
 21
4.7357696611
  0
LINE
  5
2B6
100
AcDbEntity
  8
0
100
AcDbLine
 62
7
  6
CONTINUOUS
 10
4.8022386681
 20
4.736450145
 11
4.8007555479
 21
4.7364272955
  0
LINE
  5
2B7
100
AcDbEntity
  8
0
100
AcDbLine
 62
7
  6
CONTINUOUS
 10
6.2959339504
 20
4.6308466091
 11
4.6002860727
 21
4.6308466091
  0
LINE
  5
2B8
100
AcDbEntity
  8
0
100
AcDbLine
 62
7
  6
CONTINUOUS
 10
6.5127596776
 20
4.8736677905
 11
4.3834747944
 21
4.8736677905
  0
LINE
  5
2B9
100
AcDbEntity
  8
0
100
AcDbLine
 62
7
  6
CONTINUOUS
 10
4.5774039273
 20
5.1939462487
 11
4.5893348587
 21
5.1895733023
  0
LINE
  5
2BA
100
AcDbEntity
  8
0
100
AcDbLine
 62
7
  6
CONTINUOUS
 10
4.5770542439
 20
5.3103430999
 11
4.5774039285
 21
5.3100923017
  0
LINE
  5
2BB
100
AcDbEntity
  8
0
100
AcDbLine
 62
7
  6
CONTINUOUS
 10
4.5770542439
 20
5.4264848322
 11
4.5774039285
 21
5.426234034
  0
LINE
  5
2BC
100
AcDbEntity
  8
0
100
AcDbLine
 62
7
  6
CONTINUOUS
 10
4.5770542439
 20
5.4845556984
 11
4.5774039285
 21
5.4843049002
  0
LINE
  5
2BD
100
AcDbEntity
  8
0
100
AcDbLine
 62
7
  6
CONTINUOUS
 10
4.5770542439
 20
5.5426265645
 11
4.5774039285
 21
5.5423757663
  0
LINE
  5
2BE
100
AcDbEntity
  8
0
100
AcDbLine
 62
7
  6
CONTINUOUS
 10
6.1678324423
 20
8.0417324514
 11
6.1678324423
 21
8.1319862671
  0
LINE
  5
2BF
100
AcDbEntity
  8
0
100
AcDbLine
 62
7
  6
CONTINUOUS
 10
6.1678324423
 20
8.1691668994
 11
6.1678324423
 21
8.2368505616
  0
LINE
  5
2C0
100
AcDbEntity
  8
0
100
AcDbLine
 62
9
  6
CONTINUOUS
 10
6.1718918638
 20
4.896896137
 11
6.1718918638
 21
5.0780772393
  0
LINE
  5
2C1
100
AcDbEntity
  8
0
100
AcDbLine
 62
7
  6
CONTINUOUS
 10
6.1839912518
 20
0.1304938532
 11
6.1839912518
 21
4.6308466091
  0
LINE
  5
2C2
100
AcDbEntity
  8
0
100
AcDbLine
 62
9
  6
CONTINUOUS
 10
6.189300797
 20
5.0780772393
 11
6.189300797
 21
4.896896137
  0
LINE
  5
2C3
100
AcDbEntity
  8
0
100
AcDbLine
 62
7
  6
CONTINUOUS
 10
6.259950437
 20
8.2368505616
 11
6.259950437
 21
8.2716930813
  0
LINE
  5
2C4
100
AcDbEntity
  8
0
100
AcDbLine
 62
7
  6
CONTINUOUS
 10
6.261109362
 20
7.9952757585
 11
6.261109362
 21
8.0417324514
  0
LINE
  5
2C5
100
AcDbEntity
  8
0
100
AcDbLine
 62
7
  6
CONTINUOUS
 10
6.2866605431
 20
4.6648560864
 11
6.2866605431
 21
4.6886848174
  0
LINE
  5
2C6
100
AcDbEntity
  8
0
100
AcDbLine
 62
7
  6
CONTINUOUS
 10
6.2866605431
 20
4.7229269525
 11
6.2866605431
 21
4.7467556836
  0
LINE
  5
2C7
100
AcDbEntity
  8
0
100
AcDbLine
 62
7
  6
CONTINUOUS
 10
6.2866605431
 20
4.7809978187
 11
6.2866605431
 21
4.8048265497
  0
LINE
  5
2C8
100
AcDbEntity
  8
0
100
AcDbLine
 62
7
  6
CONTINUOUS
 10
6.2866605431
 20
4.8390686848
 11
6.2866605431
 21
4.8628974159
  0
LINE
  5
2C9
100
AcDbEntity
  8
0
100
AcDbLine
 62
7
  6
CONTINUOUS
 10
6.2866605431
 20
5.1895733023
 11
6.2866605431
 21
5.2113226127
  0
LINE
  5
2CA
100
AcDbEntity
  8
0
100
AcDbLine
 62
7
  6
CONTINUOUS
 10
6.2866605431
 20
5.2455647478
 11
6.2866605431
 21
5.2693934788
  0
LINE
  5
2CB
100
AcDbEntity
  8
0
100
AcDbLine
 62
7
  6
CONTINUOUS
 10
6.2866605431
 20
5.303635614
 11
6.2866605431
 21
5.327464345
  0
LINE
  5
2CC
100
AcDbEntity
  8
0
100
AcDbLine
 62
7
  6
CONTINUOUS
 10
6.2866605431
 20
5.4197773462
 11
6.2866605431
 21
5.4436060773
  0
LINE
  5
2CD
100
AcDbEntity
  8
0
100
AcDbLine
 62
7
  6
CONTINUOUS
 10
6.2866605431
 20
5.4778482124
 11
6.2866605431
 21
5.5016769434
  0
LINE
  5
2CE
100
AcDbEntity
  8
0
100
AcDbLine
 62
7
  6
CONTINUOUS
 10
6.2866605431
 20
5.5359190785
 11
6.2866605431
 21
5.5597478096
  0
LINE
  5
2CF
100
AcDbEntity
  8
0
100
AcDbLine
 62
7
  6
CONTINUOUS
 10
6.2866605431
 20
5.5939899447
 11
6.2866605431
 21
5.5968647301
  0
LINE
  5
2D0
100
AcDbEntity
  8
0
100
AcDbLine
 62
7
  6
CONTINUOUS
 10
6.2866605431
 20
6.1166277399
 11
6.2866605431
 21
6.140456471
  0
LINE
  5
2D1
100
AcDbEntity
  8
0
100
AcDbLine
 62
7
  6
CONTINUOUS
 10
6.2866605431
 20
6.1746986061
 11
6.2866605431
 21
6.1985273371
  0
LINE
  5
2D2
100
AcDbEntity
  8
0
100
AcDbLine
 62
7
  6
CONTINUOUS
 10
6.2866605431
 20
6.2327694722
 11
6.2866605431
 21
6.2565982033
  0
LINE
  5
2D3
100
AcDbEntity
  8
0
100
AcDbLine
 62
7
  6
CONTINUOUS
 10
6.2866605431
 20
6.2908403384
 11
6.2866605431
 21
6.3146690694
  0
LINE
  5
2D4
100
AcDbEntity
  8
0
100
AcDbLine
 62
7
  6
CONTINUOUS
 10
6.3191802282
 20
4.7005991827
 11
6.3191802282
 21
4.712145821
  0
LINE
  5
2D5
100
AcDbEntity
  8
0
100
AcDbLine
 62
7
  6
CONTINUOUS
 10
6.3191802282
 20
4.7586700488
 11
6.3191802282
 21
4.7702166871
  0
LINE
  5
2D6
100
AcDbEntity
  8
0
100
AcDbLine
 62
7
  6
CONTINUOUS
 10
6.3191802282
 20
4.8167409149
 11
6.3191802282
 21
4.8282875533
  0
LINE
  5
2D7
100
AcDbEntity
  8
0
100
AcDbLine
 62
7
  6
CONTINUOUS
 10
6.3191802282
 20
5.2232369779
 11
6.3191802282
 21
5.2347836163
  0
LINE
  5
2D8
100
AcDbEntity
  8
0
100
AcDbLine
 62
7
  6
CONTINUOUS
 10
6.3191802282
 20
5.2813078441
 11
6.3191802282
 21
5.2928544824
  0
LINE
  5
2D9
100
AcDbEntity
  8
0
100
AcDbLine
 62
7
  6
CONTINUOUS
 10
6.3191802282
 20
5.3393787102
 11
6.3191802282
 21
5.3509253486
  0
LINE
  5
2DA
100
AcDbEntity
  8
0
100
AcDbLine
 62
7
  6
CONTINUOUS
 10
6.3191802282
 20
5.4555204425
 11
6.3191802282
 21
5.4670670808
  0
LINE
  5
2DB
100
AcDbEntity
  8
0
100
AcDbLine
 62
7
  6
CONTINUOUS
 10
6.3191802282
 20
5.5135913086
 11
6.3191802282
 21
5.525137947
  0
LINE
  5
2DC
100
AcDbEntity
  8
0
100
AcDbLine
 62
7
  6
CONTINUOUS
 10
6.3191802282
 20
5.5716621748
 11
6.3191802282
 21
5.5832088131
  0
LINE
  5
2DD
100
AcDbEntity
  8
0
100
AcDbLine
 62
7
  6
CONTINUOUS
 10
6.3191802282
 20
6.1523708362
 11
6.3191802282
 21
6.1639174745
  0
LINE
  5
2DE
100
AcDbEntity
  8
0
100
AcDbLine
 62
7
  6
CONTINUOUS
 10
6.3191802282
 20
6.2104417023
 11
6.3191802282
 21
6.2219883407
  0
LINE
  5
2DF
100
AcDbEntity
  8
0
100
AcDbLine
 62
7
  6
CONTINUOUS
 10
6.3191802282
 20
6.2685125685
 11
6.3191802282
 21
6.2800592068
  0
LINE
  5
2E0
100
AcDbEntity
  8
0
100
AcDbLine
 62
7
  6
CONTINUOUS
 10
6.3191802282
 20
6.3265834346
 11
6.3191802282
 21
7.1796812017
  0
LINE
  5
2E1
100
AcDbEntity
  8
0
100
AcDbLine
 62
7
  6
CONTINUOUS
 10
6.3191802282
 20
7.2725945876
 11
6.3191802282
 21
7.4980738461
  0
LINE
  5
2E2
100
AcDbEntity
  8
0
100
AcDbLine
 62
9
  6
CONTINUOUS
 10
4.3660658612
 20
4.896896137
 11
5.0852271539
 21
4.896896137
  0
LINE
  5
2E3
100
AcDbEntity
  8
0
100
AcDbLine
 62
9
  6
CONTINUOUS
 10
5.1072494222
 20
4.896896137
 11
6.1718918638
 21
4.896896137
  0
LINE
  5
2E4
100
AcDbEntity
  8
0
100
AcDbLine
 62
9
  6
CONTINUOUS
 10
6.189300797
 20
4.896896137
 11
6.5359880241
 21
4.8968961368
  0
LINE
  5
2E5
100
AcDbEntity
  8
0
100
AcDbLine
 62
9
  6
CONTINUOUS
 10
4.360246448
 20
5.0780772393
 11
6.5359880241
 21
5.0780772393
  0
LINE
  5
2E6
100
AcDbEntity
  8
0
100
AcDbLine
 62
7
  6
CONTINUOUS
 10
4.2797327341
 20
5.1013055858
 11
6.6165017379
 21
5.1013055858
  0
LINE
  5
2E7
100
AcDbEntity
  8
0
100
AcDbLine
 62
9
  6
CONTINUOUS
 10
4.2518573935
 20
5.1291796015
 11
6.6443770785
 21
5.1291796015
  0
LINE
  5
2E8
100
AcDbEntity
  8
0
100
AcDbLine
 62
9
  6
CONTINUOUS
 10
6.6443770785
 20
5.1616992866
 11
4.2518573935
 21
5.1616992866
  0
LINE
  5
2E9
100
AcDbEntity
  8
0
100
AcDbLine
 62
7
  6
CONTINUOUS
 10
6.318753411
 20
4.6543569862
 11
6.2862213189
 21
4.6651476722
  0
LINE
  5
2EA
100
AcDbEntity
  8
0
100
AcDbLine
 62
7
  6
CONTINUOUS
 10
6.318753411
 20
4.7124278524
 11
6.2862213189
 21
4.7232185383
  0
LINE
  5
2EB
100
AcDbEntity
  8
0
100
AcDbLine
 62
7
  6
CONTINUOUS
 10
6.318753411
 20
4.7704987185
 11
6.2862213189
 21
4.7812894045
  0
LINE
  5
2EC
100
AcDbEntity
  8
0
100
AcDbLine
 62
7
  6
CONTINUOUS
 10
6.318753411
 20
4.8285695846
 11
6.2862213189
 21
4.8393602706
  0
LINE
  5
2ED
100
AcDbEntity
  8
0
100
AcDbLine
 62
7
  6
CONTINUOUS
 10
4.5774039273
 20
5.2520171149
 11
4.6099336864
 21
5.2400941339
  0
LINE
  5
2EE
100
AcDbEntity
  8
0
100
AcDbLine
 62
7
  6
CONTINUOUS
 10
4.5774039273
 20
5.310087981
 11
4.6099336864
 21
5.298165
  0
LINE
  5
2EF
100
AcDbEntity
  8
0
100
AcDbLine
 62
7
  6
CONTINUOUS
 10
4.5774039273
 20
5.4262297133
 11
4.6099336864
 21
5.4143067323
  0
LINE
  5
2F0
100
AcDbEntity
  8
0
100
AcDbLine
 62
7
  6
CONTINUOUS
 10
4.5774039273
 20
5.4843005794
 11
4.6099336864
 21
5.4723775984
  0
LINE
  5
2F1
100
AcDbEntity
  8
0
100
AcDbLine
 62
7
  6
CONTINUOUS
 10
4.5774039273
 20
5.5423714456
 11
4.6099336864
 21
5.5304484646
  0
LINE
  5
2F2
100
AcDbEntity
  8
0
100
AcDbLine
 62
7
  6
CONTINUOUS
 10
6.3191802282
 20
4.7121459983
 11
6.3187534095
 21
4.7124231288
  0
LINE
  5
2F3
100
AcDbEntity
  8
0
100
AcDbLine
 62
7
  6
CONTINUOUS
 10
6.3191802282
 20
4.7702168645
 11
6.3187534095
 21
4.770493995
  0
LINE
  5
2F4
100
AcDbEntity
  8
0
100
AcDbLine
 62
7
  6
CONTINUOUS
 10
4.7284020298
 20
8.1319862671
 11
4.7256112642
 21
8.1392915065
  0
LINE
  5
2F5
100
AcDbEntity
  8
0
100
AcDbLine
 62
9
  6
CONTINUOUS
 10
6.5347819459
 20
4.896896137
 11
6.5347819459
 21
5.0780772393
  0
LINE
  5
2F6
100
AcDbEntity
  8
0
100
AcDbLine
 62
7
  6
CONTINUOUS
 10
6.5359880241
 20
4.896896137
 11
6.5359880241
 21
5.0780772393
  0
LINE
  5
2F7
100
AcDbEntity
  8
0
100
AcDbLine
 62
7
  6
CONTINUOUS
 10
6.6443770785
 20
5.1291796015
 11
6.6443770785
 21
5.1616992866
  0
LINE
  5
2F8
100
AcDbEntity
  8
0
100
AcDbLine
 62
7
  6
CONTINUOUS
 10
5.4973848827
 20
5.3477161324
 11
5.386743287
 21
5.3465310487
  0
LINE
  5
2F9
100
AcDbEntity
  8
0
100
AcDbLine
 62
7
  6
CONTINUOUS
 10
4.2797586193
 20
5.1895733023
 11
6.6164758528
 21
5.1895733023
  0
LINE
  5
2FA
100
AcDbEntity
  8
0
100
AcDbLine
 62
7
  6
CONTINUOUS
 10
6.6629446341
 20
5.3548339806
 11
4.2332898379
 21
5.3548339806
  0
LINE
  5
2FB
100
AcDbEntity
  8
0
100
AcDbLine
 62
7
  6
CONTINUOUS
 10
6.6629446407
 20
5.4105820121
 11
4.2332898314
 21
5.4105820121
  0
LINE
  5
2FC
100
AcDbEntity
  8
0
100
AcDbLine
 62
7
  6
CONTINUOUS
 10
6.318753411
 20
5.2350656476
 11
6.2862213189
 21
5.2458563336
  0
LINE
  5
2FD
100
AcDbEntity
  8
0
100
AcDbLine
 62
7
  6
CONTINUOUS
 10
4.5871648368
 20
5.5968647301
 11
4.6099336864
 21
5.5885193307
  0
LINE
  5
2FE
100
AcDbEntity
  8
0
100
AcDbLine
 62
7
  6
CONTINUOUS
 10
6.3191802282
 20
4.8282877306
 11
6.3187534095
 21
4.8285648611
  0
LINE
  5
2FF
100
AcDbEntity
  8
0
100
AcDbLine
 62
7
  6
CONTINUOUS
 10
4.5770542439
 20
6.1814060921
 11
4.5774039285
 21
6.1811552939
  0
LINE
  5
300
100
AcDbEntity
  8
0
100
AcDbLine
 62
7
  6
CONTINUOUS
 10
4.5770542439
 20
6.2394769582
 11
4.5774039285
 21
6.23922616
  0
LINE
  5
301
100
AcDbEntity
  8
0
100
AcDbLine
 62
7
  6
CONTINUOUS
 10
4.5770542439
 20
6.2975478244
 11
4.5774039285
 21
6.2972970261
  0
LINE
  5
302
100
AcDbEntity
  8
0
100
AcDbLine
 62
7
  6
CONTINUOUS
 10
4.5770542439
 20
6.3556186905
 11
4.577403928
 21
6.3553678925
  0
LINE
  5
303
100
AcDbEntity
  8
0
100
AcDbLine
 62
7
  6
CONTINUOUS
 10
6.6629597557
 20
5.4105820121
 11
6.6629597557
 21
5.3548339806
  0
LINE
  5
304
100
AcDbEntity
  8
0
100
AcDbLine
 62
7
  6
CONTINUOUS
 10
6.687117236
 20
5.7037151238
 11
6.687117236
 21
5.5968647301
  0
LINE
  5
305
100
AcDbEntity
  8
0
100
AcDbLine
 62
7
  6
CONTINUOUS
 10
6.7024479447
 20
7.2725945876
 11
6.7024479447
 21
7.1796812017
  0
LINE
  5
306
100
AcDbEntity
  8
0
100
AcDbLine
 62
7
  6
CONTINUOUS
 10
6.8418180234
 20
7.7524403664
 11
6.8418180234
 21
7.7428339037
  0
LINE
  5
307
100
AcDbEntity
  8
0
100
AcDbLine
 62
7
  6
CONTINUOUS
 10
6.6870827409
 20
5.5968647301
 11
4.2091517312
 21
5.5968647301
  0
LINE
  5
308
100
AcDbEntity
  8
0
100
AcDbLine
 62
7
  6
CONTINUOUS
 10
6.687117236
 20
5.7037151238
 11
4.209117236
 21
5.7037151238
  0
LINE
  5
309
100
AcDbEntity
  8
0
100
AcDbLine
 62
7
  6
CONTINUOUS
 10
6.318753411
 20
5.2931365138
 11
6.2862213189
 21
5.3039271997
  0
LINE
  5
30A
100
AcDbEntity
  8
0
100
AcDbLine
 62
7
  6
CONTINUOUS
 10
6.318753411
 20
5.3512073799
 11
6.3078196918
 21
5.3548339806
  0
LINE
  5
30B
100
AcDbEntity
  8
0
100
AcDbLine
 62
7
  6
CONTINUOUS
 10
6.3148227188
 20
5.4105820121
 11
6.2862213189
 21
5.420068932
  0
LINE
  5
30C
100
AcDbEntity
  8
0
100
AcDbLine
 62
7
  6
CONTINUOUS
 10
6.318753411
 20
5.4673491122
 11
6.2862213189
 21
5.4781397982
  0
LINE
  5
30D
100
AcDbEntity
  8
0
100
AcDbLine
 62
7
  6
CONTINUOUS
 10
6.318753411
 20
5.5254199783
 11
6.2862213189
 21
5.5362106643
  0
LINE
  5
30E
100
AcDbEntity
  8
0
100
AcDbLine
 62
7
  6
CONTINUOUS
 10
4.5774039273
 20
6.123080107
 11
4.6099336864
 21
6.111157126
  0
LINE
  5
30F
100
AcDbEntity
  8
0
100
AcDbLine
 62
7
  6
CONTINUOUS
 10
6.3191802282
 20
5.2347837936
 11
6.3187534095
 21
5.2350609241
  0
LINE
  5
310
100
AcDbEntity
  8
0
100
AcDbLine
 62
7
  6
CONTINUOUS
 10
6.3191802282
 20
5.2928546598
 11
6.3187534095
 21
5.2931317902
  0
LINE
  5
311
100
AcDbEntity
  8
0
100
AcDbLine
 62
7
  6
CONTINUOUS
 10
6.3191802282
 20
5.3509255259
 11
6.3187534095
 21
5.3512026564
  0
LINE
  5
312
100
AcDbEntity
  8
0
100
AcDbLine
 62
7
  6
CONTINUOUS
 10
6.3191802282
 20
5.4670672582
 11
6.3187534095
 21
5.4673443887
  0
LINE
  5
313
100
AcDbEntity
  8
0
100
AcDbLine
 62
7
  6
CONTINUOUS
 10
6.318753411
 20
5.5834908445
 11
6.2862213189
 21
5.5942815305
  0
LINE
  5
314
100
AcDbEntity
  8
0
100
AcDbLine
 62
7
  6
CONTINUOUS
 10
4.5774039273
 20
6.1811509731
 11
4.6099336864
 21
6.1692279921
  0
LINE
  5
315
100
AcDbEntity
  8
0
100
AcDbLine
 62
7
  6
CONTINUOUS
 10
4.5774039273
 20
6.2392218393
 11
4.6099336864
 21
6.2272988583
  0
LINE
  5
316
100
AcDbEntity
  8
0
100
AcDbLine
 62
7
  6
CONTINUOUS
 10
4.5774039273
 20
6.2972927054
 11
4.6099336864
 21
6.2853697244
  0
LINE
  5
317
100
AcDbEntity
  8
0
100
AcDbLine
 62
7
  6
CONTINUOUS
 10
4.5774039268
 20
6.355363572
 11
4.6099336865
 21
6.3434405908
  0
LINE
  5
318
100
AcDbEntity
  8
0
100
AcDbLine
 62
7
  6
CONTINUOUS
 10
6.3191802282
 20
5.5251381243
 11
6.3187534095
 21
5.5254152548
  0
LINE
  5
319
100
AcDbEntity
  8
0
100
AcDbLine
 62
7
  6
CONTINUOUS
 10
6.3191802282
 20
5.583210891
 11
6.3187534112
 21
5.583491613
  0
LINE
  5
31A
100
AcDbEntity
  8
0
100
AcDbLine
 62
7
  6
CONTINUOUS
 10
4.5424855392
 20
6.1078883521
 11
6.3537489328
 21
6.1078883521
  0
LINE
  5
31B
100
AcDbEntity
  8
0
100
AcDbLine
 62
7
  6
CONTINUOUS
 10
6.313448092
 20
6.1078883521
 11
6.2862213189
 21
6.1169193257
  0
LINE
  5
31C
100
AcDbEntity
  8
0
100
AcDbLine
 62
7
  6
CONTINUOUS
 10
6.318753411
 20
6.1641995059
 11
6.2862213189
 21
6.1749901919
  0
LINE
  5
31D
100
AcDbEntity
  8
0
100
AcDbLine
 62
7
  6
CONTINUOUS
 10
5.9409985474
 20
6.3402369215
 11
5.9601130292
 21
6.3294557902
  0
LINE
  5
31E
100
AcDbEntity
  8
0
100
AcDbLine
 62
7
  6
CONTINUOUS
 10
6.3191802282
 20
6.1639176519
 11
6.3187534095
 21
6.1641947824
  0
LINE
  5
31F
100
AcDbEntity
  8
0
100
AcDbLine
 62
7
  6
CONTINUOUS
 10
6.3537904644
 20
6.1078883521
 11
6.687117236
 21
5.7037151238
  0
LINE
  5
320
100
AcDbEntity
  8
0
100
AcDbLine
 62
7
  6
CONTINUOUS
 10
6.318753411
 20
6.222270372
 11
6.2862213189
 21
6.233061058
  0
LINE
  5
321
100
AcDbEntity
  8
0
100
AcDbLine
 62
7
  6
CONTINUOUS
 10
6.318753411
 20
6.2803412382
 11
6.2862213189
 21
6.2911319242
  0
LINE
  5
322
100
AcDbEntity
  8
0
100
AcDbLine
 62
7
  6
CONTINUOUS
 10
6.3191802282
 20
6.221988518
 11
6.3187534095
 21
6.2222656485
  0
LINE
  5
323
100
AcDbEntity
  8
0
100
AcDbLine
 62
7
  6
CONTINUOUS
 10
6.3191802282
 20
6.2800593842
 11
6.3187534095
 21
6.2803365146
  0
LINE
  5
324
100
AcDbEntity
  8
0
100
AcDbLine
 62
7
  6
CONTINUOUS
 10
4.193821693
 20
7.1796812017
 11
6.702412779
 21
7.1796812017
  0
LINE
  5
325
100
AcDbEntity
  8
0
100
AcDbLine
 62
7
  6
CONTINUOUS
 10
6.1678324423
 20
8.1691668994
 11
6.1691163446
 21
8.1671655223
  0
LINE
  5
326
100
AcDbEntity
  8
0
100
AcDbLine
 62
7
  6
CONTINUOUS
 10
6.4058186176
 20
7.6104057416
 11
6.8244903455
 21
7.7203675246
  0
LINE
  5
327
100
AcDbEntity
  8
0
100
AcDbLine
 62
7
  6
CONTINUOUS
 10
4.193821693
 20
7.2725945876
 11
6.702412779
 21
7.2725945876
  0
LINE
  5
328
100
AcDbEntity
  8
0
100
AcDbLine
 62
9
  6
CONTINUOUS
 10
4.5770542439
 20
7.4980738461
 11
6.3191802282
 21
7.4980738461
  0
LINE
  5
329
100
AcDbEntity
  8
0
100
AcDbLine
 62
7
  6
CONTINUOUS
 10
4.4904158544
 20
7.6104057416
 11
4.0717441265
 21
7.7203675246
  0
LINE
  5
32A
100
AcDbEntity
  8
0
100
AcDbLine
 62
9
  6
CONTINUOUS
 10
6.4058186176
 20
7.6104057416
 11
4.4904158544
 21
7.6104057416
  0
LINE
  5
32B
100
AcDbEntity
  8
0
100
AcDbLine
 62
9
  6
CONTINUOUS
 10
6.8244903455
 20
7.7203675246
 11
4.0717441265
 21
7.7203675246
  0
LINE
  5
32C
100
AcDbEntity
  8
0
100
AcDbLine
 62
9
  6
CONTINUOUS
 10
4.0544164486
 20
7.7428339037
 11
6.8418180234
 21
7.7428339037
  0
LINE
  5
32D
100
AcDbEntity
  8
0
100
AcDbLine
 62
9
  6
CONTINUOUS
 10
6.8418180234
 20
7.7524403664
 11
4.0544164486
 21
7.7524403664
  0
LINE
  5
32E
100
AcDbEntity
  8
0
100
AcDbLine
 62
7
  6
CONTINUOUS
 10
4.0776447951
 20
7.7756687128
 11
6.818589677
 21
7.7756687128
  0
LINE
  5
32F
100
AcDbEntity
  8
0
100
AcDbLine
 62
7
  6
CONTINUOUS
 10
6.2610885258
 20
7.9952757585
 11
4.6351459463
 21
7.9952757585
  0
LINE
  5
330
100
AcDbEntity
  8
0
100
AcDbLine
 62
7
  6
CONTINUOUS
 10
4.6351459236
 20
8.0417324514
 11
6.2610885485
 21
8.0417324514
  0
LINE
  5
331
100
AcDbEntity
  8
0
100
AcDbLine
 62
7
  6
CONTINUOUS
 10
4.7284020298
 20
8.1319862671
 11
6.1678324423
 21
8.1319862671
  0
LINE
  5
332
100
AcDbEntity
  8
0
100
AcDbLine
 62
7
  6
CONTINUOUS
 10
4.6331745742
 20
8.1392915065
 11
6.2630598978
 21
8.1392915065
  0
LINE
  5
333
100
AcDbEntity
  8
0
100
AcDbLine
 62
7
  6
CONTINUOUS
 10
4.6331745742
 20
8.1671655223
 11
6.2630598978
 21
8.1671655223
  0
LINE
  5
334
100
AcDbEntity
  8
0
100
AcDbLine
 62
7
  6
CONTINUOUS
 10
4.7284020298
 20
8.1691668994
 11
6.1678324423
 21
8.1691668994
  0
LINE
  5
335
100
AcDbEntity
  8
0
100
AcDbLine
 62
7
  6
CONTINUOUS
 10
6.2599296304
 20
8.2368505616
 11
4.6363048417
 21
8.2368505616
  0
LINE
  5
336
100
AcDbEntity
  8
0
100
AcDbLine
 62
7
  6
CONTINUOUS
 10
6.259950437
 20
8.2716930813
 11
4.6362840355
 21
8.2716930813
  0
ARC
  5
337
100
AcDbEntity
  8
0
100
AcDbCircle
 62
7
  6
CONTINUOUS
 10
4.9868548045
 20
-7.1955493752
 40
11.8972593881
100
AcDbArc
 50
91.1479860316
 51
91.2684457766
  0
ARC
  5
338
100
AcDbEntity
  8
0
100
AcDbCircle
 62
7
  6
CONTINUOUS
 10
4.9544305936
 20
-5.6866863289
 40
10.3538163463
100
AcDbArc
 50
91.1114861083
 51
91.3404447282
  0
ARC
  5
339
100
AcDbEntity
  8
0
100
AcDbCircle
 62
7
  6
CONTINUOUS
 10
4.9099129312
 20
-3.650335644
 40
8.2931607362
100
AcDbArc
 50
91.0758590118
 51
91.6273334106
  0
ARC
  5
33A
100
AcDbEntity
  8
0
100
AcDbCircle
 62
7
  6
CONTINUOUS
 10
4.4609125116
 20
7.4980738461
 40
0.1161417323
100
AcDbArc
 50
0.0
 51
75.2839564378
  0
ARC
  5
33B
100
AcDbEntity
  8
0
100
AcDbCircle
 62
7
  6
CONTINUOUS
 10
4.2797314093
 20
5.1291796015
 40
0.0278740157
100
AcDbArc
 50
180.0
 51
270.0000399618
  0
ARC
  5
33C
100
AcDbEntity
  8
0
100
AcDbCircle
 62
7
  6
CONTINUOUS
 10
4.2797314093
 20
5.1616992866
 40
0.0278740157
100
AcDbArc
 50
90.0
 51
180.0
  0
ARC
  5
33D
100
AcDbEntity
  8
0
100
AcDbCircle
 62
7
  6
CONTINUOUS
 10
4.0776447951
 20
7.7428339037
 40
0.0232283465
100
AcDbArc
 50
180.0
 51
255.2839564378
  0
ARC
  5
33E
100
AcDbEntity
  8
0
100
AcDbCircle
 62
7
  6
CONTINUOUS
 10
4.0776447951
 20
7.7524403664
 40
0.0232283465
100
AcDbArc
 50
90.0
 51
180.0
  0
ARC
  5
33F
100
AcDbEntity
  8
0
100
AcDbCircle
 62
7
  6
CONTINUOUS
 10
4.3370181015
 20
5.0780772393
 40
0.0232283465
100
AcDbArc
 50
0.0
 51
82.4999999602
  0
ARC
  5
340
100
AcDbEntity
  8
0
100
AcDbCircle
 62
7
  6
CONTINUOUS
 10
4.3834747944
 20
4.896896137
 40
0.0232283465
100
AcDbArc
 50
180.0
 51
269.9999996543
  0
ARC
  5
341
100
AcDbEntity
  8
0
100
AcDbCircle
 62
7
  6
CONTINUOUS
 10
4.6328022754
 20
8.1532285144
 40
0.0139370079
100
AcDbArc
 50
90.0
 51
270.0
  0
ARC
  5
342
100
AcDbEntity
  8
0
100
AcDbCircle
 62
7
  6
CONTINUOUS
 10
3.7156469944
 20
180.8278527079
 40
174.512835284
100
AcDbArc
 50
270.5688112318
 51
270.736919909
  0
ARC
  5
343
100
AcDbEntity
  8
0
100
AcDbCircle
 62
7
  6
CONTINUOUS
 10
3.7377586556
 20
178.8353068717
 40
172.4736462638
100
AcDbArc
 50
270.5681907571
 51
270.7382870153
  0
ARC
  5
344
100
AcDbEntity
  8
0
100
AcDbCircle
 62
7
  6
CONTINUOUS
 10
4.1413819452
 20
137.1025362548
 40
131.7617818235
100
AcDbArc
 50
270.593171121
 51
270.8369479156
  0
ARC
  5
345
100
AcDbEntity
  8
0
100
AcDbCircle
 62
7
  6
CONTINUOUS
 10
6.8104717002
 20
-137.22431035
 40
141.9749779494
100
AcDbArc
 50
90.5498035525
 51
90.8104746835
  0
ARC
  5
346
100
AcDbEntity
  8
0
100
AcDbCircle
 62
7
  6
CONTINUOUS
 10
6.6380567128
 20
-118.1731396855
 40
123.3755752182
100
AcDbArc
 50
90.6617220721
 51
90.8271704489
  0
ARC
  5
347
100
AcDbEntity
  8
0
100
AcDbCircle
 62
7
  6
CONTINUOUS
 10
5.395732504
 20
-29.7869119562
 40
35.3870850739
100
AcDbArc
 50
90.7834780122
 51
90.9839153418
  0
ARC
  5
348
100
AcDbEntity
  8
0
100
AcDbCircle
 62
7
  6
CONTINUOUS
 10
5.917793247
 20
16.270312226
 40
11.4970445902
100
AcDbArc
 50
271.1348391564
 51
271.2699126967
  0
ARC
  5
349
100
AcDbEntity
  8
0
100
AcDbCircle
 62
7
  6
CONTINUOUS
 10
5.9260529001
 20
15.77894112
 40
11.0979011833
100
AcDbArc
 50
271.1623906805
 51
271.3213350974
  0
ARC
  5
34A
100
AcDbEntity
  8
0
100
AcDbCircle
 62
7
  6
CONTINUOUS
 10
5.9766889671
 20
13.7077146003
 40
8.8518915495
100
AcDbArc
 50
271.2718440288
 51
271.3950945362
  0
ARC
  5
34B
100
AcDbEntity
  8
0
100
AcDbCircle
 62
7
  6
CONTINUOUS
 10
5.448117236
 20
5.8489765459
 40
2.5551181102
100
AcDbArc
 50
71.4744055465
 51
108.5255944535
  0
ARC
  5
34C
100
AcDbEntity
  8
0
100
AcDbCircle
 62
7
  6
CONTINUOUS
 10
6.2316514945
 20
6.9558406565
 40
1.3762372465
100
AcDbArc
 50
272.2439078807
 51
272.7914656622
  0
ARC
  5
34D
100
AcDbEntity
  8
0
100
AcDbCircle
 62
7
  6
CONTINUOUS
 10
6.4353219604
 20
7.4980738461
 40
0.1161417323
100
AcDbArc
 50
104.7160435621
 51
180.0
  0
ARC
  5
34E
100
AcDbEntity
  8
0
100
AcDbCircle
 62
7
  6
CONTINUOUS
 10
6.6165030628
 20
5.1291796015
 40
0.0278740157
100
AcDbArc
 50
269.9999556359
 51
360.0
  0
ARC
  5
34F
100
AcDbEntity
  8
0
100
AcDbCircle
 62
7
  6
CONTINUOUS
 10
6.6165030628
 20
5.1616992866
 40
0.0278740157
100
AcDbArc
 50
0.0
 51
90.0
  0
ARC
  5
350
100
AcDbEntity
  8
0
100
AcDbCircle
 62
7
  6
CONTINUOUS
 10
6.818589677
 20
7.7428339037
 40
0.0232283465
100
AcDbArc
 50
284.7160435622
 51
360.0
  0
ARC
  5
351
100
AcDbEntity
  8
0
100
AcDbCircle
 62
7
  6
CONTINUOUS
 10
6.818589677
 20
7.7524403664
 40
0.0232283465
100
AcDbArc
 50
0.0
 51
90.0
  0
ARC
  5
352
100
AcDbEntity
  8
0
100
AcDbCircle
 62
7
  6
CONTINUOUS
 10
6.5127596776
 20
4.896896137
 40
0.0232283465
100
AcDbArc
 50
270.0000003496
 51
360.0
  0
ARC
  5
353
100
AcDbEntity
  8
0
100
AcDbCircle
 62
7
  6
CONTINUOUS
 10
6.5592163705
 20
5.0780772393
 40
0.0232283465
100
AcDbArc
 50
95.9414031786
 51
180.0
  0
ARC
  5
354
100
AcDbEntity
  8
0
100
AcDbCircle
 62
9
  6
CONTINUOUS
 10
6.5579471028
 20
5.0786811667
 40
0.023018708
100
AcDbArc
 50
141.5018828985
 51
151.4244411939
  0
ARC
  5
355
100
AcDbEntity
  8
0
100
AcDbCircle
 62
7
  6
CONTINUOUS
 10
6.2634321967
 20
8.1532285144
 40
0.0139370079
100
AcDbArc
 50
270.0
 51
90.0
  0
ARC
  5
356
100
AcDbEntity
  8
0
100
AcDbCircle
 62
7
  6
CONTINUOUS
 10
5.2720881625
 20
55.4084514153
 40
50.0018409919
100
AcDbArc
 50
270.7219967065
 51
270.959971553
  0
LINE
  5
357
100
AcDbEntity
  8
0
100
AcDbLine
 62
7
  6
CONTINUOUS
 10
4.5770568334
 20
6.1348898362
 11
4.5774824954
 21
6.1351694871
  0
LINE
  5
358
100
AcDbEntity
  8
0
100
AcDbLine
 62
7
  6
CONTINUOUS
 10
4.5770557793
 20
6.1233308127
 11
4.5774066238
 21
6.1230758784
  0
LINE
  5
359
100
AcDbEntity
  8
0
100
AcDbLine
 62
7
  6
CONTINUOUS
 10
6.3191776261
 20
5.571653492
 11
6.3188289438
 21
5.5714004339
  0
SPLINE
  5
35A
100
AcDbEntity
  8
0
100
AcDbSpline
 62
7
  6
CONTINUOUS
 70
0
 71
3
 72
28
 73
24
 74
0
 42
0.0000001
 43
0.0000001
 44
0.0000000001
 40
0.0
 40
0.0
 40
0.0
 40
0.0
 40
0.0016851362
 40
0.0031020084
 40
0.0049700871
 40
0.0073078294
 40
0.0101243879
 40
0.0134248604
 40
0.0172123271
 40
0.0262551637
 40
0.0372625775
 40
0.0651855928
 40
0.1009955137
 40
0.1446710225
 40
0.1961561492
 40
0.255390468
 40
0.3223124015
 40
0.3968597086
 40
0.4789697385
 40
0.5685780668
 40
0.6655953149
 40
0.7699117116
 40
1.0
 40
1.0
 40
1.0
 40
1.0
 10
4.609559134
 20
4.6596497524
 30
0.0
 10
4.6095591387
 20
4.6597075557
 30
0.0
 10
4.60965437
 20
4.6597942795
 30
0.0
 10
4.6098008572
 20
4.6598678472
 30
0.0
 10
4.6099833939
 20
4.6599378824
 30
0.0
 10
4.6102136707
 20
4.660006023
 30
0.0
 10
4.6104956554
 20
4.660075394
 30
0.0
 10
4.6108281963
 20
4.6601447386
 30
0.0
 10
4.6113727113
 20
4.6602435283
 30
0.0
 10
4.6121815917
 20
4.6603641538
 30
0.0
 10
4.6138149006
 20
4.6605655376
 30
0.0
 10
4.6163675289
 20
4.6608080564
 30
0.0
 10
4.6200413083
 20
4.6610872897
 30
0.0
 10
4.62452502
 20
4.661370402
 30
0.0
 10
4.629813327
 20
4.6616571087
 30
0.0
 10
4.6358999185
 20
4.6619464564
 30
0.0
 10
4.6427782683
 20
4.6622380098
 30
0.0
 10
4.6504418578
 20
4.6625313176
 30
0.0
 10
4.6588840968
 20
4.6628260163
 30
0.0
 10
4.6680974906
 20
4.6631217415
 30
0.0
 10
4.6780729467
 20
4.6634180674
 30
0.0
 10
4.6928658806
 20
4.6638267547
 30
0.0
 10
4.7043330751
 20
4.6641114228
 30
0.0
 10
4.7122233553
 20
4.664296648
 30
0.0
  0
SPLINE
  5
35B
100
AcDbEntity
  8
0
100
AcDbSpline
 62
7
  6
CONTINUOUS
 70
0
 71
3
 72
23
 73
19
 74
0
 42
0.0000001
 43
0.0000001
 44
0.0000000001
 40
0.0
 40
0.0
 40
0.0
 40
0.0
 40
0.0448723717
 40
0.0965023932
 40
0.1541283809
 40
0.216894659
 40
0.2838646081
 40
0.3540463855
 40
0.4263949523
 40
0.4998401917
 40
0.5732901215
 40
0.6456557388
 40
0.7158592271
 40
0.7828660946
 40
0.8456812188
 40
0.9033710978
 40
0.9550645352
 40
1.0
 40
1.0
 40
1.0
 40
1.0
 10
4.7535885534
 20
4.6651818797
 30
0.0
 10
4.7743551041
 20
4.6655892011
 30
0.0
 10
4.8190174787
 20
4.6663683538
 30
0.0
 10
4.8903524073
 20
4.667444296
 30
0.0
 10
4.9699707339
 20
4.6685334056
 30
0.0
 10
5.0566896868
 20
4.6696633478
 30
0.0
 10
5.1492206467
 20
4.6708167937
 30
0.0
 10
5.2461875001
 20
4.671960948
 30
0.0
 10
5.346152138
 20
4.6730788215
 30
0.0
 10
5.44763002
 20
4.6741605369
 30
0.0
 10
5.5491157296
 20
4.6752482642
 30
0.0
 10
5.6491005322
 20
4.6763615494
 30
0.0
 10
5.7461024153
 20
4.6775061148
 30
0.0
 10
5.838683109
 20
4.678660905
 30
0.0
 10
5.9254713993
 20
4.679786476
 30
0.0
 10
6.0051711773
 20
4.6808823527
 30
0.0
 10
6.0765943162
 20
4.6819536003
 30
0.0
 10
6.1213152488
 20
4.6827336338
 30
0.0
 10
6.1421109827
 20
4.68314233
 30
0.0
  0
LINE
  5
35C
100
AcDbEntity
  8
0
100
AcDbLine
 62
7
  6
CONTINUOUS
 10
6.1427555124
 20
4.6831550117
 11
6.1511866206
 21
4.6833237203
  0
LINE
  5
35D
100
AcDbEntity
  8
0
100
AcDbLine
 62
7
  6
CONTINUOUS
 10
6.1819661048
 20
4.6839909576
 11
6.1841183065
 21
4.6840411471
  0
SPLINE
  5
35E
100
AcDbEntity
  8
0
100
AcDbSpline
 62
7
  6
CONTINUOUS
 70
0
 71
3
 72
14
 73
10
 74
0
 42
0.0000001
 43
0.0000001
 44
0.0000000001
 40
0.0
 40
0.0
 40
0.0
 40
0.0
 40
0.3482266262
 40
0.498422307
 40
0.6323135874
 40
0.7496519186
 40
0.8501897278
 40
0.9336877211
 40
1.0
 40
1.0
 40
1.0
 40
1.0
 10
6.1841183065
 20
4.6840411471
 30
0.0
 10
6.1949910412
 20
4.6842960364
 30
0.0
 10
6.210552773
 20
4.6846885802
 30
0.0
 10
6.230292323
 20
4.685275708
 30
0.0
 10
6.2428226255
 20
4.6856928327
 30
0.0
 10
6.2538011612
 20
4.6861070276
 30
0.0
 10
6.263204785
 20
4.6865162783
 30
0.0
 10
6.2710132972
 20
4.6869185778
 30
0.0
 10
6.2756830551
 20
4.6872140083
 30
0.0
 10
6.2777483304
 20
4.687368527
 30
0.0
  0
SPLINE
  5
35F
100
AcDbEntity
  8
0
100
AcDbSpline
 62
7
  6
CONTINUOUS
 70
0
 71
3
 72
13
 73
9
 74
0
 42
0.0000001
 43
0.0000001
 44
0.0000000001
 40
0.0
 40
0.0
 40
0.0
 40
0.0
 40
0.3718145658
 40
0.6623134804
 40
0.7770653779
 40
0.8715167742
 40
0.9457541735
 40
1.0
 40
1.0
 40
1.0
 40
1.0
 10
6.2777483304
 20
4.687368527
 30
0.0
 10
6.2788142037
 20
4.6874482729
 30
0.0
 10
6.2807119581
 20
4.6876021474
 30
0.0
 10
6.2829347706
 20
4.6878277818
 30
0.0
 10
6.2843590348
 20
4.688015311
 30
0.0
 10
6.2851639373
 20
4.68814353
 30
0.0
 10
6.2857921127
 20
4.6882704628
 30
0.0
 10
6.2861494562
 20
4.6883673728
 30
0.0
 10
6.2862960445
 20
4.6884205625
 30
0.0
  0
SPLINE
  5
360
100
AcDbEntity
  8
0
100
AcDbSpline
 62
7
  6
CONTINUOUS
 70
0
 71
3
 72
38
 73
34
 74
0
 42
0.0000001
 43
0.0000001
 44
0.0000000001
 40
0.0
 40
0.0
 40
0.0
 40
0.0
 40
0.0721860952
 40
0.1498703672
 40
0.231537853
 40
0.3157528226
 40
0.4009740536
 40
0.4856287679
 40
0.568172872
 40
0.6471025417
 40
0.7209662906
 40
0.7555714592
 40
0.7884059763
 40
0.8193240274
 40
0.8481836513
 40
0.8748473493
 40
0.8991999248
 40
0.9211331972
 40
0.940541859
 40
0.9573425364
 40
0.9647420565
 40
0.971462216
 40
0.9774939468
 40
0.9828297838
 40
0.9874650632
 40
0.9913954929
 40
0.9946169608
 40
0.9959606645
 40
0.997125795
 40
0.9981120543
 40
0.9989193269
 40
0.9995480162
 40
1.0
 40
1.0
 40
1.0
 40
1.0
 10
5.9409985434
 20
6.3402369213
 30
0.0
 10
5.9089692402
 20
6.3398017865
 30
0.0
 10
5.8424706248
 20
6.3389308822
 30
0.0
 10
5.739734643
 20
6.3376555038
 30
0.0
 10
5.631660482
 20
6.3363820078
 30
0.0
 10
5.520241016
 20
6.3351613438
 30
0.0
 10
5.4074956799
 20
6.333962264
 30
0.0
 10
5.2954919692
 20
6.3327492666
 30
0.0
 10
5.1862807819
 20
6.3314911676
 30
0.0
 10
5.0818586446
 20
6.3302108065
 30
0.0
 10
4.9987082355
 20
6.3291404882
 30
0.0
 10
4.9360111636
 20
6.3282949962
 30
0.0
 10
4.8923695975
 20
6.3276862981
 30
0.0
 10
4.8512777724
 20
6.3270829909
 30
0.0
 10
4.8129245406
 20
6.3264791327
 30
0.0
 10
4.7774852175
 20
6.3258680415
 30
0.0
 10
4.7451200722
 20
6.3252493167
 30
0.0
 10
4.7159751047
 20
6.3246235837
 30
0.0
 10
4.6901823186
 20
6.3239898211
 30
0.0
 10
4.6708388483
 20
6.3234388617
 30
0.0
 10
4.6571253267
 20
6.3229923495
 30
0.0
 10
4.6481889047
 20
6.3226732844
 30
0.0
 10
4.6401687826
 20
6.3223565804
 30
0.0
 10
4.6330744943
 20
6.3220428288
 30
0.0
 10
4.6269135056
 20
6.3217323002
 30
0.0
 10
4.6216919708
 20
6.3214250621
 30
0.0
 10
4.6179312866
 20
6.3211592415
 30
0.0
 10
4.6153977408
 20
6.3209420543
 30
0.0
 10
4.6138542
 20
6.3207900836
 30
0.0
 10
4.6125499757
 20
6.3206391634
 30
0.0
 10
4.6114852374
 20
6.3204899833
 30
0.0
 10
4.6106606061
 20
6.3203424776
 30
0.0
 10
4.6101934181
 20
6.3202296732
 30
0.0
 10
4.6100028988
 20
6.320166991
 30
0.0
  0
SPLINE
  5
361
100
AcDbEntity
  8
0
100
AcDbSpline
 62
7
  6
CONTINUOUS
 70
0
 71
3
 72
32
 73
28
 74
0
 42
0.0000001
 43
0.0000001
 44
0.0000000001
 40
0.0
 40
0.0
 40
0.0
 40
0.0
 40
0.0006295498
 40
0.0010560348
 40
0.0015819907
 40
0.0029649133
 40
0.0048171972
 40
0.0071533421
 40
0.009980401
 40
0.0133016574
 40
0.0171187098
 40
0.0262426296
 40
0.0373539752
 40
0.0504506958
 40
0.0655291366
 40
0.0825847891
 40
0.101612649
 40
0.145563425
 40
0.1973370838
 40
0.2568765098
 40
0.3240845926
 40
0.3988549885
 40
0.4810810933
 40
0.5706561359
 40
0.6674731
 40
0.7714080713
 40
1.0
 40
1.0
 40
1.0
 40
1.0
 10
6.2866691671
 20
4.6648564843
 30
0.0
 10
6.2866692064
 20
4.664826196
 30
0.0
 10
6.2866421553
 20
4.6647767996
 30
0.0
 10
6.286585003
 20
4.6647273437
 30
0.0
 10
6.2864899373
 20
4.6646662945
 30
0.0
 10
6.2863230106
 20
4.6645947612
 30
0.0
 10
6.2860674912
 20
4.6645132832
 30
0.0
 10
6.2857398569
 20
4.6644314146
 30
0.0
 10
6.2853400269
 20
4.6643488831
 30
0.0
 10
6.2848677425
 20
4.664265994
 30
0.0
 10
6.2840942628
 20
4.6641479252
 30
0.0
 10
6.282945923
 20
4.6640037203
 30
0.0
 10
6.2813508435
 20
4.6638376606
 30
0.0
 10
6.2794680708
 20
4.66367051
 30
0.0
 10
6.2772984431
 20
4.6635023209
 30
0.0
 10
6.2748427737
 20
4.6633332279
 30
0.0
 10
6.2709995852
 20
4.6630950297
 30
0.0
 10
6.2654864906
 20
4.6628005505
 30
0.0
 10
6.2580244108
 20
4.6624575121
 30
0.0
 10
6.2494425329
 20
4.6621104834
 30
0.0
 10
6.2397535746
 20
4.661760496
 30
0.0
 10
6.2289725577
 20
4.6614087153
 30
0.0
 10
6.217114946
 20
4.6610562184
 30
0.0
 10
6.2041962127
 20
4.6607040459
 30
0.0
 10
6.1902326485
 20
4.6603532813
 30
0.0
 10
6.1695819996
 20
4.6598732148
 30
0.0
 10
6.1535871829
 20
4.6595406225
 30
0.0
 10
6.1425914925
 20
4.6593243796
 30
0.0
  0
LINE
  5
362
100
AcDbEntity
  8
0
100
AcDbLine
 62
7
  6
CONTINUOUS
 10
6.1425914925
 20
4.6593243796
 11
6.1317893081
 21
4.6591158934
  0
SPLINE
  5
363
100
AcDbEntity
  8
0
100
AcDbSpline
 62
7
  6
CONTINUOUS
 70
0
 71
3
 72
21
 73
17
 74
0
 42
0.0000001
 43
0.0000001
 44
0.0000000001
 40
0.0
 40
0.0
 40
0.0
 40
0.0
 40
0.0458280563
 40
0.098139824
 40
0.1561846333
 40
0.2191256837
 40
0.2860610221
 40
0.3560300028
 40
0.5010530719
 40
0.5740325407
 40
0.6459333324
 40
0.7824233126
 40
0.8450604299
 40
0.9027364979
 40
0.9546323271
 40
1.0
 40
1.0
 40
1.0
 40
1.0
 10
6.1317893081
 20
4.6591158934
 30
0.0
 10
6.1108443803
 20
4.6587190388
 30
0.0
 10
6.0659895992
 20
4.6579567141
 30
0.0
 10
5.9946030047
 20
4.6569050257
 30
0.0
 10
5.9153934272
 20
4.6558252171
 30
0.0
 10
5.8294990264
 20
4.6547143964
 30
0.0
 10
5.7381537429
 20
4.6535822293
 30
0.0
 10
5.6092894572
 20
4.6520646897
 30
0.0
 10
5.4776609377
 20
4.6506529628
 30
0.0
 10
5.3451493646
 20
4.6492378917
 30
0.0
 10
5.2165388329
 20
4.6478031255
 30
0.0
 10
5.0926569938
 20
4.6463026778
 30
0.0
 10
4.9752783925
 20
4.6447740786
 30
0.0
 10
4.8965663644
 20
4.643702824
 30
0.0
 10
4.8257490128
 20
4.6426478012
 30
0.0
 10
4.7812949125
 20
4.6418830675
 30
0.0
 10
4.7605604709
 20
4.6414862127
 30
0.0
  0
LINE
  5
364
100
AcDbEntity
  8
0
100
AcDbLine
 62
7
  6
CONTINUOUS
 10
4.7605604709
 20
4.6414862127
 11
4.7541990639
 21
4.6413631077
  0
SPLINE
  5
365
100
AcDbEntity
  8
0
100
AcDbSpline
 62
7
  6
CONTINUOUS
 70
0
 71
3
 72
20
 73
16
 74
0
 42
0.0000001
 43
0.0000001
 44
0.0000000001
 40
0.0
 40
0.0
 40
0.0
 40
0.0
 40
0.2152647104
 40
0.4053631827
 40
0.5698936363
 40
0.7085750441
 40
0.7681380965
 40
0.8211384525
 40
0.8675439994
 40
0.9073240808
 40
0.9404508748
 40
0.9669149833
 40
0.9867410388
 40
0.9941837591
 40
1.0
 40
1.0
 40
1.0
 40
1.0
 10
4.6743995435
 20
4.6394803034
 30
0.0
 10
4.6697710911
 20
4.6393441659
 30
0.0
 10
4.6610556635
 20
4.6390748046
 30
0.0
 10
4.6488043478
 20
4.6386480479
 30
0.0
 10
4.6382013914
 20
4.6382246508
 30
0.0
 10
4.6304063278
 20
4.6378601163
 30
0.0
 10
4.6250099601
 20
4.63756495
 30
0.0
 10
4.6215967995
 20
4.6373563415
 30
0.0
 10
4.6186099448
 20
4.637149423
 30
0.0
 10
4.6160516386
 20
4.6369443723
 30
0.0
 10
4.6139235276
 20
4.6367420899
 30
0.0
 10
4.6122269252
 20
4.6365423298
 30
0.0
 10
4.6110835631
 20
4.6363681307
 30
0.0
 10
4.6103871295
 20
4.6362210122
 30
0.0
 10
4.6101114352
 20
4.6361465746
 30
0.0
 10
4.6099926386
 20
4.6361073323
 30
0.0
  0
SPLINE
  5
366
100
AcDbEntity
  8
0
100
AcDbSpline
 62
7
  6
CONTINUOUS
 70
0
 71
3
 72
32
 73
28
 74
0
 42
0.0000001
 43
0.0000001
 44
0.0000000001
 40
0.0
 40
0.0
 40
0.0
 40
0.0
 40
0.0006180466
 40
0.0010406046
 40
0.0015636273
 40
0.0029428347
 40
0.0047933237
 40
0.0071290203
 40
0.0099568263
 40
0.0132802718
 40
0.0171008409
 40
0.0262353004
 40
0.037361193
 40
0.0504758095
 40
0.0655749086
 40
0.0826534339
 40
0.1017058559
 40
0.1457087934
 40
0.1975353399
 40
0.2571260821
 40
0.3243805235
 40
0.3991868158
 40
0.4814328632
 40
0.5710064117
 40
0.6677948321
 40
0.7716662014
 40
1.0
 40
1.0
 40
1.0
 40
1.0
 10
4.6095630768
 20
4.7177198329
 30
0.0
 10
4.6095630529
 20
4.7177509666
 30
0.0
 10
4.6095917337
 20
4.7178017157
 30
0.0
 10
4.6096514735
 20
4.7178521004
 30
0.0
 10
4.6097512593
 20
4.7179146613
 30
0.0
 10
4.6099262605
 20
4.7179878328
 30
0.0
 10
4.6101940832
 20
4.7180712453
 30
0.0
 10
4.6105375138
 20
4.7181550561
 30
0.0
 10
4.6109566652
 20
4.718239574
 30
0.0
 10
4.6114518238
 20
4.7183244629
 30
0.0
 10
4.6122629186
 20
4.7184454137
 30
0.0
 10
4.6134671258
 20
4.7185931582
 30
0.0
 10
4.6151397964
 20
4.7187633296
 30
0.0
 10
4.617114146
 20
4.7189346518
 30
0.0
 10
4.6193892232
 20
4.7191070644
 30
0.0
 10
4.6219641017
 20
4.7192804219
 30
0.0
 10
4.6259934273
 20
4.7195246339
 30
0.0
 10
4.6317727444
 20
4.7198265582
 30
0.0
 10
4.6395940836
 20
4.7201782356
 30
0.0
 10
4.6485875693
 20
4.7205339517
 30
0.0
 10
4.6587393302
 20
4.7208926385
 30
0.0
 10
4.6700329195
 20
4.7212530362
 30
0.0
 10
4.6824513207
 20
4.7216139848
 30
0.0
 10
4.6959775004
 20
4.7219743629
 30
0.0
 10
4.7105934423
 20
4.7223329767
 30
0.0
 10
4.732198183
 20
4.7228233185
 30
0.0
 10
4.7489294031
 20
4.7231628823
 30
0.0
 10
4.7604294626
 20
4.7233836619
 30
0.0
  0
LINE
  5
367
100
AcDbEntity
  8
0
100
AcDbLine
 62
7
  6
CONTINUOUS
 10
4.7604294626
 20
4.7233836619
 11
4.7685816937
 21
4.7235380552
  0
LINE
  5
368
100
AcDbEntity
  8
0
100
AcDbLine
 62
7
  6
CONTINUOUS
 10
4.7685816937
 20
4.7235380552
 11
4.8024040067
 21
4.7241388521
  0
LINE
  5
369
100
AcDbEntity
  8
0
100
AcDbLine
 62
7
  6
CONTINUOUS
 10
4.8024040067
 20
4.7241388521
 11
4.8050257857
 21
4.7241830754
  0
SPLINE
  5
36A
100
AcDbEntity
  8
0
100
AcDbSpline
 62
7
  6
CONTINUOUS
 70
0
 71
3
 72
18
 73
14
 74
0
 42
0.0000001
 43
0.0000001
 44
0.0000000001
 40
0.0
 40
0.0
 40
0.0
 40
0.0
 40
0.0486528139
 40
0.1027087989
 40
0.2243844523
 40
0.3591836633
 40
0.500659499
 40
0.6420479397
 40
0.7765934095
 40
0.8392652532
 40
0.8978519812
 40
0.9516451713
 40
1.0
 40
1.0
 40
1.0
 40
1.0
 10
4.8050257857
 20
4.7241830754
 30
0.0
 10
4.825931964
 20
4.7245344974
 30
0.0
 10
4.8700670573
 20
4.725217494
 30
0.0
 10
4.9664894737
 20
4.7265716221
 30
0.0
 10
5.099932711
 20
4.7282977023
 30
0.0
 10
5.2709446238
 20
4.7303425193
 30
0.0
 10
5.4504302775
 20
4.7322624413
 30
0.0
 10
5.6298068522
 20
4.7341842519
 30
0.0
 10
5.7753163569
 20
4.7359268134
 30
0.0
 10
5.8852422479
 20
4.7373314413
 30
0.0
 10
5.9604661673
 20
4.738334373
 30
0.0
 10
6.0295370179
 20
4.7393069597
 30
0.0
 10
6.0734310445
 20
4.7399923593
 30
0.0
 10
6.0942091296
 20
4.7403445069
 30
0.0
  0
LINE
  5
36B
100
AcDbEntity
  8
0
100
AcDbLine
 62
7
  6
CONTINUOUS
 10
6.0942091296
 20
4.7403445069
 11
6.1085238557
 21
4.7405917477
  0
LINE
  5
36C
100
AcDbEntity
  8
0
100
AcDbLine
 62
7
  6
CONTINUOUS
 10
6.1085238557
 20
4.7405917477
 11
6.1359108639
 21
4.7410943406
  0
LINE
  5
36D
100
AcDbEntity
  8
0
100
AcDbLine
 62
7
  6
CONTINUOUS
 10
6.1359108639
 20
4.7410943406
 11
6.1434747567
 21
4.7412412286
  0
SPLINE
  5
36E
100
AcDbEntity
  8
0
100
AcDbSpline
 62
7
  6
CONTINUOUS
 70
0
 71
3
 72
23
 73
19
 74
0
 42
0.0000001
 43
0.0000001
 44
0.0000000001
 40
0.0
 40
0.0
 40
0.0
 40
0.0
 40
0.2186290513
 40
0.4120420164
 40
0.5793541203
 40
0.6529659232
 40
0.7197449289
 40
0.7795938808
 40
0.8324475035
 40
0.8782534771
 40
0.9169604529
 40
0.9485188957
 40
0.9616031205
 40
0.9728838045
 40
0.9823573032
 40
0.9900258948
 40
0.9958993661
 40
1.0
 40
1.0
 40
1.0
 40
1.0
 10
6.1434747567
 20
4.7412412286
 30
0.0
 10
6.1538935712
 20
4.741446283
 30
0.0
 10
6.1735291214
 20
4.741854007
 30
0.0
 10
6.2011359074
 20
4.7425125028
 30
0.0
 10
6.2218304814
 20
4.7430855382
 30
0.0
 10
6.2364896205
 20
4.743550375
 30
0.0
 10
6.2460281768
 20
4.7438824442
 30
0.0
 10
6.2545767396
 20
4.7442120716
 30
0.0
 10
6.2621249201
 20
4.7445389267
 30
0.0
 10
6.2686644855
 20
4.7448625175
 30
0.0
 10
6.2741877561
 20
4.7451826139
 30
0.0
 10
6.2781511043
 20
4.7454596119
 30
0.0
 10
6.2808070619
 20
4.7456860957
 30
0.0
 10
6.2824122895
 20
4.7458440439
 30
0.0
 10
6.2837579629
 20
4.7460007421
 30
0.0
 10
6.2848444569
 20
4.7461552732
 30
0.0
 10
6.2856712052
 20
4.7463079829
 30
0.0
 10
6.2861334629
 20
4.7464253837
 30
0.0
 10
6.2863171689
 20
4.7464921261
 30
0.0
  0
SPLINE
  5
36F
100
AcDbEntity
  8
0
100
AcDbSpline
 62
7
  6
CONTINUOUS
 70
0
 71
3
 72
29
 73
25
 74
0
 42
0.0000001
 43
0.0000001
 44
0.0000000001
 40
0.0
 40
0.0
 40
0.0
 40
0.0
 40
0.001630857
 40
0.0030340849
 40
0.0048938815
 40
0.0072272164
 40
0.0100424346
 40
0.0133441658
 40
0.0171352025
 40
0.0261914674
 40
0.0372200115
 40
0.0502247924
 40
0.0652077549
 40
0.1011051098
 40
0.1448705833
 40
0.1964430444
 40
0.255759354
 40
0.3227553354
 40
0.3973662132
 40
0.4795264972
 40
0.5691513888
 40
0.6661272906
 40
0.7703381397
 40
1.0
 40
1.0
 40
1.0
 40
1.0
 10
6.2866774646
 20
4.7229266147
 30
0.0
 10
6.286677466
 20
4.7228643344
 30
0.0
 10
6.286568955
 20
4.7227729648
 30
0.0
 10
6.2864075261
 20
4.7226961469
 30
0.0
 10
6.2862035945
 20
4.7226221296
 30
0.0
 10
6.2859467888
 20
4.7225502154
 30
0.0
 10
6.2856320482
 20
4.7224769159
 30
0.0
 10
6.285260913
 20
4.7224036487
 30
0.0
 10
6.2846530074
 20
4.7222992146
 30
0.0
 10
6.2837500352
 20
4.7221717253
 30
0.0
 10
6.2824948702
 20
4.7220249086
 30
0.0
 10
6.2810121853
 20
4.7218770802
 30
0.0
 10
6.2785816244
 20
4.7216657028
 30
0.0
 10
6.2749763656
 20
4.7214064094
 30
0.0
 10
6.2699736017
 20
4.7211061833
 30
0.0
 10
6.2640753045
 20
4.7208026261
 30
0.0
 10
6.2572890011
 20
4.7204961836
 30
0.0
 10
6.249622193
 20
4.7201875077
 30
0.0
 10
6.2410824421
 20
4.7198770168
 30
0.0
 10
6.2316780541
 20
4.7195651274
 30
0.0
 10
6.2214191756
 20
4.7192523158
 30
0.0
 10
6.2103178631
 20
4.7189392031
 30
0.0
 10
6.1938699562
 20
4.7185080685
 30
0.0
 10
6.1811232859
 20
4.7182083373
 30
0.0
 10
6.1723549591
 20
4.7180136459
 30
0.0
  0
LINE
  5
370
100
AcDbEntity
  8
0
100
AcDbLine
 62
7
  6
CONTINUOUS
 10
6.1723549591
 20
4.7180136459
 11
6.1553961274
 21
4.7176509109
  0
SPLINE
  5
371
100
AcDbEntity
  8
0
100
AcDbSpline
 62
7
  6
CONTINUOUS
 70
0
 71
3
 72
23
 73
19
 74
0
 42
0.0000001
 43
0.0000001
 44
0.0000000001
 40
0.0
 40
0.0
 40
0.0
 40
0.0
 40
0.043513252
 40
0.0940692765
 40
0.1509051187
 40
0.2131472616
 40
0.2798428247
 40
0.3499731946
 40
0.4224642985
 40
0.4962114804
 40
0.5700851614
 40
0.6429581535
 40
0.7137164192
 40
0.7812847252
 40
0.8446269528
 40
0.9027760201
 40
0.9548319638
 40
1.0
 40
1.0
 40
1.0
 40
1.0
 10
6.1553961274
 20
4.7176509109
 30
0.0
 10
6.1350685127
 20
4.717231761
 30
0.0
 10
6.0911209533
 20
4.7164346255
 30
0.0
 10
6.0206176723
 20
4.7153434999
 30
0.0
 10
5.9413623488
 20
4.7142439985
 30
0.0
 10
5.8545655506
 20
4.7131054119
 30
0.0
 10
5.7615566446
 20
4.7119364657
 30
0.0
 10
5.6637583973
 20
4.7107731773
 30
0.0
 10
5.5626647195
 20
4.7096341669
 30
0.0
 10
5.459821414
 20
4.7085346595
 30
0.0
 10
5.3567996787
 20
4.7074333795
 30
0.0
 10
5.2551748897
 20
4.7063070621
 30
0.0
 10
5.1564969052
 20
4.7051477869
 30
0.0
 10
5.0622727329
 20
4.703975844
 30
0.0
 10
4.9739404304
 20
4.7028323145
 30
0.0
 10
4.8928566304
 20
4.7017197941
 30
0.0
 10
4.8202653593
 20
4.7006338279
 30
0.0
 10
4.7748434344
 20
4.6998415198
 30
0.0
 10
4.7537423722
 20
4.6994262813
 30
0.0
  0
LINE
  5
372
100
AcDbEntity
  8
0
100
AcDbLine
 62
7
  6
CONTINUOUS
 10
4.7537423722
 20
4.6994262813
 11
4.748495646
 21
4.6993220347
  0
LINE
  5
373
100
AcDbEntity
  8
0
100
AcDbLine
 62
7
  6
CONTINUOUS
 10
4.7234881856
 20
4.6987946156
 11
4.7176912387
 21
4.6986641
  0
SPLINE
  5
374
100
AcDbEntity
  8
0
100
AcDbSpline
 62
7
  6
CONTINUOUS
 70
0
 71
3
 72
22
 73
18
 74
0
 42
0.0000001
 43
0.0000001
 44
0.0000000001
 40
0.0
 40
0.0
 40
0.0
 40
0.0
 40
0.2172776558
 40
0.409287413
 40
0.5753872656
 40
0.6485461978
 40
0.7150181472
 40
0.7747336711
 40
0.8276245423
 40
0.8736438598
 40
0.9127670183
 40
0.9449724356
 40
0.9702428791
 40
0.9802752615
 40
0.9885736726
 40
0.9951435938
 40
1.0
 40
1.0
 40
1.0
 40
1.0
 10
4.7176912387
 20
4.6986641
 30
0.0
 10
4.7098848596
 20
4.6984859788
 30
0.0
 10
4.6951803261
 20
4.6981324151
 30
0.0
 10
4.6745100576
 20
4.6975667429
 30
0.0
 10
4.659018996
 20
4.6970777622
 30
0.0
 10
4.6480388999
 20
4.6966824902
 30
0.0
 10
4.6408804372
 20
4.6964002577
 30
0.0
 10
4.6344508927
 20
4.6961201023
 30
0.0
 10
4.6287570051
 20
4.6958426592
 30
0.0
 10
4.6238039958
 20
4.6955681833
 30
0.0
 10
4.6195954322
 20
4.6952969853
 30
0.0
 10
4.6161342137
 20
4.69502886
 30
0.0
 10
4.6137190066
 20
4.6947954712
 30
0.0
 10
4.6121640278
 20
4.6946018429
 30
0.0
 10
4.6112788331
 20
4.694469159
 30
0.0
 10
4.6105822284
 20
4.6943377779
 30
0.0
 10
4.6101831473
 20
4.694237843
 30
0.0
 10
4.6100173432
 20
4.6941833576
 30
0.0
  0
SPLINE
  5
375
100
AcDbEntity
  8
0
100
AcDbSpline
 62
7
  6
CONTINUOUS
 70
0
 71
3
 72
29
 73
25
 74
0
 42
0.0000001
 43
0.0000001
 44
0.0000000001
 40
0.0
 40
0.0
 40
0.0
 40
0.0
 40
0.0016366035
 40
0.0030434277
 40
0.0049070755
 40
0.0072443656
 40
0.010063485
 40
0.0133688991
 40
0.0171632327
 40
0.0262242501
 40
0.0372539423
 40
0.0502548758
 40
0.0652275977
 40
0.1010853799
 40
0.14481537
 40
0.1963717204
 40
0.2556836993
 40
0.3226789405
 40
0.3972844993
 40
0.4794270749
 40
0.5690330994
 40
0.6660155725
 40
0.770254388
 40
1.0
 40
1.0
 40
1.0
 40
1.0
 10
4.6095687109
 20
4.7757914781
 30
0.0
 10
4.6095688479
 20
4.7758537819
 30
0.0
 10
4.6096773072
 20
4.7759450344
 30
0.0
 10
4.6098386661
 20
4.7760218964
 30
0.0
 10
4.6100423458
 20
4.7760958712
 30
0.0
 10
4.6102987577
 20
4.7761677563
 30
0.0
 10
4.6106129208
 20
4.7762410047
 30
0.0
 10
4.6109832827
 20
4.7763142107
 30
0.0
 10
4.6115897017
 20
4.7764185216
 30
0.0
 10
4.6124901695
 20
4.7765458201
 30
0.0
 10
4.6137414607
 20
4.7766923502
 30
0.0
 10
4.6152189971
 20
4.7768397983
 30
0.0
 10
4.6176398973
 20
4.7770504598
 30
0.0
 10
4.6212306258
 20
4.777308654
 30
0.0
 10
4.6262142396
 20
4.7776078946
 30
0.0
 10
4.6320919
 20
4.7779109709
 30
0.0
 10
4.6388560981
 20
4.778217239
 30
0.0
 10
4.6464984514
 20
4.7785258894
 30
0.0
 10
4.6550105078
 20
4.7788363156
 30
0.0
 10
4.6643838116
 20
4.7791479375
 30
0.0
 10
4.6746093922
 20
4.7794601924
 30
0.0
 10
4.6856765136
 20
4.7797725405
 30
0.0
 10
4.7020773843
 20
4.7802026083
 30
0.0
 10
4.714788363
 20
4.7805017489
 30
0.0
 10
4.7235323964
 20
4.7806962878
 30
0.0
  0
LINE
  5
376
100
AcDbEntity
  8
0
100
AcDbLine
 62
7
  6
CONTINUOUS
 10
4.7235323964
 20
4.7806962878
 11
4.7264561763
 21
4.7807609122
  0
LINE
  5
377
100
AcDbEntity
  8
0
100
AcDbLine
 62
7
  6
CONTINUOUS
 10
4.7264561763
 20
4.7807609122
 11
4.7361581602
 21
4.7809695495
  0
LINE
  5
378
100
AcDbEntity
  8
0
100
AcDbLine
 62
7
  6
CONTINUOUS
 10
4.7361581602
 20
4.7809695495
 11
4.7536674465
 21
4.7813257094
  0
LINE
  5
379
100
AcDbEntity
  8
0
100
AcDbLine
 62
7
  6
CONTINUOUS
 10
4.7536674465
 20
4.7813257094
 11
4.7589107491
 21
4.7814277675
  0
SPLINE
  5
37A
100
AcDbEntity
  8
0
100
AcDbSpline
 62
7
  6
CONTINUOUS
 70
0
 71
3
 72
23
 73
19
 74
0
 42
0.0000001
 43
0.0000001
 44
0.0000000001
 40
0.0
 40
0.0
 40
0.0
 40
0.0
 40
0.045263177
 40
0.0971011609
 40
0.1547747633
 40
0.2174437887
 40
0.2842044236
 40
0.3540924494
 40
0.4261000131
 40
0.4991895364
 40
0.5723056937
 40
0.6443926845
 40
0.7144133924
 40
0.7813587724
 40
0.8442627464
 40
0.9022174499
 40
0.9543780492
 40
1.0
 40
1.0
 40
1.0
 40
1.0
 10
4.7589107491
 20
4.7814277675
 30
0.0
 10
4.7796604437
 20
4.7818277335
 30
0.0
 10
4.8241756742
 20
4.7825920384
 30
0.0
 10
4.8951333005
 20
4.7836527713
 30
0.0
 10
4.9740722122
 20
4.7847313829
 30
0.0
 10
5.0598534255
 20
4.7858440296
 30
0.0
 10
5.151235172
 20
4.7869833791
 30
0.0
 10
5.2468991893
 20
4.7881098144
 30
0.0
 10
5.3454655263
 20
4.7892116939
 30
0.0
 10
5.4455124258
 20
4.7902813075
 30
0.0
 10
5.5455957589
 20
4.7913496427
 30
0.0
 10
5.6442715869
 20
4.7924498526
 30
0.0
 10
5.7401175914
 20
4.793575136
 30
0.0
 10
5.8317526235
 20
4.7947147405
 30
0.0
 10
5.9178551614
 20
4.7958291326
 30
0.0
 10
5.9971786194
 20
4.7969094863
 30
0.0
 10
6.0685776005
 20
4.7979704031
 30
0.0
 10
6.1134053199
 20
4.7987333018
 30
0.0
 10
6.1343195641
 20
4.7991322982
 30
0.0
  0
LINE
  5
37B
100
AcDbEntity
  8
0
100
AcDbLine
 62
7
  6
CONTINUOUS
 10
6.1343195641
 20
4.7991322982
 11
6.1427242568
 21
4.799295127
  0
LINE
  5
37C
100
AcDbEntity
  8
0
100
AcDbLine
 62
7
  6
CONTINUOUS
 10
6.1427242568
 20
4.799295127
 11
6.1601758203
 21
4.7996503878
  0
LINE
  5
37D
100
AcDbEntity
  8
0
100
AcDbLine
 62
7
  6
CONTINUOUS
 10
6.1601758203
 20
4.7996503878
 11
6.1669759983
 21
4.799795777
  0
SPLINE
  5
37E
100
AcDbEntity
  8
0
100
AcDbSpline
 62
7
  6
CONTINUOUS
 70
0
 71
3
 72
15
 73
11
 74
0
 42
0.0000001
 43
0.0000001
 44
0.0000000001
 40
0.0
 40
0.0
 40
0.0
 40
0.0
 40
0.368552572
 40
0.5242082971
 40
0.6601324205
 40
0.7759866277
 40
0.8714459428
 40
0.9461905819
 40
0.9757171846
 40
1.0
 40
1.0
 40
1.0
 40
1.0
 10
6.1669759983
 20
4.799795777
 30
0.0
 10
6.1810673615
 20
4.8001014409
 30
0.0
 10
6.2011094113
 20
4.8005731501
 30
0.0
 10
6.226344908
 20
4.8012913457
 30
0.0
 10
6.2419183564
 20
4.8017977707
 30
0.0
 10
6.2551885201
 20
4.8022991907
 30
0.0
 10
6.2661172299
 20
4.8027935065
 30
0.0
 10
6.2737440352
 20
4.8032203196
 30
0.0
 10
6.2786478786
 20
4.8035717253
 30
0.0
 10
6.2806982848
 20
4.8037483239
 30
0.0
 10
6.2816224588
 20
4.8038394499
 30
0.0
  0
SPLINE
  5
37F
100
AcDbEntity
  8
0
100
AcDbSpline
 62
7
  6
CONTINUOUS
 70
0
 71
3
 72
12
 73
8
 74
0
 42
0.0000001
 43
0.0000001
 44
0.0000000001
 40
0.0
 40
0.0
 40
0.0
 40
0.0
 40
0.355203347
 40
0.6400272791
 40
0.8546964576
 40
0.9359297244
 40
1.0
 40
1.0
 40
1.0
 40
1.0
 10
6.2816224588
 20
4.8038394499
 30
0.0
 10
6.2821811305
 20
4.8038945364
 30
0.0
 10
6.2831871424
 20
4.8040012807
 30
0.0
 10
6.2845264317
 20
4.8041775105
 30
0.0
 10
6.2854319052
 20
4.8043316573
 30
0.0
 10
6.2859858829
 20
4.8044617486
 30
0.0
 10
6.2862062154
 20
4.8045276216
 30
0.0
 10
6.2863013925
 20
4.8045621886
 30
0.0
  0
SPLINE
  5
380
100
AcDbEntity
  8
0
100
AcDbSpline
 62
7
  6
CONTINUOUS
 70
0
 71
3
 72
28
 73
24
 74
0
 42
0.0000001
 43
0.0000001
 44
0.0000000001
 40
0.0
 40
0.0
 40
0.0
 40
0.0
 40
0.0016544991
 40
0.003067371
 40
0.0049371715
 40
0.0072811009
 40
0.0101074213
 40
0.0134205438
 40
0.0172229735
 40
0.026300694
 40
0.0373465501
 40
0.0653437912
 40
0.1012035384
 40
0.1449011617
 40
0.1964074638
 40
0.2556867351
 40
0.3226695003
 40
0.3972709245
 40
0.4794057476
 40
0.5689884829
 40
0.6659334906
 40
0.7701549513
 40
1.0
 40
1.0
 40
1.0
 40
1.0
 10
6.2866627533
 20
4.7809980541
 30
0.0
 10
6.286662801
 20
4.7809373911
 30
0.0
 10
6.2865591658
 20
4.7808475526
 30
0.0
 10
6.2864030685
 20
4.7807718583
 30
0.0
 10
6.2862067733
 20
4.7806991855
 30
0.0
 10
6.2859594095
 20
4.7806285401
 30
0.0
 10
6.285656367
 20
4.7805565546
 30
0.0
 10
6.285299082
 20
4.7804846003
 30
0.0
 10
6.284714168
 20
4.7803820838
 30
0.0
 10
6.2838457377
 20
4.7802569313
 30
0.0
 10
6.2820936578
 20
4.7800481032
 30
0.0
 10
6.2793584333
 20
4.7797968536
 30
0.0
 10
6.2754254095
 20
4.7795080651
 30
0.0
 10
6.2706286869
 20
4.7792157457
 30
0.0
 10
6.2649721926
 20
4.7789196067
 30
0.0
 10
6.2584610813
 20
4.7786200527
 30
0.0
 10
6.2511025145
 20
4.7783176329
 30
0.0
 10
6.2429053842
 20
4.7780131372
 30
0.0
 10
6.2338791475
 20
4.7777072482
 30
0.0
 10
6.2240332663
 20
4.777400645
 30
0.0
 10
6.2133772092
 20
4.7770939531
 30
0.0
 10
6.1975795903
 20
4.7766719309
 30
0.0
 10
6.1853343557
 20
4.7763789339
 30
0.0
 10
6.1769091341
 20
4.776188197
 30
0.0
  0
LINE
  5
381
100
AcDbEntity
  8
0
100
AcDbLine
 62
7
  6
CONTINUOUS
 10
6.1769091341
 20
4.776188197
 11
6.1725946941
 21
4.7760914812
  0
LINE
  5
382
100
AcDbEntity
  8
0
100
AcDbLine
 62
7
  6
CONTINUOUS
 10
6.1454966385
 20
4.7755227336
 11
6.1423095294
 21
4.7754596949
  0
SPLINE
  5
383
100
AcDbEntity
  8
0
100
AcDbSpline
 62
7
  6
CONTINUOUS
 70
0
 71
3
 72
23
 73
19
 74
0
 42
0.0000001
 43
0.0000001
 44
0.0000000001
 40
0.0
 40
0.0
 40
0.0
 40
0.0
 40
0.0452544671
 40
0.0974228266
 40
0.1557031294
 40
0.2191892033
 40
0.2869049562
 40
0.3578011962
 40
0.4307929036
 40
0.5047597071
 40
0.5785671632
 40
0.6510765839
 40
0.7211793894
 40
0.7877973329
 40
0.8499023233
 40
0.9065341742
 40
0.9568209353
 40
1.0
 40
1.0
 40
1.0
 40
1.0
 10
6.1423095294
 20
4.7754596949
 30
0.0
 10
6.1211266159
 20
4.7750431319
 30
0.0
 10
6.0755225116
 20
4.774247947
 30
0.0
 10
6.0026343138
 20
4.7731590969
 30
0.0
 10
5.9212100652
 20
4.7720424628
 30
0.0
 10
5.8325066962
 20
4.770894595
 30
0.0
 10
5.7378967294
 20
4.7697196149
 30
0.0
 10
5.638835998
 20
4.7685559531
 30
0.0
 10
5.5368480823
 20
4.7674284404
 30
0.0
 10
5.4334968873
 20
4.7663235698
 30
0.0
 10
5.3303714804
 20
4.7652202864
 30
0.0
 10
5.2290556433
 20
4.764077074
 30
0.0
 10
5.1311062725
 20
4.7629089264
 30
0.0
 10
5.0380284009
 20
4.7617375317
 30
0.0
 10
4.9512574305
 20
4.7605964183
 30
0.0
 10
4.8721324473
 20
4.7594953387
 30
0.0
 10
4.8018689649
 20
4.758400789
 30
0.0
 10
4.7581178194
 20
4.7575991746
 30
0.0
 10
4.7379068609
 20
4.7571774697
 30
0.0
  0
SPLINE
  5
384
100
AcDbEntity
  8
0
100
AcDbSpline
 62
7
  6
CONTINUOUS
 70
0
 71
3
 72
14
 73
10
 74
0
 42
0.0000001
 43
0.0000001
 44
0.0000000001
 40
0.0
 40
0.0
 40
0.0
 40
0.0
 40
0.3588079522
 40
0.5120194053
 40
0.6471602591
 40
0.7638041244
 40
0.8616589577
 40
0.9404728587
 40
1.0
 40
1.0
 40
1.0
 40
1.0
 10
4.7379068609
 20
4.7571774697
 30
0.0
 10
4.7234584615
 20
4.7568760015
 30
0.0
 10
4.7028412716
 20
4.7564084902
 30
0.0
 10
4.6767854697
 20
4.7557006656
 30
0.0
 10
4.6604812773
 20
4.755199383
 30
0.0
 10
4.6464077448
 20
4.7547020472
 30
0.0
 10
4.6346041556
 20
4.7542115202
 30
0.0
 10
4.6251031767
 20
4.7537294056
 30
0.0
 10
4.619542375
 20
4.7533694591
 30
0.0
 10
4.6171526377
 20
4.7531760951
 30
0.0
  0
SPLINE
  5
385
100
AcDbEntity
  8
0
100
AcDbSpline
 62
7
  6
CONTINUOUS
 70
0
 71
3
 72
12
 73
8
 74
0
 42
0.0000001
 43
0.0000001
 44
0.0000000001
 40
0.0
 40
0.0
 40
0.0
 40
0.0
 40
0.3624189107
 40
0.6496762025
 40
0.8619716868
 40
0.9401878698
 40
1.0
 40
1.0
 40
1.0
 40
1.0
 10
4.6171526377
 20
4.7531760951
 30
0.0
 10
4.6162832468
 20
4.7531057489
 30
0.0
 10
4.6147254085
 20
4.7529700638
 30
0.0
 10
4.6126631202
 20
4.7527455231
 30
0.0
 10
4.6112855287
 20
4.7525498173
 30
0.0
 10
4.6104588852
 20
4.7523833021
 30
0.0
 10
4.6101370633
 20
4.7522989839
 30
0.0
 10
4.6100003215
 20
4.7522540043
 30
0.0
  0
SPLINE
  5
386
100
AcDbEntity
  8
0
100
AcDbSpline
 62
7
  6
CONTINUOUS
 70
0
 71
3
 72
28
 73
24
 74
0
 42
0.0000001
 43
0.0000001
 44
0.0000000001
 40
0.0
 40
0.0
 40
0.0
 40
0.0
 40
0.0016427495
 40
0.003049059
 40
0.0049110775
 40
0.0072463016
 40
0.0100634553
 40
0.0133674732
 40
0.0171614133
 40
0.0262262879
 40
0.0372686366
 40
0.0652905005
 40
0.1012007428
 40
0.1449542385
 40
0.1965014287
 40
0.2557906864
 40
0.3227692907
 40
0.3973820364
 40
0.4795462071
 40
0.5691582666
 40
0.6661140174
 40
0.7703091597
 40
1.0
 40
1.0
 40
1.0
 40
1.0
 10
4.6095542429
 20
4.8338618386
 30
0.0
 10
4.6095542534
 20
4.8339230313
 30
0.0
 10
4.6096595316
 20
4.834013295
 30
0.0
 10
4.6098173713
 20
4.8340893494
 30
0.0
 10
4.6100161763
 20
4.8341624492
 30
0.0
 10
4.6102666788
 20
4.8342335113
 30
0.0
 10
4.6105736909
 20
4.8343059401
 30
0.0
 10
4.6109357914
 20
4.8343783562
 30
0.0
 10
4.6115290397
 20
4.8344815987
 30
0.0
 10
4.612410527
 20
4.8346077188
 30
0.0
 10
4.6141910241
 20
4.8348184354
 30
0.0
 10
4.6169726604
 20
4.8350723082
 30
0.0
 10
4.620973384
 20
4.835364402
 30
0.0
 10
4.6258521692
 20
4.8356600147
 30
0.0
 10
4.6316029342
 20
4.835959068
 30
0.0
 10
4.6382197288
 20
4.8362607838
 30
0.0
 10
4.6456963943
 20
4.8365649472
 30
0.0
 10
4.6540256997
 20
4.8368713256
 30
0.0
 10
4.66319856
 20
4.8371794205
 30
0.0
 10
4.6732040975
 20
4.8374884942
 30
0.0
 10
4.6840306431
 20
4.8377978666
 30
0.0
 10
4.7000739061
 20
4.8382238086
 30
0.0
 10
4.7125077101
 20
4.8385196912
 30
0.0
 10
4.7210615672
 20
4.8387117234
 30
0.0
  0
SPLINE
  5
387
100
AcDbEntity
  8
0
100
AcDbSpline
 62
7
  6
CONTINUOUS
 70
0
 71
3
 72
22
 73
18
 74
0
 42
0.0000001
 43
0.0000001
 44
0.0000000001
 40
0.0
 40
0.0
 40
0.0
 40
0.0
 40
0.0415152301
 40
0.0907229741
 40
0.1468184367
 40
0.20886765
 40
0.2758368364
 40
0.3466192841
 40
0.4200325575
 40
0.4948603509
 40
0.6437942911
 40
0.7154338853
 40
0.7835928688
 40
0.847138215
 40
0.9050103393
 40
0.9562507795
 40
1.0
 40
1.0
 40
1.0
 40
1.0
 10
4.7210615672
 20
4.8387117234
 30
0.0
 10
4.7409651127
 20
4.8391585536
 30
0.0
 10
4.784463124
 20
4.8400042203
 30
0.0
 10
4.854860518
 20
4.8411419971
 30
0.0
 10
4.9351060972
 20
4.8422774077
 30
0.0
 10
5.0238693148
 20
4.843456673
 30
0.0
 10
5.1196758384
 20
4.8446676241
 30
0.0
 10
5.2209323165
 20
4.8458846868
 30
0.0
 10
5.3259579916
 20
4.8470711921
 30
0.0
 10
5.4684595963
 20
4.8485981193
 30
0.0
 10
5.6101107768
 20
4.8501098179
 30
0.0
 10
5.7485622944
 20
4.8517489761
 30
0.0
 10
5.8460679721
 20
4.8529642609
 30
0.0
 10
5.9369712685
 20
4.8541540604
 30
0.0
 10
6.019761152
 20
4.8553015829
 30
0.0
 10
6.093057105
 20
4.856431282
 30
0.0
 10
6.1386016489
 20
4.8572707292
 30
0.0
 10
6.1595769046
 20
4.8577105763
 30
0.0
  0
LINE
  5
388
100
AcDbEntity
  8
0
100
AcDbLine
 62
7
  6
CONTINUOUS
 10
6.1595769046
 20
4.8577105763
 11
6.1623061158
 21
4.8577681267
  0
LINE
  5
389
100
AcDbEntity
  8
0
100
AcDbLine
 62
7
  6
CONTINUOUS
 10
6.1623061158
 20
4.8577681267
 11
6.173165932
 21
4.858003825
  0
SPLINE
  5
38A
100
AcDbEntity
  8
0
100
AcDbSpline
 62
7
  6
CONTINUOUS
 70
0
 71
3
 72
14
 73
10
 74
0
 42
0.0000001
 43
0.0000001
 44
0.0000000001
 40
0.0
 40
0.0
 40
0.0
 40
0.0
 40
0.3583555117
 40
0.5111648912
 40
0.6459786439
 40
0.7624853967
 40
0.8604205575
 40
0.9396339768
 40
1.0
 40
1.0
 40
1.0
 40
1.0
 10
6.1922023159
 20
4.8584469469
 30
0.0
 10
6.2027817355
 20
4.8587054325
 30
0.0
 10
6.2178717546
 20
4.8591042766
 30
0.0
 10
6.2369387199
 20
4.8597039479
 30
0.0
 10
6.2488656072
 20
4.8601268762
 30
0.0
 10
6.2591710111
 20
4.8605452048
 30
0.0
 10
6.267833312
 20
4.8609565245
 30
0.0
 10
6.2748357351
 20
4.8613608456
 30
0.0
 10
6.2789470591
 20
4.8616627936
 30
0.0
 10
6.2807223696
 20
4.8618245635
 30
0.0
  0
SPLINE
  5
38B
100
AcDbEntity
  8
0
100
AcDbSpline
 62
7
  6
CONTINUOUS
 70
0
 71
3
 72
12
 73
8
 74
0
 42
0.0000001
 43
0.0000001
 44
0.0000000001
 40
0.0
 40
0.0
 40
0.0
 40
0.0
 40
0.3603501956
 40
0.6469988436
 40
0.8599909151
 40
0.9390226224
 40
1.0
 40
1.0
 40
1.0
 40
1.0
 10
6.2807223696
 20
4.8618245635
 30
0.0
 10
6.2813982908
 20
4.8618861549
 30
0.0
 10
6.2826112413
 20
4.8620052148
 30
0.0
 10
6.2842189933
 20
4.8622023217
 30
0.0
 10
6.2852961126
 20
4.8623744226
 30
0.0
 10
6.2859448752
 20
4.8625205292
 30
0.0
 10
6.2861984496
 20
4.8625945196
 30
0.0
 10
6.2863063951
 20
4.8626337443
 30
0.0
  0
SPLINE
  5
38C
100
AcDbEntity
  8
0
100
AcDbSpline
 62
7
  6
CONTINUOUS
 70
0
 71
3
 72
28
 73
24
 74
0
 42
0.0000001
 43
0.0000001
 44
0.0000000001
 40
0.0
 40
0.0
 40
0.0
 40
0.0
 40
0.0016852764
 40
0.0031017637
 40
0.004969326
 40
0.0073065537
 40
0.0101227253
 40
0.0134230601
 40
0.0172107566
 40
0.0262556237
 40
0.0372679362
 40
0.0652129704
 40
0.1010522955
 40
0.1447426298
 40
0.1962309678
 40
0.2554620787
 40
0.3223795573
 40
0.3969263197
 40
0.4790445703
 40
0.568658828
 40
0.6656665299
 40
0.7699626926
 40
1.0
 40
1.0
 40
1.0
 40
1.0
 10
6.2866798936
 20
4.8390685623
 30
0.0
 10
6.2866798895
 20
4.8390108772
 30
0.0
 10
6.2865849641
 20
4.8389242866
 30
0.0
 10
6.2864388322
 20
4.8388508065
 30
0.0
 10
6.2862567643
 20
4.8387808631
 30
0.0
 10
6.2860270452
 20
4.8387128006
 30
0.0
 10
6.2857457166
 20
4.8386435013
 30
0.0
 10
6.2854139111
 20
4.8385742184
 30
0.0
 10
6.2848705069
 20
4.8384754966
 30
0.0
 10
6.2840631297
 20
4.8383549255
 30
0.0
 10
6.2824323494
 20
4.8381535524
 30
0.0
 10
6.2798832722
 20
4.8379109541
 30
0.0
 10
6.2762150856
 20
4.8376316516
 30
0.0
 10
6.271739308
 20
4.8373488071
 30
0.0
 10
6.2664617516
 20
4.8370626029
 30
0.0
 10
6.2603882628
 20
4.8367739073
 30
0.0
 10
6.2535248286
 20
4.8364830344
 30
0.0
 10
6.2458774375
 20
4.8361903296
 30
0.0
 10
6.237452705
 20
4.8358960453
 30
0.0
 10
6.2282587721
 20
4.8356005515
 30
0.0
 10
6.2183053731
 20
4.83530442
 30
0.0
 10
6.2035466996
 20
4.8348960202
 30
0.0
 10
6.1921063528
 20
4.83461164
 30
0.0
 10
6.1842346109
 20
4.8344266981
 30
0.0
  0
LINE
  5
38D
100
AcDbEntity
  8
0
100
AcDbLine
 62
7
  6
CONTINUOUS
 10
6.1842346109
 20
4.8344266981
 11
6.1778797334
 21
4.8342797188
  0
LINE
  5
38E
100
AcDbEntity
  8
0
100
AcDbLine
 62
7
  6
CONTINUOUS
 10
6.1778797334
 20
4.8342797188
 11
6.1638939749
 21
4.8339714074
  0
LINE
  5
38F
100
AcDbEntity
  8
0
100
AcDbLine
 62
7
  6
CONTINUOUS
 10
6.1638939749
 20
4.8339714074
 11
6.1601007033
 21
4.8338910765
  0
SPLINE
  5
390
100
AcDbEntity
  8
0
100
AcDbSpline
 62
7
  6
CONTINUOUS
 70
0
 71
3
 72
21
 73
17
 74
0
 42
0.0000001
 43
0.0000001
 44
0.0000000001
 40
0.0
 40
0.0
 40
0.0
 40
0.0
 40
0.0429099395
 40
0.0929375367
 40
0.1493249471
 40
0.2112031617
 40
0.3475668392
 40
0.4199625638
 40
0.4937017113
 40
0.6406806291
 40
0.7116730182
 40
0.7795463238
 40
0.8432544559
 40
0.9018200794
 40
0.9543366863
 40
1.0
 40
1.0
 40
1.0
 40
1.0
 10
6.1601007033
 20
4.8338910765
 30
0.0
 10
6.1400415726
 20
4.8334697421
 30
0.0
 10
6.0965937027
 20
4.8326679007
 30
0.0
 10
6.0267818226
 20
4.8315747447
 30
0.0
 10
5.9480999857
 20
4.8304770935
 30
0.0
 10
5.8290523874
 20
4.8289076652
 30
0.0
 10
5.7025188714
 20
4.8273544731
 30
0.0
 10
5.5704384402
 20
4.8258609993
 30
0.0
 10
5.4333940329
 20
4.8243927136
 30
0.0
 10
5.2970056689
 20
4.8229375239
 30
0.0
 10
5.1633614262
 20
4.8213720826
 30
0.0
 10
5.0686505088
 20
4.8201991471
 30
0.0
 10
4.9797501717
 20
4.8190509044
 30
0.0
 10
4.8980304236
 20
4.8179345347
 30
0.0
 10
4.8247483828
 20
4.8168476408
 30
0.0
 10
4.7788487842
 20
4.8160550905
 30
0.0
 10
4.7575018452
 20
4.8156407169
 30
0.0
  0
LINE
  5
391
100
AcDbEntity
  8
0
100
AcDbLine
 62
7
  6
CONTINUOUS
 10
4.7575018452
 20
4.8156407169
 11
4.7537550401
 21
4.8155675035
  0
LINE
  5
392
100
AcDbEntity
  8
0
100
AcDbLine
 62
7
  6
CONTINUOUS
 10
4.7537550401
 20
4.8155675035
 11
4.736193499
 21
4.8152104909
  0
LINE
  5
393
100
AcDbEntity
  8
0
100
AcDbLine
 62
7
  6
CONTINUOUS
 10
4.736193499
 20
4.8152104909
 11
4.7251315902
 21
4.8149724051
  0
LINE
  5
394
100
AcDbEntity
  8
0
100
AcDbLine
 62
7
  6
CONTINUOUS
 10
4.7251315902
 20
4.8149724051
 11
4.7116147363
 21
4.8146650677
  0
SPLINE
  5
395
100
AcDbEntity
  8
0
100
AcDbSpline
 62
7
  6
CONTINUOUS
 70
0
 71
3
 72
22
 73
18
 74
0
 42
0.0000001
 43
0.0000001
 44
0.0000000001
 40
0.0
 40
0.0
 40
0.0
 40
0.0
 40
0.2170974122
 40
0.4089082456
 40
0.5748560396
 40
0.6479564723
 40
0.7143815313
 40
0.7740617599
 40
0.8269391017
 40
0.8729831496
 40
0.912168695
 40
0.9444726597
 40
0.9698764348
 40
0.9799881635
 40
0.9883742027
 40
0.9950399121
 40
1.0
 40
1.0
 40
1.0
 40
1.0
 10
4.7116147363
 20
4.8146650677
 30
0.0
 10
4.7042544828
 20
4.8144922416
 30
0.0
 10
4.6903916668
 20
4.8141490436
 30
0.0
 10
4.6709046397
 20
4.813600172
 30
0.0
 10
4.6563008057
 20
4.8131265385
 30
0.0
 10
4.6459485373
 20
4.8127440494
 30
0.0
 10
4.6391985043
 20
4.8124710903
 30
0.0
 10
4.6331348061
 20
4.8122003036
 30
0.0
 10
4.627762908
 20
4.8119321398
 30
0.0
 10
4.6230868759
 20
4.8116665492
 30
0.0
 10
4.6191095976
 20
4.8114039035
 30
0.0
 10
4.6158339437
 20
4.8111440662
 30
0.0
 10
4.6135448098
 20
4.810917847
 30
0.0
 10
4.6120677945
 20
4.8107303001
 30
0.0
 10
4.6112239988
 20
4.8106016161
 30
0.0
 10
4.6105573819
 20
4.8104741772
 30
0.0
 10
4.610174451
 20
4.8103774257
 30
0.0
 10
4.6100146493
 20
4.8103249147
 30
0.0
  0
LINE
  5
396
100
AcDbEntity
  8
0
100
AcDbLine
 62
7
  6
CONTINUOUS
 10
4.723307372
 20
4.8730046606
 11
4.7169427762
 21
4.8728608071
  0
LINE
  5
397
100
AcDbEntity
  8
0
100
AcDbLine
 62
7
  6
CONTINUOUS
 10
4.7169427762
 20
4.8728608071
 11
4.7119882854
 21
4.8727457666
  0
SPLINE
  5
398
100
AcDbEntity
  8
0
100
AcDbSpline
 62
7
  6
CONTINUOUS
 70
0
 71
3
 72
22
 73
18
 74
0
 42
0.0000001
 43
0.0000001
 44
0.0000000001
 40
0.0
 40
0.0
 40
0.0
 40
0.0
 40
0.2171566604
 40
0.4090812171
 40
0.5750515521
 40
0.6481331321
 40
0.714540956
 40
0.7742220232
 40
0.8271237223
 40
0.8731940692
 40
0.9123821954
 40
0.9446508435
 40
0.9699952411
 40
0.980073887
 40
0.9884275892
 40
0.995063968
 40
1.0
 40
1.0
 40
1.0
 40
1.0
 10
4.7119882854
 20
4.8727457666
 30
0.0
 10
4.7045982849
 20
4.8725720846
 30
0.0
 10
4.6906773521
 20
4.8722272264
 30
0.0
 10
4.6711102024
 20
4.8716776034
 30
0.0
 10
4.6564472849
 20
4.8712039038
 30
0.0
 10
4.6460564257
 20
4.8708211454
 30
0.0
 10
4.6392821349
 20
4.8705477319
 30
0.0
 10
4.6331953123
 20
4.870276002
 30
0.0
 10
4.6278014404
 20
4.870006347
 30
0.0
 10
4.6231060065
 20
4.8697391701
 30
0.0
 10
4.6191139771
 20
4.8694753056
 30
0.0
 10
4.615829094
 20
4.8692149138
 30
0.0
 10
4.6135356335
 20
4.8689885821
 30
0.0
 10
4.6120572401
 20
4.8688010773
 30
0.0
 10
4.6112134377
 20
4.868672497
 30
0.0
 10
4.6105471687
 20
4.8685451599
 30
0.0
 10
4.6101645661
 20
4.86844845
 30
0.0
 10
4.610004956
 20
4.8683959485
 30
0.0
  0
SPLINE
  5
399
100
AcDbEntity
  8
0
100
AcDbSpline
 62
9
  6
CONTINUOUS
 70
0
 71
3
 72
9
 73
5
 74
0
 42
0.0000001
 43
0.0000001
 44
0.0000000001
 40
0.0
 40
0.0
 40
0.0
 40
0.0
 40
0.503137354
 40
1.0
 40
1.0
 40
1.0
 40
1.0
 10
4.3660658612
 20
4.896896137
 30
0.0
 10
4.3660658612
 20
4.8953822539
 30
0.0
 10
4.3662933828
 20
4.8923697172
 30
0.0
 10
4.366958527
 20
4.8894219566
 30
0.0
 10
4.3674025201
 20
4.8879944046
 30
0.0
  0
SPLINE
  5
39A
100
AcDbEntity
  8
0
100
AcDbSpline
 62
9
  6
CONTINUOUS
 70
0
 71
3
 72
11
 73
7
 74
0
 42
0.0000001
 43
0.0000001
 44
0.0000000001
 40
0.0
 40
0.0
 40
0.0
 40
0.0
 40
0.269624138
 40
0.5267011602
 40
0.7698150096
 40
1.0
 40
1.0
 40
1.0
 40
1.0
 10
4.3674025201
 20
4.8879944046
 30
0.0
 10
4.3678311874
 20
4.886616129
 30
0.0
 10
4.3688789764
 20
4.883983107
 30
0.0
 10
4.3710286613
 20
4.8804424313
 30
0.0
 10
4.3736614622
 20
4.8775191175
 30
0.0
 10
4.3757357219
 20
4.876019428
 30
0.0
 10
4.3768156236
 20
4.8754258861
 30
0.0
  0
SPLINE
  5
39B
100
AcDbEntity
  8
0
100
AcDbSpline
 62
9
  6
CONTINUOUS
 70
0
 71
3
 72
9
 73
5
 74
0
 42
0.0000001
 43
0.0000001
 44
0.0000000001
 40
0.0
 40
0.0
 40
0.0
 40
0.0
 40
0.5079471332
 40
1.0
 40
1.0
 40
1.0
 40
1.0
 10
4.3768156236
 20
4.8754258861
 30
0.0
 10
4.3778456634
 20
4.8748597497
 30
0.0
 10
4.3800139586
 20
4.8739808147
 30
0.0
 10
4.3823362041
 20
4.8736677905
 30
0.0
 10
4.3834747944
 20
4.8736677905
 30
0.0
  0
LINE
  5
39C
100
AcDbEntity
  8
0
100
AcDbLine
 62
9
  6
CONTINUOUS
 10
4.3607091795
 20
4.8968902325
 11
4.3660658612
 21
4.896896137
  0
LINE
  5
39D
100
AcDbEntity
  8
0
100
AcDbLine
 62
7
  6
CONTINUOUS
 10
5.2131956381
 20
5.1942068168
 11
5.2209495737
 21
5.1942972436
  0
LINE
  5
39E
100
AcDbEntity
  8
0
100
AcDbLine
 62
7
  6
CONTINUOUS
 10
5.2209495737
 20
5.1942972436
 11
5.6751033094
 21
5.1993111562
  0
SPLINE
  5
39F
100
AcDbEntity
  8
0
100
AcDbSpline
 62
7
  6
CONTINUOUS
 70
0
 71
3
 72
33
 73
29
 74
0
 42
0.0000001
 43
0.0000001
 44
0.0000000001
 40
0.0
 40
0.0
 40
0.0
 40
0.0
 40
0.103302936
 40
0.2036328911
 40
0.3003674018
 40
0.392891115
 40
0.480616105
 40
0.5630043613
 40
0.6395267232
 40
0.7097097332
 40
0.7731244753
 40
0.8293587027
 40
0.8546774413
 40
0.8780793415
 40
0.8995259951
 40
0.9189791706
 40
0.9364072603
 40
0.9517878425
 40
0.9650992915
 40
0.9763202055
 40
0.9854296196
 40
0.9891867026
 40
0.9924109967
 40
0.9951027463
 40
0.9972627459
 40
0.9988930575
 40
0.9995112563
 40
1.0
 40
1.0
 40
1.0
 40
1.0
 10
5.6751033094
 20
5.1993111562
 30
0.0
 10
5.696155166
 20
5.1995563651
 30
0.0
 10
5.7376529267
 20
5.2000480109
 30
0.0
 10
5.7988636135
 20
5.2007998172
 30
0.0
 10
5.857877346
 20
5.2015485781
 30
0.0
 10
5.9143221115
 20
5.2022852292
 30
0.0
 10
5.9678430612
 20
5.2030047908
 30
0.0
 10
6.0181027428
 20
5.2037144708
 30
0.0
 10
6.0647870257
 20
5.2044201793
 30
0.0
 10
6.1076039672
 20
5.2051283093
 30
0.0
 10
6.1462853939
 20
5.2058446481
 30
0.0
 10
6.1758233564
 20
5.2064747974
 30
0.0
 10
6.1972070947
 20
5.20699079
 30
0.0
 10
6.2115023915
 20
5.2073654448
 30
0.0
 10
6.2246018252
 20
5.207740384
 30
0.0
 10
6.2364832664
 20
5.20811456
 30
0.0
 10
6.2471278186
 20
5.2084870097
 30
0.0
 10
6.2565199177
 20
5.2088569221
 30
0.0
 10
6.2646460485
 20
5.2092231944
 30
0.0
 10
6.2714928043
 20
5.209585021
 30
0.0
 10
6.2763920905
 20
5.2098975641
 30
0.0
 10
6.2796615509
 20
5.2101526286
 30
0.0
 10
6.281624991
 20
5.2103300419
 30
0.0
 10
6.2832616897
 20
5.2105055238
 30
0.0
 10
6.284571296
 20
5.2106793575
 30
0.0
 10
6.2854574835
 20
5.2108313906
 30
0.0
 10
6.2860005447
 20
5.2109595729
 30
0.0
 10
6.2862169326
 20
5.2110244636
 30
0.0
 10
6.286310553
 20
5.2110584741
 30
0.0
  0
SPLINE
  5
3A0
100
AcDbEntity
  8
0
100
AcDbSpline
 62
7
  6
CONTINUOUS
 70
0
 71
3
 72
69
 73
65
 74
0
 42
0.0000001
 43
0.0000001
 44
0.0000000001
 40
0.0
 40
0.0
 40
0.0
 40
0.0
 40
0.0000746787
 40
0.000131106
 40
0.0002034193
 40
0.0003991169
 40
0.000665585
 40
0.0010041142
 40
0.0014153088
 40
0.0018994941
 40
0.0024568613
 40
0.0037915577
 40
0.0054197076
 40
0.007340219
 40
0.0095515841
 40
0.0120522233
 40
0.0148405154
 40
0.0179148134
 40
0.0212734535
 40
0.028837045
 40
0.0375155508
 40
0.0472858922
 40
0.0581235004
 40
0.0700037846
 40
0.0829017049
 40
0.0967864652
 40
0.1116231938
 40
0.127376922
 40
0.14401265
 40
0.1797729768
 40
0.2185590631
 40
0.2600098735
 40
0.3037278975
 40
0.3493024213
 40
0.3963013624
 40
0.4442806233
 40
0.4927880162
 40
0.5413638435
 40
0.5895501951
 40
0.6368923618
 40
0.6829423988
 40
0.7272691953
 40
0.7694500094
 40
0.8090893168
 40
0.8458042331
 40
0.8792511226
 40
0.909109179
 40
0.9226035135
 40
0.9351010842
 40
0.9465719698
 40
0.9569870117
 40
0.9663233163
 40
0.974561127
 40
0.9816807545
 40
0.9876626602
 40
0.9902218827
 40
0.9924918493
 40
0.9944716805
 40
0.9961605625
 40
0.9975578023
 40
0.9986629571
 40
0.9994761958
 40
0.9997739411
 40
1.0
 40
1.0
 40
1.0
 40
1.0
 10
4.609554442
 20
5.2403582346
 30
0.0
 10
4.6095544445
 20
5.2403999866
 30
0.0
 10
4.6096064741
 20
5.2404667644
 30
0.0
 10
4.6096999588
 20
5.2405275352
 30
0.0
 10
4.6098640889
 20
5.2406081089
 30
0.0
 10
4.6101485359
 20
5.2407004977
 30
0.0
 10
4.6105837349
 20
5.240806832
 30
0.0
 10
4.6111419042
 20
5.2409134866
 30
0.0
 10
4.6118233748
 20
5.2410213262
 30
0.0
 10
4.6126283822
 20
5.2411296861
 30
0.0
 10
4.6139479339
 20
5.2412843462
 30
0.0
 10
4.6159071064
 20
5.2414735579
 30
0.0
 10
4.6186286395
 20
5.24169212
 30
0.0
 10
4.6218415015
 20
5.2419127833
 30
0.0
 10
4.6255430187
 20
5.2421353568
 30
0.0
 10
4.6297303881
 20
5.242359493
 30
0.0
 10
4.6344007594
 20
5.2425850103
 30
0.0
 10
4.6395512793
 20
5.2428117585
 30
0.0
 10
4.6473702079
 20
5.2431282143
 30
0.0
 10
4.6583217909
 20
5.2435210898
 30
0.0
 10
4.6728578861
 20
5.2439794503
 30
0.0
 10
4.6892252194
 20
5.2444390869
 30
0.0
 10
4.7073832851
 20
5.2448978278
 30
0.0
 10
4.7272905244
 20
5.2453535054
 30
0.0
 10
4.7489019208
 20
5.2458035632
 30
0.0
 10
4.7721666694
 20
5.2462481552
 30
0.0
 10
4.7970284128
 20
5.2466887183
 30
0.0
 10
4.823428469
 20
5.2471263328
 30
0.0
 10
4.86152567
 20
5.2477217152
 30
0.0
 10
4.9124993656
 20
5.2484584926
 30
0.0
 10
4.9773462926
 20
5.2493362471
 30
0.0
 10
5.0466423189
 20
5.2502411278
 30
0.0
 10
5.119733816
 20
5.25116065
 30
0.0
 10
5.1959274494
 20
5.2520803812
 30
0.0
 10
5.2745037828
 20
5.2529900438
 30
0.0
 10
5.3547202184
 20
5.253876678
 30
0.0
 10
5.4358185351
 20
5.2547439303
 30
0.0
 10
5.5170326307
 20
5.2556120898
 30
0.0
 10
5.5975950824
 20
5.256493296
 30
0.0
 10
5.6767451068
 20
5.2573922882
 30
0.0
 10
5.7537369043
 20
5.2583121599
 30
0.0
 10
5.8278427993
 20
5.2592341731
 30
0.0
 10
5.8983644303
 20
5.2601407326
 30
0.0
 10
5.9646302028
 20
5.2610296461
 30
0.0
 10
6.0260127527
 20
5.2618979788
 30
0.0
 10
6.0819262473
 20
5.2627577479
 30
0.0
 10
6.1248574469
 20
5.2635077613
 30
0.0
 10
6.1560764666
 20
5.2641268523
 30
0.0
 10
6.1770166574
 20
5.2645792459
 30
0.0
 10
6.1962347361
 20
5.2650349191
 30
0.0
 10
6.2136847667
 20
5.2654934855
 30
0.0
 10
6.2293264986
 20
5.2659530292
 30
0.0
 10
6.2431249681
 20
5.2664109366
 30
0.0
 10
6.2550469845
 20
5.2668649784
 30
0.0
 10
6.2637941773
 20
5.2672549022
 30
0.0
 10
6.2698303695
 20
5.2675698754
 30
0.0
 10
6.2736307653
 20
5.2677919732
 30
0.0
 10
6.2769437663
 20
5.2680122536
 30
0.0
 10
6.2797676785
 20
5.2682307854
 30
0.0
 10
6.2821012571
 20
5.2684466053
 30
0.0
 10
6.2839426028
 20
5.2686602728
 30
0.0
 10
6.2851685111
 20
5.2688467143
 30
0.0
 10
6.2858990386
 20
5.2690058021
 30
0.0
 10
6.2861811591
 20
5.2690863934
 30
0.0
 10
6.2862999599
 20
5.2691295221
 30
0.0
  0
SPLINE
  5
3A1
100
AcDbEntity
  8
0
100
AcDbSpline
 62
7
  6
CONTINUOUS
 70
0
 71
3
 72
61
 73
57
 74
0
 42
0.0000001
 43
0.0000001
 44
0.0000000001
 40
0.0
 40
0.0
 40
0.0
 40
0.0
 40
0.0000723249
 40
0.0001262688
 40
0.0001951088
 40
0.0003808131
 40
0.0006331677
 40
0.0009534135
 40
0.0013421084
 40
0.001799531
 40
0.0023258263
 40
0.0035852643
 40
0.0051206129
 40
0.006931724
 40
0.0090182905
 40
0.0113793257
 40
0.0140130782
 40
0.0169177294
 40
0.0200914444
 40
0.0272386699
 40
0.0354399192
 40
0.0446797797
 40
0.0549369779
 40
0.0661864512
 40
0.0784030574
 40
0.0915616407
 40
0.1056348816
 40
0.1205894998
 40
0.136391186
 40
0.1703981336
 40
0.2073573728
 40
0.2469329615
 40
0.2887767421
 40
0.3325116499
 40
0.3777524415
 40
0.4240970319
 40
0.4711353546
 40
0.5184498295
 40
0.5656162494
 40
0.6122147225
 40
0.6578335522
 40
0.7020663622
 40
0.7445239593
 40
0.7848241218
 40
0.822610939
 40
0.857543968
 40
0.8893124879
 40
0.9176368509
 40
0.9422624932
 40
0.9629793018
 40
0.9718096854
 40
0.9795962934
 40
0.9863234635
 40
0.991975618
 40
0.9965375938
 40
1.0
 40
1.0
 40
1.0
 40
1.0
 10
6.2866659185
 20
5.2455643817
 30
0.0
 10
6.2866658737
 20
5.2455240914
 30
0.0
 10
6.2866173991
 20
5.2454594347
 30
0.0
 10
6.2865287446
 20
5.2453999636
 30
0.0
 10
6.2863742234
 20
5.2453218151
 30
0.0
 10
6.2861061547
 20
5.2452319968
 30
0.0
 10
6.2856962118
 20
5.2451287902
 30
0.0
 10
6.2851706557
 20
5.2450252846
 30
0.0
 10
6.2845292941
 20
5.2449207131
 30
0.0
 10
6.2837719514
 20
5.2448156952
 30
0.0
 10
6.282531304
 20
5.2446659471
 30
0.0
 10
6.280690114
 20
5.2444829353
 30
0.0
 10
6.2781329283
 20
5.2442717933
 30
0.0
 10
6.2751137817
 20
5.2440586877
 30
0.0
 10
6.2716338291
 20
5.243843505
 30
0.0
 10
6.2676949399
 20
5.2436264486
 30
0.0
 10
6.2632997837
 20
5.2434077905
 30
0.0
 10
6.2584514626
 20
5.2431877597
 30
0.0
 10
6.2510902179
 20
5.2428805608
 30
0.0
 10
6.2407789724
 20
5.2424992307
 30
0.0
 10
6.2270886169
 20
5.2420548849
 30
0.0
 10
6.2116649987
 20
5.2416095308
 30
0.0
 10
6.1945426537
 20
5.2411645682
 30
0.0
 10
6.1757614887
 20
5.24072149
 30
0.0
 10
6.1553635526
 20
5.2402817697
 30
0.0
 10
6.1333921322
 20
5.2398469889
 30
0.0
 10
6.1098950471
 20
5.2394182814
 30
0.0
 10
6.0849252613
 20
5.2389935191
 30
0.0
 10
6.0488519267
 20
5.2384160699
 30
0.0
 10
6.0005210369
 20
5.2377010428
 30
0.0
 10
5.9389468932
 20
5.2368516998
 30
0.0
 10
5.8730068889
 20
5.2359851123
 30
0.0
 10
5.8032923083
 20
5.2350961042
 30
0.0
 10
5.7304216188
 20
5.2342007279
 30
0.0
 10
5.6550433437
 20
5.233315219
 30
0.0
 10
5.5778245302
 20
5.2324444148
 30
0.0
 10
5.4994502318
 20
5.2315934304
 30
0.0
 10
5.4206179541
 20
5.2307549522
 30
0.0
 10
5.3420307986
 20
5.2299089583
 30
0.0
 10
5.2643885102
 20
5.2290437035
 30
0.0
 10
5.1883807398
 20
5.2281630874
 30
0.0
 10
5.1146800697
 20
5.2272687776
 30
0.0
 10
5.0439425023
 20
5.2263760201
 30
0.0
 10
4.97679588
 20
5.2255025677
 30
0.0
 10
4.9138411139
 20
5.2246483354
 30
0.0
 10
4.85563938
 20
5.223807449
 30
0.0
 10
4.8027094585
 20
5.2229711803
 30
0.0
 10
4.7555224802
 20
5.2221237933
 30
0.0
 10
4.7144937042
 20
5.2212551688
 30
0.0
 10
4.684324914
 20
5.2204912441
 30
0.0
 10
4.6635366444
 20
5.2198635435
 30
0.0
 10
4.6505397282
 20
5.219419977
 30
0.0
 10
4.6393143695
 20
5.2189802072
 30
0.0
 10
4.6298866093
 20
5.2185468974
 30
0.0
 10
4.6222795633
 20
5.2181221108
 30
0.0
 10
4.6178200939
 20
5.2178057367
 30
0.0
 10
4.6158987502
 20
5.2176360981
 30
0.0
  0
SPLINE
  5
3A2
100
AcDbEntity
  8
0
100
AcDbSpline
 62
7
  6
CONTINUOUS
 70
0
 71
3
 72
12
 73
8
 74
0
 42
0.0000001
 43
0.0000001
 44
0.0000000001
 40
0.0
 40
0.0
 40
0.0
 40
0.0
 40
0.3564331604
 40
0.6417483042
 40
0.8560708847
 40
0.9367631175
 40
1.0
 40
1.0
 40
1.0
 40
1.0
 10
4.6158987502
 20
5.2176360981
 30
0.0
 10
4.6151951025
 20
5.2175739719
 30
0.0
 10
4.6139288417
 20
5.2174536897
 30
0.0
 10
4.6122439103
 20
5.2172550879
 30
0.0
 10
4.6111062404
 20
5.2170815312
 30
0.0
 10
4.610411441
 20
5.2169348344
 30
0.0
 10
4.6101356804
 20
5.2168605485
 30
0.0
 10
4.6100166231
 20
5.2168214151
 30
0.0
  0
SPLINE
  5
3A3
100
AcDbEntity
  8
0
100
AcDbSpline
 62
9
  6
CONTINUOUS
 70
0
 71
3
 72
15
 73
11
 74
0
 42
0.0000001
 43
0.0000001
 44
0.0000000001
 40
0.0
 40
0.0
 40
0.0
 40
0.0
 40
0.1279893779
 40
0.255986029
 40
0.3829205912
 40
0.5085887678
 40
0.6330066739
 40
0.7562833075
 40
0.878624821
 40
1.0
 40
1.0
 40
1.0
 40
1.0
 10
6.189300797
 20
4.896896137
 30
0.0
 10
6.189300797
 20
4.895382125
 30
0.0
 10
6.189014679
 20
4.8923472459
 30
0.0
 10
6.187768077
 20
4.8879660511
 30
0.0
 10
6.1857199983
 20
4.883925198
 30
0.0
 10
6.1829668651
 20
4.8803809949
 30
0.0
 10
6.1796048203
 20
4.877472869
 30
0.0
 10
6.1757686439
 20
4.875302417
 30
0.0
 10
6.1716052619
 20
4.8739735598
 30
0.0
 10
6.1687143
 20
4.8736677905
 30
0.0
 10
6.1672785287
 20
4.8736677905
 30
0.0
  0
SPLINE
  5
3A4
100
AcDbEntity
  8
0
100
AcDbSpline
 62
7
  6
CONTINUOUS
 70
0
 71
3
 72
60
 73
56
 74
0
 42
0.0000001
 43
0.0000001
 44
0.0000000001
 40
0.0
 40
0.0
 40
0.0
 40
0.0
 40
0.0000722739
 40
0.000126209
 40
0.0001950835
 40
0.0003810616
 40
0.0006340269
 40
0.0009551824
 40
0.0013450271
 40
0.0018037803
 40
0.0023315273
 40
0.0035939942
 40
0.0051321434
 40
0.0069453527
 40
0.0090328602
 40
0.0113938296
 40
0.0140273817
 40
0.0169325647
 40
0.0201077042
 40
0.0272588687
 40
0.0354627935
 40
0.0447013088
 40
0.0549561878
 40
0.066206261
 40
0.0784244344
 40
0.0915828872
 40
0.1056537884
 40
0.1206087828
 40
0.1364140286
 40
0.1704266159
 40
0.2073918571
 40
0.2469781987
 40
0.2888292358
 40
0.3325743309
 40
0.3778221588
 40
0.4241746632
 40
0.4712175631
 40
0.5657009515
 40
0.6123010242
 40
0.6579206986
 40
0.7021541195
 40
0.7446071687
 40
0.7849039894
 40
0.8226804441
 40
0.8576060617
 40
0.8893635949
 40
0.9176783559
 40
0.9422959419
 40
0.9630016031
 40
0.9718306505
 40
0.9796141145
 40
0.986335152
 40
0.9919812319
 40
0.9965401204
 40
1.0
 40
1.0
 40
1.0
 40
1.0
 10
4.6095689664
 20
5.2984285698
 30
0.0
 10
4.6095689009
 20
5.2984688331
 30
0.0
 10
4.6096172484
 20
5.2985335862
 30
0.0
 10
4.6097058704
 20
5.2985930883
 30
0.0
 10
4.6098605264
 20
5.2986713598
 30
0.0
 10
4.6101291044
 20
5.298761317
 30
0.0
 10
4.6105400428
 20
5.2988647192
 30
0.0
 10
4.6110670873
 20
5.2989684674
 30
0.0
 10
4.6117103402
 20
5.2990733166
 30
0.0
 10
4.612469881
 20
5.299178628
 30
0.0
 10
4.6137137855
 20
5.2993287753
 30
0.0
 10
4.6155590743
 20
5.299512225
 30
0.0
 10
4.6181207543
 20
5.2997237139
 30
0.0
 10
4.6211432653
 20
5.2999368854
 30
0.0
 10
4.6246250217
 20
5.3001517374
 30
0.0
 10
4.6285644636
 20
5.3003681277
 30
0.0
 10
4.6329599588
 20
5.3005860652
 30
0.0
 10
4.6378094526
 20
5.3008055994
 30
0.0
 10
4.6451742548
 20
5.3011125425
 30
0.0
 10
4.6554903359
 20
5.3014941152
 30
0.0
 10
4.6691840905
 20
5.3019391111
 30
0.0
 10
4.6846076832
 20
5.3023851273
 30
0.0
 10
4.7017289289
 20
5.3028299634
 30
0.0
 10
4.7205107012
 20
5.3032718172
 30
0.0
 10
4.7409105139
 20
5.3037104886
 30
0.0
 10
4.7628822029
 20
5.3041453938
 30
0.0
 10
4.786378913
 20
5.3045761301
 30
0.0
 10
4.8113504521
 20
5.305001917
 30
0.0
 10
4.8474303967
 20
5.3055792602
 30
0.0
 10
4.8957714945
 20
5.3062920125
 30
0.0
 10
4.9573602677
 20
5.3071426838
 30
0.0
 10
5.0233159354
 20
5.3080123864
 30
0.0
 10
5.0930487242
 20
5.3088983174
 30
0.0
 10
5.1659356159
 20
5.309794187
 30
0.0
 10
5.2413305216
 20
5.3106825843
 30
0.0
 10
5.3185629854
 20
5.3115492186
 30
0.0
 10
5.4232229676
 20
5.3126866635
 30
0.0
 10
5.5280212156
 20
5.3137926647
 30
0.0
 10
5.6320259974
 20
5.3149494396
 30
0.0
 10
5.7080381065
 20
5.3158338861
 30
0.0
 10
5.7817396688
 20
5.3167268694
 30
0.0
 10
5.8524756899
 20
5.317618599
 30
0.0
 10
5.919614459
 20
5.3184960894
 30
0.0
 10
5.9825597098
 20
5.3193481268
 30
0.0
 10
6.0407475023
 20
5.3201871009
 30
0.0
 10
6.0936636393
 20
5.3210266886
 30
0.0
 10
6.1408363187
 20
5.3218739043
 30
0.0
 10
6.1818505611
 20
5.3227394699
 30
0.0
 10
6.21200891
 20
5.3235058294
 30
0.0
 10
6.2327891956
 20
5.3241337233
 30
0.0
 10
6.245780677
 20
5.324576621
 30
0.0
 10
6.2569979142
 20
5.3250153413
 30
0.0
 10
6.2664175101
 20
5.3254480136
 30
0.0
 10
6.274018267
 20
5.3258735571
 30
0.0
 10
6.2784746723
 20
5.326191228
 30
0.0
 10
6.2803946143
 20
5.3263615094
 30
0.0
  0
SPLINE
  5
3A5
100
AcDbEntity
  8
0
100
AcDbSpline
 62
7
  6
CONTINUOUS
 70
0
 71
3
 72
12
 73
8
 74
0
 42
0.0000001
 43
0.0000001
 44
0.0000000001
 40
0.0
 40
0.0
 40
0.0
 40
0.0
 40
0.362370148
 40
0.6495375018
 40
0.8617871177
 40
0.9400475557
 40
1.0
 40
1.0
 40
1.0
 40
1.0
 10
6.2803946143
 20
5.3263615094
 30
0.0
 10
6.28111532
 20
5.3264254294
 30
0.0
 10
6.2824065193
 20
5.326548772
 30
0.0
 10
6.2841150327
 20
5.3267530529
 30
0.0
 10
6.285255535
 20
5.3269312619
 30
0.0
 10
6.2859388049
 20
5.327082871
 30
0.0
 10
6.2862043801
 20
5.3271596596
 30
0.0
 10
6.2863168893
 20
5.3272005383
 30
0.0
  0
SPLINE
  5
3A6
100
AcDbEntity
  8
0
100
AcDbSpline
 62
9
  6
CONTINUOUS
 70
0
 71
3
 72
20
 73
16
 74
0
 42
0.0000001
 43
0.0000001
 44
0.0000000001
 40
0.0
 40
0.0
 40
0.0
 40
0.0
 40
0.0189849403
 40
0.0298433326
 40
0.0420251637
 40
0.0710742037
 40
0.1070804562
 40
0.1503571175
 40
0.2009513929
 40
0.2586069221
 40
0.3228709143
 40
0.4691695417
 40
0.6354246125
 40
0.8150297357
 40
1.0
 40
1.0
 40
1.0
 40
1.0
 10
6.1672785287
 20
4.8736677905
 30
0.0
 10
6.1674327773
 20
4.8736677905
 30
0.0
 10
6.1676769309
 20
4.8737373461
 30
0.0
 10
6.1679638315
 20
4.8739233975
 30
0.0
 10
6.1682803991
 20
4.8742068585
 30
0.0
 10
6.1686616469
 20
4.8747111412
 30
0.0
 10
6.1690824655
 20
4.8754860822
 30
0.0
 10
6.1694873337
 20
4.876462221
 30
0.0
 10
6.1698705558
 20
4.8776330479
 30
0.0
 10
6.1702292795
 20
4.8789886398
 30
0.0
 10
6.1706912104
 20
4.8811189016
 30
0.0
 10
6.1711699466
 20
4.8841452252
 30
0.0
 10
6.1715793265
 20
4.8881242974
 30
0.0
 10
6.1718326806
 20
4.8924309056
 30
0.0
 10
6.1718918638
 20
4.8953932928
 30
0.0
 10
6.1718918638
 20
4.896896137
 30
0.0
  0
SPLINE
  5
3A7
100
AcDbEntity
  8
0
100
AcDbSpline
 62
7
  6
CONTINUOUS
 70
0
 71
3
 72
69
 73
65
 74
0
 42
0.0000001
 43
0.0000001
 44
0.0000000001
 40
0.0
 40
0.0
 40
0.0
 40
0.0
 40
0.0000746594
 40
0.0001310631
 40
0.0002033557
 40
0.0003990562
 40
0.0006656445
 40
0.0010044703
 40
0.0014160866
 40
0.0019006836
 40
0.0024583152
 40
0.0037925486
 40
0.0054182531
 40
0.0073345581
 40
0.0095404543
 40
0.0120348586
 40
0.0148166451
 40
0.0178846614
 40
0.021237466
 40
0.028787683
 40
0.0374467402
 40
0.0471938092
 40
0.0580080255
 40
0.0698663023
 40
0.0827386968
 40
0.096593926
 40
0.1114006953
 40
0.1271272169
 40
0.1437359315
 40
0.1794344858
 40
0.2181623631
 40
0.2595509324
 40
0.3032072031
 40
0.3487200286
 40
0.3956574569
 40
0.4435800213
 40
0.492034941
 40
0.5405671774
 40
0.5887196788
 40
0.6360368559
 40
0.6820747332
 40
0.7263955724
 40
0.7685841177
 40
0.8082409704
 40
0.844991558
 40
0.8784883006
 40
0.9084110923
 40
0.921947023
 40
0.9344882525
 40
0.9460039139
 40
0.9564697805
 40
0.9658627723
 40
0.9741598343
 40
0.9813385246
 40
0.9873828518
 40
0.9899759268
 40
0.9922810083
 40
0.9942966899
 40
0.9960216251
 40
0.9974545772
 40
0.9985945804
 40
0.9994420378
 40
0.9997568693
 40
1.0
 40
1.0
 40
1.0
 40
1.0
 10
6.286671356
 20
5.3036360119
 30
0.0
 10
6.2866713808
 20
5.3035942725
 30
0.0
 10
6.28661945
 20
5.3035274661
 30
0.0
 10
6.2865260311
 20
5.3034666546
 30
0.0
 10
6.2863619717
 20
5.3033860129
 30
0.0
 10
6.2860775071
 20
5.3032935216
 30
0.0
 10
6.2856421224
 20
5.3031870464
 30
0.0
 10
6.2850835306
 20
5.3030802359
 30
0.0
 10
6.2844014789
 20
5.3029722265
 30
0.0
 10
6.2835959109
 20
5.3028637046
 30
0.0
 10
6.2822763147
 20
5.3027089141
 30
0.0
 10
6.2803187128
 20
5.3025197317
 30
0.0
 10
6.2776012609
 20
5.3023015651
 30
0.0
 10
6.2743952866
 20
5.3020816274
 30
0.0
 10
6.2707027933
 20
5.3018599597
 30
0.0
 10
6.2665257588
 20
5.3016367492
 30
0.0
 10
6.2618662079
 20
5.3014120194
 30
0.0
 10
6.2567263207
 20
5.3011857663
 30
0.0
 10
6.2489220038
 20
5.3008694349
 30
0.0
 10
6.2379925563
 20
5.3004761704
 30
0.0
 10
6.2234884978
 20
5.30001765
 30
0.0
 10
6.2071588673
 20
5.2995584029
 30
0.0
 10
6.1890399944
 20
5.2991008294
 30
0.0
 10
6.1691732688
 20
5.2986471914
 30
0.0
 10
6.1476059372
 20
5.2981973586
 30
0.0
 10
6.1243897995
 20
5.2977515623
 30
0.0
 10
6.0995776736
 20
5.2973098706
 30
0.0
 10
6.0732258678
 20
5.2968727207
 30
0.0
 10
6.0351952083
 20
5.2962793471
 30
0.0
 10
5.9843059677
 20
5.2955448529
 30
0.0
 10
5.9195638946
 20
5.2946637014
 30
0.0
 10
5.8503728273
 20
5.2937616186
 30
0.0
 10
5.7773884118
 20
5.2928450593
 30
0.0
 10
5.7013016497
 20
5.2919235764
 30
0.0
 10
5.6228294238
 20
5.2910157403
 30
0.0
 10
5.5427119961
 20
5.2901325269
 30
0.0
 10
5.4617027769
 20
5.2892622047
 30
0.0
 10
5.3805649584
 20
5.2883958678
 30
0.0
 10
5.3000633527
 20
5.2875196547
 30
0.0
 10
5.220956629
 20
5.2866174527
 30
0.0
 10
5.143992383
 20
5.2856994444
 30
0.0
 10
5.0698956025
 20
5.2847800713
 30
0.0
 10
4.9993663926
 20
5.2838701631
 30
0.0
 10
4.9330695097
 20
5.2829829638
 30
0.0
 10
4.8716320516
 20
5.2821179297
 30
0.0
 10
4.8156370946
 20
5.2812560512
 30
0.0
 10
4.7726204929
 20
5.2805067691
 30
0.0
 10
4.7413189418
 20
5.2798912032
 30
0.0
 10
4.7203069487
 20
5.2794403494
 30
0.0
 10
4.7010118694
 20
5.2789842611
 30
0.0
 10
4.6834774663
 20
5.2785254204
 30
0.0
 10
4.6677431617
 20
5.2780661562
 30
0.0
 10
4.653847404
 20
5.2776089379
 30
0.0
 10
4.641824765
 20
5.2771561575
 30
0.0
 10
4.6329910081
 20
5.2767669483
 30
0.0
 10
4.626881545
 20
5.2764518038
 30
0.0
 10
4.6230226561
 20
5.2762291267
 30
0.0
 10
4.6196498965
 20
5.2760081456
 30
0.0
 10
4.6167658161
 20
5.2757889669
 30
0.0
 10
4.6143725776
 20
5.2755725735
 30
0.0
 10
4.6124723446
 20
5.2753586686
 30
0.0
 10
4.6111979693
 20
5.2751721132
 30
0.0
 10
4.6104282045
 20
5.275013934
 30
0.0
 10
4.6101262746
 20
5.2749338692
 30
0.0
 10
4.6099971541
 20
5.2748913993
 30
0.0
  0
LINE
  5
3A8
100
AcDbEntity
  8
0
100
AcDbLine
 62
9
  6
CONTINUOUS
 10
6.1718918638
 20
4.896896137
 11
6.189300797
 21
4.896896137
  0
SPLINE
  5
3A9
100
AcDbEntity
  8
0
100
AcDbSpline
 62
9
  6
CONTINUOUS
 70
0
 71
3
 72
15
 73
11
 74
0
 42
0.0000001
 43
0.0000001
 44
0.0000000001
 40
0.0
 40
0.0
 40
0.0
 40
0.0
 40
0.1065306762
 40
0.216485468
 40
0.3320903827
 40
0.4543963636
 40
0.5834802769
 40
0.7186352695
 40
0.8584148205
 40
1.0
 40
1.0
 40
1.0
 40
1.0
 10
5.1026360871
 20
4.8736677905
 30
0.0
 10
5.1014988263
 20
4.8736677905
 30
0.0
 10
5.0991778437
 20
4.8739821604
 30
0.0
 10
5.095866043
 20
4.8753401551
 30
0.0
 10
5.0928311918
 20
4.8775339985
 30
0.0
 10
5.0901804897
 20
4.8804532913
 30
0.0
 10
5.0880194366
 20
4.8839945499
 30
0.0
 10
5.0864176771
 20
4.8880202226
 30
0.0
 10
5.0854481594
 20
4.8923767021
 30
0.0
 10
5.0852271539
 20
4.8953846542
 30
0.0
 10
5.0852271539
 20
4.896896137
 30
0.0
  0
LINE
  5
3AA
100
AcDbEntity
  8
0
100
AcDbLine
 62
7
  6
CONTINUOUS
 10
5.505459646
 20
5.3478028606
 11
5.4973848827
 21
5.3477161324
  0
LINE
  5
3AB
100
AcDbEntity
  8
0
100
AcDbLine
 62
7
  6
CONTINUOUS
 10
5.386743287
 20
5.3465310487
 11
5.3822495776
 21
5.3464825251
  0
SPLINE
  5
3AC
100
AcDbEntity
  8
0
100
AcDbSpline
 62
7
  6
CONTINUOUS
 70
0
 71
3
 72
24
 73
20
 74
0
 42
0.0000001
 43
0.0000001
 44
0.0000000001
 40
0.0
 40
0.0
 40
0.0
 40
0.0
 40
0.1822343326
 40
0.2708175166
 40
0.3568730592
 40
0.4397944709
 40
0.5189856788
 40
0.5938913971
 40
0.6639684755
 40
0.7287175057
 40
0.7876886608
 40
0.840451133
 40
0.8866504034
 40
0.9259558728
 40
0.9580882954
 40
0.9713975675
 40
0.9828340972
 40
0.9923730098
 40
1.0
 40
1.0
 40
1.0
 40
1.0
 10
5.3822495776
 20
5.3464825251
 30
0.0
 10
5.335838644
 20
5.3459810276
 30
0.0
 10
5.2668677498
 20
5.3452205117
 30
0.0
 10
5.1759812355
 20
5.3441559478
 30
0.0
 10
5.1103875843
 20
5.3433557256
 30
0.0
 10
5.0471861382
 20
5.3425588804
 30
0.0
 10
4.9868245088
 20
5.3417766594
 30
0.0
 10
4.9297343331
 20
5.3410080889
 30
0.0
 10
4.876322631
 20
5.3402527162
 30
0.0
 10
4.8269696539
 20
5.3395049482
 30
0.0
 10
4.7820271727
 20
5.3387532533
 30
0.0
 10
4.741810204
 20
5.3379850823
 30
0.0
 10
4.7066031791
 20
5.3372059372
 30
0.0
 10
4.6766521256
 20
5.3364210261
 30
0.0
 10
4.6550783936
 20
5.3357343101
 30
0.0
 10
4.6406027834
 20
5.3351730409
 30
0.0
 10
4.631879344
 20
5.3347836347
 30
0.0
 10
4.6246045397
 20
5.3344007022
 30
0.0
 10
4.6202413062
 20
5.3341200168
 30
0.0
 10
4.6183042941
 20
5.3339736509
 30
0.0
  0
SPLINE
  5
3AD
100
AcDbEntity
  8
0
100
AcDbSpline
 62
7
  6
CONTINUOUS
 70
0
 71
3
 72
12
 73
8
 74
0
 42
0.0000001
 43
0.0000001
 44
0.0000000001
 40
0.0
 40
0.0
 40
0.0
 40
0.0
 40
0.3660531947
 40
0.6546539761
 40
0.8658015061
 40
0.9424472989
 40
1.0
 40
1.0
 40
1.0
 40
1.0
 10
4.6183042941
 20
5.3339736509
 30
0.0
 10
4.6172875237
 20
5.333896821
 30
0.0
 10
4.6154697602
 20
5.3337488181
 30
0.0
 10
4.613070634
 20
5.3335030752
 30
0.0
 10
4.6114782887
 20
5.3332890536
 30
0.0
 10
4.6105338004
 20
5.3331058404
 30
0.0
 10
4.6101710261
 20
5.3330130599
 30
0.0
 10
4.6100187199
 20
5.3329630152
 30
0.0
  0
LINE
  5
3AE
100
AcDbEntity
  8
0
100
AcDbLine
 62
9
  6
CONTINUOUS
 10
5.0852271539
 20
4.896896137
 11
5.1072494222
 21
4.8968961363
  0
SPLINE
  5
3AF
100
AcDbEntity
  8
0
100
AcDbSpline
 62
9
  6
CONTINUOUS
 70
0
 71
3
 72
20
 73
16
 74
0
 42
0.0000001
 43
0.0000001
 44
0.0000000001
 40
0.0
 40
0.0
 40
0.0
 40
0.0
 40
0.1849702643
 40
0.3645753875
 40
0.5308304583
 40
0.6771290856
 40
0.7413930777
 40
0.7990486068
 40
0.8496428821
 40
0.8929195432
 40
0.9289257954
 40
0.9579748353
 40
0.9701566664
 40
0.9810150588
 40
1.0
 40
1.0
 40
1.0
 40
1.0
 10
5.1072494222
 20
4.896896137
 30
0.0
 10
5.1072494222
 20
4.8953932928
 30
0.0
 10
5.107190239
 20
4.8924309056
 30
0.0
 10
5.1069368849
 20
4.8881242974
 30
0.0
 10
5.106527505
 20
4.8841452252
 30
0.0
 10
5.1060487688
 20
4.8811189016
 30
0.0
 10
5.1055868379
 20
4.8789886398
 30
0.0
 10
5.1052281142
 20
4.8776330479
 30
0.0
 10
5.1048448922
 20
4.876462221
 30
0.0
 10
5.1044400239
 20
4.8754860822
 30
0.0
 10
5.1040192054
 20
4.8747111412
 30
0.0
 10
5.1036379575
 20
4.8742068585
 30
0.0
 10
5.10332139
 20
4.8739233975
 30
0.0
 10
5.1030344894
 20
4.8737373461
 30
0.0
 10
5.1027903357
 20
4.8736677905
 30
0.0
 10
5.1026360871
 20
4.8736677905
 30
0.0
  0
SPLINE
  5
3B0
100
AcDbEntity
  8
0
100
AcDbSpline
 62
7
  6
CONTINUOUS
 70
0
 71
3
 72
71
 73
67
 74
0
 42
0.0000001
 43
0.0000001
 44
0.0000000001
 40
0.0
 40
0.0
 40
0.0
 40
0.0
 40
0.0000747173
 40
0.0001311846
 40
0.0002035619
 40
0.0002928515
 40
0.0003995826
 40
0.0006664531
 40
0.0010056116
 40
0.0014177122
 40
0.0019030624
 40
0.002461713
 40
0.0037987165
 40
0.0054280582
 40
0.0073487376
 40
0.0095596158
 40
0.0120594801
 40
0.0148470754
 40
0.0179211204
 40
0.0212803044
 40
0.0288458037
 40
0.0375228382
 40
0.0472895884
 40
0.0581242
 40
0.0700041077
 40
0.08290051
 40
0.0967812906
 40
0.1116142906
 40
0.1273672707
 40
0.1440041954
 40
0.1797628379
 40
0.2185525492
 40
0.260005612
 40
0.3037245798
 40
0.3492984643
 40
0.3962956366
 40
0.4442765763
 40
0.4927849973
 40
0.5413619108
 40
0.5895496504
 40
0.6368922035
 40
0.6829451234
 40
0.7272711936
 40
0.7694518134
 40
0.8090866661
 40
0.8457970394
 40
0.8792391684
 40
0.8946316296
 40
0.9090919706
 40
0.9225875047
 40
0.935085556
 40
0.9465549412
 40
0.9569710544
 40
0.966311127
 40
0.9745524164
 40
0.9816725892
 40
0.9876552151
 40
0.9902163178
 40
0.9924887338
 40
0.9944711001
 40
0.9961621187
 40
0.9975606114
 40
0.998665661
 40
0.9994776007
 40
0.9997745846
 40
1.0
 40
1.0
 40
1.0
 40
1.0
 10
4.6095586768
 20
5.4145703003
 30
0.0
 10
4.609558668
 20
5.4146120743
 30
0.0
 10
4.6096107148
 20
5.4146789169
 30
0.0
 10
4.6097042602
 20
5.4147396986
 30
0.0
 10
4.6098146007
 20
5.4147940894
 30
0.0
 10
4.6099546697
 20
5.414847488
 30
0.0
 10
4.6102016986
 20
5.4149254241
 30
0.0
 10
4.6105893138
 20
5.4150191408
 30
0.0
 10
4.6111484588
 20
5.4151264197
 30
0.0
 10
4.6118314576
 20
5.415234353
 30
0.0
 10
4.6126383182
 20
5.415343017
 30
0.0
 10
4.6139605238
 20
5.4154979778
 30
0.0
 10
4.6159223697
 20
5.4156874626
 30
0.0
 10
4.6186459823
 20
5.4159060129
 30
0.0
 10
4.621859378
 20
5.4161263715
 30
0.0
 10
4.6255603398
 20
5.4163484496
 30
0.0
 10
4.6297466732
 20
5.4165720238
 30
0.0
 10
4.6344161378
 20
5.4167970331
 30
0.0
 10
4.6395664831
 20
5.417023442
 30
0.0
 10
4.6473867011
 20
5.4173398456
 30
0.0
 10
4.6583388904
 20
5.4177333284
 30
0.0
 10
4.6728733108
 20
5.4181922511
 30
0.0
 10
4.6892362527
 20
5.418652043
 30
0.0
 10
4.7073905674
 20
5.4191103975
 30
0.0
 10
4.727295251
 20
5.4195646134
 30
0.0
 10
4.7489035245
 20
5.420014452
 30
0.0
 10
4.7721632618
 20
5.4204602178
 30
0.0
 10
4.7970204367
 20
5.4209020635
 30
0.0
 10
4.823418848
 20
5.4213399821
 30
0.0
 10
4.8615156562
 20
5.4219342035
 30
0.0
 10
4.9124915015
 20
5.4226694326
 30
0.0
 10
4.9773412013
 20
5.4235506827
 30
0.0
 10
5.0466415613
 20
5.4244547923
 30
0.0
 10
5.119735049
 20
5.425372337
 30
0.0
 10
5.1959283962
 20
5.4262942641
 30
0.0
 10
5.2745049053
 20
5.4272034279
 30
0.0
 10
5.3547224884
 20
5.4280869183
 30
0.0
 10
5.4358234862
 20
5.4289574167
 30
0.0
 10
5.5170401369
 20
5.4298254945
 30
0.0
 10
5.5976048201
 20
5.4307030183
 30
0.0
 10
5.6767579897
 20
5.4316055603
 30
0.0
 10
5.7537517739
 20
5.4325253621
 30
0.0
 10
5.8278593346
 20
5.4334454569
 30
0.0
 10
5.8983784401
 20
5.4343549388
 30
0.0
 10
5.9646395612
 20
5.4352437099
 30
0.0
 10
6.0260149031
 20
5.4361094248
 30
0.0
 10
6.0738369211
 20
5.4368463267
 30
0.0
 10
6.1092196075
 20
5.4374489414
 30
0.0
 10
6.1334513565
 20
5.4378919402
 30
0.0
 10
6.1560644914
 20
5.4383389855
 30
0.0
 10
6.1770049575
 20
5.4387904503
 30
0.0
 10
6.1962231869
 20
5.4392469707
 30
0.0
 10
6.2136751931
 20
5.4397062763
 30
0.0
 10
6.2293216882
 20
5.4401659435
 30
0.0
 10
6.2431246291
 20
5.4406234835
 30
0.0
 10
6.2550494275
 20
5.4410764415
 30
0.0
 10
6.2637984747
 20
5.4414657633
 30
0.0
 10
6.2698375198
 20
5.4417811094
 30
0.0
 10
6.2736417571
 20
5.4420037437
 30
0.0
 10
6.2769587305
 20
5.442224663
 30
0.0
 10
6.2797859395
 20
5.4424437923
 30
0.0
 10
6.2821213414
 20
5.4426600259
 30
0.0
 10
6.2839626007
 20
5.4428738088
 30
0.0
 10
6.2851873086
 20
5.4430601602
 30
0.0
 10
6.2859163356
 20
5.4432190639
 30
0.0
 10
6.2861976785
 20
5.4432995221
 30
0.0
 10
6.2863161287
 20
5.4433425651
 30
0.0
  0
SPLINE
  5
3B1
100
AcDbEntity
  8
0
100
AcDbSpline
 62
7
  6
CONTINUOUS
 70
0
 71
3
 72
32
 73
28
 74
0
 42
0.0000001
 43
0.0000001
 44
0.0000000001
 40
0.0
 40
0.0
 40
0.0
 40
0.0
 40
0.0005905373
 40
0.0010043498
 40
0.0015215295
 40
0.0028956894
 40
0.0047470571
 40
0.0070873205
 40
0.0099217651
 40
0.0132530178
 40
0.0170824162
 40
0.0262376134
 40
0.037388687
 40
0.050533671
 40
0.0656692317
 40
0.0827913074
 40
0.1018954137
 40
0.146030219
 40
0.1980115456
 40
0.2577358787
 40
0.325094911
 40
0.3999799714
 40
0.4822821664
 40
0.5718834197
 40
0.6686254128
 40
0.7723386002
 40
1.0
 40
1.0
 40
1.0
 40
1.0
 10
6.2866623211
 20
5.4197775819
 30
0.0
 10
6.2866623884
 20
5.4197440868
 30
0.0
 10
6.2866290533
 20
5.4196895358
 30
0.0
 10
6.2865620085
 20
5.4196366102
 30
0.0
 10
6.2864486666
 20
5.419569839
 30
0.0
 10
6.2862504622
 20
5.4194921629
 30
0.0
 10
6.2859473126
 20
5.4194034231
 30
0.0
 10
6.2855587027
 20
5.4193143116
 30
0.0
 10
6.2850846291
 20
5.4192244162
 30
0.0
 10
6.2845248825
 20
5.4191341521
 30
0.0
 10
6.2836083808
 20
5.4190055695
 30
0.0
 10
6.2822482689
 20
5.4188485444
 30
0.0
 10
6.2803594974
 20
5.4186676898
 30
0.0
 10
6.2781303093
 20
5.4184855763
 30
0.0
 10
6.2755615845
 20
5.4183022177
 30
0.0
 10
6.2726541782
 20
5.4181177177
 30
0.0
 10
6.2681035251
 20
5.4178575294
 30
0.0
 10
6.2615761161
 20
5.4175351917
 30
0.0
 10
6.2527448374
 20
5.4171589919
 30
0.0
 10
6.2425953864
 20
5.4167790796
 30
0.0
 10
6.2311461277
 20
5.4163967267
 30
0.0
 10
6.2184156486
 20
5.4160133786
 30
0.0
 10
6.2044230701
 20
5.4156303323
 30
0.0
 10
6.1891903049
 20
5.4152489328
 30
0.0
 10
6.1727427153
 20
5.4148695245
 30
0.0
 10
6.1484655457
 20
5.4143506328
 30
0.0
 10
6.1296734355
 20
5.4139913663
 30
0.0
 10
6.1167626196
 20
5.413758312
 30
0.0
  0
LINE
  5
3B2
100
AcDbEntity
  8
0
100
AcDbLine
 62
7
  6
CONTINUOUS
 10
6.1167626196
 20
5.413758312
 11
6.1098129327
 21
5.4136342012
  0
SPLINE
  5
3B3
100
AcDbEntity
  8
0
100
AcDbSpline
 62
7
  6
CONTINUOUS
 70
0
 71
3
 72
70
 73
66
 74
0
 42
0.0000001
 43
0.0000001
 44
0.0000000001
 40
0.0
 40
0.0
 40
0.0
 40
0.0
 40
0.0000748895
 40
0.0001314806
 40
0.0002039864
 40
0.0004001219
 40
0.0006670451
 40
0.0010059821
 40
0.0014174728
 40
0.0019017778
 40
0.002459024
 40
0.003792497
 40
0.0054179388
 40
0.0073350587
 40
0.0095434258
 40
0.012042184
 40
0.0148294551
 40
0.0179031656
 40
0.0212612266
 40
0.0288219872
 40
0.0374948701
 40
0.0472623848
 40
0.0581007331
 40
0.0699820883
 40
0.0828785418
 40
0.0967621392
 40
0.1116015463
 40
0.1273592772
 40
0.1439971838
 40
0.1797598786
 40
0.2185528675
 40
0.2600041843
 40
0.3037247338
 40
0.3492970455
 40
0.3962947545
 40
0.4442721214
 40
0.4927780901
 40
0.5413542723
 40
0.589540374
 40
0.6368832424
 40
0.6829344662
 40
0.7272605999
 40
0.7694425944
 40
0.8090789413
 40
0.8457971024
 40
0.8792430843
 40
0.8946422953
 40
0.9091091059
 40
0.92260712
 40
0.9351064074
 40
0.9465796096
 40
0.9569993873
 40
0.9663385781
 40
0.9745749298
 40
0.9816919322
 40
0.9876734831
 40
0.9902334845
 40
0.992503675
 40
0.9944824617
 40
0.9961693095
 40
0.9975639891
 40
0.9986665221
 40
0.9994775432
 40
0.9997744771
 40
1.0
 40
1.0
 40
1.0
 40
1.0
 10
4.6095717713
 20
5.4726417531
 30
0.0
 10
4.6095718344
 20
5.4726836226
 30
0.0
 10
4.6096241094
 20
5.472750502
 30
0.0
 10
4.6097178813
 20
5.4728113891
 30
0.0
 10
4.609882446
 20
5.4728920921
 30
0.0
 10
4.6101674776
 20
5.4729846223
 30
0.0
 10
4.6106033912
 20
5.4730910882
 30
0.0
 10
4.6111621968
 20
5.4731978334
 30
0.0
 10
4.6118441216
 20
5.4733057108
 30
0.0
 10
4.6126492909
 20
5.4734140479
 30
0.0
 10
4.6139681614
 20
5.4735685369
 30
0.0
 10
4.6159250793
 20
5.4737573421
 30
0.0
 10
4.6186425392
 20
5.4739751744
 30
0.0
 10
4.6218503285
 20
5.4741950309
 30
0.0
 10
4.6255472142
 20
5.4744170188
 30
0.0
 10
4.6297312486
 20
5.4746410201
 30
0.0
 10
4.6343996139
 20
5.4748667479
 30
0.0
 10
4.6395488432
 20
5.4750939371
 30
0.0
 10
4.6473654343
 20
5.4754111274
 30
0.0
 10
4.6583118366
 20
5.4758048076
 30
0.0
 10
4.6728414883
 20
5.4762632684
 30
0.0
 10
4.6892043816
 20
5.4767222003
 30
0.0
 10
4.7073617343
 20
5.4771801535
 30
0.0
 10
4.7272689882
 20
5.4776356735
 30
0.0
 10
4.7488792829
 20
5.4780873328
 30
0.0
 10
4.7721438197
 20
5.4785334439
 30
0.0
 10
4.7970084339
 20
5.4789734574
 30
0.0
 10
4.8234132237
 20
5.4794099235
 30
0.0
 10
4.861514881
 20
5.4800039283
 30
0.0
 10
4.9124944934
 20
5.4807421889
 30
0.0
 10
4.9773462646
 20
5.4816226108
 30
0.0
 10
5.0466472743
 20
5.4825231543
 30
0.0
 10
5.1197385511
 20
5.4834438909
 30
0.0
 10
5.1959309636
 20
5.4843650884
 30
0.0
 10
5.2745036456
 20
5.4852708065
 30
0.0
 10
5.3547167829
 20
5.4861598207
 30
0.0
 10
5.4358126905
 20
5.4870287241
 30
0.0
 10
5.5170253469
 20
5.4878936681
 30
0.0
 10
5.5975875058
 20
5.4887761934
 30
0.0
 10
5.6767376991
 20
5.4896777718
 30
0.0
 10
5.7537295174
 20
5.4905948099
 30
0.0
 10
5.8278356842
 20
5.4915176871
 30
0.0
 10
5.8983552777
 20
5.4924266793
 30
0.0
 10
5.9646213258
 20
5.4933113784
 30
0.0
 10
6.0260029497
 20
5.4941811028
 30
0.0
 10
6.0738344593
 20
5.4949182561
 30
0.0
 10
6.1092261521
 20
5.495518465
 30
0.0
 10
6.1334663051
 20
5.4959602498
 30
0.0
 10
6.1560847438
 20
5.4964084241
 30
0.0
 10
6.177029036
 20
5.4968618597
 30
0.0
 10
6.1962518149
 20
5.497318765
 30
0.0
 10
6.2137072409
 20
5.4977774765
 30
0.0
 10
6.2293522959
 20
5.4982364021
 30
0.0
 10
6.2431499894
 20
5.4986937362
 30
0.0
 10
6.255069422
 20
5.4991476023
 30
0.0
 10
6.2638152739
 20
5.4995382577
 30
0.0
 10
6.2698517196
 20
5.4998542777
 30
0.0
 10
6.2736520229
 20
5.5000769605
 30
0.0
 10
6.276963382
 20
5.5002974128
 30
0.0
 10
6.2797841185
 20
5.5005157796
 30
0.0
 10
6.2821136599
 20
5.5007312054
 30
0.0
 10
6.2839508828
 20
5.5009443637
 30
0.0
 10
6.2851736514
 20
5.50113036
 30
0.0
 10
6.2859022066
 20
5.5012891105
 30
0.0
 10
6.2861835824
 20
5.501369551
 30
0.0
 10
6.2863020938
 20
5.5014125954
 30
0.0
  0
SPLINE
  5
3B4
100
AcDbEntity
  8
0
100
AcDbSpline
 62
7
  6
CONTINUOUS
 70
0
 71
3
 72
61
 73
57
 74
0
 42
0.0000001
 43
0.0000001
 44
0.0000000001
 40
0.0
 40
0.0
 40
0.0
 40
0.0
 40
0.000072411
 40
0.0001265048
 40
0.0001955887
 40
0.0003820965
 40
0.0006357236
 40
0.0009577654
 40
0.0013488344
 40
0.0018092641
 40
0.002339254
 40
0.0036083588
 40
0.005156291
 40
0.006981977
 40
0.009084112
 40
0.011461319
 40
0.0141121785
 40
0.0170352453
 40
0.0202290574
 40
0.0274229919
 40
0.0356791937
 40
0.0449765566
 40
0.0552931311
 40
0.0666069455
 40
0.0788953911
 40
0.0921303048
 40
0.1062806052
 40
0.1213151747
 40
0.1372028344
 40
0.1713946308
 40
0.2085434157
 40
0.2483221768
 40
0.2903681553
 40
0.3343063674
 40
0.3797418242
 40
0.4262665286
 40
0.4734656522
 40
0.5209153544
 40
0.568191872
 40
0.6148733714
 40
0.6605410073
 40
0.7472225024
 40
0.7874590527
 40
0.8251349401
 40
0.8599083568
 40
0.8914722368
 40
0.91953813
 40
0.9438672269
 40
0.9642372195
 40
0.9728820134
 40
0.9804747893
 40
0.9869967244
 40
0.992430892
 40
0.9967677178
 40
0.9985223424
 40
1.0
 40
1.0
 40
1.0
 40
1.0
 10
6.286681126
 20
5.4778481404
 30
0.0
 10
6.2866811501
 20
5.4778077767
 30
0.0
 10
6.2866324641
 20
5.4777429438
 30
0.0
 10
6.2865434769
 20
5.4776834118
 30
0.0
 10
6.2863881694
 20
5.4776050692
 30
0.0
 10
6.2861186251
 20
5.4775150436
 30
0.0
 10
6.2857062521
 20
5.4774115457
 30
0.0
 10
6.285177326
 20
5.4773077077
 30
0.0
 10
6.2845315593
 20
5.477202743
 30
0.0
 10
6.2837686851
 20
5.4770972724
 30
0.0
 10
6.2825181465
 20
5.4769467512
 30
0.0
 10
6.2806613603
 20
5.4767626296
 30
0.0
 10
6.2780820725
 20
5.4765500394
 30
0.0
 10
6.275037235
 20
5.4763355083
 30
0.0
 10
6.2715292807
 20
5.4761191967
 30
0.0
 10
6.2675606681
 20
5.4759014141
 30
0.0
 10
6.2631339027
 20
5.4756823078
 30
0.0
 10
6.2582514932
 20
5.4754619943
 30
0.0
 10
6.2508380645
 20
5.4751544434
 30
0.0
 10
6.2404524132
 20
5.4747724229
 30
0.0
 10
6.2266646973
 20
5.4743263965
 30
0.0
 10
6.2111355799
 20
5.4738788387
 30
0.0
 10
6.1939014266
 20
5.4734318109
 30
0.0
 10
6.1749993959
 20
5.472987415
 30
0.0
 10
6.1544700892
 20
5.472548019
 30
0.0
 10
6.1323592247
 20
5.4721133968
 30
0.0
 10
6.1087172535
 20
5.4716827029
 30
0.0
 10
6.0835962883
 20
5.4712552493
 30
0.0
 10
6.0473046813
 20
5.4706746343
 30
0.0
 10
5.9986866518
 20
5.4699587345
 30
0.0
 10
5.9367516813
 20
5.4691085154
 30
0.0
 10
5.8704385286
 20
5.4682331737
 30
0.0
 10
5.800340661
 20
5.4673419677
 30
0.0
 10
5.7270894285
 20
5.4664452199
 30
0.0
 10
5.6513413942
 20
5.4655537544
 30
0.0
 10
5.573775298
 20
5.4646818255
 30
0.0
 10
5.4950860985
 20
5.4638321132
 30
0.0
 10
5.4159777349
 20
5.4629881055
 30
0.0
 10
5.3371579952
 20
5.4621375025
 30
0.0
 10
5.2593318345
 20
5.4612730018
 30
0.0
 10
5.1595423104
 20
5.4601084408
 30
0.0
 10
5.0633459421
 20
5.458916738
 30
0.0
 10
4.9716048545
 20
5.4577172668
 30
0.0
 10
4.9087966918
 20
5.4568593786
 30
0.0
 10
4.8508231167
 20
5.4560196379
 30
0.0
 10
4.798207006
 20
5.4551796216
 30
0.0
 10
4.75141393
 20
5.454323249
 30
0.0
 10
4.7108620708
 20
5.4534545929
 30
0.0
 10
4.6811365552
 20
5.4526864974
 30
0.0
 10
4.6607402751
 20
5.4520550912
 30
0.0
 10
4.6480612948
 20
5.451610375
 30
0.0
 10
4.6371730246
 20
5.4511709139
 30
0.0
 10
4.6281011541
 20
5.4507386225
 30
0.0
 10
4.6216870626
 20
5.4503650407
 30
0.0
 10
4.6174789594
 20
5.4500581012
 30
0.0
 10
4.6156837277
 20
5.4499037719
 30
0.0
 10
4.6148638438
 20
5.4498247349
 30
0.0
  0
LINE
  5
3B5
100
AcDbEntity
  8
0
100
AcDbLine
 62
7
  6
CONTINUOUS
 10
4.6148638438
 20
5.4498247349
 11
4.6100103655
 21
5.4491042373
  0
SPLINE
  5
3B6
100
AcDbEntity
  8
0
100
AcDbSpline
 62
7
  6
CONTINUOUS
 70
0
 71
3
 72
61
 73
57
 74
0
 42
0.0000001
 43
0.0000001
 44
0.0000000001
 40
0.0
 40
0.0
 40
0.0
 40
0.0
 40
0.0000724962
 40
0.000126674
 40
0.000195872
 40
0.0003827062
 40
0.0006368043
 40
0.000959479
 40
0.00135136
 40
0.0018127982
 40
0.0023440109
 40
0.0036160325
 40
0.0051669419
 40
0.006995662
 40
0.0091009773
 40
0.0114815995
 40
0.0141361977
 40
0.0170634149
 40
0.0202618771
 40
0.0274667741
 40
0.0357347155
 40
0.0450445987
 40
0.0553750704
 40
0.0667047557
 40
0.0790108801
 40
0.0922643227
 40
0.1064341415
 40
0.121489384
 40
0.1373989622
 40
0.1716358715
 40
0.2088295203
 40
0.2486509575
 40
0.290738077
 40
0.3347173364
 40
0.3801928359
 40
0.4267567361
 40
0.4739927593
 40
0.5214758386
 40
0.5687811191
 40
0.6154851561
 40
0.661167406
 40
0.7478486161
 40
0.7880675553
 40
0.825715499
 40
0.8604496238
 40
0.8919638628
 40
0.9199700816
 40
0.944229729
 40
0.9645217907
 40
0.9731244777
 40
0.9806729716
 40
0.9871483906
 40
0.9925338921
 40
0.9968201082
 40
0.9985487477
 40
1.0
 40
1.0
 40
1.0
 40
1.0
 10
4.6095542563
 20
5.5307122534
 30
0.0
 10
4.6095542568
 20
5.5307526699
 30
0.0
 10
4.6096030732
 20
5.5308175548
 30
0.0
 10
4.609692223
 20
5.530877139
 30
0.0
 10
4.6098478431
 20
5.530955569
 30
0.0
 10
4.6101179227
 20
5.5310457042
 30
0.0
 10
4.6105311409
 20
5.5311493413
 30
0.0
 10
4.6110611961
 20
5.5312533323
 30
0.0
 10
4.6117084073
 20
5.5313584656
 30
0.0
 10
4.6124730696
 20
5.5314641193
 30
0.0
 10
4.6137266303
 20
5.5316149152
 30
0.0
 10
4.6155876154
 20
5.5317993507
 30
0.0
 10
4.6181722125
 20
5.5320122035
 30
0.0
 10
4.6212225724
 20
5.5322268902
 30
0.0
 10
4.6247363567
 20
5.5324432782
 30
0.0
 10
4.628711253
 20
5.5326610908
 30
0.0
 10
4.6331449021
 20
5.5328802124
 30
0.0
 10
4.6380349411
 20
5.5331005601
 30
0.0
 10
4.6454603538
 20
5.5334082278
 30
0.0
 10
4.6558625965
 20
5.53379063
 30
0.0
 10
4.6696717299
 20
5.5342371644
 30
0.0
 10
4.6852241285
 20
5.534685163
 30
0.0
 10
4.7024840901
 20
5.5351325255
 30
0.0
 10
4.7214150263
 20
5.535577029
 30
0.0
 10
4.7419760317
 20
5.5360164697
 30
0.0
 10
4.7641208253
 20
5.5364515058
 30
0.0
 10
4.7877985918
 20
5.5368826946
 30
0.0
 10
4.8129574332
 20
5.5373106652
 30
0.0
 10
4.8493026343
 20
5.5378917678
 30
0.0
 10
4.8979893417
 20
5.5386081534
 30
0.0
 10
4.9600062837
 20
5.5394591366
 30
0.0
 10
5.0263997606
 20
5.540335233
 30
0.0
 10
5.0965763167
 20
5.5412270039
 30
0.0
 10
5.1699051733
 20
5.5421246629
 30
0.0
 10
5.2457300725
 20
5.5430168905
 30
0.0
 10
5.3233709702
 20
5.5438883498
 30
0.0
 10
5.4021313872
 20
5.5447387237
 30
0.0
 10
5.4813052011
 20
5.5455838797
 30
0.0
 10
5.5601823486
 20
5.5464354041
 30
0.0
 10
5.6380553286
 20
5.5473007236
 30
0.0
 10
5.7378783179
 20
5.5484663932
 30
0.0
 10
5.8340852989
 20
5.5496593417
 30
0.0
 10
5.9258127117
 20
5.5508587033
 30
0.0
 10
5.9885816947
 20
5.551717188
 30
0.0
 10
6.0464976035
 20
5.5525575851
 30
0.0
 10
6.0990376648
 20
5.553397965
 30
0.0
 10
6.145737111
 20
5.554255136
 30
0.0
 10
6.1861787407
 20
5.5551249356
 30
0.0
 10
6.2158024153
 20
5.5558938282
 30
0.0
 10
6.2361096698
 20
5.5565258127
 30
0.0
 10
6.2487161494
 20
5.5569706668
 30
0.0
 10
6.2595280196
 20
5.5574101332
 30
0.0
 10
6.2685196994
 20
5.5578423516
 30
0.0
 10
6.2748646824
 20
5.558215974
 30
0.0
 10
6.2790157352
 20
5.5585232364
 30
0.0
 10
6.2807818723
 20
5.5586777691
 30
0.0
 10
6.2815870545
 20
5.558756994
 30
0.0
  0
SPLINE
  5
3B7
100
AcDbEntity
  8
0
100
AcDbSpline
 62
7
  6
CONTINUOUS
 70
0
 71
3
 72
12
 73
8
 74
0
 42
0.0000001
 43
0.0000001
 44
0.0000000001
 40
0.0
 40
0.0
 40
0.0
 40
0.0
 40
0.3553456448
 40
0.6402906695
 40
0.8549476338
 40
0.9360896855
 40
1.0
 40
1.0
 40
1.0
 40
1.0
 10
6.2815870545
 20
5.558756994
 30
0.0
 10
6.2821504288
 20
5.5588124264
 30
0.0
 10
6.2831649221
 20
5.5589198501
 30
0.0
 10
6.2845153585
 20
5.5590971833
 30
0.0
 10
6.285428154
 20
5.5592522296
 30
0.0
 10
6.2859862011
 20
5.5593830482
 30
0.0
 10
6.286207931
 20
5.5594492739
 30
0.0
 10
6.2863036288
 20
5.5594840316
 30
0.0
  0
SPLINE
  5
3B8
100
AcDbEntity
  8
0
100
AcDbSpline
 62
7
  6
CONTINUOUS
 70
0
 71
3
 72
59
 73
55
 74
0
 42
0.0000001
 43
0.0000001
 44
0.0000000001
 40
0.0
 40
0.0
 40
0.0
 40
0.0
 40
0.0000720595
 40
0.0001257666
 40
0.0001943192
 40
0.0003793284
 40
0.0006307978
 40
0.000949921
 40
0.0013372071
 40
0.0017928863
 40
0.0023170551
 40
0.0035708972
 40
0.0050985375
 40
0.0068994423
 40
0.0089729378
 40
0.011318276
 40
0.0139346656
 40
0.0168210927
 40
0.0199756396
 40
0.0270803651
 40
0.0352313456
 40
0.0444110109
 40
0.0546016494
 40
0.0657815749
 40
0.0779240183
 40
0.0910018647
 40
0.1049879897
 40
0.1198543014
 40
0.135566704
 40
0.1693841067
 40
0.2061458003
 40
0.2455229145
 40
0.2871640664
 40
0.3307026813
 40
0.3757529346
 40
0.4219216434
 40
0.4687989264
 40
0.5630237658
 40
0.6551084284
 40
0.6993295162
 40
0.7418111358
 40
0.7821798597
 40
0.8200735271
 40
0.8551631228
 40
0.8871324669
 40
0.915706707
 40
0.940631239
 40
0.9616899065
 40
0.9707121211
 40
0.9786994844
 40
0.9856346533
 40
0.991504777
 40
0.9962973002
 40
1.0
 40
1.0
 40
1.0
 40
1.0
 10
6.2866631625
 20
5.5359193372
 30
0.0
 10
6.2866631913
 20
5.5358792217
 30
0.0
 10
6.2866151594
 20
5.5358147227
 30
0.0
 10
6.2865270059
 20
5.5357553744
 30
0.0
 10
6.2863733037
 20
5.5356773919
 30
0.0
 10
6.2861064617
 20
5.5355877525
 30
0.0
 10
6.2856983264
 20
5.5354847146
 30
0.0
 10
6.2851750466
 20
5.5353813507
 30
0.0
 10
6.2845365193
 20
5.5352769065
 30
0.0
 10
6.2837826453
 20
5.5351720138
 30
0.0
 10
6.2825481273
 20
5.5350224797
 30
0.0
 10
6.2807167888
 20
5.5348397906
 30
0.0
 10
6.278174424
 20
5.5346291844
 30
0.0
 10
6.275174554
 20
5.5344168918
 30
0.0
 10
6.2717186169
 20
5.5342028967
 30
0.0
 10
6.2678080248
 20
5.5339873233
 30
0.0
 10
6.2634443459
 20
5.5337701436
 30
0.0
 10
6.2586297534
 20
5.5335513248
 30
0.0
 10
6.2513179314
 20
5.5332454476
 30
0.0
 10
6.2410759515
 20
5.5328652644
 30
0.0
 10
6.2274799861
 20
5.5324219553
 30
0.0
 10
6.2121653173
 20
5.5319776248
 30
0.0
 10
6.1951637747
 20
5.5315344631
 30
0.0
 10
6.1765122859
 20
5.5310939543
 30
0.0
 10
6.1562530152
 20
5.5306564915
 30
0.0
 10
6.1344311236
 20
5.530222799
 30
0.0
 10
6.1110924971
 20
5.5297934596
 30
0.0
 10
6.0862868934
 20
5.5293693116
 30
0.0
 10
6.0504422188
 20
5.5287939833
 30
0.0
 10
6.00240902
 20
5.5280836881
 30
0.0
 10
5.941202313
 20
5.5272363604
 30
0.0
 10
5.8756399733
 20
5.5263711118
 30
0.0
 10
5.8063048306
 20
5.5254888533
 30
0.0
 10
5.7338113376
 20
5.5245960906
 30
0.0
 10
5.6587970832
 20
5.523710621
 30
0.0
 10
5.5819238326
 20
5.5228459056
 30
0.0
 10
5.4776764364
 20
5.5217104063
 30
0.0
 10
5.3478686682
 20
5.5203430343
 30
0.0
 10
5.2195405862
 20
5.5188918562
 30
0.0
 10
5.1200170079
 20
5.51768926
 30
0.0
 10
5.0492819915
 20
5.5168000272
 30
0.0
 10
4.9820695659
 20
5.5159241104
 30
0.0
 10
4.9189723016
 20
5.5150734539
 30
0.0
 10
4.8605512202
 20
5.5142364862
 30
0.0
 10
4.807318818
 20
5.5134005499
 30
0.0
 10
4.7597461696
 20
5.5125579155
 30
0.0
 10
4.7182489383
 20
5.5116968888
 30
0.0
 10
4.6876367953
 20
5.5109344018
 30
0.0
 10
4.6664534
 20
5.5103095859
 30
0.0
 10
4.65313066
 20
5.5098675736
 30
0.0
 10
4.6415636573
 20
5.509429253
 30
0.0
 10
4.6317764058
 20
5.5089964029
 30
0.0
 10
4.6237905173
 20
5.5085703246
 30
0.0
 10
4.619071425
 20
5.5082540411
 30
0.0
 10
4.617016966
 20
5.5080863537
 30
0.0
  0
SPLINE
  5
3B9
100
AcDbEntity
  8
0
100
AcDbSpline
 62
7
  6
CONTINUOUS
 70
0
 71
3
 72
12
 73
8
 74
0
 42
0.0000001
 43
0.0000001
 44
0.0000000001
 40
0.0
 40
0.0
 40
0.0
 40
0.0
 40
0.3618872361
 40
0.6489631353
 40
0.8614342063
 40
0.9398739534
 40
1.0
 40
1.0
 40
1.0
 40
1.0
 10
4.617016966
 20
5.5080863537
 30
0.0
 10
4.6161651927
 20
5.5080168309
 30
0.0
 10
4.6146383708
 20
5.5078826966
 30
0.0
 10
4.6126162334
 20
5.5076607931
 30
0.0
 10
4.6112641818
 20
5.5074673514
 30
0.0
 10
4.6104515496
 20
5.5073028839
 30
0.0
 10
4.6101346053
 20
5.507219604
 30
0.0
 10
4.6099997255
 20
5.5071752377
 30
0.0
  0
SPLINE
  5
3BA
100
AcDbEntity
  8
0
100
AcDbSpline
 62
7
  6
CONTINUOUS
 70
0
 71
3
 72
32
 73
28
 74
0
 42
0.0000001
 43
0.0000001
 44
0.0000000001
 40
0.0
 40
0.0
 40
0.0
 40
0.0
 40
0.0005908662
 40
0.001004701
 40
0.0015217812
 40
0.0028955728
 40
0.0047467236
 40
0.0070869566
 40
0.0099215482
 40
0.0132531099
 40
0.017082962
 40
0.0262394238
 40
0.0373921072
 40
0.0505388851
 40
0.065676261
 40
0.0828000096
 40
0.1019054823
 40
0.1460416491
 40
0.1980265488
 40
0.2577556242
 40
0.3251164968
 40
0.3999964243
 40
0.4822824433
 40
0.5718564398
 40
0.6685718515
 40
0.7722720632
 40
1.0
 40
1.0
 40
1.0
 40
1.0
 10
4.6095708203
 20
5.588782972
 30
0.0
 10
4.6095707682
 20
5.5888164226
 30
0.0
 10
4.6096040232
 20
5.5888708883
 30
0.0
 10
4.609670925
 20
5.5889237646
 30
0.0
 10
4.6097839947
 20
5.5889904568
 30
0.0
 10
4.6099817597
 20
5.5890680567
 30
0.0
 10
4.6102842819
 20
5.5891566975
 30
0.0
 10
4.6106721357
 20
5.5892457218
 30
0.0
 10
4.6111453245
 20
5.5893355338
 30
0.0
 10
4.6117040538
 20
5.5894257204
 30
0.0
 10
4.6126189254
 20
5.5895541994
 30
0.0
 10
4.6139766443
 20
5.5897111062
 30
0.0
 10
4.6158621029
 20
5.5898918301
 30
0.0
 10
4.6180873705
 20
5.5900738117
 30
0.0
 10
4.620651541
 20
5.5902570301
 30
0.0
 10
4.6235537332
 20
5.5904413738
 30
0.0
 10
4.6280960488
 20
5.5907013108
 30
0.0
 10
4.6346115076
 20
5.5910232464
 30
0.0
 10
4.6434266851
 20
5.591399002
 30
0.0
 10
4.6535575778
 20
5.5917785239
 30
0.0
 10
4.6649853366
 20
5.5921605083
 30
0.0
 10
4.6776907183
 20
5.5925434832
 30
0.0
 10
4.6916541753
 20
5.5929261393
 30
0.0
 10
4.7068542706
 20
5.5933070853
 30
0.0
 10
4.7232670848
 20
5.5936859815
 30
0.0
 10
4.7475000351
 20
5.5942043174
 30
0.0
 10
4.7662597662
 20
5.5945633032
 30
0.0
 10
4.7791500184
 20
5.5947963169
 30
0.0
  0
LINE
  5
3BB
100
AcDbEntity
  8
0
100
AcDbLine
 62
7
  6
CONTINUOUS
 10
4.7791500184
 20
5.5947963169
 11
4.7880754489
 21
5.5949554752
  0
SPLINE
  5
3BC
100
AcDbEntity
  8
0
100
AcDbSpline
 62
7
  6
CONTINUOUS
 70
0
 71
3
 72
32
 73
28
 74
0
 42
0.0000001
 43
0.0000001
 44
0.0000000001
 40
0.0
 40
0.0
 40
0.0
 40
0.0
 40
0.0005906573
 40
0.0010044042
 40
0.0015211705
 40
0.0028931978
 40
0.0047409351
 40
0.0070765221
 40
0.0099057249
 40
0.0132316574
 40
0.0170561458
 40
0.0262047098
 40
0.0373566352
 40
0.050511396
 40
0.0656623342
 40
0.0828015272
 40
0.10192064
 40
0.1460639987
 40
0.1980221395
 40
0.2577232675
 40
0.3250892296
 40
0.4000001084
 40
0.4823173708
 40
0.5719022564
 40
0.6686159091
 40
0.7723185758
 40
1.0
 40
1.0
 40
1.0
 40
1.0
 10
6.2866884769
 20
5.5939899456
 30
0.0
 10
6.2866884251
 20
5.5939565528
 30
0.0
 10
6.2866550782
 20
5.5939022933
 30
0.0
 10
6.2865882427
 20
5.5938495871
 30
0.0
 10
6.2864753856
 20
5.5937831325
 30
0.0
 10
6.2862781762
 20
5.5937057884
 30
0.0
 10
6.2859765968
 20
5.5936174396
 30
0.0
 10
6.2855900182
 20
5.5935287103
 30
0.0
 10
6.2851183501
 20
5.5934391852
 30
0.0
 10
6.2845613048
 20
5.5933492626
 30
0.0
 10
6.2836487522
 20
5.5932210834
 30
0.0
 10
6.2822936969
 20
5.5930644071
 30
0.0
 10
6.280410891
 20
5.5928837062
 30
0.0
 10
6.2781875466
 20
5.5927014539
 30
0.0
 10
6.2756248561
 20
5.5925177718
 30
0.0
 10
6.2727242883
 20
5.5923328893
 30
0.0
 10
6.2681862203
 20
5.592072309
 30
0.0
 10
6.2616800876
 20
5.5917500936
 30
0.0
 10
6.2528797004
 20
5.5913752309
 30
0.0
 10
6.2427655128
 20
5.5909970391
 30
0.0
 10
6.2313529917
 20
5.5906160642
 30
0.0
 10
6.2186612755
 20
5.5902335149
 30
0.0
 10
6.2047129021
 20
5.5898506815
 30
0.0
 10
6.1895314564
 20
5.5894688608
 30
0.0
 10
6.1731405799
 20
5.5890892416
 30
0.0
 10
6.1489435322
 20
5.5885717572
 30
0.0
 10
6.1302120472
 20
5.5882151463
 30
0.0
 10
6.1173421367
 20
5.5879830099
 30
0.0
  0
SPLINE
  5
3BD
100
AcDbEntity
  8
0
100
AcDbSpline
 62
7
  6
CONTINUOUS
 70
0
 71
3
 72
39
 73
35
 74
0
 42
0.0000001
 43
0.0000001
 44
0.0000000001
 40
0.0
 40
0.0
 40
0.0
 40
0.0
 40
0.0566208525
 40
0.1224037427
 40
0.1957897621
 40
0.2750380463
 40
0.3582768429
 40
0.443540334
 40
0.5288110829
 40
0.6120764838
 40
0.6913733887
 40
0.7289427098
 40
0.7648279811
 40
0.7988144487
 40
0.8306951484
 40
0.8602867277
 40
0.8874106346
 40
0.9119053928
 40
0.933635225
 40
0.9434215579
 40
0.9524681259
 40
0.960763355
 40
0.9682961861
 40
0.9750555773
 40
0.9810305135
 40
0.9862102947
 40
0.9905878312
 40
0.9941586762
 40
0.9956403284
 40
0.9969188659
 40
0.9979939557
 40
0.9988654564
 40
0.9995336516
 40
1.0
 40
1.0
 40
1.0
 40
1.0
 10
6.1173421367
 20
5.5879830099
 30
0.0
 10
6.0888930498
 20
5.5874698699
 30
0.0
 10
6.0273890298
 20
5.5864942489
 30
0.0
 10
5.9290080131
 20
5.5851381868
 30
0.0
 10
5.819255927
 20
5.5837121861
 30
0.0
 10
5.7007313168
 20
5.582262485
 30
0.0
 10
5.5762371678
 20
5.5808401461
 30
0.0
 10
5.4487156825
 20
5.5794803679
 30
0.0
 10
5.3211809172
 20
5.578112392
 30
0.0
 10
5.1966452183
 20
5.5766986023
 30
0.0
 10
5.0960804997
 20
5.5754645037
 30
0.0
 10
5.0193244433
 20
5.5744845681
 30
0.0
 10
4.9653366974
 20
5.573773475
 30
0.0
 10
4.9142077568
 20
5.5730741767
 30
0.0
 10
4.8662417254
 20
5.5723871022
 30
0.0
 10
4.8217246648
 20
5.5717033666
 30
0.0
 10
4.7809198387
 20
5.5710132021
 30
0.0
 10
4.7440666379
 20
5.5703104793
 30
0.0
 10
4.7159260372
 20
5.5696982515
 30
0.0
 10
4.6955481536
 20
5.5691977221
 30
0.0
 10
4.681920285
 20
5.5688337157
 30
0.0
 10
4.6694253248
 20
5.5684691277
 30
0.0
 10
4.6580802596
 20
5.5681050528
 30
0.0
 10
4.6479018121
 20
5.5677427064
 30
0.0
 10
4.638906571
 20
5.5673832455
 30
0.0
 10
4.6311091522
 20
5.5670282231
 30
0.0
 10
4.6245210942
 20
5.5666779653
 30
0.0
 10
4.6197916889
 20
5.5663752957
 30
0.0
 10
4.6166197427
 20
5.566127894
 30
0.0
 10
4.6147000555
 20
5.5659552367
 30
0.0
 10
4.6130884109
 20
5.5657838234
 30
0.0
 10
4.6117849189
 20
5.5656147288
 30
0.0
 10
4.6107909831
 20
5.5654475601
 30
0.0
 10
4.6102339181
 20
5.5653192028
 30
0.0
 10
4.6100112841
 20
5.5652460174
 30
0.0
  0
SPLINE
  5
3BE
100
AcDbEntity
  8
0
100
AcDbSpline
 62
7
  6
CONTINUOUS
 70
0
 71
3
 72
37
 73
33
 74
0
 42
0.0000001
 43
0.0000001
 44
0.0000000001
 40
0.0
 40
0.0
 40
0.0
 40
0.0
 40
0.0004352536
 40
0.0008140373
 40
0.0013171729
 40
0.0019490986
 40
0.002711989
 40
0.0036069216
 40
0.0046344735
 40
0.0070884916
 40
0.0100751932
 40
0.0135944982
 40
0.0176458142
 40
0.027340787
 40
0.0391517153
 40
0.0530689358
 40
0.0690817506
 40
0.0871712708
 40
0.1073122335
 40
0.1294791221
 40
0.1536463651
 40
0.1797883545
 40
0.2078793724
 40
0.2697786815
 40
0.3390449683
 40
0.4153687599
 40
0.4984212005
 40
0.5878033919
 40
0.6831004619
 40
0.7838876915
 40
0.8896865272
 40
1.0
 40
1.0
 40
1.0
 40
1.0
 10
4.609563497
 20
6.1114206995
 30
0.0
 10
4.6095639748
 20
6.1114857303
 30
0.0
 10
4.6096806999
 20
6.1115792283
 30
0.0
 10
4.609851135
 20
6.1116580548
 30
0.0
 10
4.610067887
 20
6.111734282
 30
0.0
 10
4.610340485
 20
6.1118083847
 30
0.0
 10
4.6106746737
 20
6.1118839417
 30
0.0
 10
4.6110686341
 20
6.111959487
 30
0.0
 10
4.6117137201
 20
6.1120671761
 30
0.0
 10
4.6126713172
 20
6.1121986384
 30
0.0
 10
4.6140015522
 20
6.1123500011
 30
0.0
 10
4.6155716368
 20
6.1125023056
 30
0.0
 10
4.6181422032
 20
6.1127197721
 30
0.0
 10
4.6219516583
 20
6.1129860462
 30
0.0
 10
4.6272354206
 20
6.113294006
 30
0.0
 10
4.6334643316
 20
6.1136055044
 30
0.0
 10
4.640632176
 20
6.1139206625
 30
0.0
 10
4.6487306009
 20
6.1142387946
 30
0.0
 10
4.6577490792
 20
6.1145590228
 30
0.0
 10
4.6676761225
 20
6.1148805295
 30
0.0
 10
4.6785002106
 20
6.115202509
 30
0.0
 10
4.6902098075
 20
6.11552422
 30
0.0
 10
4.7075558528
 20
6.1159660892
 30
0.0
 10
4.7313447064
 20
6.1165082276
 30
0.0
 10
4.7623400191
 20
6.1171330708
 30
0.0
 10
4.7964966124
 20
6.1177495928
 30
0.0
 10
4.8336593778
 20
6.1183566575
 30
0.0
 10
4.8736573813
 20
6.1189610222
 30
0.0
 10
4.9163054234
 20
6.1195687103
 30
0.0
 10
4.9614064251
 20
6.1201861389
 30
0.0
 10
5.008751148
 20
6.1208128946
 30
0.0
 10
5.0410384383
 20
6.1212282034
 30
0.0
 10
5.0575193597
 20
6.1214376935
 30
0.0
  0
SPLINE
  5
3BF
100
AcDbEntity
  8
0
100
AcDbSpline
 62
7
  6
CONTINUOUS
 70
0
 71
3
 72
29
 73
25
 74
0
 42
0.0000001
 43
0.0000001
 44
0.0000000001
 40
0.0
 40
0.0
 40
0.0
 40
0.0
 40
0.1551694217
 40
0.2369559366
 40
0.3199512633
 40
0.4029364918
 40
0.4846865225
 40
0.5640021823
 40
0.6397134245
 40
0.7107083054
 40
0.7759281467
 40
0.8344171917
 40
0.8608609711
 40
0.8853114226
 40
0.9076767784
 40
0.927871292
 40
0.9458272283
 40
0.9614802659
 40
0.9747669171
 40
0.9856385623
 40
0.9901578749
 40
0.9940605614
 40
0.9973425497
 40
1.0
 40
1.0
 40
1.0
 40
1.0
 10
5.0575193597
 20
6.1214376935
 30
0.0
 10
5.1208261055
 20
6.1222423898
 30
0.0
 10
5.2175011987
 20
6.1234175174
 30
0.0
 10
5.3480389166
 20
6.1248667615
 30
0.0
 10
5.4491264369
 20
6.1259508892
 30
0.0
 10
5.5501991349
 20
6.127028995
 30
0.0
 10
5.6497700179
 20
6.1281403081
 30
0.0
 10
5.7463724395
 20
6.1292821929
 30
0.0
 10
5.838586185
 20
6.1304291533
 30
0.0
 10
5.9250483625
 20
6.1315571699
 30
0.0
 10
6.004483528
 20
6.1326421793
 30
0.0
 10
6.065741598
 20
6.133562305
 30
0.0
 10
6.1103655366
 20
6.1343169659
 30
0.0
 10
6.1402516593
 20
6.1348688532
 30
0.0
 10
6.1675873621
 20
6.135427734
 30
0.0
 10
6.1922723847
 20
6.135995394
 30
0.0
 10
6.2142177488
 20
6.1365671061
 30
0.0
 10
6.233343536
 20
6.137138128
 30
0.0
 10
6.2495774652
 20
6.1377040257
 30
0.0
 10
6.2612684321
 20
6.1381924104
 30
0.0
 10
6.2691305636
 20
6.1385903448
 30
0.0
 10
6.2738980193
 20
6.138867476
 30
0.0
 10
6.2779044824
 20
6.1391414952
 30
0.0
 10
6.2803197437
 20
6.1393421981
 30
0.0
 10
6.2813990142
 20
6.1394463742
 30
0.0
  0
SPLINE
  5
3C0
100
AcDbEntity
  8
0
100
AcDbSpline
 62
7
  6
CONTINUOUS
 70
0
 71
3
 72
12
 73
8
 74
0
 42
0.0000001
 43
0.0000001
 44
0.0000000001
 40
0.0
 40
0.0
 40
0.0
 40
0.0
 40
0.3569895605
 40
0.6423435421
 40
0.8563828651
 40
0.9368973541
 40
1.0
 40
1.0
 40
1.0
 40
1.0
 10
6.2813990142
 20
6.1394463742
 30
0.0
 10
6.2819891459
 20
6.1395033364
 30
0.0
 10
6.2830503506
 20
6.1396135664
 30
0.0
 10
6.2844609238
 20
6.1397955783
 30
0.0
 10
6.2854115363
 20
6.1399546025
 30
0.0
 10
6.285990256
 20
6.1400889654
 30
0.0
 10
6.2862192338
 20
6.1401569856
 30
0.0
 10
6.286317732
 20
6.140192774
 30
0.0
  0
SPLINE
  5
3C1
100
AcDbEntity
  8
0
100
AcDbSpline
 62
7
  6
CONTINUOUS
 70
0
 71
3
 72
35
 73
31
 74
0
 42
0.0000001
 43
0.0000001
 44
0.0000000001
 40
0.0
 40
0.0
 40
0.0
 40
0.0
 40
0.0004612736
 40
0.0008407821
 40
0.001338615
 40
0.0019601121
 40
0.0027079727
 40
0.004588154
 40
0.0069861603
 40
0.0099050721
 40
0.0173107574
 40
0.0268039058
 40
0.0383743494
 40
0.0520104566
 40
0.0676999371
 40
0.0854301527
 40
0.1051882638
 40
0.1269609541
 40
0.1507283875
 40
0.1764650416
 40
0.2041451709
 40
0.2652327371
 40
0.3337847319
 40
0.4095778386
 40
0.4923464872
 40
0.5818184665
 40
0.677715995
 40
0.7796721091
 40
0.8872473217
 40
1.0
 40
1.0
 40
1.0
 40
1.0
 10
6.2866805523
 20
6.1166278147
 30
0.0
 10
6.2866805396
 20
6.1165739071
 30
0.0
 10
6.2865964293
 20
6.1164915533
 30
0.0
 10
6.2864628571
 20
6.1164208994
 30
0.0
 10
6.286298432
 20
6.1163544428
 30
0.0
 10
6.2860906467
 20
6.1162896434
 30
0.0
 10
6.2857225778
 20
6.1161944167
 30
0.0
 10
6.2851462281
 20
6.1160802266
 30
0.0
 10
6.2843152142
 20
6.1159492893
 30
0.0
 10
6.2828405972
 20
6.1157580579
 30
0.0
 10
6.2805356876
 20
6.1155274003
 30
0.0
 10
6.2772190693
 20
6.1152623509
 30
0.0
 10
6.2731725932
 20
6.1149941334
 30
0.0
 10
6.2684008577
 20
6.1147229332
 30
0.0
 10
6.2629083579
 20
6.1144494314
 30
0.0
 10
6.2566997212
 20
6.1141738343
 30
0.0
 10
6.2497796101
 20
6.1138963661
 30
0.0
 10
6.2421535014
 20
6.1136171606
 30
0.0
 10
6.2338283187
 20
6.1133365778
 30
0.0
 10
6.224812418
 20
6.1130551482
 30
0.0
 10
6.2114362776
 20
6.1126665935
 30
0.0
 10
6.1930570363
 20
6.1121864194
 30
0.0
 10
6.1690551229
 20
6.1116319469
 30
0.0
 10
6.1425186363
 20
6.1110854316
 30
0.0
 10
6.1135367159
 20
6.1105449407
 30
0.0
 10
6.0822047939
 20
6.1100093895
 30
0.0
 10
6.0486301248
 20
6.1094778791
 30
0.0
 10
6.0129395173
 20
6.1089478573
 30
0.0
 10
5.9752789247
 20
6.1084157891
 30
0.0
 10
5.9495322592
 20
6.1080654204
 30
0.0
 10
5.9363563873
 20
6.1078883521
 30
0.0
  0
SPLINE
  5
3C2
100
AcDbEntity
  8
0
100
AcDbSpline
 62
7
  6
CONTINUOUS
 70
0
 71
3
 72
69
 73
65
 74
0
 42
0.0000001
 43
0.0000001
 44
0.0000000001
 40
0.0
 40
0.0
 40
0.0
 40
0.0
 40
0.0000747128
 40
0.000131159
 40
0.0002034902
 40
0.0003992121
 40
0.0006656745
 40
0.0010041499
 40
0.0014152238
 40
0.0018992029
 40
0.0024562596
 40
0.0037899467
 40
0.0054166983
 40
0.0073361911
 40
0.0095469505
 40
0.0120472712
 40
0.0148354068
 40
0.0179095858
 40
0.02126802
 40
0.0288304425
 40
0.0375076404
 40
0.0472781525
 40
0.0581164909
 40
0.0699970835
 40
0.0828943033
 40
0.0967790984
 40
0.1116164268
 40
0.127370631
 40
0.1440060445
 40
0.1797665488
 40
0.2185534602
 40
0.2600048797
 40
0.3037244129
 40
0.3492991688
 40
0.3962985294
 40
0.4442774685
 40
0.4927846266
 40
0.5413604651
 40
0.5895467978
 40
0.6368897116
 40
0.6829405228
 40
0.7272681906
 40
0.7694495642
 40
0.8090884885
 40
0.8458034308
 40
0.879249376
 40
0.9091089058
 40
0.9226040128
 40
0.9351024016
 40
0.9465743675
 40
0.9569905293
 40
0.9663269345
 40
0.9745642791
 40
0.9816834525
 40
0.9876654292
 40
0.9902245501
 40
0.9924941856
 40
0.994473536
 40
0.9961618672
 40
0.9975585661
 40
0.99866327
 40
0.9994762279
 40
0.9997739214
 40
1.0
 40
1.0
 40
1.0
 40
1.0
 10
4.6095584407
 20
6.1694922509
 30
0.0
 10
4.6095584505
 20
6.1695340219
 30
0.0
 10
4.6096105032
 20
6.1696008203
 30
0.0
 10
4.6097040208
 20
6.1696616124
 30
0.0
 10
4.6098681811
 20
6.1697422003
 30
0.0
 10
4.610152646
 20
6.1698345974
 30
0.0
 10
4.6105878245
 20
6.1699409259
 30
0.0
 10
4.6111458937
 20
6.1700475573
 30
0.0
 10
4.611827153
 20
6.1701553538
 30
0.0
 10
4.6126318065
 20
6.1702636493
 30
0.0
 10
4.6139505103
 20
6.1704181746
 30
0.0
 10
4.6159081699
 20
6.1706071694
 30
0.0
 10
4.6186277938
 20
6.1708254506
 30
0.0
 10
4.6218389589
 20
6.1710459798
 30
0.0
 10
4.6255393742
 20
6.171268557
 30
0.0
 10
4.6297261172
 20
6.1714928055
 30
0.0
 10
4.6343961305
 20
6.1717185007
 30
0.0
 10
4.6395463535
 20
6.1719454518
 30
0.0
 10
4.6473644078
 20
6.1722621595
 30
0.0
 10
4.6583144453
 20
6.1726551912
 30
0.0
 10
4.6728492043
 20
6.1731133587
 30
0.0
 10
4.6892162566
 20
6.1735727863
 30
0.0
 10
4.7073749351
 20
6.1740314378
 30
0.0
 10
4.7272822878
 20
6.1744872651
 30
0.0
 10
4.7488933926
 20
6.1749379821
 30
0.0
 10
4.7721580217
 20
6.1753825182
 30
0.0
 10
4.7970203022
 20
6.1758227513
 30
0.0
 10
4.8234206954
 20
6.1762599652
 30
0.0
 10
4.8615179511
 20
6.1768551591
 30
0.0
 10
4.912491838
 20
6.1775925683
 30
0.0
 10
4.9773394328
 20
6.1784702927
 30
0.0
 10
5.0466368643
 20
6.1793744183
 30
0.0
 10
5.1197294035
 20
6.1802945772
 30
0.0
 10
5.1959239715
 20
6.1812141954
 30
0.0
 10
5.2745002145
 20
6.1821230644
 30
0.0
 10
5.3547162707
 20
6.1830108602
 30
0.0
 10
5.4358139916
 20
6.1838779282
 30
0.0
 10
5.5170276662
 20
6.1847453668
 30
0.0
 10
5.5975902308
 20
6.1856274422
 30
0.0
 10
5.6767408095
 20
6.1865264131
 30
0.0
 10
5.7537336728
 20
6.1874457727
 30
0.0
 10
5.8278405272
 20
6.1883682666
 30
0.0
 10
5.8983624886
 20
6.1892748599
 30
0.0
 10
5.9646281456
 20
6.19016298
 30
0.0
 10
6.026009738
 20
6.1910319141
 30
0.0
 10
6.0819233395
 20
6.1918917339
 30
0.0
 10
6.1248551226
 20
6.1926411556
 30
0.0
 10
6.1560757383
 20
6.1932604839
 30
0.0
 10
6.1770173422
 20
6.1937131071
 30
0.0
 10
6.1962370357
 20
6.194168927
 30
0.0
 10
6.213688294
 20
6.1946273389
 30
0.0
 10
6.2293303941
 20
6.1950867965
 30
0.0
 10
6.2431283558
 20
6.1955446861
 30
0.0
 10
6.2550498517
 20
6.1959988036
 30
0.0
 10
6.2637967297
 20
6.1963889954
 30
0.0
 10
6.2698326911
 20
6.1967040881
 30
0.0
 10
6.2736325613
 20
6.1969261875
 30
0.0
 10
6.2769447901
 20
6.1971464145
 30
0.0
 10
6.2797678173
 20
6.1973648561
 30
0.0
 10
6.2821005307
 20
6.1975805715
 30
0.0
 10
6.2839411654
 20
6.1977941391
 30
0.0
 10
6.2851666352
 20
6.1979805155
 30
0.0
 10
6.2858969904
 20
6.1981395621
 30
0.0
 10
6.2861790935
 20
6.1982201409
 30
0.0
 10
6.2862979093
 20
6.1982632592
 30
0.0
  0
SPLINE
  5
3C3
100
AcDbEntity
  8
0
100
AcDbSpline
 62
9
  6
CONTINUOUS
 70
0
 71
3
 72
9
 73
5
 74
0
 42
0.0000001
 43
0.0000001
 44
0.0000000001
 40
0.0
 40
0.0
 40
0.0
 40
0.0
 40
0.492477496
 40
1.0
 40
1.0
 40
1.0
 40
1.0
 10
4.3486569277
 20
5.1013055858
 30
0.0
 10
4.3496673842
 20
5.1013055858
 30
0.0
 10
4.3517251759
 20
5.1010532189
 30
0.0
 10
4.3536709193
 20
5.1003481847
 30
0.0
 10
4.3546085252
 20
5.0998951348
 30
0.0
  0
SPLINE
  5
3C4
100
AcDbEntity
  8
0
100
AcDbSpline
 62
9
  6
CONTINUOUS
 70
0
 71
3
 72
15
 73
11
 74
0
 42
0.0000001
 43
0.0000001
 44
0.0000000001
 40
0.0
 40
0.0
 40
0.0
 40
0.0
 40
0.1094417209
 40
0.2233951032
 40
0.3424129997
 40
0.4665802102
 40
0.5956618027
 40
0.7287824789
 40
0.8642070748
 40
1.0
 40
1.0
 40
1.0
 40
1.0
 10
4.3546085252
 20
5.0998951348
 30
0.0
 10
4.3554587916
 20
5.0994842872
 30
0.0
 10
4.3571196496
 20
5.0984815717
 30
0.0
 10
4.3593510584
 20
5.0965249391
 30
0.0
 10
4.3613257149
 20
5.0941438895
 30
0.0
 10
4.3630065164
 20
5.091394519
 30
0.0
 10
4.3643495413
 20
5.0883327756
 30
0.0
 10
4.3653262298
 20
5.0850351224
 30
0.0
 10
4.3659271088
 20
5.0815912433
 30
0.0
 10
4.3660658609
 20
5.0792489368
 30
0.0
 10
4.3660658609
 20
5.0780772393
 30
0.0
  0
SPLINE
  5
3C5
100
AcDbEntity
  8
0
100
AcDbSpline
 62
7
  6
CONTINUOUS
 70
0
 71
3
 72
71
 73
67
 74
0
 42
0.0000001
 43
0.0000001
 44
0.0000000001
 40
0.0
 40
0.0
 40
0.0
 40
0.0
 40
0.0000747796
 40
0.0001313093
 40
0.000203759
 40
0.0002931149
 40
0.0003998887
 40
0.0006667029
 40
0.0010054978
 40
0.0014167861
 40
0.0019008019
 40
0.0024576449
 40
0.0037898634
 40
0.0054132753
 40
0.007327377
 40
0.0095315251
 40
0.0120250019
 40
0.0148068759
 40
0.0178752106
 40
0.021227706
 40
0.0287759221
 40
0.0374329711
 40
0.0471802253
 40
0.0579972855
 40
0.0698566639
 40
0.0827290561
 40
0.0965851447
 40
0.1113952626
 40
0.1271244168
 40
0.1437333963
 40
0.1794334574
 40
0.2181645707
 40
0.2595527109
 40
0.3032103579
 40
0.3487211667
 40
0.3956587925
 40
0.4435809401
 40
0.4920368061
 40
0.540570785
 40
0.5887234755
 40
0.6360413818
 40
0.682078908
 40
0.7264002656
 40
0.7685905498
 40
0.8082461986
 40
0.8449984734
 40
0.8784940634
 40
0.8939229635
 40
0.9084242733
 40
0.9219618233
 40
0.9345029839
 40
0.9460210723
 40
0.9564899868
 40
0.9658836431
 40
0.9741772898
 40
0.9813534356
 40
0.9873971514
 40
0.9899897344
 40
0.9922936998
 40
0.9943072651
 40
0.9960289902
 40
0.9974585675
 40
0.9985961461
 40
0.9994424152
 40
0.9997569844
 40
1.0
 40
1.0
 40
1.0
 40
1.0
 10
6.2866609858
 20
6.1746987184
 30
0.0
 10
6.2866610209
 20
6.1746569122
 30
0.0
 10
6.2866089112
 20
6.1745899956
 30
0.0
 10
6.2865152639
 20
6.1745291955
 30
0.0
 10
6.286404818
 20
6.1744747777
 30
0.0
 10
6.2862646569
 20
6.1744213649
 30
0.0
 10
6.2860176115
 20
6.1743434383
 30
0.0
 10
6.2856302296
 20
6.1742497663
 30
0.0
 10
6.285071804
 20
6.174142586
 30
0.0
 10
6.2843902441
 20
6.1740348221
 30
0.0
 10
6.2835856334
 20
6.1739264033
 30
0.0
 10
6.28226792
 20
6.1737719132
 30
0.0
 10
6.2803131676
 20
6.1735831089
 30
0.0
 10
6.2775993608
 20
6.1733653997
 30
0.0
 10
6.2743968973
 20
6.1731458245
 30
0.0
 10
6.2707071676
 20
6.1729243361
 30
0.0
 10
6.2665316346
 20
6.1727010294
 30
0.0
 10
6.2618724497
 20
6.1724758539
 30
0.0
 10
6.2567325901
 20
6.1722490525
 30
0.0
 10
6.2489294955
 20
6.1719322123
 30
0.0
 10
6.2380025934
 20
6.1715387211
 30
0.0
 10
6.2235008304
 20
6.171080373
 30
0.0
 10
6.2071707987
 20
6.1706215883
 30
0.0
 10
6.1890498058
 20
6.1701645578
 30
0.0
 10
6.1691811169
 20
6.1697101145
 30
0.0
 10
6.1476129531
 20
6.1692592433
 30
0.0
 10
6.1243947356
 20
6.1688128034
 30
0.0
 10
6.0995790444
 20
6.168372114
 30
0.0
 10
6.0732240241
 20
6.1679360259
 30
0.0
 10
6.0351913229
 20
6.1673430042
 30
0.0
 10
5.9842998771
 20
6.1666068455
 30
0.0
 10
5.9195561187
 20
6.1657255073
 30
0.0
 10
5.8503634506
 20
6.1648262917
 30
0.0
 10
5.7773804775
 20
6.1639076257
 30
0.0
 10
5.7012948145
 20
6.1629861323
 30
0.0
 10
5.6228246836
 20
6.1620812913
 30
0.0
 10
5.5427077859
 20
6.1611945796
 30
0.0
 10
5.4616982013
 20
6.1603244517
 30
0.0
 10
5.3805596564
 20
6.1594605509
 30
0.0
 10
5.3000574976
 20
6.1585813014
 30
0.0
 10
5.2209513458
 20
6.1576789021
 30
0.0
 10
5.1439874331
 20
6.1567631845
 30
0.0
 10
5.0698904375
 20
6.1558420999
 30
0.0
 10
4.9993614348
 20
6.1549318028
 30
0.0
 10
4.9330640076
 20
6.1540478175
 30
0.0
 10
4.8716276508
 20
6.1531801857
 30
0.0
 10
4.8237349905
 20
6.152442957
 30
0.0
 10
4.7882813341
 20
6.1518431965
 30
0.0
 10
4.7639843153
 20
6.1514021797
 30
0.0
 10
4.7413020984
 20
6.1509557678
 30
0.0
 10
4.7202881548
 20
6.1505031435
 30
0.0
 10
4.7009902801
 20
6.1500466095
 30
0.0
 10
4.6834526338
 20
6.1495880256
 30
0.0
 10
4.6677183222
 20
6.1491293592
 30
0.0
 10
4.6538256666
 20
6.1486725895
 30
0.0
 10
4.6418068561
 20
6.14821929
 30
0.0
 10
4.6329752834
 20
6.1478290742
 30
0.0
 10
4.6268671661
 20
6.147513263
 30
0.0
 10
4.6230104204
 20
6.1472903443
 30
0.0
 10
4.6196413026
 20
6.1470694617
 30
0.0
 10
4.6167620966
 20
6.1468507771
 30
0.0
 10
4.6143738848
 20
6.1466350273
 30
0.0
 10
4.6124775425
 20
6.14642167
 30
0.0
 10
4.6112053213
 20
6.1462354584
 30
0.0
 10
4.6104364231
 20
6.1460774544
 30
0.0
 10
4.610134703
 20
6.1459974352
 30
0.0
 10
4.6100056471
 20
6.1459549794
 30
0.0
  0
SPLINE
  5
3C6
100
AcDbEntity
  8
0
100
AcDbSpline
 62
9
  6
CONTINUOUS
 70
0
 71
3
 72
16
 73
12
 74
0
 42
0.0000001
 43
0.0000001
 44
0.0000000001
 40
0.0
 40
0.0
 40
0.0
 40
0.0
 40
0.1064117374
 40
0.2166682432
 40
0.2738155785
 40
0.3324509719
 40
0.4545552031
 40
0.5835489911
 40
0.7189810121
 40
0.8588713417
 40
1.0
 40
1.0
 40
1.0
 40
1.0
 10
5.0678182209
 20
5.1013055858
 30
0.0
 10
5.0689543328
 20
5.1013055858
 30
0.0
 10
5.0712764491
 20
5.1009847302
 30
0.0
 10
5.0740083633
 20
5.0998665414
 30
0.0
 10
5.0760563449
 20
5.0985815017
 30
0.0
 10
5.0780443506
 20
5.0969928089
 30
0.0
 10
5.0802755288
 20
5.0945191277
 30
0.0
 10
5.0824341803
 20
5.0909772073
 30
0.0
 10
5.0840217627
 20
5.086941718
 30
0.0
 10
5.0849986169
 20
5.0825885521
 30
0.0
 10
5.0852271541
 20
5.0795840087
 30
0.0
 10
5.0852271541
 20
5.0780772393
 30
0.0
  0
SPLINE
  5
3C7
100
AcDbEntity
  8
0
100
AcDbSpline
 62
7
  6
CONTINUOUS
 70
0
 71
3
 72
71
 73
67
 74
0
 42
0.0000001
 43
0.0000001
 44
0.0000000001
 40
0.0
 40
0.0
 40
0.0
 40
0.0
 40
0.0000747959
 40
0.0001313377
 40
0.0002038239
 40
0.0002932623
 40
0.0004001867
 40
0.0006675679
 40
0.0010072779
 40
0.0014197983
 40
0.0019053304
 40
0.0024639418
 40
0.0038003233
 40
0.005428518
 40
0.0073477641
 40
0.0095571609
 40
0.0120557335
 40
0.0148424643
 40
0.0179162382
 40
0.0212751121
 40
0.0288382588
 40
0.0375120204
 40
0.0472764321
 40
0.0581113442
 40
0.0699919127
 40
0.0828877919
 40
0.0967683077
 40
0.1116027761
 40
0.1273588765
 40
0.1439974654
 40
0.1797583629
 40
0.218552819
 40
0.2600082132
 40
0.3037319406
 40
0.3493096228
 40
0.3963080375
 40
0.4442859309
 40
0.4927900925
 40
0.5413649412
 40
0.5895515669
 40
0.636893363
 40
0.6829459923
 40
0.7272710626
 40
0.7694521559
 40
0.8090852961
 40
0.845796065
 40
0.879237718
 40
0.8946311671
 40
0.9090934443
 40
0.9225907318
 40
0.9350892864
 40
0.9465591648
 40
0.9569763024
 40
0.9663171551
 40
0.9745582053
 40
0.9816773892
 40
0.9876598749
 40
0.9902209817
 40
0.9924932944
 40
0.9944753324
 40
0.9961656795
 40
0.9975630397
 40
0.9986667917
 40
0.9994779522
 40
0.9997747172
 40
1.0
 40
1.0
 40
1.0
 40
1.0
 10
4.609567518
 20
6.2275624001
 30
0.0
 10
4.6095674906
 20
6.2276042178
 30
0.0
 10
4.6096196003
 20
6.2276711519
 30
0.0
 10
4.6097132743
 20
6.2277319942
 30
0.0
 10
4.6098237924
 20
6.2277864492
 30
0.0
 10
4.6099641071
 20
6.227839908
 30
0.0
 10
4.6102116071
 20
6.2279179337
 30
0.0
 10
4.6105999238
 20
6.228011729
 30
0.0
 10
4.6111598951
 20
6.2281190833
 30
0.0
 10
4.611843537
 20
6.2282270574
 30
0.0
 10
4.612650712
 20
6.2283357152
 30
0.0
 10
4.6139726544
 20
6.2284905688
 30
0.0
 10
4.6159334972
 20
6.2286798349
 30
0.0
 10
4.6186553281
 20
6.2288980549
 30
0.0
 10
4.6218664577
 20
6.2291180582
 30
0.0
 10
4.6255650655
 20
6.2293398283
 30
0.0
 10
4.6297493536
 20
6.2295632165
 30
0.0
 10
4.6344174387
 20
6.2297882251
 30
0.0
 10
4.6395669405
 20
6.2300148985
 30
0.0
 10
4.647385464
 20
6.230331762
 30
0.0
 10
4.6583342742
 20
6.2307255545
 30
0.0
 10
4.6728641755
 20
6.2311845046
 30
0.0
 10
4.6892240827
 20
6.2316440505
 30
0.0
 10
4.7073775665
 20
6.232101659
 30
0.0
 10
4.7272824077
 20
6.2325558499
 30
0.0
 10
4.7488904987
 20
6.2330064841
 30
0.0
 10
4.7721504997
 20
6.2334530332
 30
0.0
 10
4.7970099805
 20
6.2338950706
 30
0.0
 10
4.8234117868
 20
6.2343321359
 30
0.0
 10
4.8615123716
 20
6.2349258675
 30
0.0
 10
4.9124928329
 20
6.2356614126
 30
0.0
 10
4.9773474432
 20
6.2365443782
 30
0.0
 10
5.0466541416
 20
6.2374466612
 30
0.0
 10
5.1197533937
 20
6.2383644498
 30
0.0
 10
5.1959518787
 20
6.239287047
 30
0.0
 10
5.2745291735
 20
6.2401948908
 30
0.0
 10
5.3547430072
 20
6.2410790724
 30
0.0
 10
5.4358384022
 20
6.2419503525
 30
0.0
 10
5.5170505533
 20
6.2428170123
 30
0.0
 10
5.5976126824
 20
6.2436946214
 30
0.0
 10
5.6767642789
 20
6.2445987081
 30
0.0
 10
5.753756595
 20
6.2455173135
 30
0.0
 10
5.8278633733
 20
6.2464375169
 30
0.0
 10
5.8983809009
 20
6.2473483085
 30
0.0
 10
5.9646412816
 20
6.2482354589
 30
0.0
 10
6.0260153523
 20
6.2491012228
 30
0.0
 10
6.0738376521
 20
6.2498391342
 30
0.0
 10
6.1092215577
 20
6.2504414258
 30
0.0
 10
6.1334558243
 20
6.2508839668
 30
0.0
 10
6.1560712129
 20
6.2513306158
 30
0.0
 10
6.1770131187
 20
6.25178239
 30
0.0
 10
6.1962323851
 20
6.2522392818
 30
0.0
 10
6.2136855982
 20
6.2526986423
 30
0.0
 10
6.2293329024
 20
6.2531582314
 30
0.0
 10
6.2431355388
 20
6.2536155695
 30
0.0
 10
6.2550595236
 20
6.2540684302
 30
0.0
 10
6.2638078915
 20
6.2544580205
 30
0.0
 10
6.2698467625
 20
6.2547736266
 30
0.0
 10
6.2736507343
 20
6.2549964219
 30
0.0
 10
6.2769670687
 20
6.2552174337
 30
0.0
 10
6.2797930704
 20
6.2554365492
 30
0.0
 10
6.2821267339
 20
6.2556526317
 30
0.0
 10
6.283966204
 20
6.255866198
 30
0.0
 10
6.2851896365
 20
6.2560523558
 30
0.0
 10
6.2859180433
 20
6.2562111207
 30
0.0
 10
6.2861991961
 20
6.2562915226
 30
0.0
 10
6.2863175767
 20
6.2563345385
 30
0.0
  0
SPLINE
  5
3C8
100
AcDbEntity
  8
0
100
AcDbSpline
 62
7
  6
CONTINUOUS
 70
0
 71
3
 72
60
 73
56
 74
0
 42
0.0000001
 43
0.0000001
 44
0.0000000001
 40
0.0
 40
0.0
 40
0.0
 40
0.0
 40
0.0000720069
 40
0.000125672
 40
0.000194155
 40
0.0003789361
 40
0.0006301373
 40
0.0009490595
 40
0.0013363209
 40
0.0017922611
 40
0.0023170857
 40
0.0035738451
 40
0.0051066516
 40
0.0069144218
 40
0.0089958807
 40
0.0113496803
 40
0.0139744304
 40
0.016868715
 40
0.0200311008
 40
0.027154376
 40
0.0353300346
 40
0.0445374558
 40
0.0547550326
 40
0.0659611359
 40
0.078133752
 40
0.0912457635
 40
0.1052663436
 40
0.120164572
 40
0.1359095181
 40
0.1698020805
 40
0.2066362736
 40
0.2460901294
 40
0.2878099951
 40
0.3314272867
 40
0.376556403
 40
0.4227964174
 40
0.4697399779
 40
0.5169688698
 40
0.5640646596
 40
0.6106126343
 40
0.6562005004
 40
0.7429016177
 40
0.7832450695
 40
0.8210992158
 40
0.8561239211
 40
0.8880135407
 40
0.916479843
 40
0.9412826586
 40
0.9621987059
 40
0.9711427378
 40
0.9790516376
 40
0.9859061319
 40
0.991688964
 40
0.9963897659
 40
1.0
 40
1.0
 40
1.0
 40
1.0
 10
6.2866806463
 20
6.2327694378
 30
0.0
 10
6.2866806469
 20
6.2327293405
 30
0.0
 10
6.2866325846
 20
6.2326649152
 30
0.0
 10
6.2865444681
 20
6.2326056271
 30
0.0
 10
6.2863908809
 20
6.2325277324
 30
0.0
 10
6.2861242647
 20
6.2324381733
 30
0.0
 10
6.285716383
 20
6.2323352349
 30
0.0
 10
6.2851932179
 20
6.2322319492
 30
0.0
 10
6.284554482
 20
6.2321275462
 30
0.0
 10
6.283799896
 20
6.2320226372
 30
0.0
 10
6.2825629029
 20
6.2318729157
 30
0.0
 10
6.2807262069
 20
6.2316897756
 30
0.0
 10
6.2781748487
 20
6.2314783433
 30
0.0
 10
6.2751630548
 20
6.231265009
 30
0.0
 10
6.2716932292
 20
6.2310499292
 30
0.0
 10
6.2677677793
 20
6.230833407
 30
0.0
 10
6.2633891598
 20
6.2306155843
 30
0.0
 10
6.2585598287
 20
6.2303965724
 30
0.0
 10
6.2512268839
 20
6.2300908445
 30
0.0
 10
6.2409535902
 20
6.2297110905
 30
0.0
 10
6.2273143108
 20
6.2292676335
 30
0.0
 10
6.2119512
 20
6.2288225422
 30
0.0
 10
6.1948999342
 20
6.2283778531
 30
0.0
 10
6.1761969214
 20
6.2279356259
 30
0.0
 10
6.1558816156
 20
6.2274982385
 30
0.0
 10
6.1339986256
 20
6.2270658008
 30
0.0
 10
6.1105975213
 20
6.2266372963
 30
0.0
 10
6.0857299723
 20
6.22621202
 30
0.0
 10
6.0497976459
 20
6.2256341162
 30
0.0
 10
6.0016508038
 20
6.2249218357
 30
0.0
 10
5.9403021212
 20
6.2240775079
 30
0.0
 10
5.8745947077
 20
6.2232088898
 30
0.0
 10
5.805110008
 20
6.222322863
 30
0.0
 10
5.7324648425
 20
6.2214310941
 30
0.0
 10
5.6573023761
 20
6.2205440139
 30
0.0
 10
5.5802873363
 20
6.2196746129
 30
0.0
 10
5.5021027031
 20
6.2188283798
 30
0.0
 10
5.4234414262
 20
6.2179892171
 30
0.0
 10
5.3450005079
 20
6.2171441762
 30
0.0
 10
5.2674735933
 20
6.2162863068
 30
0.0
 10
5.1678942586
 20
6.2151308335
 30
0.0
 10
5.0717705453
 20
6.2139441092
 30
0.0
 10
4.9799538438
 20
6.2127493975
 30
0.0
 10
4.9169113815
 20
6.2118936286
 30
0.0
 10
4.8585766487
 20
6.2110573062
 30
0.0
 10
4.8054701175
 20
6.2102227517
 30
0.0
 10
4.7580567012
 20
6.2093736626
 30
0.0
 10
4.7167553291
 20
6.2085121298
 30
0.0
 10
4.686325477
 20
6.2077498564
 30
0.0
 10
4.6653029821
 20
6.207123124
 30
0.0
 10
4.6521088089
 20
6.2066799673
 30
0.0
 10
4.6406759454
 20
6.2062410608
 30
0.0
 10
4.6310306768
 20
6.2058091997
 30
0.0
 10
4.6231938842
 20
6.2053846469
 30
0.0
 10
4.6185762279
 20
6.2050684812
 30
0.0
 10
4.6165729343
 20
6.2048999228
 30
0.0
  0
SPLINE
  5
3C9
100
AcDbEntity
  8
0
100
AcDbSpline
 62
7
  6
CONTINUOUS
 70
0
 71
3
 72
12
 73
8
 74
0
 42
0.0000001
 43
0.0000001
 44
0.0000000001
 40
0.0
 40
0.0
 40
0.0
 40
0.0
 40
0.3597032356
 40
0.6462118714
 40
0.8594727873
 40
0.938746241
 40
1.0
 40
1.0
 40
1.0
 40
1.0
 10
4.6165729343
 20
6.2048999228
 30
0.0
 10
4.6157803661
 20
6.2048332357
 30
0.0
 10
4.6143571519
 20
6.2047043192
 30
0.0
 10
4.6124686997
 20
6.2044911538
 30
0.0
 10
4.6112010761
 20
6.2043051829
 30
0.0
 10
4.6104347195
 20
6.2041474619
 30
0.0
 10
4.6101339795
 20
6.2040676295
 30
0.0
 10
4.6100053198
 20
6.2040253033
 30
0.0
  0
SPLINE
  5
3CA
100
AcDbEntity
  8
0
100
AcDbSpline
 62
9
  6
CONTINUOUS
 70
0
 71
3
 72
20
 73
16
 74
0
 42
0.0000001
 43
0.0000001
 44
0.0000000001
 40
0.0
 40
0.0
 40
0.0
 40
0.0
 40
0.0189849403
 40
0.0298433326
 40
0.0420251637
 40
0.0710742037
 40
0.1070804562
 40
0.1503571175
 40
0.2009513929
 40
0.2586069221
 40
0.3228709143
 40
0.4691695417
 40
0.6354246125
 40
0.8150297357
 40
1.0
 40
1.0
 40
1.0
 40
1.0
 10
5.1118627569
 20
5.1013055858
 30
0.0
 10
5.1117085083
 20
5.1013055858
 30
0.0
 10
5.1114643546
 20
5.1012360302
 30
0.0
 10
5.111177454
 20
5.1010499789
 30
0.0
 10
5.1108608864
 20
5.1007665178
 30
0.0
 10
5.1104796386
 20
5.1002622352
 30
0.0
 10
5.11005882
 20
5.0994872941
 30
0.0
 10
5.1096539518
 20
5.0985111553
 30
0.0
 10
5.1092707297
 20
5.0973403284
 30
0.0
 10
5.108912006
 20
5.0959847366
 30
0.0
 10
5.1084500751
 20
5.0938544748
 30
0.0
 10
5.1079713389
 20
5.0908281511
 30
0.0
 10
5.1075619591
 20
5.0868490789
 30
0.0
 10
5.1073086049
 20
5.0825424707
 30
0.0
 10
5.1072494218
 20
5.0795800836
 30
0.0
 10
5.1072494218
 20
5.0780772393
 30
0.0
  0
SPLINE
  5
3CB
100
AcDbEntity
  8
0
100
AcDbSpline
 62
7
  6
CONTINUOUS
 70
0
 71
3
 72
61
 73
57
 74
0
 42
0.0000001
 43
0.0000001
 44
0.0000000001
 40
0.0
 40
0.0
 40
0.0
 40
0.0
 40
0.0000719555
 40
0.000125528
 40
0.0001938617
 40
0.000378151
 40
0.0006285639
 40
0.0009463545
 40
0.0013320935
 40
0.0017860729
 40
0.0023084505
 40
0.0035586816
 40
0.0050830804
 40
0.0068816021
 40
0.0089538242
 40
0.0112983218
 40
0.0139134016
 40
0.0167973453
 40
0.0199484182
 40
0.0270449551
 40
0.0351889752
 40
0.0443649671
 40
0.0545507659
 40
0.0657222247
 40
0.0778551807
 40
0.0909253734
 40
0.10490481
 40
0.1197604478
 40
0.1354588764
 40
0.1692495826
 40
0.2059809685
 40
0.2453236876
 40
0.286934645
 40
0.3304424068
 40
0.3754677451
 40
0.4216115333
 40
0.4684673683
 40
0.5156220755
 40
0.5626574192
 40
0.6091593088
 40
0.6547200432
 40
0.6989377891
 40
0.7414265661
 40
0.7818070513
 40
0.8197255825
 40
0.8548410911
 40
0.8868447396
 40
0.9154558752
 40
0.9404205398
 40
0.9615271677
 40
0.9705708876
 40
0.9785828292
 40
0.9855469654
 40
0.9914473395
 40
0.9962683665
 40
1.0
 40
1.0
 40
1.0
 40
1.0
 10
4.6095648386
 20
6.2856340165
 30
0.0
 10
4.6095648526
 20
6.2856740696
 30
0.0
 10
4.6096127625
 20
6.2857384176
 30
0.0
 10
4.609700671
 20
6.2857976745
 30
0.0
 10
4.6098537728
 20
6.2858754584
 30
0.0
 10
4.6101194835
 20
6.2859648843
 30
0.0
 10
4.6105258586
 20
6.2860676272
 30
0.0
 10
4.6110469055
 20
6.2861706775
 30
0.0
 10
4.6116828292
 20
6.2862747937
 30
0.0
 10
4.6124338294
 20
6.2863793643
 30
0.0
 10
4.6136642718
 20
6.2865284971
 30
0.0
 10
4.6154906041
 20
6.2867107918
 30
0.0
 10
4.6180275391
 20
6.2869211608
 30
0.0
 10
4.6210232097
 20
6.2871335579
 30
0.0
 10
4.6244762135
 20
6.2873480579
 30
0.0
 10
4.6283844148
 20
6.2875643066
 30
0.0
 10
4.6327449863
 20
6.2877820689
 30
0.0
 10
4.6375549717
 20
6.2880011288
 30
0.0
 10
4.6448580859
 20
6.2883069175
 30
0.0
 10
4.655088554
 20
6.2886864591
 30
0.0
 10
4.668672524
 20
6.2891288101
 30
0.0
 10
4.6839768568
 20
6.2895724545
 30
0.0
 10
4.7009670057
 20
6.2900159291
 30
0.0
 10
4.7196036605
 20
6.290457524
 30
0.0
 10
4.7398463606
 20
6.2908956765
 30
0.0
 10
4.761652528
 20
6.2913284683
 30
0.0
 10
4.784974621
 20
6.2917555315
 30
0.0
 10
4.8097599773
 20
6.2921789061
 30
0.0
 10
4.8455719957
 20
6.2927545621
 30
0.0
 10
4.8935602022
 20
6.2934668926
 30
0.0
 10
4.9547091247
 20
6.2943114042
 30
0.0
 10
5.0202112332
 20
6.2951739707
 30
0.0
 10
5.0894853415
 20
6.2960591742
 30
0.0
 10
5.1619227745
 20
6.2969506027
 30
0.0
 10
5.2368836322
 20
6.29783342
 30
0.0
 10
5.313708432
 20
6.2987024577
 30
0.0
 10
5.3917188197
 20
6.2995505977
 30
0.0
 10
5.4702256443
 20
6.3003859218
 30
0.0
 10
5.5485353659
 20
6.3012281329
 30
0.0
 10
5.6259575813
 20
6.3020878441
 30
0.0
 10
5.7018111401
 20
6.3029634545
 30
0.0
 10
5.7754305203
 20
6.3038541686
 30
0.0
 10
5.8461661777
 20
6.304743802
 30
0.0
 10
5.9133954099
 20
6.3056152424
 30
0.0
 10
5.9765202933
 20
6.3064687281
 30
0.0
 10
6.0349820882
 20
6.3073071363
 30
0.0
 10
6.0882625722
 20
6.3081393026
 30
0.0
 10
6.1358918029
 20
6.3089823321
 30
0.0
 10
6.1774538555
 20
6.3098458535
 30
0.0
 10
6.2081236264
 20
6.3106051275
 30
0.0
 10
6.2293570039
 20
6.3112294654
 30
0.0
 10
6.2427200123
 20
6.3116720199
 30
0.0
 10
6.2543323442
 20
6.3121112458
 30
0.0
 10
6.2641673308
 20
6.3125446493
 30
0.0
 10
6.2722012247
 20
6.3129699845
 30
0.0
 10
6.276951904
 20
6.3132848399
 30
0.0
 10
6.2790223542
 20
6.3134516984
 30
0.0
  0
SPLINE
  5
3CC
100
AcDbEntity
  8
0
100
AcDbSpline
 62
7
  6
CONTINUOUS
 70
0
 71
3
 72
13
 73
9
 74
0
 42
0.0000001
 43
0.0000001
 44
0.0000000001
 40
0.0
 40
0.0
 40
0.0
 40
0.0
 40
0.3676265581
 40
0.6566804328
 40
0.7717618667
 40
0.8672572195
 40
0.9432622005
 40
1.0
 40
1.0
 40
1.0
 40
1.0
 10
6.2790223542
 20
6.3134516984
 30
0.0
 10
6.2799197311
 20
6.3135240184
 30
0.0
 10
6.2815218408
 20
6.3136637938
 30
0.0
 10
6.2834010957
 20
6.3138682617
 30
0.0
 10
6.2846129116
 20
6.3140378553
 30
0.0
 10
6.2853051945
 20
6.3141543138
 30
0.0
 10
6.2858521362
 20
6.3142697172
 30
0.0
 10
6.2861658938
 20
6.3143573503
 30
0.0
 10
6.2862965
 20
6.3144047637
 30
0.0
  0
SPLINE
  5
3CD
100
AcDbEntity
  8
0
100
AcDbSpline
 62
7
  6
CONTINUOUS
 70
0
 71
3
 72
70
 73
66
 74
0
 42
0.0000001
 43
0.0000001
 44
0.0000000001
 40
0.0
 40
0.0
 40
0.0
 40
0.0
 40
0.000074804
 40
0.0001313168
 40
0.0002037198
 40
0.0003995736
 40
0.0006661074
 40
0.0010045396
 40
0.0014154023
 40
0.0018989481
 40
0.0024552959
 40
0.0037865229
 40
0.0054090668
 40
0.0073225735
 40
0.0095265487
 40
0.0120203378
 40
0.0148023531
 40
0.0178704567
 40
0.0212224885
 40
0.0287696395
 40
0.0374263712
 40
0.0471750547
 40
0.0579934733
 40
0.0698535071
 40
0.0827266288
 40
0.096584299
 40
0.1113965291
 40
0.127126646
 40
0.1437360336
 40
0.1794378465
 40
0.2181694028
 40
0.2595573707
 40
0.3032145554
 40
0.3487244518
 40
0.3956618871
 40
0.4435836415
 40
0.4920395462
 40
0.540573377
 40
0.5887256244
 40
0.6360430022
 40
0.6820783294
 40
0.726397444
 40
0.7685865508
 40
0.8082447314
 40
0.8450005324
 40
0.878497484
 40
0.8939269157
 40
0.9084282487
 40
0.9219651644
 40
0.9345061569
 40
0.9460243987
 40
0.9564932673
 40
0.9658861596
 40
0.974178965
 40
0.9813548711
 40
0.9873984769
 40
0.989990905
 40
0.9922945696
 40
0.994307643
 40
0.99602898
 40
0.9974583849
 40
0.9985959473
 40
0.9994422971
 40
0.9997569243
 40
1.0
 40
1.0
 40
1.0
 40
1.0
 10
6.2866611768
 20
6.2908402048
 30
0.0
 10
6.2866611475
 20
6.2907983851
 30
0.0
 10
6.2866090016
 20
6.2907315409
 30
0.0
 10
6.2865153825
 20
6.2906706902
 30
0.0
 10
6.2863510938
 20
6.2905900393
 30
0.0
 10
6.2860665111
 20
6.2904975665
 30
0.0
 10
6.2856312823
 20
6.2903911648
 30
0.0
 10
6.2850733587
 20
6.2902844833
 30
0.0
 10
6.2843925286
 20
6.2901766718
 30
0.0
 10
6.2835886792
 20
6.2900684044
 30
0.0
 10
6.2822720582
 20
6.2899140267
 30
0.0
 10
6.280318615
 20
6.2897253778
 30
0.0
 10
6.2776061822
 20
6.2895077679
 30
0.0
 10
6.2744046403
 20
6.2892881941
 30
0.0
 10
6.2707151801
 20
6.28906657
 30
0.0
 10
6.2665395132
 20
6.2888429522
 30
0.0
 10
6.2618802231
 20
6.2886175253
 30
0.0
 10
6.2567406873
 20
6.2883905853
 30
0.0
 10
6.2489385923
 20
6.2880736778
 30
0.0
 10
6.2380127364
 20
6.2876802814
 30
0.0
 10
6.2235109634
 20
6.2872221436
 30
0.0
 10
6.2071795683
 20
6.2867636324
 30
0.0
 10
6.1890566842
 20
6.2863063916
 30
0.0
 10
6.1691865021
 20
6.285851532
 30
0.0
 10
6.1476167198
 20
6.2854003528
 30
0.0
 10
6.124396062
 20
6.2849540797
 30
0.0
 10
6.0995777947
 20
6.2845140519
 30
0.0
 10
6.0732208676
 20
6.2840780254
 30
0.0
 10
6.0351864829
 20
6.2834848631
 30
0.0
 10
5.9842936734
 20
6.2827479122
 30
0.0
 10
5.9195488751
 20
6.2818673748
 30
0.0
 10
5.8503564213
 20
6.2809683362
 30
0.0
 10
5.7773744355
 20
6.2800490867
 30
0.0
 10
5.7012897625
 20
6.279128014
 30
0.0
 10
5.6228205905
 20
6.2782233164
 30
0.0
 10
5.5427041338
 20
6.2773356983
 30
0.0
 10
5.4616949502
 20
6.2764662877
 30
0.0
 10
5.3805568409
 20
6.27560251
 30
0.0
 10
5.3000554455
 20
6.2747223214
 30
0.0
 10
5.2209511827
 20
6.2738206763
 30
0.0
 10
5.1439901689
 20
6.2729050711
 30
0.0
 10
5.0698964382
 20
6.2719834919
 30
0.0
 10
4.9993680333
 20
6.2710740064
 30
0.0
 10
4.9330679801
 20
6.2701901361
 30
0.0
 10
4.8716275845
 20
6.2693216133
 30
0.0
 10
4.8237319656
 20
6.2685846756
 30
0.0
 10
4.7882772893
 20
6.2679851678
 30
0.0
 10
4.763980352
 20
6.2675442119
 30
0.0
 10
4.7412986144
 20
6.2670974007
 30
0.0
 10
4.7202850695
 20
6.2666446624
 30
0.0
 10
4.7009872577
 20
6.266188196
 30
0.0
 10
4.6834500025
 20
6.2657297566
 30
0.0
 10
4.6677166359
 20
6.2652711995
 30
0.0
 10
4.6538250364
 20
6.2648143561
 30
0.0
 10
4.641806917
 20
6.2643609
 30
0.0
 10
4.6329756461
 20
6.2639705651
 30
0.0
 10
4.626867856
 20
6.263654739
 30
0.0
 10
4.6230116446
 20
6.2634318653
 30
0.0
 10
4.6196431858
 20
6.2632111048
 30
0.0
 10
4.6167645662
 20
6.2629925278
 30
0.0
 10
4.6143766763
 20
6.2627768388
 30
0.0
 10
4.6124803951
 20
6.2625635036
 30
0.0
 10
4.6112081076
 20
6.2623772868
 30
0.0
 10
4.6104391005
 20
6.2622192665
 30
0.0
 10
4.6101373159
 20
6.2621392347
 30
0.0
 10
4.6100082273
 20
6.2620967719
 30
0.0
  0
SPLINE
  5
3CE
100
AcDbEntity
  8
0
100
AcDbSpline
 62
7
  6
CONTINUOUS
 70
0
 71
3
 72
46
 73
42
 74
0
 42
0.0000001
 43
0.0000001
 44
0.0000000001
 40
0.0
 40
0.0
 40
0.0
 40
0.0
 40
0.000148326
 40
0.0002781274
 40
0.0004508355
 40
0.000667964
 40
0.0009302677
 40
0.0012381779
 40
0.0015919642
 40
0.0024376092
 40
0.003467526
 40
0.0046815657
 40
0.006079406
 40
0.0094247541
 40
0.0134997614
 40
0.018300193
 40
0.0238216387
 40
0.0300589101
 40
0.0370035124
 40
0.0446459571
 40
0.0529767373
 40
0.0619863338
 40
0.0716652191
 40
0.0929889769
 40
0.1168441969
 40
0.1431176706
 40
0.1716937334
 40
0.2024353183
 40
0.235194066
 40
0.2698200848
 40
0.3061476888
 40
0.3440012808
 40
0.3832045357
 40
0.4235719175
 40
0.5070268489
 40
0.5927988782
 40
0.6792733278
 40
0.764808135
 40
0.8477896323
 40
0.9267142593
 40
1.0
 40
1.0
 40
1.0
 40
1.0
 10
4.6095600819
 20
6.3437041355
 30
0.0
 10
4.6095600455
 20
6.3437699815
 30
0.0
 10
4.6096793707
 20
6.3438648652
 30
0.0
 10
4.6098527366
 20
6.3439442816
 30
0.0
 10
4.6100740937
 20
6.344021453
 30
0.0
 10
4.6103525404
 20
6.3440963913
 30
0.0
 10
4.6106941385
 20
6.3441728543
 30
0.0
 10
4.6110970402
 20
6.3442493038
 30
0.0
 10
4.6117573589
 20
6.3443583435
 30
0.0
 10
4.6127381683
 20
6.3444914751
 30
0.0
 10
4.6141012056
 20
6.3446448162
 30
0.0
 10
4.6157105686
 20
6.3447991687
 30
0.0
 10
4.6183459883
 20
6.3450196222
 30
0.0
 10
4.6222514821
 20
6.3452895746
 30
0.0
 10
4.6276676978
 20
6.3456017135
 30
0.0
 10
4.6340511354
 20
6.3459172415
 30
0.0
 10
4.6413953076
 20
6.3462361139
 30
0.0
 10
4.6496920064
 20
6.3465580236
 30
0.0
 10
4.658930826
 20
6.3468821708
 30
0.0
 10
4.6690994843
 20
6.3472076757
 30
0.0
 10
4.6801852631
 20
6.3475336914
 30
0.0
 10
4.6921754418
 20
6.3478593994
 30
0.0
 10
4.7099323496
 20
6.3483067731
 30
0.0
 10
4.7342791448
 20
6.3488545589
 30
0.0
 10
4.7659926114
 20
6.3494849582
 30
0.0
 10
4.800926283
 20
6.3501078751
 30
0.0
 10
4.8389175746
 20
6.3507225389
 30
0.0
 10
4.879788246
 20
6.3513342715
 30
0.0
 10
4.9233448863
 20
6.351949656
 30
0.0
 10
4.969381403
 20
6.3525756726
 30
0.0
 10
5.0176797184
 20
6.3532125449
 30
0.0
 10
5.0680100625
 20
6.3538573827
 30
0.0
 10
5.1201338422
 20
6.3545082391
 30
0.0
 10
5.1925000195
 20
6.3553885188
 30
0.0
 10
5.285538463
 20
6.3564674464
 30
0.0
 10
5.3990446486
 20
6.3577009903
 30
0.0
 10
5.5134743757
 20
6.3589176861
 30
0.0
 10
5.6266650406
 20
6.3601535165
 30
0.0
 10
5.736503293
 20
6.3614447373
 30
0.0
 10
5.8409034058
 20
6.362739198
 30
0.0
 10
5.9084679927
 20
6.3636235839
 30
0.0
 10
5.9409985434
 20
6.3640656523
 30
0.0
  0
SPLINE
  5
3CF
100
AcDbEntity
  8
0
100
AcDbSpline
 62
9
  6
CONTINUOUS
 70
0
 71
3
 72
20
 73
16
 74
0
 42
0.0000001
 43
0.0000001
 44
0.0000000001
 40
0.0
 40
0.0
 40
0.0
 40
0.0
 40
0.0189849403
 40
0.0298433326
 40
0.0420251637
 40
0.0710742037
 40
0.1070804562
 40
0.1503571175
 40
0.2009513929
 40
0.2586069222
 40
0.3228709143
 40
0.4691695418
 40
0.6354246125
 40
0.8150297357
 40
1.0
 40
1.0
 40
1.0
 40
1.0
 10
6.1765051989
 20
5.1013055858
 30
0.0
 10
6.1763509503
 20
5.1013055858
 30
0.0
 10
6.1761067966
 20
5.1012360302
 30
0.0
 10
6.175819896
 20
5.1010499789
 30
0.0
 10
6.1755033284
 20
5.1007665178
 30
0.0
 10
6.1751220806
 20
5.1002622352
 30
0.0
 10
6.174701262
 20
5.0994872941
 30
0.0
 10
6.1742963938
 20
5.0985111553
 30
0.0
 10
6.1739131717
 20
5.0973403284
 30
0.0
 10
6.173554448
 20
5.0959847366
 30
0.0
 10
6.1730925171
 20
5.0938544748
 30
0.0
 10
6.1726137809
 20
5.0908281511
 30
0.0
 10
6.1722044011
 20
5.0868490789
 30
0.0
 10
6.1719510469
 20
5.0825424707
 30
0.0
 10
6.1718918638
 20
5.0795800836
 30
0.0
 10
6.1718918638
 20
5.0780772393
 30
0.0
  0
SPLINE
  5
3D0
100
AcDbEntity
  8
0
100
AcDbSpline
 62
9
  6
CONTINUOUS
 70
0
 71
3
 72
17
 73
13
 74
0
 42
0.0000001
 43
0.0000001
 44
0.0000000001
 40
0.0
 40
0.0
 40
0.0
 40
0.0
 40
0.121070162
 40
0.2435816805
 40
0.3052738518
 40
0.3671420835
 40
0.4914619665
 40
0.6170825389
 40
0.6805347332
 40
0.744363869
 40
0.8724345337
 40
1.0
 40
1.0
 40
1.0
 40
1.0
 10
6.2113230652
 20
5.1013055858
 30
0.0
 10
6.2098906168
 20
5.1013055858
 30
0.0
 10
6.2070014261
 20
5.1009938017
 30
0.0
 10
6.2035374924
 20
5.0998864819
 30
0.0
 10
6.2009238023
 20
5.0985937652
 30
0.0
 10
6.1984384377
 20
5.0970280181
 30
0.0
 10
6.1956327045
 20
5.094592763
 30
0.0
 10
6.1933426423
 20
5.0916451663
 30
0.0
 10
6.1918673648
 20
5.0890371513
 30
0.0
 10
6.1906394942
 20
5.0862721552
 30
0.0
 10
6.1895936865
 20
5.0826173054
 30
0.0
 10
6.1893007968
 20
5.0795865372
 30
0.0
 10
6.1893007968
 20
5.0780772393
 30
0.0
  0
SPLINE
  5
3D1
100
AcDbEntity
  8
0
100
AcDbSpline
 62
7
  6
CONTINUOUS
 70
0
 71
3
 72
14
 73
10
 74
0
 42
0.0000001
 43
0.0000001
 44
0.0000000001
 40
0.0
 40
0.0
 40
0.0
 40
0.0
 40
0.0458010434
 40
0.1140683429
 40
0.2049857231
 40
0.3186046275
 40
0.4549320692
 40
0.6139560212
 40
1.0
 40
1.0
 40
1.0
 40
1.0
 10
4.5990750993
 20
4.6324854391
 30
0.0
 10
4.5992241324
 20
4.6325347539
 30
0.0
 10
4.5996075028
 20
4.6326178684
 30
0.0
 10
4.6003014008
 20
4.6327259202
 30
0.0
 10
4.6012303981
 20
4.6328349558
 30
0.0
 10
4.6023933854
 20
4.6329458117
 30
0.0
 10
4.6037907288
 20
4.6330574116
 30
0.0
 10
4.6061206705
 20
4.6332178391
 30
0.0
 10
4.6079860239
 20
4.6333222302
 30
0.0
 10
4.6093073976
 20
4.6333906299
 30
0.0
  0
LINE
  5
3D2
100
AcDbEntity
  8
0
100
AcDbLine
 62
7
  6
CONTINUOUS
 10
4.6096209451
 20
4.6334067467
 11
4.619207489
 21
4.6338226604
  0
SPLINE
  5
3D3
100
AcDbEntity
  8
0
100
AcDbSpline
 62
7
  6
CONTINUOUS
 70
0
 71
3
 72
11
 73
7
 74
0
 42
0.0000001
 43
0.0000001
 44
0.0000000001
 40
0.0
 40
0.0
 40
0.0
 40
0.0
 40
0.1843687757
 40
0.4130681735
 40
0.6853200461
 40
1.0
 40
1.0
 40
1.0
 40
1.0
 10
4.619207489
 20
4.6338226604
 30
0.0
 10
4.6235721474
 20
4.6339876237
 30
0.0
 10
4.6333528766
 20
4.6343051636
 30
0.0
 10
4.6495826739
 20
4.6347378223
 30
0.0
 10
4.6689004593
 20
4.6351734163
 30
0.0
 10
4.6828024855
 20
4.6354451041
 30
0.0
 10
4.6902561189
 20
4.6355826219
 30
0.0
  0
SPLINE
  5
3D4
100
AcDbEntity
  8
0
100
AcDbSpline
 62
7
  6
CONTINUOUS
 70
0
 71
3
 72
23
 73
19
 74
0
 42
0.0000001
 43
0.0000001
 44
0.0000000001
 40
0.0
 40
0.0
 40
0.0
 40
0.0
 40
0.0379274896
 40
0.0837574773
 40
0.1367394778
 40
0.1959954395
 40
0.2605589808
 40
0.3293917187
 40
0.4013890917
 40
0.475394928
 40
0.5502204881
 40
0.6246664932
 40
0.6975516975
 40
0.7677218698
 40
0.8340616215
 40
0.8955172805
 40
0.9511174802
 40
1.0
 40
1.0
 40
1.0
 40
1.0
 10
4.6902561189
 20
4.6355826219
 30
0.0
 10
4.7086155192
 20
4.6359213488
 30
0.0
 10
4.749161586
 20
4.6365636483
 30
0.0
 10
4.8153582561
 20
4.6374200328
 30
0.0
 10
4.8918819822
 20
4.6382605152
 30
0.0
 10
4.9774758431
 20
4.6391152266
 30
0.0
 10
5.0707439339
 20
4.6399943466
 30
0.0
 10
5.1701808206
 20
4.6408947854
 30
0.0
 10
5.2741894168
 20
4.6417884168
 30
0.0
 10
5.3810997314
 20
4.6426576754
 30
0.0
 10
5.4891958176
 20
4.6434971843
 30
0.0
 10
5.5967492922
 20
4.6443422322
 30
0.0
 10
5.7020486041
 20
4.6452117124
 30
0.0
 10
5.8034228965
 20
4.6461101875
 30
0.0
 10
5.8992634099
 20
4.6470036029
 30
0.0
 10
5.9880498467
 20
4.6478688913
 30
0.0
 10
6.0683843332
 20
4.6486982553
 30
0.0
 10
6.118966016
 20
4.6492911438
 30
0.0
 10
6.142630392
 20
4.6495993168
 30
0.0
  0
SPLINE
  5
3D5
100
AcDbEntity
  8
0
100
AcDbSpline
 62
7
  6
CONTINUOUS
 70
0
 71
3
 72
31
 73
27
 74
0
 42
0.0000001
 43
0.0000001
 44
0.0000000001
 40
0.0
 40
0.0
 40
0.0
 40
0.0
 40
0.2253987612
 40
0.3282011794
 40
0.4241883661
 40
0.5132139751
 40
0.5951317005
 40
0.6697954549
 40
0.7370774178
 40
0.7968837721
 40
0.8491245806
 40
0.8723798994
 40
0.8937102642
 40
0.9131045979
 40
0.9305546516
 40
0.946057169
 40
0.959609576
 40
0.9712096056
 40
0.9808555478
 40
0.9885468178
 40
0.9916600456
 40
0.9942858655
 40
0.9964258857
 40
0.998083483
 40
0.9992666705
 40
1.0
 40
1.0
 40
1.0
 40
1.0
 10
6.142630392
 20
4.6495993168
 30
0.0
 10
6.1559027079
 20
4.6497721576
 30
0.0
 10
6.1752282388
 20
4.6500379755
 30
0.0
 10
6.2002051549
 20
4.6504246449
 30
0.0
 10
6.217151849
 20
4.6507084609
 30
0.0
 10
6.2328684547
 20
4.6509939664
 30
0.0
 10
6.2473291138
 20
4.6512801663
 30
0.0
 10
6.2605090515
 20
4.6515660278
 30
0.0
 10
6.2723865741
 20
4.6518506078
 30
0.0
 10
6.2829432672
 20
4.6521332191
 30
0.0
 10
6.2909074188
 20
4.6523748014
 30
0.0
 10
6.296606106
 20
4.6525689364
 30
0.0
 10
6.3003712455
 20
4.6527079906
 30
0.0
 10
6.3037943044
 20
4.6528461014
 30
0.0
 10
6.3068739053
 20
4.6529832197
 30
0.0
 10
6.3096091548
 20
4.653119358
 30
0.0
 10
6.3119994722
 20
4.6532545316
 30
0.0
 10
6.3140443647
 20
4.6533885854
 30
0.0
 10
6.315743273
 20
4.6535215419
 30
0.0
 10
6.3169421701
 20
4.6536373874
 30
0.0
 10
6.3177272491
 20
4.6537330781
 30
0.0
 10
6.3181866442
 20
4.6537993294
 30
0.0
 10
6.3185589424
 20
4.6538650638
 30
0.0
 10
6.3188459703
 20
4.6539298068
 30
0.0
 10
6.3190453258
 20
4.6539932548
 30
0.0
 10
6.3191496909
 20
4.6540444183
 30
0.0
 10
6.3191802272
 20
4.6540749546
 30
0.0
  0
SPLINE
  5
3D6
100
AcDbEntity
  8
0
100
AcDbSpline
 62
9
  6
CONTINUOUS
 70
0
 71
3
 72
9
 73
5
 74
0
 42
0.0000001
 43
0.0000001
 44
0.0000000001
 40
0.0
 40
0.0
 40
0.0
 40
0.0
 40
0.4972542575
 40
1.0
 40
1.0
 40
1.0
 40
1.0
 10
6.5568042143
 20
5.1013055858
 30
0.0
 10
6.5555293433
 20
5.1013055858
 30
0.0
 10
6.5529606735
 20
5.1010589158
 30
0.0
 10
6.5504795523
 20
5.100355071
 30
0.0
 10
6.5492754545
 20
5.0998951348
 30
0.0
  0
SPLINE
  5
3D7
100
AcDbEntity
  8
0
100
AcDbSpline
 62
9
  6
CONTINUOUS
 70
0
 71
3
 72
10
 73
6
 74
0
 42
0.0000001
 43
0.0000001
 44
0.0000000001
 40
0.0
 40
0.0
 40
0.0
 40
0.0
 40
0.2484707364
 40
0.4979232438
 40
1.0
 40
1.0
 40
1.0
 40
1.0
 10
6.5492754545
 20
5.0998951348
 30
0.0
 10
6.5483682829
 20
5.0995486173
 30
0.0
 10
6.5465938185
 20
5.0987313743
 30
0.0
 10
6.543292888
 20
5.0966236133
 30
0.0
 10
6.5411535842
 20
5.0945457144
 30
0.0
 10
6.5399320033
 20
5.0930100573
 30
0.0
  0
SPLINE
  5
3D8
100
AcDbEntity
  8
0
100
AcDbSpline
 62
9
  6
CONTINUOUS
 70
0
 71
3
 72
9
 73
5
 74
0
 42
0.0000001
 43
0.0000001
 44
0.0000000001
 40
0.0
 40
0.0
 40
0.0
 40
0.0
 40
0.5000183969
 40
1.0
 40
1.0
 40
1.0
 40
1.0
 10
6.5377323705
 20
5.0896914126
 30
0.0
 10
6.5367696541
 20
5.0879241013
 30
0.0
 10
6.5352999622
 20
5.084127089
 30
0.0
 10
6.534781946
 20
5.0800896051
 30
0.0
 10
6.534781946
 20
5.0780772393
 30
0.0
  0
SPLINE
  5
3D9
100
AcDbEntity
  8
0
100
AcDbSpline
 62
7
  6
CONTINUOUS
 70
0
 71
3
 72
33
 73
29
 74
0
 42
0.0000001
 43
0.0000001
 44
0.0000000001
 40
0.0
 40
0.0
 40
0.0
 40
0.0
 40
0.0004649475
 40
0.0010706952
 40
0.0027098567
 40
0.0049220353
 40
0.007707074
 40
0.0110637679
 40
0.0149904831
 40
0.0194853756
 40
0.0245464867
 40
0.0363589263
 40
0.0504020528
 40
0.0666390839
 40
0.0850324628
 40
0.1055441395
 40
0.1281268311
 40
0.15272427
 40
0.1792797928
 40
0.2380268834
 40
0.3038171285
 40
0.3760494375
 40
0.4540509739
 40
0.537108173
 40
0.6244389239
 40
0.7152357083
 40
0.8086866017
 40
1.0
 40
1.0
 40
1.0
 40
1.0
 10
4.5774819552
 20
4.6833963841
 30
0.0
 10
4.5776101975
 20
4.6834384462
 30
0.0
 10
4.5779112479
 20
4.6835174544
 30
0.0
 10
4.5786823626
 20
4.6836734432
 30
0.0
 10
4.5799639443
 20
4.683856812
 30
0.0
 10
4.5818788421
 20
4.6840668861
 30
0.0
 10
4.5842946999
 20
4.6842791206
 30
0.0
 10
4.5872094752
 20
4.6844939947
 30
0.0
 10
4.5906216409
 20
4.6847106658
 30
0.0
 10
4.594529298
 20
4.6849292156
 30
0.0
 10
4.6007243706
 20
4.685239174
 30
0.0
 10
4.6096906726
 20
4.6856235662
 30
0.0
 10
4.6219010237
 20
4.6860726973
 30
0.0
 10
4.6360226353
 20
4.686526737
 30
0.0
 10
4.6520226933
 20
4.6869833681
 30
0.0
 10
4.6698654317
 20
4.687439772
 30
0.0
 10
4.6895096517
 20
4.6878940744
 30
0.0
 10
4.7109087689
 20
4.6883449201
 30
0.0
 10
4.7428044349
 20
4.68896044
 30
0.0
 10
4.7866572031
 20
4.6897010227
 30
0.0
 10
4.8437688432
 20
4.6905504942
 30
0.0
 10
4.9064701128
 20
4.6914052983
 30
0.0
 10
4.9741838143
 20
4.6922767152
 30
0.0
 10
5.0462802541
 20
4.6931766195
 30
0.0
 10
5.1220909819
 20
4.6940907466
 30
0.0
 10
5.2009190196
 20
4.6950017812
 30
0.0
 10
5.3099295579
 20
4.6962070203
 30
0.0
 10
5.3925860669
 20
4.6970566019
 30
0.0
 10
5.448117236
 20
4.6976281039
 30
0.0
  0
SPLINE
  5
3DA
100
AcDbEntity
  8
0
100
AcDbSpline
 62
7
  6
CONTINUOUS
 70
0
 71
3
 72
33
 73
29
 74
0
 42
0.0000001
 43
0.0000001
 44
0.0000000001
 40
0.0
 40
0.0
 40
0.0
 40
0.0
 40
0.0004647028
 40
0.0010699418
 40
0.0027071548
 40
0.0049173632
 40
0.0077021453
 40
0.0110601032
 40
0.0149888514
 40
0.0194858047
 40
0.0245482692
 40
0.0363586362
 40
0.0503975075
 40
0.0666369358
 40
0.0850343656
 40
0.1055446313
 40
0.1281225106
 40
0.1527212231
 40
0.1792814062
 40
0.2380238402
 40
0.3038169022
 40
0.3760476165
 40
0.4540534637
 40
0.5371092734
 40
0.6244323404
 40
0.7152298316
 40
0.8086969647
 40
1.0
 40
1.0
 40
1.0
 40
1.0
 10
4.5774847289
 20
4.7414595694
 30
0.0
 10
4.5776129499
 20
4.7415014674
 30
0.0
 10
4.5779138337
 20
4.7415802189
 30
0.0
 10
4.5786842116
 20
4.7417358736
 30
0.0
 10
4.5799644604
 20
4.7419193611
 30
0.0
 10
4.5818780406
 20
4.7421302814
 30
0.0
 10
4.5842934479
 20
4.7423443328
 30
0.0
 10
4.5872089119
 20
4.7425617659
 30
0.0
 10
4.5906224366
 20
4.7427814343
 30
0.0
 10
4.5945314944
 20
4.7430030884
 30
0.0
 10
4.6007267408
 20
4.7433170823
 30
0.0
 10
4.6096914454
 20
4.7437047431
 30
0.0
 10
4.6219006173
 20
4.7441542557
 30
0.0
 10
4.6360229014
 20
4.7446062224
 30
0.0
 10
4.6520244807
 20
4.7450594795
 30
0.0
 10
4.6698666343
 20
4.745512414
 30
0.0
 10
4.6895094411
 20
4.745963659
 30
0.0
 10
4.7109088922
 20
4.7464117113
 30
0.0
 10
4.742804894
 20
4.7470250352
 30
0.0
 10
4.7866582657
 20
4.7477719952
 30
0.0
 10
4.8437687599
 20
4.7486229883
 30
0.0
 10
4.906471561
 20
4.7494723808
 30
0.0
 10
4.9741854303
 20
4.7503482419
 30
0.0
 10
5.0462802745
 20
4.7512517623
 30
0.0
 10
5.1220884202
 20
4.7521639131
 30
0.0
 10
5.2009189897
 20
4.7530725668
 30
0.0
 10
5.309931223
 20
4.7542741978
 30
0.0
 10
5.3925892049
 20
4.7551275003
 30
0.0
 10
5.448117236
 20
4.7556989701
 30
0.0
  0
SPLINE
  5
3DB
100
AcDbEntity
  8
0
100
AcDbSpline
 62
7
  6
CONTINUOUS
 70
0
 71
3
 72
23
 73
19
 74
0
 42
0.0000001
 43
0.0000001
 44
0.0000000001
 40
0.0
 40
0.0
 40
0.0
 40
0.0
 40
0.0044016398
 40
0.0105529548
 40
0.0184720162
 40
0.0281670158
 40
0.0396421312
 40
0.0528964187
 40
0.0847235363
 40
0.1236067901
 40
0.1695004712
 40
0.2223572267
 40
0.2821288412
 40
0.3487656142
 40
0.4221948214
 40
0.5890467557
 40
0.7819113083
 40
1.0
 40
1.0
 40
1.0
 40
1.0
 10
4.5774847289
 20
4.7995304355
 30
0.0
 10
4.5776723696
 20
4.7995917498
 30
0.0
 10
4.5781338057
 20
4.7997016768
 30
0.0
 10
4.5789496053
 20
4.7998454194
 30
0.0
 10
4.5800057338
 20
4.7999909955
 30
0.0
 10
4.5813019758
 20
4.8001385837
 30
0.0
 10
4.5828386993
 20
4.8002876022
 30
0.0
 10
4.5853661615
 20
4.8005013001
 30
0.0
 10
4.5891228223
 20
4.8007636909
 30
0.0
 10
4.5943434871
 20
4.8010676222
 30
0.0
 10
4.6005084704
 20
4.8013750058
 30
0.0
 10
4.6076111119
 20
4.8016852169
 30
0.0
 10
4.6156447385
 20
4.8019974176
 30
0.0
 10
4.6246015659
 20
4.8023109817
 30
0.0
 10
4.6383592358
 20
4.8027490449
 30
0.0
 10
4.6577774875
 20
4.8032887461
 30
0.0
 10
4.6836833895
 20
4.8039115943
 30
0.0
 10
4.7021097065
 20
4.8043002943
 30
0.0
 10
4.7118885711
 20
4.8044958618
 30
0.0
  0
LINE
  5
3DC
100
AcDbEntity
  8
0
100
AcDbLine
 62
7
  6
CONTINUOUS
 10
4.7118885711
 20
4.8044958618
 11
4.7259988071
 21
4.8047708876
  0
LINE
  5
3DD
100
AcDbEntity
  8
0
100
AcDbLine
 62
7
  6
CONTINUOUS
 10
4.7259988071
 20
4.8047708876
 11
4.7364254767
 21
4.8049656584
  0
SPLINE
  5
3DE
100
AcDbEntity
  8
0
100
AcDbSpline
 62
7
  6
CONTINUOUS
 70
0
 71
3
 72
14
 73
10
 74
0
 42
0.0000001
 43
0.0000001
 44
0.0000000001
 40
0.0
 40
0.0
 40
0.0
 40
0.0
 40
0.0912889034
 40
0.1955511263
 40
0.3112891446
 40
0.4368604488
 40
0.5704432428
 40
0.7101721953
 40
1.0
 40
1.0
 40
1.0
 40
1.0
 10
4.7364254767
 20
4.8049656584
 30
0.0
 10
4.75808004
 20
4.8053632966
 30
0.0
 10
4.8044681348
 20
4.8061293882
 30
0.0
 10
4.8783138565
 20
4.8071738653
 30
0.0
 10
4.9602934382
 20
4.8082433979
 30
0.0
 10
5.0492292353
 20
4.8093623653
 30
0.0
 10
5.1438571482
 20
4.8104930246
 30
0.0
 10
5.2774529525
 20
4.812007202
 30
0.0
 10
5.3793594796
 20
4.813062212
 30
0.0
 10
5.448117236
 20
4.8137698362
 30
0.0
  0
SPLINE
  5
3DF
100
AcDbEntity
  8
0
100
AcDbSpline
 62
7
  6
CONTINUOUS
 70
0
 71
3
 72
23
 73
19
 74
0
 42
0.0000001
 43
0.0000001
 44
0.0000000001
 40
0.0
 40
0.0
 40
0.0
 40
0.0
 40
0.0042513993
 40
0.0102688034
 40
0.0180702392
 40
0.0276636822
 40
0.0390527296
 40
0.0522349773
 40
0.0839579563
 40
0.1227872465
 40
0.1686736395
 40
0.221566387
 40
0.2814139372
 40
0.3481571119
 40
0.4217029383
 40
0.5887905001
 40
0.7818517584
 40
1.0
 40
1.0
 40
1.0
 40
1.0
 10
4.5774847289
 20
4.8576013017
 30
0.0
 10
4.5776849755
 20
4.8576667351
 30
0.0
 10
4.5781816709
 20
4.8577828366
 30
0.0
 10
4.5790640489
 20
4.85793439
 30
0.0
 10
4.5802143055
 20
4.8580879435
 30
0.0
 10
4.5816320878
 20
4.8582438244
 30
0.0
 10
4.5833177619
 20
4.8584013051
 30
0.0
 10
4.5860981273
 20
4.8586274029
 30
0.0
 10
4.5902382466
 20
4.8589049293
 30
0.0
 10
4.5959991354
 20
4.8592263511
 30
0.0
 10
4.6028102422
 20
4.8595514373
 30
0.0
 10
4.6106637259
 20
4.8598794732
 30
0.0
 10
4.6195514258
 20
4.8602094876
 30
0.0
 10
4.6294631136
 20
4.860540757
 30
0.0
 10
4.6446872874
 20
4.8610033358
 30
0.0
 10
4.6661703439
 20
4.8615725384
 30
0.0
 10
4.6948187711
 20
4.8622280229
 30
0.0
 10
4.7151910368
 20
4.8626363166
 30
0.0
 10
4.7259988071
 20
4.8628417537
 30
0.0
  0
LINE
  5
3E0
100
AcDbEntity
  8
0
100
AcDbLine
 62
7
  6
CONTINUOUS
 10
4.7259988071
 20
4.8628417537
 11
4.7360575913
 21
4.8630297652
  0
SPLINE
  5
3E1
100
AcDbEntity
  8
0
100
AcDbSpline
 62
7
  6
CONTINUOUS
 70
0
 71
3
 72
12
 73
8
 74
0
 42
0.0000001
 43
0.0000001
 44
0.0000000001
 40
0.0
 40
0.0
 40
0.0
 40
0.0
 40
0.2060684035
 40
0.4443866905
 40
0.5743064803
 40
0.7106443451
 40
1.0
 40
1.0
 40
1.0
 40
1.0
 10
4.7360575913
 20
4.8630297652
 30
0.0
 10
4.7606327164
 20
4.863481566
 30
0.0
 10
4.8136310436
 20
4.8643443241
 30
0.0
 10
4.8821262412
 20
4.8652904469
 30
0.0
 10
4.9423055299
 20
4.8660781749
 30
0.0
 10
5.0085721474
 20
4.8669261469
 30
0.0
 10
5.0593438694
 20
4.8675511281
 30
0.0
 10
5.0938549541
 20
4.8679639944
 30
0.0
  0
LINE
  5
3E2
100
AcDbEntity
  8
0
100
AcDbLine
 62
7
  6
CONTINUOUS
 10
5.0938549541
 20
4.8679639944
 11
5.1025901981
 21
4.868068241
  0
LINE
  5
3E3
100
AcDbEntity
  8
0
100
AcDbLine
 62
7
  6
CONTINUOUS
 10
5.1025901981
 20
4.868068241
 11
5.448117236
 21
4.8718407024
  0
SPLINE
  5
3E4
100
AcDbEntity
  8
0
100
AcDbSpline
 62
7
  6
CONTINUOUS
 70
0
 71
3
 72
13
 73
9
 74
0
 42
0.0000001
 43
0.0000001
 44
0.0000000001
 40
0.0
 40
0.0
 40
0.0
 40
0.0
 40
0.2854773695
 40
0.5562980434
 40
0.681840517
 40
0.7986212396
 40
0.9051304832
 40
1.0
 40
1.0
 40
1.0
 40
1.0
 10
5.448117236
 20
4.8137698362
 30
0.0
 10
5.5134393854
 20
4.8144421027
 30
0.0
 10
5.6407299209
 20
4.8157590564
 30
0.0
 10
5.7967447444
 20
4.817557428
 30
0.0
 10
5.9141580521
 20
4.8190183413
 30
0.0
 10
5.9939745072
 20
4.8200493644
 30
0.0
 10
6.0667719614
 20
4.821043908
 30
0.0
 10
6.1128478598
 20
4.8217579803
 30
0.0
 10
6.1345536438
 20
4.8221276913
 30
0.0
  0
LINE
  5
3E5
100
AcDbEntity
  8
0
100
AcDbLine
 62
7
  6
CONTINUOUS
 10
6.1345536438
 20
4.8221276913
 11
6.1422270769
 21
4.8222598119
  0
LINE
  5
3E6
100
AcDbEntity
  8
0
100
AcDbLine
 62
7
  6
CONTINUOUS
 10
6.1422270769
 20
4.8222598119
 11
6.1702870174
 21
4.8227697954
  0
LINE
  5
3E7
100
AcDbEntity
  8
0
100
AcDbLine
 62
7
  6
CONTINUOUS
 10
6.1702870174
 20
4.8227697954
 11
6.1845115602
 21
4.823047157
  0
SPLINE
  5
3E8
100
AcDbEntity
  8
0
100
AcDbSpline
 62
7
  6
CONTINUOUS
 70
0
 71
3
 72
11
 73
7
 74
0
 42
0.0000001
 43
0.0000001
 44
0.0000000001
 40
0.0
 40
0.0
 40
0.0
 40
0.0
 40
0.3095044078
 40
0.5801983102
 40
0.8107846673
 40
1.0
 40
1.0
 40
1.0
 40
1.0
 10
6.1845115602
 20
4.823047157
 30
0.0
 10
6.1949815365
 20
4.8232566733
 30
0.0
 10
6.2146081523
 20
4.8236724878
 30
0.0
 10
6.2420329344
 20
4.8243415919
 30
0.0
 10
6.2653863303
 20
4.8250101386
 30
0.0
 10
6.2795820274
 20
4.8255000483
 30
0.0
 10
6.2859790991
 20
4.8257536151
 30
0.0
  0
SPLINE
  5
3E9
100
AcDbEntity
  8
0
100
AcDbSpline
 62
7
  6
CONTINUOUS
 70
0
 71
3
 72
24
 73
20
 74
0
 42
0.0000001
 43
0.0000001
 44
0.0000000001
 40
0.0
 40
0.0
 40
0.0
 40
0.0
 40
0.2319539837
 40
0.4336305223
 40
0.6048135371
 40
0.678904413
 40
0.745294191
 40
0.8039588917
 40
0.8548764892
 40
0.8980338211
 40
0.9334433239
 40
0.9482519829
 40
0.9611373785
 40
0.9721091383
 40
0.9811829819
 40
0.9883870621
 40
0.9937788979
 40
0.9975009925
 40
1.0
 40
1.0
 40
1.0
 40
1.0
 10
6.2859790991
 20
4.8257536151
 30
0.0
 10
6.2885596795
 20
4.825855904
 30
0.0
 10
6.2933835988
 20
4.8260574437
 30
0.0
 10
6.3001100726
 20
4.826378158
 30
0.0
 10
6.3050789239
 20
4.8266538715
 30
0.0
 10
6.308541889
 20
4.8268767063
 30
0.0
 10
6.3107535896
 20
4.8270346705
 30
0.0
 10
6.3127066309
 20
4.8271914808
 30
0.0
 10
6.3144001913
 20
4.8273469173
 30
0.0
 10
6.3158337043
 20
4.8275008601
 30
0.0
 10
6.3168649293
 20
4.8276342456
 30
0.0
 10
6.3175590716
 20
4.8277432672
 30
0.0
 10
6.3179827687
 20
4.8278197913
 30
0.0
 10
6.3183415511
 20
4.8278958274
 30
0.0
 10
6.3186354304
 20
4.8279716023
 30
0.0
 10
6.3188652686
 20
4.8280460269
 30
0.0
 10
6.3190311788
 20
4.8281212376
 30
0.0
 10
6.3191396876
 20
4.8281932457
 30
0.0
 10
6.3191758063
 20
4.8282599212
 30
0.0
 10
6.3191758061
 20
4.8282877455
 30
0.0
  0
SPLINE
  5
3EA
100
AcDbEntity
  8
0
100
AcDbSpline
 62
7
  6
CONTINUOUS
 70
0
 71
3
 72
13
 73
9
 74
0
 42
0.0000001
 43
0.0000001
 44
0.0000000001
 40
0.0
 40
0.0
 40
0.0
 40
0.0
 40
0.2854773695
 40
0.5562980434
 40
0.681840517
 40
0.7986212396
 40
0.9051304832
 40
1.0
 40
1.0
 40
1.0
 40
1.0
 10
5.448117236
 20
4.6976281039
 30
0.0
 10
5.5134393854
 20
4.6983003704
 30
0.0
 10
5.6407299209
 20
4.6996173241
 30
0.0
 10
5.7967447444
 20
4.7014156957
 30
0.0
 10
5.9141580521
 20
4.702876609
 30
0.0
 10
5.9939745072
 20
4.7039076321
 30
0.0
 10
6.0667719614
 20
4.7049021757
 30
0.0
 10
6.1128478598
 20
4.705616248
 30
0.0
 10
6.1345536438
 20
4.705985959
 30
0.0
  0
LINE
  5
3EB
100
AcDbEntity
  8
0
100
AcDbLine
 62
7
  6
CONTINUOUS
 10
6.1345536438
 20
4.705985959
 11
6.1422639778
 21
4.7061187219
  0
LINE
  5
3EC
100
AcDbEntity
  8
0
100
AcDbLine
 62
7
  6
CONTINUOUS
 10
6.1422639778
 20
4.7061187219
 11
6.1702870174
 21
4.7066280631
  0
LINE
  5
3ED
100
AcDbEntity
  8
0
100
AcDbLine
 62
7
  6
CONTINUOUS
 10
6.1702870174
 20
4.7066280631
 11
6.1722566788
 21
4.706665637
  0
SPLINE
  5
3EE
100
AcDbEntity
  8
0
100
AcDbSpline
 62
7
  6
CONTINUOUS
 70
0
 71
3
 72
11
 73
7
 74
0
 42
0.0000001
 43
0.0000001
 44
0.0000000001
 40
0.0
 40
0.0
 40
0.0
 40
0.0
 40
0.3126267898
 40
0.5845197104
 40
0.8141323182
 40
1.0
 40
1.0
 40
1.0
 40
1.0
 10
6.1722566788
 20
4.706665637
 30
0.0
 10
6.1841095359
 20
4.7068925167
 30
0.0
 10
6.2062704013
 20
4.7073423465
 30
0.0
 10
6.2371343918
 20
4.7080694591
 30
0.0
 10
6.2631899961
 20
4.7087966333
 30
0.0
 10
6.278936396
 20
4.7093327245
 30
0.0
 10
6.2859790991
 20
4.7096118828
 30
0.0
  0
SPLINE
  5
3EF
100
AcDbEntity
  8
0
100
AcDbSpline
 62
7
  6
CONTINUOUS
 70
0
 71
3
 72
24
 73
20
 74
0
 42
0.0000001
 43
0.0000001
 44
0.0000000001
 40
0.0
 40
0.0
 40
0.0
 40
0.0
 40
0.2319539837
 40
0.4336305223
 40
0.6048135371
 40
0.678904413
 40
0.745294191
 40
0.8039588917
 40
0.8548764892
 40
0.8980338211
 40
0.9334433239
 40
0.9482519829
 40
0.9611373785
 40
0.9721091383
 40
0.9811829819
 40
0.9883870621
 40
0.9937788979
 40
0.9975009925
 40
1.0
 40
1.0
 40
1.0
 40
1.0
 10
6.2859790991
 20
4.7096118828
 30
0.0
 10
6.2885596795
 20
4.7097141717
 30
0.0
 10
6.2933835988
 20
4.7099157114
 30
0.0
 10
6.3001100726
 20
4.7102364257
 30
0.0
 10
6.3050789239
 20
4.7105121392
 30
0.0
 10
6.308541889
 20
4.7107349741
 30
0.0
 10
6.3107535896
 20
4.7108929382
 30
0.0
 10
6.3127066309
 20
4.7110497485
 30
0.0
 10
6.3144001913
 20
4.711205185
 30
0.0
 10
6.3158337043
 20
4.7113591278
 30
0.0
 10
6.3168649293
 20
4.7114925133
 30
0.0
 10
6.3175590716
 20
4.7116015349
 30
0.0
 10
6.3179827687
 20
4.711678059
 30
0.0
 10
6.3183415511
 20
4.7117540951
 30
0.0
 10
6.3186354304
 20
4.71182987
 30
0.0
 10
6.3188652686
 20
4.7119042946
 30
0.0
 10
6.3190311788
 20
4.7119795053
 30
0.0
 10
6.3191396876
 20
4.7120515134
 30
0.0
 10
6.3191758063
 20
4.712118189
 30
0.0
 10
6.3191758061
 20
4.7121460132
 30
0.0
  0
SPLINE
  5
3F0
100
AcDbEntity
  8
0
100
AcDbSpline
 62
7
  6
CONTINUOUS
 70
0
 71
3
 72
13
 73
9
 74
0
 42
0.0000001
 43
0.0000001
 44
0.0000000001
 40
0.0
 40
0.0
 40
0.0
 40
0.0
 40
0.2854773695
 40
0.5562980434
 40
0.681840517
 40
0.7986212396
 40
0.9051304832
 40
1.0
 40
1.0
 40
1.0
 40
1.0
 10
5.448117236
 20
4.7556989701
 30
0.0
 10
5.5134393854
 20
4.7563712366
 30
0.0
 10
5.6407299209
 20
4.7576881903
 30
0.0
 10
5.7967447444
 20
4.7594865619
 30
0.0
 10
5.9141580521
 20
4.7609474752
 30
0.0
 10
5.9939745072
 20
4.7619784983
 30
0.0
 10
6.0667719614
 20
4.7629730419
 30
0.0
 10
6.1128478598
 20
4.7636871142
 30
0.0
 10
6.1345536438
 20
4.7640568252
 30
0.0
  0
LINE
  5
3F1
100
AcDbEntity
  8
0
100
AcDbLine
 62
7
  6
CONTINUOUS
 10
6.1345536438
 20
4.7640568252
 11
6.1426412807
 21
4.7641961601
  0
LINE
  5
3F2
100
AcDbEntity
  8
0
100
AcDbLine
 62
7
  6
CONTINUOUS
 10
6.1426412807
 20
4.7641961601
 11
6.1702870174
 21
4.7646989292
  0
LINE
  5
3F3
100
AcDbEntity
  8
0
100
AcDbLine
 62
7
  6
CONTINUOUS
 10
6.1702870174
 20
4.7646989292
 11
6.1726969971
 21
4.7647449379
  0
SPLINE
  5
3F4
100
AcDbEntity
  8
0
100
AcDbSpline
 62
7
  6
CONTINUOUS
 70
0
 71
3
 72
11
 73
7
 74
0
 42
0.0000001
 43
0.0000001
 44
0.0000000001
 40
0.0
 40
0.0
 40
0.0
 40
0.0
 40
0.3125211142
 40
0.5843727635
 40
0.8140181789
 40
1.0
 40
1.0
 40
1.0
 40
1.0
 10
6.1726969971
 20
4.7647449379
 30
0.0
 10
6.1844999716
 20
4.764971209
 30
0.0
 10
6.2065694843
 20
4.7654198471
 30
0.0
 10
6.2373096621
 20
4.7661449267
 30
0.0
 10
6.2632683718
 20
4.7668700391
 30
0.0
 10
6.2789593517
 20
4.7674045006
 30
0.0
 10
6.2859790991
 20
4.7676827489
 30
0.0
  0
SPLINE
  5
3F5
100
AcDbEntity
  8
0
100
AcDbSpline
 62
7
  6
CONTINUOUS
 70
0
 71
3
 72
24
 73
20
 74
0
 42
0.0000001
 43
0.0000001
 44
0.0000000001
 40
0.0
 40
0.0
 40
0.0
 40
0.0
 40
0.2319539837
 40
0.4336305223
 40
0.6048135371
 40
0.678904413
 40
0.745294191
 40
0.8039588917
 40
0.8548764892
 40
0.8980338211
 40
0.9334433239
 40
0.9482519829
 40
0.9611373785
 40
0.9721091383
 40
0.9811829819
 40
0.9883870621
 40
0.9937788979
 40
0.9975009925
 40
1.0
 40
1.0
 40
1.0
 40
1.0
 10
6.2859790991
 20
4.7676827489
 30
0.0
 10
6.2885596795
 20
4.7677850378
 30
0.0
 10
6.2933835988
 20
4.7679865775
 30
0.0
 10
6.3001100726
 20
4.7683072919
 30
0.0
 10
6.3050789239
 20
4.7685830053
 30
0.0
 10
6.308541889
 20
4.7688058402
 30
0.0
 10
6.3107535896
 20
4.7689638043
 30
0.0
 10
6.3127066309
 20
4.7691206147
 30
0.0
 10
6.3144001913
 20
4.7692760512
 30
0.0
 10
6.3158337043
 20
4.769429994
 30
0.0
 10
6.3168649293
 20
4.7695633795
 30
0.0
 10
6.3175590716
 20
4.7696724011
 30
0.0
 10
6.3179827687
 20
4.7697489252
 30
0.0
 10
6.3183415511
 20
4.7698249613
 30
0.0
 10
6.3186354304
 20
4.7699007362
 30
0.0
 10
6.3188652686
 20
4.7699751608
 30
0.0
 10
6.3190311788
 20
4.7700503715
 30
0.0
 10
6.3191396876
 20
4.7701223796
 30
0.0
 10
6.3191758063
 20
4.7701890551
 30
0.0
 10
6.3191758061
 20
4.7702168794
 30
0.0
  0
LINE
  5
3F6
100
AcDbEntity
  8
0
100
AcDbLine
 62
7
  6
CONTINUOUS
 10
5.448117236
 20
4.8718407024
 11
5.6223472147
 21
4.8736673726
  0
SPLINE
  5
3F7
100
AcDbEntity
  8
0
100
AcDbSpline
 62
7
  6
CONTINUOUS
 70
0
 71
3
 72
19
 73
15
 74
0
 42
0.0000001
 43
0.0000001
 44
0.0000000001
 40
0.0
 40
0.0
 40
0.0
 40
0.0
 40
0.1673637048
 40
0.3304340151
 40
0.4848161553
 40
0.6265746892
 40
0.691532161
 40
0.7519751997
 40
0.8075003662
 40
0.8577508061
 40
0.9024020328
 40
0.9411496329
 40
0.973755987
 40
1.0
 40
1.0
 40
1.0
 40
1.0
 10
5.448117236
 20
5.4525493638
 30
0.0
 10
5.4948627579
 20
5.4530304479
 30
0.0
 10
5.5871546172
 20
5.4539822568
 30
0.0
 10
5.722565186
 20
5.4554726011
 30
0.0
 10
5.8508228644
 20
5.4569970615
 30
0.0
 10
5.9516766329
 20
5.4582757183
 30
0.0
 10
6.0262928722
 20
5.4592663741
 30
0.0
 10
6.0768239589
 20
5.4599807088
 30
0.0
 10
6.1232465164
 20
5.4607033053
 30
0.0
 10
6.1652573147
 20
5.461438301
 30
0.0
 10
6.202580827
 20
5.4621824888
 30
0.0
 10
6.2349747369
 20
5.4629343954
 30
0.0
 10
6.2622254726
 20
5.4636867675
 30
0.0
 10
6.2786543784
 20
5.4642428057
 30
0.0
 10
6.2859790991
 20
5.4645331426
 30
0.0
  0
SPLINE
  5
3F8
100
AcDbEntity
  8
0
100
AcDbSpline
 62
7
  6
CONTINUOUS
 70
0
 71
3
 72
24
 73
20
 74
0
 42
0.0000001
 43
0.0000001
 44
0.0000000001
 40
0.0
 40
0.0
 40
0.0
 40
0.0
 40
0.2319539837
 40
0.4336305223
 40
0.6048135371
 40
0.678904413
 40
0.745294191
 40
0.8039588917
 40
0.8548764892
 40
0.8980338211
 40
0.9334433239
 40
0.9482519829
 40
0.9611373785
 40
0.9721091383
 40
0.9811829819
 40
0.9883870621
 40
0.9937788979
 40
0.9975009925
 40
1.0
 40
1.0
 40
1.0
 40
1.0
 10
6.2859790991
 20
5.4645331426
 30
0.0
 10
6.2885596795
 20
5.4646354315
 30
0.0
 10
6.2933835988
 20
5.4648369712
 30
0.0
 10
6.3001100726
 20
5.4651576856
 30
0.0
 10
6.3050789239
 20
5.465433399
 30
0.0
 10
6.308541889
 20
5.4656562339
 30
0.0
 10
6.3107535896
 20
5.465814198
 30
0.0
 10
6.3127066309
 20
5.4659710084
 30
0.0
 10
6.3144001913
 20
5.4661264449
 30
0.0
 10
6.3158337043
 20
5.4662803877
 30
0.0
 10
6.3168649293
 20
5.4664137732
 30
0.0
 10
6.3175590716
 20
5.4665227948
 30
0.0
 10
6.3179827687
 20
5.4665993189
 30
0.0
 10
6.3183415511
 20
5.466675355
 30
0.0
 10
6.3186354304
 20
5.4667511299
 30
0.0
 10
6.3188652686
 20
5.4668255545
 30
0.0
 10
6.3190311788
 20
5.4669007652
 30
0.0
 10
6.3191396876
 20
5.4669727733
 30
0.0
 10
6.3191758063
 20
5.4670394488
 30
0.0
 10
6.3191758061
 20
5.4670672731
 30
0.0
  0
SPLINE
  5
3F9
100
AcDbEntity
  8
0
100
AcDbSpline
 62
7
  6
CONTINUOUS
 70
0
 71
3
 72
19
 73
15
 74
0
 42
0.0000001
 43
0.0000001
 44
0.0000000001
 40
0.0
 40
0.0
 40
0.0
 40
0.0
 40
0.1673637048
 40
0.3304340151
 40
0.4848161553
 40
0.6265746892
 40
0.691532161
 40
0.7519751997
 40
0.8075003662
 40
0.8577508061
 40
0.9024020328
 40
0.9411496329
 40
0.973755987
 40
1.0
 40
1.0
 40
1.0
 40
1.0
 10
5.448117236
 20
5.3364076315
 30
0.0
 10
5.4948627579
 20
5.3368887156
 30
0.0
 10
5.5871546172
 20
5.3378405245
 30
0.0
 10
5.722565186
 20
5.3393308688
 30
0.0
 10
5.8508228644
 20
5.3408553292
 30
0.0
 10
5.9516766329
 20
5.3421339861
 30
0.0
 10
6.0262928722
 20
5.3431246418
 30
0.0
 10
6.0768239589
 20
5.3438389765
 30
0.0
 10
6.1232465164
 20
5.344561573
 30
0.0
 10
6.1652573147
 20
5.3452965687
 30
0.0
 10
6.202580827
 20
5.3460407565
 30
0.0
 10
6.2349747369
 20
5.3467926631
 30
0.0
 10
6.2622254726
 20
5.3475450352
 30
0.0
 10
6.2786543784
 20
5.3481010735
 30
0.0
 10
6.2859790991
 20
5.3483914104
 30
0.0
  0
SPLINE
  5
3FA
100
AcDbEntity
  8
0
100
AcDbSpline
 62
7
  6
CONTINUOUS
 70
0
 71
3
 72
24
 73
20
 74
0
 42
0.0000001
 43
0.0000001
 44
0.0000000001
 40
0.0
 40
0.0
 40
0.0
 40
0.0
 40
0.2319539837
 40
0.4336305223
 40
0.6048135371
 40
0.678904413
 40
0.745294191
 40
0.8039588917
 40
0.8548764892
 40
0.8980338211
 40
0.9334433239
 40
0.9482519829
 40
0.9611373785
 40
0.9721091383
 40
0.9811829819
 40
0.9883870621
 40
0.9937788979
 40
0.9975009925
 40
1.0
 40
1.0
 40
1.0
 40
1.0
 10
6.2859790991
 20
5.3483914104
 30
0.0
 10
6.2885596795
 20
5.3484936993
 30
0.0
 10
6.2933835988
 20
5.3486952389
 30
0.0
 10
6.3001100726
 20
5.3490159533
 30
0.0
 10
6.3050789239
 20
5.3492916667
 30
0.0
 10
6.308541889
 20
5.3495145016
 30
0.0
 10
6.3107535896
 20
5.3496724658
 30
0.0
 10
6.3127066309
 20
5.3498292761
 30
0.0
 10
6.3144001913
 20
5.3499847126
 30
0.0
 10
6.3158337043
 20
5.3501386554
 30
0.0
 10
6.3168649293
 20
5.3502720409
 30
0.0
 10
6.3175590716
 20
5.3503810625
 30
0.0
 10
6.3179827687
 20
5.3504575866
 30
0.0
 10
6.3183415511
 20
5.3505336227
 30
0.0
 10
6.3186354304
 20
5.3506093976
 30
0.0
 10
6.3188652686
 20
5.3506838222
 30
0.0
 10
6.3190311788
 20
5.3507590329
 30
0.0
 10
6.3191396876
 20
5.350831041
 30
0.0
 10
6.3191758063
 20
5.3508977165
 30
0.0
 10
6.3191758061
 20
5.3509255408
 30
0.0
  0
SPLINE
  5
3FB
100
AcDbEntity
  8
0
100
AcDbSpline
 62
7
  6
CONTINUOUS
 70
0
 71
3
 72
19
 73
15
 74
0
 42
0.0000001
 43
0.0000001
 44
0.0000000001
 40
0.0
 40
0.0
 40
0.0
 40
0.0
 40
0.1673637048
 40
0.3304340151
 40
0.4848161553
 40
0.6265746892
 40
0.691532161
 40
0.7519751997
 40
0.8075003662
 40
0.8577508061
 40
0.9024020328
 40
0.9411496329
 40
0.973755987
 40
1.0
 40
1.0
 40
1.0
 40
1.0
 10
5.448117236
 20
5.2202658992
 30
0.0
 10
5.4948627579
 20
5.2207469833
 30
0.0
 10
5.5871546172
 20
5.2216987923
 30
0.0
 10
5.722565186
 20
5.2231891365
 30
0.0
 10
5.8508228644
 20
5.2247135969
 30
0.0
 10
5.9516766329
 20
5.2259922538
 30
0.0
 10
6.0262928722
 20
5.2269829095
 30
0.0
 10
6.0768239589
 20
5.2276972443
 30
0.0
 10
6.1232465164
 20
5.2284198407
 30
0.0
 10
6.1652573147
 20
5.2291548364
 30
0.0
 10
6.202580827
 20
5.2298990242
 30
0.0
 10
6.2349747369
 20
5.2306509308
 30
0.0
 10
6.2622254726
 20
5.2314033029
 30
0.0
 10
6.2786543784
 20
5.2319593412
 30
0.0
 10
6.2859790991
 20
5.2322496781
 30
0.0
  0
SPLINE
  5
3FC
100
AcDbEntity
  8
0
100
AcDbSpline
 62
7
  6
CONTINUOUS
 70
0
 71
3
 72
24
 73
20
 74
0
 42
0.0000001
 43
0.0000001
 44
0.0000000001
 40
0.0
 40
0.0
 40
0.0
 40
0.0
 40
0.2319539837
 40
0.4336305223
 40
0.6048135371
 40
0.678904413
 40
0.745294191
 40
0.8039588917
 40
0.8548764892
 40
0.8980338211
 40
0.9334433239
 40
0.9482519829
 40
0.9611373785
 40
0.9721091383
 40
0.9811829819
 40
0.9883870621
 40
0.9937788979
 40
0.9975009925
 40
1.0
 40
1.0
 40
1.0
 40
1.0
 10
6.2859790991
 20
5.2322496781
 30
0.0
 10
6.2885596795
 20
5.232351967
 30
0.0
 10
6.2933835988
 20
5.2325535067
 30
0.0
 10
6.3001100726
 20
5.232874221
 30
0.0
 10
6.3050789239
 20
5.2331499345
 30
0.0
 10
6.308541889
 20
5.2333727693
 30
0.0
 10
6.3107535896
 20
5.2335307335
 30
0.0
 10
6.3127066309
 20
5.2336875438
 30
0.0
 10
6.3144001913
 20
5.2338429803
 30
0.0
 10
6.3158337043
 20
5.2339969231
 30
0.0
 10
6.3168649293
 20
5.2341303086
 30
0.0
 10
6.3175590716
 20
5.2342393302
 30
0.0
 10
6.3179827687
 20
5.2343158543
 30
0.0
 10
6.3183415511
 20
5.2343918904
 30
0.0
 10
6.3186354304
 20
5.2344676653
 30
0.0
 10
6.3188652686
 20
5.2345420899
 30
0.0
 10
6.3190311788
 20
5.2346173006
 30
0.0
 10
6.3191396876
 20
5.2346893087
 30
0.0
 10
6.3191758063
 20
5.2347559842
 30
0.0
 10
6.3191758061
 20
5.2347838085
 30
0.0
  0
SPLINE
  5
3FD
100
AcDbEntity
  8
0
100
AcDbSpline
 62
7
  6
CONTINUOUS
 70
0
 71
3
 72
33
 73
29
 74
0
 42
0.0000001
 43
0.0000001
 44
0.0000000001
 40
0.0
 40
0.0
 40
0.0
 40
0.0
 40
0.0004647028
 40
0.0010699418
 40
0.0027071548
 40
0.0049173632
 40
0.0077021453
 40
0.0110601032
 40
0.0149888514
 40
0.0194858047
 40
0.0245482692
 40
0.0363586362
 40
0.0503975075
 40
0.0666369358
 40
0.0850343656
 40
0.1055446313
 40
0.1281225106
 40
0.1527212231
 40
0.1792814062
 40
0.2380238402
 40
0.3038169022
 40
0.3760476165
 40
0.4540534637
 40
0.5371092734
 40
0.6244323404
 40
0.7152298316
 40
0.8086969647
 40
1.0
 40
1.0
 40
1.0
 40
1.0
 10
4.5774847289
 20
5.2060264985
 30
0.0
 10
4.5776129499
 20
5.2060683966
 30
0.0
 10
4.5779138337
 20
5.206147148
 30
0.0
 10
4.5786842116
 20
5.2063028027
 30
0.0
 10
4.5799644604
 20
5.2064862902
 30
0.0
 10
4.5818780406
 20
5.2066972105
 30
0.0
 10
4.5842934479
 20
5.2069112619
 30
0.0
 10
4.5872089119
 20
5.207128695
 30
0.0
 10
4.5906224366
 20
5.2073483634
 30
0.0
 10
4.5945314944
 20
5.2075700175
 30
0.0
 10
4.6007267408
 20
5.2078840114
 30
0.0
 10
4.6096914454
 20
5.2082716722
 30
0.0
 10
4.6219006173
 20
5.2087211849
 30
0.0
 10
4.6360229014
 20
5.2091731515
 30
0.0
 10
4.6520244807
 20
5.2096264086
 30
0.0
 10
4.6698666343
 20
5.2100793431
 30
0.0
 10
4.6895094411
 20
5.2105305882
 30
0.0
 10
4.7109088922
 20
5.2109786405
 30
0.0
 10
4.742804894
 20
5.2115919644
 30
0.0
 10
4.7866582657
 20
5.2123389243
 30
0.0
 10
4.8437687599
 20
5.2131899174
 30
0.0
 10
4.906471561
 20
5.21403931
 30
0.0
 10
4.9741854303
 20
5.2149151711
 30
0.0
 10
5.0462802745
 20
5.2158186914
 30
0.0
 10
5.1220884202
 20
5.2167308422
 30
0.0
 10
5.2009189897
 20
5.2176394959
 30
0.0
 10
5.309931223
 20
5.218841127
 30
0.0
 10
5.3925892049
 20
5.2196944294
 30
0.0
 10
5.448117236
 20
5.2202658992
 30
0.0
  0
SPLINE
  5
3FE
100
AcDbEntity
  8
0
100
AcDbSpline
 62
7
  6
CONTINUOUS
 70
0
 71
3
 72
19
 73
15
 74
0
 42
0.0000001
 43
0.0000001
 44
0.0000000001
 40
0.0
 40
0.0
 40
0.0
 40
0.0
 40
0.1673637048
 40
0.3304340151
 40
0.4848161553
 40
0.6265746892
 40
0.691532161
 40
0.7519751997
 40
0.8075003662
 40
0.8577508061
 40
0.9024020328
 40
0.9411496329
 40
0.973755987
 40
1.0
 40
1.0
 40
1.0
 40
1.0
 10
5.448117236
 20
5.2783367654
 30
0.0
 10
5.4948627579
 20
5.2788178495
 30
0.0
 10
5.5871546172
 20
5.2797696584
 30
0.0
 10
5.722565186
 20
5.2812600027
 30
0.0
 10
5.8508228644
 20
5.282784463
 30
0.0
 10
5.9516766329
 20
5.2840631199
 30
0.0
 10
6.0262928722
 20
5.2850537756
 30
0.0
 10
6.0768239589
 20
5.2857681104
 30
0.0
 10
6.1232465164
 20
5.2864907068
 30
0.0
 10
6.1652573147
 20
5.2872257026
 30
0.0
 10
6.202580827
 20
5.2879698903
 30
0.0
 10
6.2349747369
 20
5.288721797
 30
0.0
 10
6.2622254726
 20
5.289474169
 30
0.0
 10
6.2786543784
 20
5.2900302073
 30
0.0
 10
6.2859790991
 20
5.2903205442
 30
0.0
  0
SPLINE
  5
3FF
100
AcDbEntity
  8
0
100
AcDbSpline
 62
7
  6
CONTINUOUS
 70
0
 71
3
 72
24
 73
20
 74
0
 42
0.0000001
 43
0.0000001
 44
0.0000000001
 40
0.0
 40
0.0
 40
0.0
 40
0.0
 40
0.2319539837
 40
0.4336305223
 40
0.6048135371
 40
0.678904413
 40
0.745294191
 40
0.8039588917
 40
0.8548764892
 40
0.8980338211
 40
0.9334433239
 40
0.9482519829
 40
0.9611373785
 40
0.9721091383
 40
0.9811829819
 40
0.9883870621
 40
0.9937788979
 40
0.9975009925
 40
1.0
 40
1.0
 40
1.0
 40
1.0
 10
6.2859790991
 20
5.2903205442
 30
0.0
 10
6.2885596795
 20
5.2904228331
 30
0.0
 10
6.2933835988
 20
5.2906243728
 30
0.0
 10
6.3001100726
 20
5.2909450872
 30
0.0
 10
6.3050789239
 20
5.2912208006
 30
0.0
 10
6.308541889
 20
5.2914436355
 30
0.0
 10
6.3107535896
 20
5.2916015996
 30
0.0
 10
6.3127066309
 20
5.29175841
 30
0.0
 10
6.3144001913
 20
5.2919138465
 30
0.0
 10
6.3158337043
 20
5.2920677893
 30
0.0
 10
6.3168649293
 20
5.2922011747
 30
0.0
 10
6.3175590716
 20
5.2923101963
 30
0.0
 10
6.3179827687
 20
5.2923867204
 30
0.0
 10
6.3183415511
 20
5.2924627566
 30
0.0
 10
6.3186354304
 20
5.2925385314
 30
0.0
 10
6.3188652686
 20
5.292612956
 30
0.0
 10
6.3190311788
 20
5.2926881667
 30
0.0
 10
6.3191396876
 20
5.2927601748
 30
0.0
 10
6.3191758063
 20
5.2928268504
 30
0.0
 10
6.3191758061
 20
5.2928546747
 30
0.0
  0
SPLINE
  5
400
100
AcDbEntity
  8
0
100
AcDbSpline
 62
7
  6
CONTINUOUS
 70
0
 71
3
 72
19
 73
15
 74
0
 42
0.0000001
 43
0.0000001
 44
0.0000000001
 40
0.0
 40
0.0
 40
0.0
 40
0.0
 40
0.1673637048
 40
0.3304340151
 40
0.4848161553
 40
0.6265746892
 40
0.691532161
 40
0.7519751997
 40
0.8075003662
 40
0.8577508061
 40
0.9024020328
 40
0.9411496329
 40
0.973755987
 40
1.0
 40
1.0
 40
1.0
 40
1.0
 10
5.448117236
 20
6.2655414898
 30
0.0
 10
5.4948627579
 20
6.2660225739
 30
0.0
 10
5.5871546172
 20
6.2669743828
 30
0.0
 10
5.722565186
 20
6.2684647271
 30
0.0
 10
5.8508228644
 20
6.2699891874
 30
0.0
 10
5.9516766329
 20
6.2712678443
 30
0.0
 10
6.0262928722
 20
6.2722585
 30
0.0
 10
6.0768239589
 20
6.2729728348
 30
0.0
 10
6.1232465164
 20
6.2736954312
 30
0.0
 10
6.1652573147
 20
6.274430427
 30
0.0
 10
6.202580827
 20
6.2751746147
 30
0.0
 10
6.2349747369
 20
6.2759265214
 30
0.0
 10
6.2622254726
 20
6.2766788935
 30
0.0
 10
6.2786543784
 20
6.2772349317
 30
0.0
 10
6.2859790991
 20
6.2775252686
 30
0.0
  0
SPLINE
  5
401
100
AcDbEntity
  8
0
100
AcDbSpline
 62
7
  6
CONTINUOUS
 70
0
 71
3
 72
24
 73
20
 74
0
 42
0.0000001
 43
0.0000001
 44
0.0000000001
 40
0.0
 40
0.0
 40
0.0
 40
0.0
 40
0.2319539837
 40
0.4336305223
 40
0.6048135371
 40
0.678904413
 40
0.745294191
 40
0.8039588917
 40
0.8548764892
 40
0.8980338211
 40
0.9334433239
 40
0.9482519829
 40
0.9611373785
 40
0.9721091383
 40
0.9811829819
 40
0.9883870621
 40
0.9937788979
 40
0.9975009925
 40
1.0
 40
1.0
 40
1.0
 40
1.0
 10
6.2859790991
 20
6.2775252686
 30
0.0
 10
6.2885596795
 20
6.2776275575
 30
0.0
 10
6.2933835988
 20
6.2778290972
 30
0.0
 10
6.3001100726
 20
6.2781498116
 30
0.0
 10
6.3050789239
 20
6.278425525
 30
0.0
 10
6.308541889
 20
6.2786483599
 30
0.0
 10
6.3107535896
 20
6.278806324
 30
0.0
 10
6.3127066309
 20
6.2789631344
 30
0.0
 10
6.3144001913
 20
6.2791185709
 30
0.0
 10
6.3158337043
 20
6.2792725137
 30
0.0
 10
6.3168649293
 20
6.2794058992
 30
0.0
 10
6.3175590716
 20
6.2795149207
 30
0.0
 10
6.3179827687
 20
6.2795914448
 30
0.0
 10
6.3183415511
 20
6.279667481
 30
0.0
 10
6.3186354304
 20
6.2797432559
 30
0.0
 10
6.3188652686
 20
6.2798176805
 30
0.0
 10
6.3190311788
 20
6.2798928912
 30
0.0
 10
6.3191396876
 20
6.2799648992
 30
0.0
 10
6.3191758063
 20
6.2800315748
 30
0.0
 10
6.3191758061
 20
6.2800593991
 30
0.0
  0
SPLINE
  5
402
100
AcDbEntity
  8
0
100
AcDbSpline
 62
7
  6
CONTINUOUS
 70
0
 71
3
 72
33
 73
29
 74
0
 42
0.0000001
 43
0.0000001
 44
0.0000000001
 40
0.0
 40
0.0
 40
0.0
 40
0.0
 40
0.0004647028
 40
0.0010699418
 40
0.0027071548
 40
0.0049173632
 40
0.0077021453
 40
0.0110601032
 40
0.0149888514
 40
0.0194858047
 40
0.0245482692
 40
0.0363586362
 40
0.0503975075
 40
0.0666369358
 40
0.0850343656
 40
0.1055446313
 40
0.1281225106
 40
0.1527212231
 40
0.1792814062
 40
0.2380238402
 40
0.3038169022
 40
0.3760476165
 40
0.4540534637
 40
0.5371092734
 40
0.6244323404
 40
0.7152298316
 40
0.8086969647
 40
1.0
 40
1.0
 40
1.0
 40
1.0
 10
4.5774847289
 20
5.2640973647
 30
0.0
 10
4.5776129499
 20
5.2641392627
 30
0.0
 10
4.5779138337
 20
5.2642180142
 30
0.0
 10
4.5786842116
 20
5.2643736689
 30
0.0
 10
4.5799644604
 20
5.2645571564
 30
0.0
 10
4.5818780406
 20
5.2647680766
 30
0.0
 10
4.5842934479
 20
5.2649821281
 30
0.0
 10
4.5872089119
 20
5.2651995612
 30
0.0
 10
4.5906224366
 20
5.2654192295
 30
0.0
 10
4.5945314944
 20
5.2656408837
 30
0.0
 10
4.6007267408
 20
5.2659548775
 30
0.0
 10
4.6096914454
 20
5.2663425384
 30
0.0
 10
4.6219006173
 20
5.266792051
 30
0.0
 10
4.6360229014
 20
5.2672440177
 30
0.0
 10
4.6520244807
 20
5.2676972748
 30
0.0
 10
4.6698666343
 20
5.2681502093
 30
0.0
 10
4.6895094411
 20
5.2686014543
 30
0.0
 10
4.7109088922
 20
5.2690495066
 30
0.0
 10
4.742804894
 20
5.2696628305
 30
0.0
 10
4.7866582657
 20
5.2704097904
 30
0.0
 10
4.8437687599
 20
5.2712607835
 30
0.0
 10
4.906471561
 20
5.2721101761
 30
0.0
 10
4.9741854303
 20
5.2729860372
 30
0.0
 10
5.0462802745
 20
5.2738895576
 30
0.0
 10
5.1220884202
 20
5.2748017084
 30
0.0
 10
5.2009189897
 20
5.2757103621
 30
0.0
 10
5.309931223
 20
5.2769119931
 30
0.0
 10
5.3925892049
 20
5.2777652956
 30
0.0
 10
5.448117236
 20
5.2783367654
 30
0.0
  0
SPLINE
  5
403
100
AcDbEntity
  8
0
100
AcDbSpline
 62
7
  6
CONTINUOUS
 70
0
 71
3
 72
19
 73
15
 74
0
 42
0.0000001
 43
0.0000001
 44
0.0000000001
 40
0.0
 40
0.0
 40
0.0
 40
0.0
 40
0.1673637048
 40
0.3304340151
 40
0.4848161553
 40
0.6265746892
 40
0.691532161
 40
0.7519751997
 40
0.8075003662
 40
0.8577508061
 40
0.9024020328
 40
0.9411496329
 40
0.973755987
 40
1.0
 40
1.0
 40
1.0
 40
1.0
 10
5.448117236
 20
6.2074706236
 30
0.0
 10
5.4948627579
 20
6.2079517077
 30
0.0
 10
5.5871546172
 20
6.2089035167
 30
0.0
 10
5.722565186
 20
6.2103938609
 30
0.0
 10
5.8508228644
 20
6.2119183213
 30
0.0
 10
5.9516766329
 20
6.2131969782
 30
0.0
 10
6.0262928722
 20
6.2141876339
 30
0.0
 10
6.0768239589
 20
6.2149019687
 30
0.0
 10
6.1232465164
 20
6.2156245651
 30
0.0
 10
6.1652573147
 20
6.2163595609
 30
0.0
 10
6.202580827
 20
6.2171037486
 30
0.0
 10
6.2349747369
 20
6.2178556552
 30
0.0
 10
6.2622254726
 20
6.2186080273
 30
0.0
 10
6.2786543784
 20
6.2191640656
 30
0.0
 10
6.2859790991
 20
6.2194544025
 30
0.0
  0
SPLINE
  5
404
100
AcDbEntity
  8
0
100
AcDbSpline
 62
7
  6
CONTINUOUS
 70
0
 71
3
 72
24
 73
20
 74
0
 42
0.0000001
 43
0.0000001
 44
0.0000000001
 40
0.0
 40
0.0
 40
0.0
 40
0.0
 40
0.2319539837
 40
0.4336305223
 40
0.6048135371
 40
0.678904413
 40
0.745294191
 40
0.8039588917
 40
0.8548764892
 40
0.8980338211
 40
0.9334433239
 40
0.9482519829
 40
0.9611373785
 40
0.9721091383
 40
0.9811829819
 40
0.9883870621
 40
0.9937788979
 40
0.9975009925
 40
1.0
 40
1.0
 40
1.0
 40
1.0
 10
6.2859790991
 20
6.2194544025
 30
0.0
 10
6.2885596795
 20
6.2195566914
 30
0.0
 10
6.2933835988
 20
6.2197582311
 30
0.0
 10
6.3001100726
 20
6.2200789454
 30
0.0
 10
6.3050789239
 20
6.2203546589
 30
0.0
 10
6.308541889
 20
6.2205774937
 30
0.0
 10
6.3107535896
 20
6.2207354579
 30
0.0
 10
6.3127066309
 20
6.2208922682
 30
0.0
 10
6.3144001913
 20
6.2210477047
 30
0.0
 10
6.3158337043
 20
6.2212016475
 30
0.0
 10
6.3168649293
 20
6.221335033
 30
0.0
 10
6.3175590716
 20
6.2214440546
 30
0.0
 10
6.3179827687
 20
6.2215205787
 30
0.0
 10
6.3183415511
 20
6.2215966148
 30
0.0
 10
6.3186354304
 20
6.2216723897
 30
0.0
 10
6.3188652686
 20
6.2217468143
 30
0.0
 10
6.3190311788
 20
6.221822025
 30
0.0
 10
6.3191396876
 20
6.2218940331
 30
0.0
 10
6.3191758063
 20
6.2219607086
 30
0.0
 10
6.3191758061
 20
6.2219885329
 30
0.0
  0
SPLINE
  5
405
100
AcDbEntity
  8
0
100
AcDbSpline
 62
7
  6
CONTINUOUS
 70
0
 71
3
 72
19
 73
15
 74
0
 42
0.0000001
 43
0.0000001
 44
0.0000000001
 40
0.0
 40
0.0
 40
0.0
 40
0.0
 40
0.1673637048
 40
0.3304340151
 40
0.4848161553
 40
0.6265746892
 40
0.691532161
 40
0.7519751997
 40
0.8075003662
 40
0.8577508061
 40
0.9024020328
 40
0.9411496329
 40
0.973755987
 40
1.0
 40
1.0
 40
1.0
 40
1.0
 10
5.448117236
 20
6.1493997575
 30
0.0
 10
5.4948627579
 20
6.1498808416
 30
0.0
 10
5.5871546172
 20
6.1508326505
 30
0.0
 10
5.722565186
 20
6.1523229948
 30
0.0
 10
5.8508228644
 20
6.1538474552
 30
0.0
 10
5.9516766329
 20
6.155126112
 30
0.0
 10
6.0262928722
 20
6.1561167678
 30
0.0
 10
6.0768239589
 20
6.1568311025
 30
0.0
 10
6.1232465164
 20
6.157553699
 30
0.0
 10
6.1652573147
 20
6.1582886947
 30
0.0
 10
6.202580827
 20
6.1590328825
 30
0.0
 10
6.2349747369
 20
6.1597847891
 30
0.0
 10
6.2622254726
 20
6.1605371612
 30
0.0
 10
6.2786543784
 20
6.1610931994
 30
0.0
 10
6.2859790991
 20
6.1613835363
 30
0.0
  0
SPLINE
  5
406
100
AcDbEntity
  8
0
100
AcDbSpline
 62
7
  6
CONTINUOUS
 70
0
 71
3
 72
24
 73
20
 74
0
 42
0.0000001
 43
0.0000001
 44
0.0000000001
 40
0.0
 40
0.0
 40
0.0
 40
0.0
 40
0.2319539837
 40
0.4336305223
 40
0.6048135371
 40
0.678904413
 40
0.745294191
 40
0.8039588917
 40
0.8548764892
 40
0.8980338211
 40
0.9334433239
 40
0.9482519829
 40
0.9611373785
 40
0.9721091383
 40
0.9811829819
 40
0.9883870621
 40
0.9937788979
 40
0.9975009925
 40
1.0
 40
1.0
 40
1.0
 40
1.0
 10
6.2859790991
 20
6.1613835363
 30
0.0
 10
6.2885596795
 20
6.1614858253
 30
0.0
 10
6.2933835988
 20
6.1616873649
 30
0.0
 10
6.3001100726
 20
6.1620080793
 30
0.0
 10
6.3050789239
 20
6.1622837927
 30
0.0
 10
6.308541889
 20
6.1625066276
 30
0.0
 10
6.3107535896
 20
6.1626645917
 30
0.0
 10
6.3127066309
 20
6.1628214021
 30
0.0
 10
6.3144001913
 20
6.1629768386
 30
0.0
 10
6.3158337043
 20
6.1631307814
 30
0.0
 10
6.3168649293
 20
6.1632641669
 30
0.0
 10
6.3175590716
 20
6.1633731885
 30
0.0
 10
6.3179827687
 20
6.1634497126
 30
0.0
 10
6.3183415511
 20
6.1635257487
 30
0.0
 10
6.3186354304
 20
6.1636015236
 30
0.0
 10
6.3188652686
 20
6.1636759482
 30
0.0
 10
6.3190311788
 20
6.1637511589
 30
0.0
 10
6.3191396876
 20
6.163823167
 30
0.0
 10
6.3191758063
 20
6.1638898425
 30
0.0
 10
6.3191758061
 20
6.1639176668
 30
0.0
  0
SPLINE
  5
407
100
AcDbEntity
  8
0
100
AcDbSpline
 62
7
  6
CONTINUOUS
 70
0
 71
3
 72
19
 73
15
 74
0
 42
0.0000001
 43
0.0000001
 44
0.0000000001
 40
0.0
 40
0.0
 40
0.0
 40
0.0
 40
0.1673637048
 40
0.3304340151
 40
0.4848161553
 40
0.6265746892
 40
0.691532161
 40
0.7519751997
 40
0.8075003662
 40
0.8577508061
 40
0.9024020328
 40
0.9411496329
 40
0.973755987
 40
1.0
 40
1.0
 40
1.0
 40
1.0
 10
5.448117236
 20
5.5106202299
 30
0.0
 10
5.4948627579
 20
5.511101314
 30
0.0
 10
5.5871546172
 20
5.512053123
 30
0.0
 10
5.722565186
 20
5.5135434672
 30
0.0
 10
5.8508228644
 20
5.5150679276
 30
0.0
 10
5.9516766329
 20
5.5163465845
 30
0.0
 10
6.0262928722
 20
5.5173372402
 30
0.0
 10
6.0768239589
 20
5.518051575
 30
0.0
 10
6.1232465164
 20
5.5187741714
 30
0.0
 10
6.1652573147
 20
5.5195091672
 30
0.0
 10
6.202580827
 20
5.5202533549
 30
0.0
 10
6.2349747369
 20
5.5210052615
 30
0.0
 10
6.2622254726
 20
5.5217576336
 30
0.0
 10
6.2786543784
 20
5.5223136719
 30
0.0
 10
6.2859790991
 20
5.5226040088
 30
0.0
  0
SPLINE
  5
408
100
AcDbEntity
  8
0
100
AcDbSpline
 62
7
  6
CONTINUOUS
 70
0
 71
3
 72
24
 73
20
 74
0
 42
0.0000001
 43
0.0000001
 44
0.0000000001
 40
0.0
 40
0.0
 40
0.0
 40
0.0
 40
0.2319539837
 40
0.4336305223
 40
0.6048135371
 40
0.678904413
 40
0.745294191
 40
0.8039588917
 40
0.8548764892
 40
0.8980338211
 40
0.9334433239
 40
0.9482519829
 40
0.9611373785
 40
0.9721091383
 40
0.9811829819
 40
0.9883870621
 40
0.9937788979
 40
0.9975009925
 40
1.0
 40
1.0
 40
1.0
 40
1.0
 10
6.2859790991
 20
5.5226040088
 30
0.0
 10
6.2885596795
 20
5.5227062977
 30
0.0
 10
6.2933835988
 20
5.5229078374
 30
0.0
 10
6.3001100726
 20
5.5232285517
 30
0.0
 10
6.3050789239
 20
5.5235042652
 30
0.0
 10
6.308541889
 20
5.5237271
 30
0.0
 10
6.3107535896
 20
5.5238850642
 30
0.0
 10
6.3127066309
 20
5.5240418745
 30
0.0
 10
6.3144001913
 20
5.524197311
 30
0.0
 10
6.3158337043
 20
5.5243512538
 30
0.0
 10
6.3168649293
 20
5.5244846393
 30
0.0
 10
6.3175590716
 20
5.5245936609
 30
0.0
 10
6.3179827687
 20
5.524670185
 30
0.0
 10
6.3183415511
 20
5.5247462211
 30
0.0
 10
6.3186354304
 20
5.524821996
 30
0.0
 10
6.3188652686
 20
5.5248964206
 30
0.0
 10
6.3190311788
 20
5.5249716313
 30
0.0
 10
6.3191396876
 20
5.5250436394
 30
0.0
 10
6.3191758063
 20
5.5251103149
 30
0.0
 10
6.3191758061
 20
5.5251381392
 30
0.0
  0
SPLINE
  5
409
100
AcDbEntity
  8
0
100
AcDbSpline
 62
7
  6
CONTINUOUS
 70
0
 71
3
 72
33
 73
29
 74
0
 42
0.0000001
 43
0.0000001
 44
0.0000000001
 40
0.0
 40
0.0
 40
0.0
 40
0.0
 40
0.0004647028
 40
0.0010699418
 40
0.0027071548
 40
0.0049173632
 40
0.0077021453
 40
0.0110601032
 40
0.0149888514
 40
0.0194858047
 40
0.0245482692
 40
0.0363586362
 40
0.0503975075
 40
0.0666369358
 40
0.0850343656
 40
0.1055446313
 40
0.1281225106
 40
0.1527212231
 40
0.1792814062
 40
0.2380238402
 40
0.3038169022
 40
0.3760476165
 40
0.4540534637
 40
0.5371092734
 40
0.6244323404
 40
0.7152298316
 40
0.8086969647
 40
1.0
 40
1.0
 40
1.0
 40
1.0
 10
4.5774847289
 20
5.3221682308
 30
0.0
 10
4.5776129499
 20
5.3222101289
 30
0.0
 10
4.5779138337
 20
5.3222888803
 30
0.0
 10
4.5786842116
 20
5.322444535
 30
0.0
 10
4.5799644604
 20
5.3226280225
 30
0.0
 10
4.5818780406
 20
5.3228389428
 30
0.0
 10
4.5842934479
 20
5.3230529942
 30
0.0
 10
4.5872089119
 20
5.3232704273
 30
0.0
 10
4.5906224366
 20
5.3234900957
 30
0.0
 10
4.5945314944
 20
5.3237117498
 30
0.0
 10
4.6007267408
 20
5.3240257437
 30
0.0
 10
4.6096914454
 20
5.3244134045
 30
0.0
 10
4.6219006173
 20
5.3248629171
 30
0.0
 10
4.6360229014
 20
5.3253148838
 30
0.0
 10
4.6520244807
 20
5.3257681409
 30
0.0
 10
4.6698666343
 20
5.3262210754
 30
0.0
 10
4.6895094411
 20
5.3266723204
 30
0.0
 10
4.7109088922
 20
5.3271203728
 30
0.0
 10
4.742804894
 20
5.3277336967
 30
0.0
 10
4.7866582657
 20
5.3284806566
 30
0.0
 10
4.8437687599
 20
5.3293316497
 30
0.0
 10
4.906471561
 20
5.3301810422
 30
0.0
 10
4.9741854303
 20
5.3310569033
 30
0.0
 10
5.0462802745
 20
5.3319604237
 30
0.0
 10
5.1220884202
 20
5.3328725745
 30
0.0
 10
5.2009189897
 20
5.3337812282
 30
0.0
 10
5.309931223
 20
5.3349828592
 30
0.0
 10
5.3925892049
 20
5.3358361617
 30
0.0
 10
5.448117236
 20
5.3364076315
 30
0.0
  0
SPLINE
  5
40A
100
AcDbEntity
  8
0
100
AcDbSpline
 62
7
  6
CONTINUOUS
 70
0
 71
3
 72
33
 73
29
 74
0
 42
0.0000001
 43
0.0000001
 44
0.0000000001
 40
0.0
 40
0.0
 40
0.0
 40
0.0
 40
0.0004647028
 40
0.0010699418
 40
0.0027071548
 40
0.0049173632
 40
0.0077021453
 40
0.0110601032
 40
0.0149888514
 40
0.0194858047
 40
0.0245482692
 40
0.0363586362
 40
0.0503975075
 40
0.0666369358
 40
0.0850343656
 40
0.1055446313
 40
0.1281225106
 40
0.1527212231
 40
0.1792814062
 40
0.2380238402
 40
0.3038169022
 40
0.3760476165
 40
0.4540534637
 40
0.5371092734
 40
0.6244323404
 40
0.7152298316
 40
0.8086969647
 40
1.0
 40
1.0
 40
1.0
 40
1.0
 10
4.5774847289
 20
5.4383099631
 30
0.0
 10
4.5776129499
 20
5.4383518611
 30
0.0
 10
4.5779138337
 20
5.4384306126
 30
0.0
 10
4.5786842116
 20
5.4385862673
 30
0.0
 10
4.5799644604
 20
5.4387697548
 30
0.0
 10
4.5818780406
 20
5.4389806751
 30
0.0
 10
4.5842934479
 20
5.4391947265
 30
0.0
 10
4.5872089119
 20
5.4394121596
 30
0.0
 10
4.5906224366
 20
5.439631828
 30
0.0
 10
4.5945314944
 20
5.4398534821
 30
0.0
 10
4.6007267408
 20
5.440167476
 30
0.0
 10
4.6096914454
 20
5.4405551368
 30
0.0
 10
4.6219006173
 20
5.4410046494
 30
0.0
 10
4.6360229014
 20
5.4414566161
 30
0.0
 10
4.6520244807
 20
5.4419098732
 30
0.0
 10
4.6698666343
 20
5.4423628077
 30
0.0
 10
4.6895094411
 20
5.4428140527
 30
0.0
 10
4.7109088922
 20
5.443262105
 30
0.0
 10
4.742804894
 20
5.4438754289
 30
0.0
 10
4.7866582657
 20
5.4446223889
 30
0.0
 10
4.8437687599
 20
5.445473382
 30
0.0
 10
4.906471561
 20
5.4463227745
 30
0.0
 10
4.9741854303
 20
5.4471986356
 30
0.0
 10
5.0462802745
 20
5.448102156
 30
0.0
 10
5.1220884202
 20
5.4490143068
 30
0.0
 10
5.2009189897
 20
5.4499229605
 30
0.0
 10
5.309931223
 20
5.4511245915
 30
0.0
 10
5.3925892049
 20
5.451977894
 30
0.0
 10
5.448117236
 20
5.4525493638
 30
0.0
  0
SPLINE
  5
40B
100
AcDbEntity
  8
0
100
AcDbSpline
 62
7
  6
CONTINUOUS
 70
0
 71
3
 72
18
 73
14
 74
0
 42
0.0000001
 43
0.0000001
 44
0.0000000001
 40
0.0
 40
0.0
 40
0.0
 40
0.0
 40
0.1672211534
 40
0.3301513549
 40
0.4844358276
 40
0.6261393295
 40
0.7515442231
 40
0.8070945904
 40
0.8573919118
 40
0.9021022244
 40
0.9409328868
 40
0.9736409365
 40
1.0
 40
1.0
 40
1.0
 40
1.0
 10
5.448117236
 20
5.5686910961
 30
0.0
 10
5.4947982369
 20
5.5691715161
 30
0.0
 10
5.5869624113
 20
5.5701181269
 30
0.0
 10
5.7221951405
 20
5.5716103281
 30
0.0
 10
5.8503032258
 20
5.5731341285
 30
0.0
 10
5.9679349542
 20
5.5746197991
 30
0.0
 10
6.0580040803
 20
5.5758380156
 30
0.0
 10
6.1225556349
 20
5.5768368972
 30
0.0
 10
6.1645809931
 20
5.5775623276
 30
0.0
 10
6.2019376348
 20
5.5783019141
 30
0.0
 10
6.2343824569
 20
5.5790555379
 30
0.0
 10
6.2617024064
 20
5.5798112735
 30
0.0
 10
6.2781831017
 20
5.5803686194
 30
0.0
 10
6.2855360958
 20
5.5806587019
 30
0.0
  0
SPLINE
  5
40C
100
AcDbEntity
  8
0
100
AcDbSpline
 62
7
  6
CONTINUOUS
 70
0
 71
3
 72
19
 73
15
 74
0
 42
0.0000001
 43
0.0000001
 44
0.0000000001
 40
0.0
 40
0.0
 40
0.0
 40
0.0
 40
0.2318948935
 40
0.4333064138
 40
0.6040432347
 40
0.7440076279
 40
0.8532059506
 40
0.9317075446
 40
0.959525443
 40
0.9706100994
 40
0.9798395477
 40
0.9872559898
 40
0.9929427923
 40
1.0
 40
1.0
 40
1.0
 40
1.0
 10
6.2986756174
 20
5.5812364497
 30
0.0
 10
6.3002732024
 20
5.5813158941
 30
0.0
 10
6.3032579784
 20
5.5814722769
 30
0.0
 10
6.3074171817
 20
5.5817207403
 30
0.0
 10
6.3109411103
 20
5.5819662696
 30
0.0
 10
6.3138276653
 20
5.5822076076
 30
0.0
 10
6.3160752544
 20
5.5824454074
 30
0.0
 10
6.3175483693
 20
5.5826528764
 30
0.0
 10
6.3183416486
 20
5.5828173376
 30
0.0
 10
6.3186624057
 20
5.582904362
 30
0.0
 10
6.31884382
 20
5.5829636787
 30
0.0
 10
6.3189873054
 20
5.5830243892
 30
0.0
 10
6.3191052533
 20
5.583089777
 30
0.0
 10
6.3191775922
 20
5.5831648081
 30
0.0
 10
6.3191779
 20
5.5832134862
 30
0.0
  0
SPLINE
  5
40D
100
AcDbEntity
  8
0
100
AcDbSpline
 62
7
  6
CONTINUOUS
 70
0
 71
3
 72
33
 73
29
 74
0
 42
0.0000001
 43
0.0000001
 44
0.0000000001
 40
0.0
 40
0.0
 40
0.0
 40
0.0
 40
0.0004647028
 40
0.0010699418
 40
0.0027071548
 40
0.0049173632
 40
0.0077021453
 40
0.0110601032
 40
0.0149888514
 40
0.0194858047
 40
0.0245482692
 40
0.0363586362
 40
0.0503975075
 40
0.0666369358
 40
0.0850343656
 40
0.1055446313
 40
0.1281225106
 40
0.1527212231
 40
0.1792814062
 40
0.2380238402
 40
0.3038169022
 40
0.3760476165
 40
0.4540534637
 40
0.5371092734
 40
0.6244323404
 40
0.7152298316
 40
0.8086969647
 40
1.0
 40
1.0
 40
1.0
 40
1.0
 10
4.5774847289
 20
5.4963808292
 30
0.0
 10
4.5776129499
 20
5.4964227273
 30
0.0
 10
4.5779138337
 20
5.4965014787
 30
0.0
 10
4.5786842116
 20
5.4966571334
 30
0.0
 10
4.5799644604
 20
5.4968406209
 30
0.0
 10
4.5818780406
 20
5.4970515412
 30
0.0
 10
4.5842934479
 20
5.4972655926
 30
0.0
 10
4.5872089119
 20
5.4974830257
 30
0.0
 10
4.5906224366
 20
5.4977026941
 30
0.0
 10
4.5945314944
 20
5.4979243482
 30
0.0
 10
4.6007267408
 20
5.4982383421
 30
0.0
 10
4.6096914454
 20
5.4986260029
 30
0.0
 10
4.6219006173
 20
5.4990755156
 30
0.0
 10
4.6360229014
 20
5.4995274823
 30
0.0
 10
4.6520244807
 20
5.4999807393
 30
0.0
 10
4.6698666343
 20
5.5004336739
 30
0.0
 10
4.6895094411
 20
5.5008849189
 30
0.0
 10
4.7109088922
 20
5.5013329712
 30
0.0
 10
4.742804894
 20
5.5019462951
 30
0.0
 10
4.7866582657
 20
5.502693255
 30
0.0
 10
4.8437687599
 20
5.5035442481
 30
0.0
 10
4.906471561
 20
5.5043936407
 30
0.0
 10
4.9741854303
 20
5.5052695018
 30
0.0
 10
5.0462802745
 20
5.5061730221
 30
0.0
 10
5.1220884202
 20
5.5070851729
 30
0.0
 10
5.2009189897
 20
5.5079938266
 30
0.0
 10
5.309931223
 20
5.5091954577
 30
0.0
 10
5.3925892049
 20
5.5100487601
 30
0.0
 10
5.448117236
 20
5.5106202299
 30
0.0
  0
SPLINE
  5
40E
100
AcDbEntity
  8
0
100
AcDbSpline
 62
7
  6
CONTINUOUS
 70
0
 71
3
 72
33
 73
29
 74
0
 42
0.0000001
 43
0.0000001
 44
0.0000000001
 40
0.0
 40
0.0
 40
0.0
 40
0.0
 40
0.0004647028
 40
0.0010699418
 40
0.0027071548
 40
0.0049173632
 40
0.0077021453
 40
0.0110601032
 40
0.0149888514
 40
0.0194858047
 40
0.0245482692
 40
0.0363586362
 40
0.0503975075
 40
0.0666369358
 40
0.0850343656
 40
0.1055446313
 40
0.1281225106
 40
0.1527212231
 40
0.1792814062
 40
0.2380238402
 40
0.3038169022
 40
0.3760476165
 40
0.4540534637
 40
0.5371092734
 40
0.6244323404
 40
0.7152298316
 40
0.8086969647
 40
1.0
 40
1.0
 40
1.0
 40
1.0
 10
4.5774847289
 20
5.5544516954
 30
0.0
 10
4.5776129499
 20
5.5544935934
 30
0.0
 10
4.5779138337
 20
5.5545723449
 30
0.0
 10
4.5786842116
 20
5.5547279996
 30
0.0
 10
4.5799644604
 20
5.5549114871
 30
0.0
 10
4.5818780406
 20
5.5551224073
 30
0.0
 10
4.5842934479
 20
5.5553364588
 30
0.0
 10
4.5872089119
 20
5.5555538919
 30
0.0
 10
4.5906224366
 20
5.5557735603
 30
0.0
 10
4.5945314944
 20
5.5559952144
 30
0.0
 10
4.6007267408
 20
5.5563092083
 30
0.0
 10
4.6096914454
 20
5.5566968691
 30
0.0
 10
4.6219006173
 20
5.5571463817
 30
0.0
 10
4.6360229014
 20
5.5575983484
 30
0.0
 10
4.6520244807
 20
5.5580516055
 30
0.0
 10
4.6698666343
 20
5.55850454
 30
0.0
 10
4.6895094411
 20
5.558955785
 30
0.0
 10
4.7109088922
 20
5.5594038373
 30
0.0
 10
4.742804894
 20
5.5600171612
 30
0.0
 10
4.7866582657
 20
5.5607641212
 30
0.0
 10
4.8437687599
 20
5.5616151143
 30
0.0
 10
4.906471561
 20
5.5624645068
 30
0.0
 10
4.9741854303
 20
5.5633403679
 30
0.0
 10
5.0462802745
 20
5.5642438883
 30
0.0
 10
5.1220884202
 20
5.5651560391
 30
0.0
 10
5.2009189897
 20
5.5660646928
 30
0.0
 10
5.309931223
 20
5.5672663238
 30
0.0
 10
5.3925892049
 20
5.5681196263
 30
0.0
 10
5.448117236
 20
5.5686910961
 30
0.0
  0
SPLINE
  5
40F
100
AcDbEntity
  8
0
100
AcDbSpline
 62
7
  6
CONTINUOUS
 70
0
 71
3
 72
13
 73
9
 74
0
 42
0.0000001
 43
0.0000001
 44
0.0000000001
 40
0.0
 40
0.0
 40
0.0
 40
0.0
 40
0.2854773695
 40
0.5562980434
 40
0.681840517
 40
0.7986212396
 40
0.9051304832
 40
1.0
 40
1.0
 40
1.0
 40
1.0
 10
5.448117236
 20
4.8022231979
 30
0.0
 10
5.3827950866
 20
4.8015509315
 30
0.0
 10
5.2555045511
 20
4.8002339818
 30
0.0
 10
5.0994897275
 20
4.79843561
 30
0.0
 10
4.9820764199
 20
4.7969746958
 30
0.0
 10
4.9022599648
 20
4.7959436715
 30
0.0
 10
4.8294625107
 20
4.7949491265
 30
0.0
 10
4.7833866123
 20
4.7942350547
 30
0.0
 10
4.7616808282
 20
4.7938653442
 30
0.0
  0
LINE
  5
410
100
AcDbEntity
  8
0
100
AcDbLine
 62
7
  6
CONTINUOUS
 10
4.7616808282
 20
4.7938653442
 11
4.7540665587
 21
4.7937342536
  0
LINE
  5
411
100
AcDbEntity
  8
0
100
AcDbLine
 62
7
  6
CONTINUOUS
 10
4.7540665587
 20
4.7937342536
 11
4.7359736044
 21
4.7934106864
  0
LINE
  5
412
100
AcDbEntity
  8
0
100
AcDbLine
 62
7
  6
CONTINUOUS
 10
4.7359736044
 20
4.7934106864
 11
4.7259474546
 21
4.7932232412
  0
LINE
  5
413
100
AcDbEntity
  8
0
100
AcDbLine
 62
7
  6
CONTINUOUS
 10
4.7259474546
 20
4.7932232412
 11
4.7119351872
 21
4.7929501261
  0
SPLINE
  5
414
100
AcDbEntity
  8
0
100
AcDbSpline
 62
7
  6
CONTINUOUS
 70
0
 71
3
 72
11
 73
7
 74
0
 42
0.0000001
 43
0.0000001
 44
0.0000000001
 40
0.0
 40
0.0
 40
0.0
 40
0.0
 40
0.3095186537
 40
0.5802188622
 40
0.8108011635
 40
1.0
 40
1.0
 40
1.0
 40
1.0
 10
4.7119351872
 20
4.7929501261
 30
0.0
 10
4.7014465328
 20
4.792740405
 30
0.0
 10
4.6817851115
 20
4.7923241862
 30
0.0
 10
4.6543121069
 20
4.7916543966
 30
0.0
 10
4.6309186036
 20
4.7909851475
 30
0.0
 10
4.6166989271
 20
4.7904947013
 30
0.0
 10
4.6102912938
 20
4.7902408458
 30
0.0
  0
SPLINE
  5
415
100
AcDbEntity
  8
0
100
AcDbSpline
 62
7
  6
CONTINUOUS
 70
0
 71
3
 72
24
 73
20
 74
0
 42
0.0000001
 43
0.0000001
 44
0.0000000001
 40
0.0
 40
0.0
 40
0.0
 40
0.0
 40
0.2319539033
 40
0.4336307975
 40
0.6048144679
 40
0.6789057395
 40
0.7452959337
 40
0.8039610506
 40
0.8548790421
 40
0.8980366712
 40
0.9334463115
 40
0.9482549697
 40
0.9611403102
 40
0.972111951
 40
0.9811855959
 40
0.9883893706
 40
0.9937807429
 40
0.9975021125
 40
1.0
 40
1.0
 40
1.0
 40
1.0
 10
4.6102912938
 20
4.7902408458
 30
0.0
 10
4.6077079351
 20
4.7901384991
 30
0.0
 10
4.6028788172
 20
4.7899368451
 30
0.0
 10
4.5961450865
 20
4.7896159482
 30
0.0
 10
4.5911708646
 20
4.7893400775
 30
0.0
 10
4.5877041492
 20
4.7891171156
 30
0.0
 10
4.585490049
 20
4.7889590614
 30
0.0
 10
4.5835348859
 20
4.7888021619
 30
0.0
 10
4.5818394833
 20
4.7886466372
 30
0.0
 10
4.58040441
 20
4.7884926078
 30
0.0
 10
4.5793720615
 20
4.788359148
 30
0.0
 10
4.5786771624
 20
4.788250066
 30
0.0
 10
4.5782530041
 20
4.7881734998
 30
0.0
 10
4.5778938314
 20
4.7880974222
 30
0.0
 10
4.5775996328
 20
4.7880216057
 30
0.0
 10
4.5773695457
 20
4.7879471422
 30
0.0
 10
4.5772034571
 20
4.7878718897
 30
0.0
 10
4.5770948343
 20
4.7877998525
 30
0.0
 10
4.5770586657
 20
4.7877331314
 30
0.0
 10
4.577058666
 20
4.7877052896
 30
0.0
  0
SPLINE
  5
416
100
AcDbEntity
  8
0
100
AcDbSpline
 62
7
  6
CONTINUOUS
 70
0
 71
3
 72
33
 73
29
 74
0
 42
0.0000001
 43
0.0000001
 44
0.0000000001
 40
0.0
 40
0.0
 40
0.0
 40
0.0
 40
0.0004649033
 40
0.0010704761
 40
0.0027089539
 40
0.0049207816
 40
0.0077058704
 40
0.0110628594
 40
0.0149899577
 40
0.019485164
 40
0.0245463623
 40
0.0363579052
 40
0.0504008783
 40
0.0666385058
 40
0.0850321907
 40
0.1055431596
 40
0.1281258408
 40
0.1527237741
 40
0.1792794943
 40
0.23802609
 40
0.3038168652
 40
0.3760489036
 40
0.4540505994
 40
0.537107576
 40
0.6244389499
 40
0.7152359328
 40
0.8086859585
 40
1.0
 40
1.0
 40
1.0
 40
1.0
 10
4.5774824954
 20
6.1351694871
 30
0.0
 10
4.5776107198
 20
6.1352115626
 30
0.0
 10
4.5779116989
 20
6.135290592
 30
0.0
 10
4.5786825424
 20
6.135446598
 30
0.0
 10
4.5799637691
 20
6.1356299722
 30
0.0
 10
4.581878387
 20
6.1358399691
 30
0.0
 10
4.58429425
 20
6.1360521077
 30
0.0
 10
4.5872092454
 20
6.136266844
 30
0.0
 10
4.5906217091
 20
6.1364833277
 30
0.0
 10
4.5945296055
 20
6.136701625
 30
0.0
 10
4.600724553
 20
6.1370111205
 30
0.0
 10
4.6096906047
 20
6.1373946713
 30
0.0
 10
4.6219008392
 20
6.1378431218
 30
0.0
 10
4.6360226695
 20
6.1382967965
 30
0.0
 10
4.6520227738
 20
6.1387533666
 30
0.0
 10
4.6698653726
 20
6.1392100425
 30
0.0
 10
4.6895095055
 20
6.1396646888
 30
0.0
 10
4.7109087953
 20
6.1401159927
 30
0.0
 10
4.7428044788
 20
6.1407323718
 30
0.0
 10
4.7866572666
 20
6.1414739736
 30
0.0
 10
4.8437688059
 20
6.1423229128
 30
0.0
 10
4.9064701601
 20
6.1431771049
 30
0.0
 10
4.9741837246
 20
6.1440478578
 30
0.0
 10
5.0462802792
 20
6.1449474146
 30
0.0
 10
5.1220911194
 20
6.1458621096
 30
0.0
 10
5.2009190829
 20
6.1467735024
 30
0.0
 10
5.3099295323
 20
6.1479790096
 30
0.0
 10
5.3925859201
 20
6.1488282539
 30
0.0
 10
5.448117236
 20
6.1493997575
 30
0.0
  0
LINE
  5
417
100
AcDbEntity
  8
0
100
AcDbLine
 62
7
  6
CONTINUOUS
 10
4.8007555479
 20
4.7364272955
 11
4.7616808282
 21
4.7357944781
  0
SPLINE
  5
418
100
AcDbEntity
  8
0
100
AcDbSpline
 62
7
  6
CONTINUOUS
 70
0
 71
3
 72
12
 73
8
 74
0
 42
0.0000001
 43
0.0000001
 44
0.0000000001
 40
0.0
 40
0.0
 40
0.0
 40
0.0
 40
0.3199718617
 40
0.5948920733
 40
0.8222612402
 40
0.9174603697
 40
1.0
 40
1.0
 40
1.0
 40
1.0
 10
4.7604405494
 20
4.7357733162
 30
0.0
 10
4.7444235104
 20
4.7354995578
 30
0.0
 10
4.7146451406
 20
4.7349577282
 30
0.0
 10
4.6734880924
 20
4.7340734198
 30
0.0
 10
4.6435847709
 20
4.7332954077
 30
0.0
 10
4.6233131046
 20
4.7326556846
 30
0.0
 10
4.6144203979
 20
4.7323335652
 30
0.0
 10
4.6102912938
 20
4.7321699796
 30
0.0
  0
SPLINE
  5
419
100
AcDbEntity
  8
0
100
AcDbSpline
 62
7
  6
CONTINUOUS
 70
0
 71
3
 72
24
 73
20
 74
0
 42
0.0000001
 43
0.0000001
 44
0.0000000001
 40
0.0
 40
0.0
 40
0.0
 40
0.0
 40
0.2319539033
 40
0.4336307975
 40
0.6048144679
 40
0.6789057395
 40
0.7452959337
 40
0.8039610506
 40
0.8548790421
 40
0.8980366712
 40
0.9334463115
 40
0.9482549697
 40
0.9611403102
 40
0.972111951
 40
0.9811855959
 40
0.9883893706
 40
0.9937807429
 40
0.9975021125
 40
1.0
 40
1.0
 40
1.0
 40
1.0
 10
4.6102912938
 20
4.7321699796
 30
0.0
 10
4.6077079351
 20
4.732067633
 30
0.0
 10
4.6028788172
 20
4.731865979
 30
0.0
 10
4.5961450865
 20
4.7315450821
 30
0.0
 10
4.5911708646
 20
4.7312692113
 30
0.0
 10
4.5877041492
 20
4.7310462494
 30
0.0
 10
4.585490049
 20
4.7308881952
 30
0.0
 10
4.5835348859
 20
4.7307312957
 30
0.0
 10
4.5818394833
 20
4.730575771
 30
0.0
 10
4.58040441
 20
4.7304217417
 30
0.0
 10
4.5793720615
 20
4.7302882819
 30
0.0
 10
4.5786771624
 20
4.7301791999
 30
0.0
 10
4.5782530041
 20
4.7301026336
 30
0.0
 10
4.5778938314
 20
4.730026556
 30
0.0
 10
4.5775996328
 20
4.7299507395
 30
0.0
 10
4.5773695457
 20
4.7298762761
 30
0.0
 10
4.5772034571
 20
4.7298010236
 30
0.0
 10
4.5770948343
 20
4.7297289863
 30
0.0
 10
4.5770586657
 20
4.7296622652
 30
0.0
 10
4.577058666
 20
4.7296344235
 30
0.0
  0
SPLINE
  5
41A
100
AcDbEntity
  8
0
100
AcDbSpline
 62
7
  6
CONTINUOUS
 70
0
 71
3
 72
14
 73
10
 74
0
 42
0.0000001
 43
0.0000001
 44
0.0000000001
 40
0.0
 40
0.0
 40
0.0
 40
0.0
 40
0.2898587467
 40
0.4295988455
 40
0.5631879151
 40
0.6887593104
 40
0.8044899277
 40
0.9087362609
 40
1.0
 40
1.0
 40
1.0
 40
1.0
 10
5.448117236
 20
4.860294064
 30
0.0
 10
5.3793361227
 20
4.8595861995
 30
0.0
 10
5.277395873
 20
4.8585308395
 30
0.0
 10
5.1437574773
 20
4.8570160922
 30
0.0
 10
5.0491033694
 20
4.8558850527
 30
0.0
 10
4.9601471042
 20
4.8547657626
 30
0.0
 10
4.8781539345
 20
4.8536959587
 30
0.0
 10
4.8043025143
 20
4.8526511293
 30
0.0
 10
4.757913362
 20
4.8518846507
 30
0.0
 10
4.7362597296
 20
4.8514868119
 30
0.0
  0
LINE
  5
41B
100
AcDbEntity
  8
0
100
AcDbLine
 62
7
  6
CONTINUOUS
 10
4.7362597296
 20
4.8514868119
 11
4.7259474546
 21
4.8512941073
  0
LINE
  5
41C
100
AcDbEntity
  8
0
100
AcDbLine
 62
7
  6
CONTINUOUS
 10
4.7259474546
 20
4.8512941073
 11
4.7116992193
 21
4.851016272
  0
SPLINE
  5
41D
100
AcDbEntity
  8
0
100
AcDbSpline
 62
7
  6
CONTINUOUS
 70
0
 71
3
 72
11
 73
7
 74
0
 42
0.0000001
 43
0.0000001
 44
0.0000000001
 40
0.0
 40
0.0
 40
0.0
 40
0.0
 40
0.3094547658
 40
0.5801308226
 40
0.8107331351
 40
1.0
 40
1.0
 40
1.0
 40
1.0
 10
4.7116992193
 20
4.851016272
 30
0.0
 10
4.7012370741
 20
4.8508068939
 30
0.0
 10
4.6816242733
 20
4.850391348
 30
0.0
 10
4.654217348
 20
4.8497227042
 30
0.0
 10
4.6308759941
 20
4.8490546095
 30
0.0
 10
4.6166863528
 20
4.8485650693
 30
0.0
 10
4.6102912938
 20
4.8483117119
 30
0.0
  0
SPLINE
  5
41E
100
AcDbEntity
  8
0
100
AcDbSpline
 62
7
  6
CONTINUOUS
 70
0
 71
3
 72
24
 73
20
 74
0
 42
0.0000001
 43
0.0000001
 44
0.0000000001
 40
0.0
 40
0.0
 40
0.0
 40
0.0
 40
0.2319539033
 40
0.4336307975
 40
0.6048144679
 40
0.6789057395
 40
0.7452959337
 40
0.8039610506
 40
0.8548790421
 40
0.8980366712
 40
0.9334463115
 40
0.9482549697
 40
0.9611403102
 40
0.972111951
 40
0.9811855959
 40
0.9883893706
 40
0.9937807429
 40
0.9975021125
 40
1.0
 40
1.0
 40
1.0
 40
1.0
 10
4.6102912938
 20
4.8483117119
 30
0.0
 10
4.6077079351
 20
4.8482093652
 30
0.0
 10
4.6028788172
 20
4.8480077113
 30
0.0
 10
4.5961450865
 20
4.8476868143
 30
0.0
 10
4.5911708646
 20
4.8474109436
 30
0.0
 10
4.5877041492
 20
4.8471879817
 30
0.0
 10
4.585490049
 20
4.8470299275
 30
0.0
 10
4.5835348859
 20
4.846873028
 30
0.0
 10
4.5818394833
 20
4.8467175033
 30
0.0
 10
4.58040441
 20
4.846563474
 30
0.0
 10
4.5793720615
 20
4.8464300142
 30
0.0
 10
4.5786771624
 20
4.8463209322
 30
0.0
 10
4.5782530041
 20
4.8462443659
 30
0.0
 10
4.5778938314
 20
4.8461682883
 30
0.0
 10
4.5775996328
 20
4.8460924718
 30
0.0
 10
4.5773695457
 20
4.8460180083
 30
0.0
 10
4.5772034571
 20
4.8459427558
 30
0.0
 10
4.5770948343
 20
4.8458707186
 30
0.0
 10
4.5770586657
 20
4.8458039975
 30
0.0
 10
4.577058666
 20
4.8457761558
 30
0.0
  0
SPLINE
  5
41F
100
AcDbEntity
  8
0
100
AcDbSpline
 62
7
  6
CONTINUOUS
 70
0
 71
3
 72
14
 73
10
 74
0
 42
0.0000001
 43
0.0000001
 44
0.0000000001
 40
0.0
 40
0.0
 40
0.0
 40
0.0
 40
0.2918251701
 40
0.4322799607
 40
0.5662776877
 40
0.6918582621
 40
0.8071160236
 40
0.9103455836
 40
1.0
 40
1.0
 40
1.0
 40
1.0
 10
5.448117236
 20
4.6860814656
 30
0.0
 10
5.3778662581
 20
4.6853584739
 30
0.0
 10
5.2738036978
 20
4.6842805836
 30
0.0
 10
5.1374854342
 20
4.6827308147
 30
0.0
 10
5.0411874227
 20
4.6815754404
 30
0.0
 10
4.950955682
 20
4.6804352217
 30
0.0
 10
4.8681310564
 20
4.6793490815
 30
0.0
 10
4.7939559284
 20
4.6782807185
 30
0.0
 10
4.7475271763
 20
4.6774917758
 30
0.0
 10
4.7259474546
 20
4.6770815089
 30
0.0
  0
LINE
  5
420
100
AcDbEntity
  8
0
100
AcDbLine
 62
7
  6
CONTINUOUS
 10
4.7259474546
 20
4.6770815089
 11
4.7119369837
 21
4.6768084297
  0
SPLINE
  5
421
100
AcDbEntity
  8
0
100
AcDbSpline
 62
7
  6
CONTINUOUS
 70
0
 71
3
 72
11
 73
7
 74
0
 42
0.0000001
 43
0.0000001
 44
0.0000000001
 40
0.0
 40
0.0
 40
0.0
 40
0.0
 40
0.3095191395
 40
0.5802195317
 40
0.8108016808
 40
1.0
 40
1.0
 40
1.0
 40
1.0
 10
4.7119369837
 20
4.6768084297
 30
0.0
 10
4.7014481274
 20
4.676598706
 30
0.0
 10
4.6817863359
 20
4.6761824821
 30
0.0
 10
4.6543128282
 20
4.6755126838
 30
0.0
 10
4.6309189279
 20
4.6748434259
 30
0.0
 10
4.6166990228
 20
4.6743529728
 30
0.0
 10
4.6102912938
 20
4.6740991134
 30
0.0
  0
SPLINE
  5
422
100
AcDbEntity
  8
0
100
AcDbSpline
 62
7
  6
CONTINUOUS
 70
0
 71
3
 72
24
 73
20
 74
0
 42
0.0000001
 43
0.0000001
 44
0.0000000001
 40
0.0
 40
0.0
 40
0.0
 40
0.0
 40
0.2319539044
 40
0.4336307995
 40
0.6048144707
 40
0.6789057426
 40
0.745295937
 40
0.8039610541
 40
0.8548790456
 40
0.8980366746
 40
0.9334463147
 40
0.9482549727
 40
0.961140313
 40
0.9721119536
 40
0.9811855982
 40
0.9883893725
 40
0.9937807443
 40
0.9975021132
 40
1.0
 40
1.0
 40
1.0
 40
1.0
 10
4.6102912938
 20
4.6740991134
 30
0.0
 10
4.6077079351
 20
4.6739967667
 30
0.0
 10
4.6028788172
 20
4.6737951127
 30
0.0
 10
4.5961450865
 20
4.6734742158
 30
0.0
 10
4.5911708646
 20
4.673198345
 30
0.0
 10
4.5877041492
 20
4.6729753832
 30
0.0
 10
4.585490049
 20
4.672817329
 30
0.0
 10
4.5835348859
 20
4.6726604295
 30
0.0
 10
4.5818394833
 20
4.6725049049
 30
0.0
 10
4.58040441
 20
4.6723508756
 30
0.0
 10
4.5793720615
 20
4.6722174159
 30
0.0
 10
4.5786771624
 20
4.672108334
 30
0.0
 10
4.5782530041
 20
4.6720317678
 30
0.0
 10
4.5778938314
 20
4.6719556902
 30
0.0
 10
4.5775996328
 20
4.6718798738
 30
0.0
 10
4.5773695457
 20
4.6718054103
 30
0.0
 10
4.5772034571
 20
4.6717301579
 30
0.0
 10
4.5770948343
 20
4.6716581207
 30
0.0
 10
4.5770586657
 20
4.6715913996
 30
0.0
 10
4.577058666
 20
4.6715635579
 30
0.0
  0
SPLINE
  5
423
100
AcDbEntity
  8
0
100
AcDbSpline
 62
7
  6
CONTINUOUS
 70
0
 71
3
 72
33
 73
29
 74
0
 42
0.0000001
 43
0.0000001
 44
0.0000000001
 40
0.0
 40
0.0
 40
0.0
 40
0.0
 40
0.0004647028
 40
0.0010699418
 40
0.0027071548
 40
0.0049173632
 40
0.0077021453
 40
0.0110601032
 40
0.0149888514
 40
0.0194858047
 40
0.0245482692
 40
0.0363586362
 40
0.0503975075
 40
0.0666369358
 40
0.0850343656
 40
0.1055446313
 40
0.1281225106
 40
0.1527212231
 40
0.1792814062
 40
0.2380238402
 40
0.3038169022
 40
0.3760476165
 40
0.4540534637
 40
0.5371092734
 40
0.6244323404
 40
0.7152298316
 40
0.8086969647
 40
1.0
 40
1.0
 40
1.0
 40
1.0
 10
4.5774847289
 20
6.1932312229
 30
0.0
 10
4.5776129499
 20
6.193273121
 30
0.0
 10
4.5779138337
 20
6.1933518724
 30
0.0
 10
4.5786842116
 20
6.1935075271
 30
0.0
 10
4.5799644604
 20
6.1936910146
 30
0.0
 10
4.5818780406
 20
6.1939019349
 30
0.0
 10
4.5842934479
 20
6.1941159863
 30
0.0
 10
4.5872089119
 20
6.1943334194
 30
0.0
 10
4.5906224366
 20
6.1945530878
 30
0.0
 10
4.5945314944
 20
6.1947747419
 30
0.0
 10
4.6007267408
 20
6.1950887358
 30
0.0
 10
4.6096914454
 20
6.1954763966
 30
0.0
 10
4.6219006173
 20
6.1959259093
 30
0.0
 10
4.6360229014
 20
6.196377876
 30
0.0
 10
4.6520244807
 20
6.196831133
 30
0.0
 10
4.6698666343
 20
6.1972840676
 30
0.0
 10
4.6895094411
 20
6.1977353126
 30
0.0
 10
4.7109088922
 20
6.1981833649
 30
0.0
 10
4.742804894
 20
6.1987966888
 30
0.0
 10
4.7866582657
 20
6.1995436487
 30
0.0
 10
4.8437687599
 20
6.2003946418
 30
0.0
 10
4.906471561
 20
6.2012440344
 30
0.0
 10
4.9741854303
 20
6.2021198955
 30
0.0
 10
5.0462802745
 20
6.2030234159
 30
0.0
 10
5.1220884202
 20
6.2039355666
 30
0.0
 10
5.2009189897
 20
6.2048442203
 30
0.0
 10
5.309931223
 20
6.2060458514
 30
0.0
 10
5.3925892049
 20
6.2068991538
 30
0.0
 10
5.448117236
 20
6.2074706236
 30
0.0
  0
SPLINE
  5
424
100
AcDbEntity
  8
0
100
AcDbSpline
 62
7
  6
CONTINUOUS
 70
0
 71
3
 72
33
 73
29
 74
0
 42
0.0000001
 43
0.0000001
 44
0.0000000001
 40
0.0
 40
0.0
 40
0.0
 40
0.0
 40
0.0004647028
 40
0.0010699418
 40
0.0027071548
 40
0.0049173632
 40
0.0077021453
 40
0.0110601032
 40
0.0149888514
 40
0.0194858047
 40
0.0245482692
 40
0.0363586362
 40
0.0503975075
 40
0.0666369358
 40
0.0850343656
 40
0.1055446313
 40
0.1281225106
 40
0.1527212231
 40
0.1792814062
 40
0.2380238402
 40
0.3038169022
 40
0.3760476165
 40
0.4540534637
 40
0.5371092734
 40
0.6244323404
 40
0.7152298316
 40
0.8086969647
 40
1.0
 40
1.0
 40
1.0
 40
1.0
 10
4.5774847289
 20
6.2513020891
 30
0.0
 10
4.5776129499
 20
6.2513439871
 30
0.0
 10
4.5779138337
 20
6.2514227386
 30
0.0
 10
4.5786842116
 20
6.2515783933
 30
0.0
 10
4.5799644604
 20
6.2517618808
 30
0.0
 10
4.5818780406
 20
6.251972801
 30
0.0
 10
4.5842934479
 20
6.2521868525
 30
0.0
 10
4.5872089119
 20
6.2524042856
 30
0.0
 10
4.5906224366
 20
6.252623954
 30
0.0
 10
4.5945314944
 20
6.2528456081
 30
0.0
 10
4.6007267408
 20
6.253159602
 30
0.0
 10
4.6096914454
 20
6.2535472628
 30
0.0
 10
4.6219006173
 20
6.2539967754
 30
0.0
 10
4.6360229014
 20
6.2544487421
 30
0.0
 10
4.6520244807
 20
6.2549019992
 30
0.0
 10
4.6698666343
 20
6.2553549337
 30
0.0
 10
4.6895094411
 20
6.2558061787
 30
0.0
 10
4.7109088922
 20
6.256254231
 30
0.0
 10
4.742804894
 20
6.2568675549
 30
0.0
 10
4.7866582657
 20
6.2576145149
 30
0.0
 10
4.8437687599
 20
6.258465508
 30
0.0
 10
4.906471561
 20
6.2593149005
 30
0.0
 10
4.9741854303
 20
6.2601907616
 30
0.0
 10
5.0462802745
 20
6.261094282
 30
0.0
 10
5.1220884202
 20
6.2620064328
 30
0.0
 10
5.2009189897
 20
6.2629150865
 30
0.0
 10
5.309931223
 20
6.2641167175
 30
0.0
 10
5.3925892049
 20
6.26497002
 30
0.0
 10
5.448117236
 20
6.2655414898
 30
0.0
  0
SPLINE
  5
425
100
AcDbEntity
  8
0
100
AcDbSpline
 62
7
  6
CONTINUOUS
 70
0
 71
3
 72
33
 73
29
 74
0
 42
0.0000001
 43
0.0000001
 44
0.0000000001
 40
0.0
 40
0.0
 40
0.0
 40
0.0
 40
0.0004647033
 40
0.0010699428
 40
0.0027071568
 40
0.0049173661
 40
0.0077021491
 40
0.0110601079
 40
0.014988857
 40
0.0194858111
 40
0.0245482764
 40
0.0363586448
 40
0.0503975175
 40
0.0666369469
 40
0.0850343777
 40
0.1055446443
 40
0.1281225242
 40
0.1527212373
 40
0.1792814209
 40
0.2380238552
 40
0.3038169171
 40
0.3760476307
 40
0.4540534768
 40
0.537109285
 40
0.6244323501
 40
0.7152298391
 40
0.8086969699
 40
1.0
 40
1.0
 40
1.0
 40
1.0
 10
4.5774847301
 20
6.3093729556
 30
0.0
 10
4.5776129513
 20
6.3094148536
 30
0.0
 10
4.5779138354
 20
6.3094936051
 30
0.0
 10
4.5786842139
 20
6.3096492598
 30
0.0
 10
4.5799644633
 20
6.3098327473
 30
0.0
 10
4.5818780444
 20
6.3100436676
 30
0.0
 10
4.5842934525
 20
6.310257719
 30
0.0
 10
4.5872089172
 20
6.3104751521
 30
0.0
 10
4.5906224427
 20
6.3106948205
 30
0.0
 10
4.5945315012
 20
6.3109164746
 30
0.0
 10
4.6007267485
 20
6.3112304685
 30
0.0
 10
4.6096914541
 20
6.3116181293
 30
0.0
 10
4.621900627
 20
6.3120676419
 30
0.0
 10
4.6360229122
 20
6.3125196085
 30
0.0
 10
4.6520244924
 20
6.3129728655
 30
0.0
 10
4.6698666467
 20
6.3134258
 30
0.0
 10
4.6895094541
 20
6.3138770451
 30
0.0
 10
4.7109089056
 20
6.3143250976
 30
0.0
 10
4.7428049078
 20
6.3149384217
 30
0.0
 10
4.7866582795
 20
6.3156853816
 30
0.0
 10
4.8437687736
 20
6.3165363733
 30
0.0
 10
4.9064715741
 20
6.317385765
 30
0.0
 10
4.9741854422
 20
6.3182616302
 30
0.0
 10
5.046280285
 20
6.3191651553
 30
0.0
 10
5.1220884291
 20
6.3200772951
 30
0.0
 10
5.2009189969
 20
6.3209859275
 30
0.0
 10
5.3099312268
 20
6.3221875935
 30
0.0
 10
5.3925892053
 20
6.3230410018
 30
0.0
 10
5.448117236
 20
6.3236123559
 30
0.0
  0
SPLINE
  5
426
100
AcDbEntity
  8
0
100
AcDbSpline
 62
7
  6
CONTINUOUS
 70
0
 71
3
 72
19
 73
15
 74
0
 42
0.0000001
 43
0.0000001
 44
0.0000000001
 40
0.0
 40
0.0
 40
0.0
 40
0.0
 40
0.1673515302
 40
0.330411033
 40
0.4847849491
 40
0.6265390171
 40
0.6914959785
 40
0.7519397925
 40
0.807467123
 40
0.8577211521
 40
0.9023774856
 40
0.9411317205
 40
0.9737462417
 40
1.0
 40
1.0
 40
1.0
 40
1.0
 10
5.448117236
 20
6.3120657176
 30
0.0
 10
5.4013771199
 20
6.3115846892
 30
0.0
 10
5.3090956387
 20
6.31063299
 30
0.0
 10
5.1736995944
 20
6.3091428263
 30
0.0
 10
5.0454539804
 20
6.3076185439
 30
0.0
 10
4.9446082251
 20
6.3063400095
 30
0.0
 10
4.8699963596
 20
6.3053494532
 30
0.0
 10
4.8194667614
 20
6.3046351998
 30
0.0
 10
4.7730443708
 20
6.3039127039
 30
0.0
 10
4.7310323399
 20
6.3031778065
 30
0.0
 10
4.6937061446
 20
6.3024337184
 30
0.0
 10
4.661308061
 20
6.3016819044
 30
0.0
 10
4.6340516342
 20
6.3009296098
 30
0.0
 10
4.6176184259
 20
6.3003736494
 30
0.0
 10
4.6102912938
 20
6.3000833655
 30
0.0
  0
SPLINE
  5
427
100
AcDbEntity
  8
0
100
AcDbSpline
 62
7
  6
CONTINUOUS
 70
0
 71
3
 72
24
 73
20
 74
0
 42
0.0000001
 43
0.0000001
 44
0.0000000001
 40
0.0
 40
0.0
 40
0.0
 40
0.0
 40
0.2319539033
 40
0.4336307975
 40
0.6048144679
 40
0.6789057395
 40
0.7452959337
 40
0.8039610506
 40
0.8548790421
 40
0.8980366712
 40
0.9334463115
 40
0.9482549697
 40
0.9611403102
 40
0.972111951
 40
0.9811855959
 40
0.9883893706
 40
0.9937807429
 40
0.9975021125
 40
1.0
 40
1.0
 40
1.0
 40
1.0
 10
4.6102912938
 20
6.3000833655
 30
0.0
 10
4.6077079352
 20
6.2999810188
 30
0.0
 10
4.6028788172
 20
6.2997793648
 30
0.0
 10
4.5961450865
 20
6.2994584679
 30
0.0
 10
4.5911708646
 20
6.2991825972
 30
0.0
 10
4.5877041492
 20
6.2989596353
 30
0.0
 10
4.5854900491
 20
6.2988015811
 30
0.0
 10
4.5835348859
 20
6.2986446816
 30
0.0
 10
4.5818394833
 20
6.2984891569
 30
0.0
 10
4.58040441
 20
6.2983351275
 30
0.0
 10
4.5793720615
 20
6.2982016677
 30
0.0
 10
4.5786771624
 20
6.2980925857
 30
0.0
 10
4.5782530041
 20
6.2980160195
 30
0.0
 10
4.5778938314
 20
6.2979399419
 30
0.0
 10
4.5775996328
 20
6.2978641254
 30
0.0
 10
4.5773695457
 20
6.2977896619
 30
0.0
 10
4.5772034571
 20
6.2977144094
 30
0.0
 10
4.5770948343
 20
6.2976423721
 30
0.0
 10
4.5770586657
 20
6.2975756511
 30
0.0
 10
4.577058666
 20
6.2975478093
 30
0.0
  0
SPLINE
  5
428
100
AcDbEntity
  8
0
100
AcDbSpline
 62
7
  6
CONTINUOUS
 70
0
 71
3
 72
19
 73
15
 74
0
 42
0.0000001
 43
0.0000001
 44
0.0000000001
 40
0.0
 40
0.0
 40
0.0
 40
0.0
 40
0.1673515302
 40
0.330411033
 40
0.4847849492
 40
0.6265390171
 40
0.6914959785
 40
0.7519397925
 40
0.8074671231
 40
0.8577211521
 40
0.9023774856
 40
0.9411317205
 40
0.9737462417
 40
1.0
 40
1.0
 40
1.0
 40
1.0
 10
5.448117236
 20
5.5571444577
 30
0.0
 10
5.4013771199
 20
5.5566634293
 30
0.0
 10
5.3090956386
 20
5.5557117302
 30
0.0
 10
5.1736995944
 20
5.5542215665
 30
0.0
 10
5.0454539804
 20
5.552697284
 30
0.0
 10
4.944608225
 20
5.5514187497
 30
0.0
 10
4.8699963596
 20
5.5504281934
 30
0.0
 10
4.8194667614
 20
5.54971394
 30
0.0
 10
4.7730443708
 20
5.5489914441
 30
0.0
 10
4.7310323399
 20
5.5482565467
 30
0.0
 10
4.6937061446
 20
5.5475124585
 30
0.0
 10
4.661308061
 20
5.5467606446
 30
0.0
 10
4.6340516342
 20
5.54600835
 30
0.0
 10
4.6176184259
 20
5.5454523896
 30
0.0
 10
4.6102912938
 20
5.5451621056
 30
0.0
  0
SPLINE
  5
429
100
AcDbEntity
  8
0
100
AcDbSpline
 62
7
  6
CONTINUOUS
 70
0
 71
3
 72
24
 73
20
 74
0
 42
0.0000001
 43
0.0000001
 44
0.0000000001
 40
0.0
 40
0.0
 40
0.0
 40
0.0
 40
0.2319539033
 40
0.4336307975
 40
0.6048144679
 40
0.6789057395
 40
0.7452959337
 40
0.8039610506
 40
0.8548790421
 40
0.8980366712
 40
0.9334463115
 40
0.9482549697
 40
0.9611403102
 40
0.972111951
 40
0.9811855959
 40
0.9883893706
 40
0.9937807429
 40
0.9975021125
 40
1.0
 40
1.0
 40
1.0
 40
1.0
 10
4.6102912938
 20
5.5451621056
 30
0.0
 10
4.6077079351
 20
5.5450597589
 30
0.0
 10
4.6028788172
 20
5.544858105
 30
0.0
 10
4.5961450865
 20
5.544537208
 30
0.0
 10
4.5911708646
 20
5.5442613373
 30
0.0
 10
4.5877041492
 20
5.5440383754
 30
0.0
 10
4.585490049
 20
5.5438803212
 30
0.0
 10
4.5835348859
 20
5.5437234217
 30
0.0
 10
4.5818394833
 20
5.543567897
 30
0.0
 10
4.58040441
 20
5.5434138677
 30
0.0
 10
4.5793720615
 20
5.5432804079
 30
0.0
 10
4.5786771624
 20
5.5431713259
 30
0.0
 10
4.5782530041
 20
5.5430947596
 30
0.0
 10
4.5778938314
 20
5.543018682
 30
0.0
 10
4.5775996328
 20
5.5429428655
 30
0.0
 10
4.5773695457
 20
5.542868402
 30
0.0
 10
4.5772034571
 20
5.5427931495
 30
0.0
 10
4.5770948343
 20
5.5427211123
 30
0.0
 10
4.5770586657
 20
5.5426543912
 30
0.0
 10
4.577058666
 20
5.5426265495
 30
0.0
  0
SPLINE
  5
42A
100
AcDbEntity
  8
0
100
AcDbSpline
 62
7
  6
CONTINUOUS
 70
0
 71
3
 72
19
 73
15
 74
0
 42
0.0000001
 43
0.0000001
 44
0.0000000001
 40
0.0
 40
0.0
 40
0.0
 40
0.0
 40
0.1673515302
 40
0.330411033
 40
0.4847849492
 40
0.6265390171
 40
0.6914959785
 40
0.7519397925
 40
0.8074671231
 40
0.8577211521
 40
0.9023774856
 40
0.9411317205
 40
0.9737462417
 40
1.0
 40
1.0
 40
1.0
 40
1.0
 10
5.448117236
 20
5.4990735916
 30
0.0
 10
5.4013771199
 20
5.4985925632
 30
0.0
 10
5.3090956386
 20
5.497640864
 30
0.0
 10
5.1736995944
 20
5.4961507003
 30
0.0
 10
5.0454539804
 20
5.4946264179
 30
0.0
 10
4.944608225
 20
5.4933478835
 30
0.0
 10
4.8699963596
 20
5.4923573273
 30
0.0
 10
4.8194667614
 20
5.4916430739
 30
0.0
 10
4.7730443708
 20
5.4909205779
 30
0.0
 10
4.7310323399
 20
5.4901856805
 30
0.0
 10
4.6937061446
 20
5.4894415924
 30
0.0
 10
4.661308061
 20
5.4886897784
 30
0.0
 10
4.6340516342
 20
5.4879374838
 30
0.0
 10
4.6176184259
 20
5.4873815235
 30
0.0
 10
4.6102912938
 20
5.4870912395
 30
0.0
  0
SPLINE
  5
42B
100
AcDbEntity
  8
0
100
AcDbSpline
 62
7
  6
CONTINUOUS
 70
0
 71
3
 72
24
 73
20
 74
0
 42
0.0000001
 43
0.0000001
 44
0.0000000001
 40
0.0
 40
0.0
 40
0.0
 40
0.0
 40
0.2319539033
 40
0.4336307975
 40
0.6048144679
 40
0.6789057395
 40
0.7452959337
 40
0.8039610506
 40
0.8548790421
 40
0.8980366712
 40
0.9334463115
 40
0.9482549697
 40
0.9611403102
 40
0.972111951
 40
0.9811855959
 40
0.9883893706
 40
0.9937807429
 40
0.9975021125
 40
1.0
 40
1.0
 40
1.0
 40
1.0
 10
4.6102912938
 20
5.4870912395
 30
0.0
 10
4.6077079351
 20
5.4869888928
 30
0.0
 10
4.6028788172
 20
5.4867872388
 30
0.0
 10
4.5961450865
 20
5.4864663419
 30
0.0
 10
4.5911708646
 20
5.4861904712
 30
0.0
 10
4.5877041492
 20
5.4859675093
 30
0.0
 10
4.585490049
 20
5.4858094551
 30
0.0
 10
4.5835348859
 20
5.4856525556
 30
0.0
 10
4.5818394833
 20
5.4854970309
 30
0.0
 10
4.58040441
 20
5.4853430015
 30
0.0
 10
4.5793720615
 20
5.4852095417
 30
0.0
 10
4.5786771624
 20
5.4851004597
 30
0.0
 10
4.5782530041
 20
5.4850238935
 30
0.0
 10
4.5778938314
 20
5.4849478159
 30
0.0
 10
4.5775996328
 20
5.4848719994
 30
0.0
 10
4.5773695457
 20
5.4847975359
 30
0.0
 10
4.5772034571
 20
5.4847222834
 30
0.0
 10
4.5770948343
 20
5.4846502462
 30
0.0
 10
4.5770586657
 20
5.4845835251
 30
0.0
 10
4.577058666
 20
5.4845556833
 30
0.0
  0
SPLINE
  5
42C
100
AcDbEntity
  8
0
100
AcDbSpline
 62
7
  6
CONTINUOUS
 70
0
 71
3
 72
34
 73
30
 74
0
 42
0.0000001
 43
0.0000001
 44
0.0000000001
 40
0.0
 40
0.0
 40
0.0
 40
0.0
 40
0.0004313245
 40
0.0010031355
 40
0.0025743814
 40
0.0047204062
 40
0.007443143
 40
0.0107414697
 40
0.0146130225
 40
0.0190552184
 40
0.0240653576
 40
0.0357783262
 40
0.0497293866
 40
0.065891098
 40
0.084221127
 40
0.1046740539
 40
0.1272044004
 40
0.1517653582
 40
0.1782978174
 40
0.2067358643
 40
0.2370134971
 40
0.3028160507
 40
0.3750906328
 40
0.4531712661
 40
0.5363298249
 40
0.6237793284
 40
0.7147225482
 40
0.808350164
 40
1.0
 40
1.0
 40
1.0
 40
1.0
 10
6.3188267456
 20
4.7003472777
 30
0.0
 10
6.3187089657
 20
4.7003047711
 30
0.0
 10
6.3184281305
 20
4.7002256017
 30
0.0
 10
6.3176972186
 20
4.7000691702
 30
0.0
 10
6.3164646535
 20
4.6998858565
 30
0.0
 10
6.3146070719
 20
4.6996749962
 30
0.0
 10
6.3122455682
 20
4.6994610202
 30
0.0
 10
6.3093819195
 20
4.6992434664
 30
0.0
 10
6.3060179957
 20
4.6990236332
 30
0.0
 10
6.3021563527
 20
4.6988017504
 30
0.0
 10
6.2960199946
 20
4.6984871432
 30
0.0
 10
6.2871234973
 20
4.6980988494
 30
0.0
 10
6.2749895877
 20
4.6976486719
 30
0.0
 10
6.2609336613
 20
4.6971959489
 30
0.0
 10
6.2449894072
 20
4.696741853
 30
0.0
 10
6.2271956364
 20
4.6962880127
 30
0.0
 10
6.2075924321
 20
4.695835794
 30
0.0
 10
6.1862238169
 20
4.6953867584
 30
0.0
 10
6.1631397513
 20
4.6949413495
 30
0.0
 10
6.1383957531
 20
4.6944998039
 30
0.0
 10
6.1022525058
 20
4.6938997041
 30
0.0
 10
6.0533837459
 20
4.6931704281
 30
0.0
 10
5.9906379063
 20
4.6923195058
 30
0.0
 10
5.9228534459
 20
4.6914424577
 30
0.0
 10
5.8506636354
 20
4.6905373694
 30
0.0
 10
5.7747395815
 20
4.6896234933
 30
0.0
 10
5.6957760606
 20
4.688713044
 30
0.0
 10
5.5865640873
 20
4.6875089373
 30
0.0
 10
5.5037511261
 20
4.6866540248
 30
0.0
 10
5.448117236
 20
4.6860814656
 30
0.0
  0
SPLINE
  5
42D
100
AcDbEntity
  8
0
100
AcDbSpline
 62
7
  6
CONTINUOUS
 70
0
 71
3
 72
19
 73
15
 74
0
 42
0.0000001
 43
0.0000001
 44
0.0000000001
 40
0.0
 40
0.0
 40
0.0
 40
0.0
 40
0.1673515302
 40
0.330411033
 40
0.4847849492
 40
0.6265390171
 40
0.6914959785
 40
0.7519397925
 40
0.8074671231
 40
0.8577211521
 40
0.9023774856
 40
0.9411317205
 40
0.9737462417
 40
1.0
 40
1.0
 40
1.0
 40
1.0
 10
5.448117236
 20
5.4410027254
 30
0.0
 10
5.4013771199
 20
5.4405216971
 30
0.0
 10
5.3090956386
 20
5.4395699979
 30
0.0
 10
5.1736995944
 20
5.4380798342
 30
0.0
 10
5.0454539804
 20
5.4365555518
 30
0.0
 10
4.944608225
 20
5.4352770174
 30
0.0
 10
4.8699963596
 20
5.4342864611
 30
0.0
 10
4.8194667614
 20
5.4335722077
 30
0.0
 10
4.7730443708
 20
5.4328497118
 30
0.0
 10
4.7310323399
 20
5.4321148144
 30
0.0
 10
4.6937061446
 20
5.4313707262
 30
0.0
 10
4.661308061
 20
5.4306189123
 30
0.0
 10
4.6340516342
 20
5.4298666177
 30
0.0
 10
4.6176184259
 20
5.4293106573
 30
0.0
 10
4.6102912938
 20
5.4290203733
 30
0.0
  0
SPLINE
  5
42E
100
AcDbEntity
  8
0
100
AcDbSpline
 62
7
  6
CONTINUOUS
 70
0
 71
3
 72
24
 73
20
 74
0
 42
0.0000001
 43
0.0000001
 44
0.0000000001
 40
0.0
 40
0.0
 40
0.0
 40
0.0
 40
0.2319539033
 40
0.4336307975
 40
0.6048144679
 40
0.6789057395
 40
0.7452959337
 40
0.8039610506
 40
0.8548790421
 40
0.8980366712
 40
0.9334463115
 40
0.9482549697
 40
0.9611403102
 40
0.972111951
 40
0.9811855959
 40
0.9883893706
 40
0.9937807429
 40
0.9975021125
 40
1.0
 40
1.0
 40
1.0
 40
1.0
 10
4.6102912938
 20
5.4290203733
 30
0.0
 10
4.6077079351
 20
5.4289180267
 30
0.0
 10
4.6028788172
 20
5.4287163727
 30
0.0
 10
4.5961450865
 20
5.4283954758
 30
0.0
 10
4.5911708646
 20
5.428119605
 30
0.0
 10
4.5877041492
 20
5.4278966431
 30
0.0
 10
4.585490049
 20
5.4277385889
 30
0.0
 10
4.5835348859
 20
5.4275816894
 30
0.0
 10
4.5818394833
 20
5.4274261647
 30
0.0
 10
4.58040441
 20
5.4272721354
 30
0.0
 10
4.5793720615
 20
5.4271386756
 30
0.0
 10
4.5786771624
 20
5.4270295936
 30
0.0
 10
4.5782530041
 20
5.4269530273
 30
0.0
 10
4.5778938314
 20
5.4268769497
 30
0.0
 10
4.5775996328
 20
5.4268011332
 30
0.0
 10
4.5773695457
 20
5.4267266698
 30
0.0
 10
4.5772034571
 20
5.4266514173
 30
0.0
 10
4.5770948343
 20
5.42657938
 30
0.0
 10
4.5770586657
 20
5.4265126589
 30
0.0
 10
4.577058666
 20
5.4264848172
 30
0.0
  0
SPLINE
  5
42F
100
AcDbEntity
  8
0
100
AcDbSpline
 62
7
  6
CONTINUOUS
 70
0
 71
3
 72
34
 73
30
 74
0
 42
0.0000001
 43
0.0000001
 44
0.0000000001
 40
0.0
 40
0.0
 40
0.0
 40
0.0
 40
0.0004313245
 40
0.0010031355
 40
0.0025743814
 40
0.0047204062
 40
0.007443143
 40
0.0107414697
 40
0.0146130225
 40
0.0190552184
 40
0.0240653576
 40
0.0357783262
 40
0.0497293866
 40
0.065891098
 40
0.084221127
 40
0.1046740539
 40
0.1272044004
 40
0.1517653582
 40
0.1782978174
 40
0.2067358643
 40
0.2370134971
 40
0.3028160507
 40
0.3750906328
 40
0.4531712661
 40
0.5363298249
 40
0.6237793284
 40
0.7147225482
 40
0.808350164
 40
1.0
 40
1.0
 40
1.0
 40
1.0
 10
6.3188267456
 20
4.7584181439
 30
0.0
 10
6.3187089657
 20
4.7583756373
 30
0.0
 10
6.3184281305
 20
4.7582964679
 30
0.0
 10
6.3176972186
 20
4.7581400364
 30
0.0
 10
6.3164646535
 20
4.7579567227
 30
0.0
 10
6.3146070719
 20
4.7577458624
 30
0.0
 10
6.3122455682
 20
4.7575318863
 30
0.0
 10
6.3093819195
 20
4.7573143326
 30
0.0
 10
6.3060179957
 20
4.7570944994
 30
0.0
 10
6.3021563527
 20
4.7568726166
 30
0.0
 10
6.2960199946
 20
4.7565580093
 30
0.0
 10
6.2871234973
 20
4.7561697156
 30
0.0
 10
6.2749895877
 20
4.755719538
 30
0.0
 10
6.2609336613
 20
4.7552668151
 30
0.0
 10
6.2449894072
 20
4.7548127192
 30
0.0
 10
6.2271956364
 20
4.7543588789
 30
0.0
 10
6.2075924321
 20
4.7539066601
 30
0.0
 10
6.1862238169
 20
4.7534576246
 30
0.0
 10
6.1631397513
 20
4.7530122157
 30
0.0
 10
6.1383957531
 20
4.75257067
 30
0.0
 10
6.1022525058
 20
4.7519705703
 30
0.0
 10
6.0533837459
 20
4.7512412943
 30
0.0
 10
5.9906379063
 20
4.750390372
 30
0.0
 10
5.9228534459
 20
4.7495133238
 30
0.0
 10
5.8506636354
 20
4.7486082356
 30
0.0
 10
5.7747395815
 20
4.7476943594
 30
0.0
 10
5.6957760606
 20
4.7467839101
 30
0.0
 10
5.5865640873
 20
4.7455798035
 30
0.0
 10
5.5037511261
 20
4.7447248909
 30
0.0
 10
5.448117236
 20
4.7441523317
 30
0.0
  0
SPLINE
  5
430
100
AcDbEntity
  8
0
100
AcDbSpline
 62
7
  6
CONTINUOUS
 70
0
 71
3
 72
19
 73
15
 74
0
 42
0.0000001
 43
0.0000001
 44
0.0000000001
 40
0.0
 40
0.0
 40
0.0
 40
0.0
 40
0.1673515302
 40
0.330411033
 40
0.4847849492
 40
0.6265390171
 40
0.6914959785
 40
0.7519397925
 40
0.8074671231
 40
0.8577211521
 40
0.9023774856
 40
0.9411317205
 40
0.9737462417
 40
1.0
 40
1.0
 40
1.0
 40
1.0
 10
5.448117236
 20
6.2539948514
 30
0.0
 10
5.4013771199
 20
6.253513823
 30
0.0
 10
5.3090956386
 20
6.2525621239
 30
0.0
 10
5.1736995944
 20
6.2510719602
 30
0.0
 10
5.0454539804
 20
6.2495476777
 30
0.0
 10
4.944608225
 20
6.2482691434
 30
0.0
 10
4.8699963596
 20
6.2472785871
 30
0.0
 10
4.8194667614
 20
6.2465643337
 30
0.0
 10
4.7730443708
 20
6.2458418378
 30
0.0
 10
4.7310323399
 20
6.2451069404
 30
0.0
 10
4.6937061446
 20
6.2443628522
 30
0.0
 10
4.661308061
 20
6.2436110383
 30
0.0
 10
4.6340516342
 20
6.2428587437
 30
0.0
 10
4.6176184259
 20
6.2423027833
 30
0.0
 10
4.6102912938
 20
6.2420124993
 30
0.0
  0
SPLINE
  5
431
100
AcDbEntity
  8
0
100
AcDbSpline
 62
7
  6
CONTINUOUS
 70
0
 71
3
 72
24
 73
20
 74
0
 42
0.0000001
 43
0.0000001
 44
0.0000000001
 40
0.0
 40
0.0
 40
0.0
 40
0.0
 40
0.2319539033
 40
0.4336307975
 40
0.6048144679
 40
0.6789057395
 40
0.7452959337
 40
0.8039610506
 40
0.8548790421
 40
0.8980366712
 40
0.9334463115
 40
0.9482549697
 40
0.9611403102
 40
0.972111951
 40
0.9811855959
 40
0.9883893706
 40
0.9937807429
 40
0.9975021125
 40
1.0
 40
1.0
 40
1.0
 40
1.0
 10
4.6102912938
 20
6.2420124993
 30
0.0
 10
4.6077079351
 20
6.2419101526
 30
0.0
 10
4.6028788172
 20
6.2417084987
 30
0.0
 10
4.5961450865
 20
6.2413876017
 30
0.0
 10
4.5911708646
 20
6.241111731
 30
0.0
 10
4.5877041492
 20
6.2408887691
 30
0.0
 10
4.585490049
 20
6.2407307149
 30
0.0
 10
4.5835348859
 20
6.2405738154
 30
0.0
 10
4.5818394833
 20
6.2404182907
 30
0.0
 10
4.58040441
 20
6.2402642614
 30
0.0
 10
4.5793720615
 20
6.2401308016
 30
0.0
 10
4.5786771624
 20
6.2400217196
 30
0.0
 10
4.5782530041
 20
6.2399451533
 30
0.0
 10
4.5778938314
 20
6.2398690757
 30
0.0
 10
4.5775996328
 20
6.2397932592
 30
0.0
 10
4.5773695457
 20
6.2397187957
 30
0.0
 10
4.5772034571
 20
6.2396435433
 30
0.0
 10
4.5770948343
 20
6.239571506
 30
0.0
 10
4.5770586657
 20
6.2395047849
 30
0.0
 10
4.577058666
 20
6.2394769432
 30
0.0
  0
SPLINE
  5
432
100
AcDbEntity
  8
0
100
AcDbSpline
 62
7
  6
CONTINUOUS
 70
0
 71
3
 72
23
 73
19
 74
0
 42
0.0000001
 43
0.0000001
 44
0.0000000001
 40
0.0
 40
0.0
 40
0.0
 40
0.0
 40
0.0041204936
 40
0.0100035614
 40
0.0176707458
 40
0.0271314102
 40
0.0383903603
 40
0.0514475992
 40
0.0829384248
 40
0.1215622482
 40
0.1672728294
 40
0.2200221714
 40
0.2797613635
 40
0.3464402368
 40
0.4199867346
 40
0.5872939792
 40
0.7808983519
 40
1.0
 40
1.0
 40
1.0
 40
1.0
 10
6.3188267456
 20
4.81648901
 30
0.0
 10
6.3186530928
 20
4.816426339
 30
0.0
 10
6.3182173056
 20
4.8163157824
 30
0.0
 10
6.3174389504
 20
4.8161718176
 30
0.0
 10
6.3164179551
 20
4.8160259972
 30
0.0
 10
6.3151547364
 20
4.8158779734
 30
0.0
 10
6.3136487056
 20
4.8157284998
 30
0.0
 10
6.3111575155
 20
4.8155137268
 30
0.0
 10
6.3074401953
 20
4.8152502768
 30
0.0
 10
6.3022596459
 20
4.814945234
 30
0.0
 10
6.2961254037
 20
4.814636641
 30
0.0
 10
6.2890442249
 20
4.8143251287
 30
0.0
 10
6.2810228609
 20
4.8140115667
 30
0.0
 10
6.2720691157
 20
4.8136965888
 30
0.0
 10
6.2582973588
 20
4.81325634
 30
0.0
 10
6.2388392607
 20
4.8127140262
 30
0.0
 10
6.2128596875
 20
4.8120882608
 30
0.0
 10
6.1943727923
 20
4.8116978629
 30
0.0
 10
6.1845580695
 20
4.81150142
 30
0.0
  0
LINE
  5
433
100
AcDbEntity
  8
0
100
AcDbLine
 62
7
  6
CONTINUOUS
 10
6.1845580695
 20
4.81150142
 11
6.1702356649
 21
4.8112221489
  0
LINE
  5
434
100
AcDbEntity
  8
0
100
AcDbLine
 62
7
  6
CONTINUOUS
 10
6.1702356649
 20
4.8112221489
 11
6.1599932234
 21
4.8110307617
  0
SPLINE
  5
435
100
AcDbEntity
  8
0
100
AcDbSpline
 62
7
  6
CONTINUOUS
 70
0
 71
3
 72
14
 73
10
 74
0
 42
0.0000001
 43
0.0000001
 44
0.0000000001
 40
0.0
 40
0.0
 40
0.0
 40
0.0
 40
0.091260984
 40
0.1955056046
 40
0.3112354408
 40
0.4368069248
 40
0.5703968068
 40
0.7101381401
 40
1.0
 40
1.0
 40
1.0
 40
1.0
 10
6.1599932234
 20
4.8110307617
 30
0.0
 10
6.1383396829
 20
4.8106329067
 30
0.0
 10
6.0919503863
 20
4.8098664182
 30
0.0
 10
6.0180982948
 20
4.8088215397
 30
0.0
 10
5.9361035668
 20
4.8077517213
 30
0.0
 10
5.8471449638
 20
4.8066323807
 30
0.0
 10
5.7524878918
 20
4.8055012926
 30
0.0
 10
5.6188448019
 20
4.8039864984
 30
0.0
 10
5.5169008739
 20
4.8029310884
 30
0.0
 10
5.448117236
 20
4.8022231979
 30
0.0
  0
SPLINE
  5
436
100
AcDbEntity
  8
0
100
AcDbSpline
 62
7
  6
CONTINUOUS
 70
0
 71
3
 72
19
 73
15
 74
0
 42
0.0000001
 43
0.0000001
 44
0.0000000001
 40
0.0
 40
0.0
 40
0.0
 40
0.0
 40
0.1656707719
 40
0.3272011627
 40
0.4804359039
 40
0.5527486111
 40
0.6215636443
 40
0.7470006651
 40
0.8028285254
 40
0.8535880745
 40
0.8989487412
 40
0.9386349714
 40
0.9723883771
 40
1.0
 40
1.0
 40
1.0
 40
1.0
 10
5.448117236
 20
6.1378531192
 30
0.0
 10
5.4021383971
 20
6.1373799255
 30
0.0
 10
5.3113297954
 20
6.1364459582
 30
0.0
 10
5.1779947801
 20
6.1349759384
 30
0.0
 10
5.0705703392
 20
6.1337058345
 30
0.0
 10
4.9888774585
 20
6.1326931819
 30
0.0
 10
4.9148994965
 20
6.131747818
 30
0.0
 10
4.8454971078
 20
6.1308086957
 30
0.0
 10
4.7811071519
 20
6.1298236043
 30
0.0
 10
4.7389406001
 20
6.1291080384
 30
0.0
 10
4.701255059
 20
6.1283792233
 30
0.0
 10
4.6682906554
 20
6.1276425729
 30
0.0
 10
4.6402539608
 20
6.1269027879
 30
0.0
 10
4.6232308552
 20
6.1263584273
 30
0.0
 10
4.615572551
 20
6.1260763384
 30
0.0
  0
SPLINE
  5
437
100
AcDbEntity
  8
0
100
AcDbSpline
 62
7
  6
CONTINUOUS
 70
0
 71
3
 72
25
 73
21
 74
0
 42
0.0000001
 43
0.0000001
 44
0.0000000001
 40
0.0
 40
0.0
 40
0.0
 40
0.0
 40
0.231970285
 40
0.4336913092
 40
0.604867662
 40
0.678950562
 40
0.7453395089
 40
0.8040180822
 40
0.8549716605
 40
0.8981887211
 40
0.9336635643
 40
0.948499572
 40
0.9614045361
 40
0.9723844894
 40
0.9814511738
 40
0.9886296745
 40
0.9939730864
 40
0.9959955281
 40
0.997625944
 40
1.0
 40
1.0
 40
1.0
 40
1.0
 10
4.615572551
 20
6.1260763384
 30
0.0
 10
4.6125798287
 20
6.1259661033
 30
0.0
 10
4.6069850302
 20
6.1257489684
 30
0.0
 10
4.5991837435
 20
6.1254037565
 30
0.0
 10
4.5934207413
 20
6.1251070516
 30
0.0
 10
4.5894044939
 20
6.1248668889
 30
0.0
 10
4.5868390849
 20
6.1246963754
 30
0.0
 10
4.5845729505
 20
6.1245267398
 30
0.0
 10
4.582606815
 20
6.124358133
 30
0.0
 10
4.5809414272
 20
6.1241906215
 30
0.0
 10
4.5797425982
 20
6.1240451561
 30
0.0
 10
4.5789351702
 20
6.1239260586
 30
0.0
 10
4.5784422614
 20
6.1238424693
 30
0.0
 10
4.5780250111
 20
6.1237592494
 30
0.0
 10
4.57768317
 20
6.1236767413
 30
0.0
 10
4.5774166683
 20
6.1235946246
 30
0.0
 10
4.5772425768
 20
6.1235226294
 30
0.0
 10
4.5771433399
 20
6.123461008
 30
0.0
 10
4.5770841091
 20
6.1234115445
 30
0.0
 10
4.5770556135
 20
6.1233614615
 30
0.0
 10
4.5770557793
 20
6.1233308127
 30
0.0
  0
LINE
  5
438
100
AcDbEntity
  8
0
100
AcDbLine
 62
7
  6
CONTINUOUS
 10
6.3059358191
 20
4.8732359595
 11
6.2765343654
 21
4.8719258661
  0
SPLINE
  5
439
100
AcDbEntity
  8
0
100
AcDbSpline
 62
7
  6
CONTINUOUS
 70
0
 71
3
 72
11
 73
7
 74
0
 42
0.0000001
 43
0.0000001
 44
0.0000000001
 40
0.0
 40
0.0
 40
0.0
 40
0.0
 40
0.1957149067
 40
0.4283883297
 40
0.6968891332
 40
1.0
 40
1.0
 40
1.0
 40
1.0
 10
6.2765343654
 20
4.8719258661
 30
0.0
 10
6.2696017197
 20
4.8716819458
 30
0.0
 10
6.2544251948
 20
4.8712073302
 30
0.0
 10
6.2297331817
 20
4.8705541915
 30
0.0
 10
6.2012334194
 20
4.8699030787
 30
0.0
 10
6.1809772113
 20
4.8694971938
 30
0.0
 10
6.1702356649
 20
4.8692930151
 30
0.0
  0
LINE
  5
43A
100
AcDbEntity
  8
0
100
AcDbLine
 62
7
  6
CONTINUOUS
 10
6.1702356649
 20
4.8692930151
 11
6.1674845755
 21
4.8692409658
  0
LINE
  5
43B
100
AcDbEntity
  8
0
100
AcDbLine
 62
7
  6
CONTINUOUS
 10
6.1674845755
 20
4.8692409658
 11
6.160279239
 21
4.8691068854
  0
SPLINE
  5
43C
100
AcDbEntity
  8
0
100
AcDbSpline
 62
7
  6
CONTINUOUS
 70
0
 71
3
 72
14
 73
10
 74
0
 42
0.0000001
 43
0.0000001
 44
0.0000000001
 40
0.0
 40
0.0
 40
0.0
 40
0.0
 40
0.0912175829
 40
0.1954348379
 40
0.3111519534
 40
0.4367237156
 40
0.5703246161
 40
0.7100851968
 40
1.0
 40
1.0
 40
1.0
 40
1.0
 10
6.160279239
 20
4.8691068854
 30
0.0
 10
6.1386273065
 20
4.8687086944
 30
0.0
 10
6.0922361775
 20
4.867941591
 30
0.0
 10
6.0183742363
 20
4.8668960866
 30
0.0
 10
5.9363560134
 20
4.8658258219
 30
0.0
 10
5.8473620054
 20
4.8647059006
 30
0.0
 10
5.7526596496
 20
4.8635741459
 30
0.0
 10
5.6189431083
 20
4.8620583943
 30
0.0
 10
5.5169410805
 20
4.8610023683
 30
0.0
 10
5.448117236
 20
4.860294064
 30
0.0
  0
SPLINE
  5
43D
100
AcDbEntity
  8
0
100
AcDbSpline
 62
7
  6
CONTINUOUS
 70
0
 71
3
 72
19
 73
15
 74
0
 42
0.0000001
 43
0.0000001
 44
0.0000000001
 40
0.0
 40
0.0
 40
0.0
 40
0.0
 40
0.1673515302
 40
0.330411033
 40
0.4847849492
 40
0.6265390171
 40
0.6914959785
 40
0.7519397925
 40
0.8074671231
 40
0.8577211521
 40
0.9023774856
 40
0.9411317205
 40
0.9737462417
 40
1.0
 40
1.0
 40
1.0
 40
1.0
 10
5.448117236
 20
6.1959239853
 30
0.0
 10
5.4013771199
 20
6.1954429569
 30
0.0
 10
5.3090956386
 20
6.1944912577
 30
0.0
 10
5.1736995944
 20
6.193001094
 30
0.0
 10
5.0454539804
 20
6.1914768116
 30
0.0
 10
4.944608225
 20
6.1901982772
 30
0.0
 10
4.8699963596
 20
6.189207721
 30
0.0
 10
4.8194667614
 20
6.1884934676
 30
0.0
 10
4.7730443708
 20
6.1877709716
 30
0.0
 10
4.7310323399
 20
6.1870360742
 30
0.0
 10
4.6937061446
 20
6.1862919861
 30
0.0
 10
4.661308061
 20
6.1855401721
 30
0.0
 10
4.6340516342
 20
6.1847878775
 30
0.0
 10
4.6176184259
 20
6.1842319172
 30
0.0
 10
4.6102912938
 20
6.1839416332
 30
0.0
  0
SPLINE
  5
43E
100
AcDbEntity
  8
0
100
AcDbSpline
 62
7
  6
CONTINUOUS
 70
0
 71
3
 72
24
 73
20
 74
0
 42
0.0000001
 43
0.0000001
 44
0.0000000001
 40
0.0
 40
0.0
 40
0.0
 40
0.0
 40
0.2319539033
 40
0.4336307975
 40
0.6048144679
 40
0.6789057395
 40
0.7452959337
 40
0.8039610506
 40
0.8548790421
 40
0.8980366712
 40
0.9334463115
 40
0.9482549697
 40
0.9611403102
 40
0.972111951
 40
0.9811855959
 40
0.9883893706
 40
0.9937807429
 40
0.9975021125
 40
1.0
 40
1.0
 40
1.0
 40
1.0
 10
4.6102912938
 20
6.1839416332
 30
0.0
 10
4.6077079351
 20
6.1838392865
 30
0.0
 10
4.6028788172
 20
6.1836376325
 30
0.0
 10
4.5961450865
 20
6.1833167356
 30
0.0
 10
4.5911708646
 20
6.1830408649
 30
0.0
 10
4.5877041492
 20
6.182817903
 30
0.0
 10
4.585490049
 20
6.1826598488
 30
0.0
 10
4.5835348859
 20
6.1825029493
 30
0.0
 10
4.5818394833
 20
6.1823474246
 30
0.0
 10
4.58040441
 20
6.1821933952
 30
0.0
 10
4.5793720615
 20
6.1820599354
 30
0.0
 10
4.5786771624
 20
6.1819508534
 30
0.0
 10
4.5782530041
 20
6.1818742872
 30
0.0
 10
4.5778938314
 20
6.1817982096
 30
0.0
 10
4.5775996328
 20
6.1817223931
 30
0.0
 10
4.5773695457
 20
6.1816479296
 30
0.0
 10
4.5772034571
 20
6.1815726771
 30
0.0
 10
4.5770948343
 20
6.1815006399
 30
0.0
 10
4.5770586657
 20
6.1814339188
 30
0.0
 10
4.577058666
 20
6.181406077
 30
0.0
  0
SPLINE
  5
43F
100
AcDbEntity
  8
0
100
AcDbSpline
 62
7
  6
CONTINUOUS
 70
0
 71
3
 72
19
 73
15
 74
0
 42
0.0000001
 43
0.0000001
 44
0.0000000001
 40
0.0
 40
0.0
 40
0.0
 40
0.0
 40
0.1673515302
 40
0.330411033
 40
0.4847849492
 40
0.6265390171
 40
0.6914959785
 40
0.7519397925
 40
0.8074671231
 40
0.8577211521
 40
0.9023774856
 40
0.9411317205
 40
0.9737462417
 40
1.0
 40
1.0
 40
1.0
 40
1.0
 10
5.448117236
 20
5.2087192609
 30
0.0
 10
5.4013771199
 20
5.2082382325
 30
0.0
 10
5.3090956386
 20
5.2072865333
 30
0.0
 10
5.1736995944
 20
5.2057963696
 30
0.0
 10
5.0454539804
 20
5.2042720872
 30
0.0
 10
4.944608225
 20
5.2029935528
 30
0.0
 10
4.8699963596
 20
5.2020029966
 30
0.0
 10
4.8194667614
 20
5.2012887432
 30
0.0
 10
4.7730443708
 20
5.2005662472
 30
0.0
 10
4.7310323399
 20
5.1998313498
 30
0.0
 10
4.6937061446
 20
5.1990872617
 30
0.0
 10
4.661308061
 20
5.1983354477
 30
0.0
 10
4.6340516342
 20
5.1975831531
 30
0.0
 10
4.6176184259
 20
5.1970271927
 30
0.0
 10
4.6102912938
 20
5.1967369088
 30
0.0
  0
SPLINE
  5
440
100
AcDbEntity
  8
0
100
AcDbSpline
 62
7
  6
CONTINUOUS
 70
0
 71
3
 72
24
 73
20
 74
0
 42
0.0000001
 43
0.0000001
 44
0.0000000001
 40
0.0
 40
0.0
 40
0.0
 40
0.0
 40
0.2319539033
 40
0.4336307975
 40
0.6048144679
 40
0.6789057395
 40
0.7452959337
 40
0.8039610506
 40
0.8548790421
 40
0.8980366712
 40
0.9334463115
 40
0.9482549697
 40
0.9611403102
 40
0.972111951
 40
0.9811855959
 40
0.9883893706
 40
0.9937807429
 40
0.9975021125
 40
1.0
 40
1.0
 40
1.0
 40
1.0
 10
4.6102912938
 20
5.1967369088
 30
0.0
 10
4.6077079351
 20
5.1966345621
 30
0.0
 10
4.6028788172
 20
5.1964329081
 30
0.0
 10
4.5961450865
 20
5.1961120112
 30
0.0
 10
4.5911708646
 20
5.1958361405
 30
0.0
 10
4.5877041492
 20
5.1956131786
 30
0.0
 10
4.585490049
 20
5.1954551244
 30
0.0
 10
4.5835348859
 20
5.1952982249
 30
0.0
 10
4.5818394833
 20
5.1951427002
 30
0.0
 10
4.58040441
 20
5.1949886708
 30
0.0
 10
4.5793720615
 20
5.194855211
 30
0.0
 10
4.5786771624
 20
5.194746129
 30
0.0
 10
4.5782530041
 20
5.1946695628
 30
0.0
 10
4.5778938314
 20
5.1945934852
 30
0.0
 10
4.5775996328
 20
5.1945176687
 30
0.0
 10
4.5773695457
 20
5.1944432052
 30
0.0
 10
4.5772034571
 20
5.1943679527
 30
0.0
 10
4.5770948343
 20
5.1942959155
 30
0.0
 10
4.5770586657
 20
5.1942291944
 30
0.0
 10
4.577058666
 20
5.1942013526
 30
0.0
  0
SPLINE
  5
441
100
AcDbEntity
  8
0
100
AcDbSpline
 62
7
  6
CONTINUOUS
 70
0
 71
3
 72
19
 73
15
 74
0
 42
0.0000001
 43
0.0000001
 44
0.0000000001
 40
0.0
 40
0.0
 40
0.0
 40
0.0
 40
0.1673515302
 40
0.330411033
 40
0.4847849492
 40
0.6265390171
 40
0.6914959785
 40
0.7519397925
 40
0.8074671231
 40
0.8577211521
 40
0.9023774856
 40
0.9411317205
 40
0.9737462417
 40
1.0
 40
1.0
 40
1.0
 40
1.0
 10
5.448117236
 20
5.266790127
 30
0.0
 10
5.4013771199
 20
5.2663090986
 30
0.0
 10
5.3090956386
 20
5.2653573995
 30
0.0
 10
5.1736995944
 20
5.2638672358
 30
0.0
 10
5.0454539804
 20
5.2623429533
 30
0.0
 10
4.944608225
 20
5.2610644189
 30
0.0
 10
4.8699963596
 20
5.2600738627
 30
0.0
 10
4.8194667614
 20
5.2593596093
 30
0.0
 10
4.7730443708
 20
5.2586371133
 30
0.0
 10
4.7310323399
 20
5.2579022159
 30
0.0
 10
4.6937061446
 20
5.2571581278
 30
0.0
 10
4.661308061
 20
5.2564063138
 30
0.0
 10
4.6340516342
 20
5.2556540193
 30
0.0
 10
4.6176184259
 20
5.2550980589
 30
0.0
 10
4.6102912938
 20
5.2548077749
 30
0.0
  0
SPLINE
  5
442
100
AcDbEntity
  8
0
100
AcDbSpline
 62
7
  6
CONTINUOUS
 70
0
 71
3
 72
24
 73
20
 74
0
 42
0.0000001
 43
0.0000001
 44
0.0000000001
 40
0.0
 40
0.0
 40
0.0
 40
0.0
 40
0.2319539033
 40
0.4336307975
 40
0.6048144679
 40
0.6789057395
 40
0.7452959337
 40
0.8039610506
 40
0.8548790421
 40
0.8980366712
 40
0.9334463115
 40
0.9482549697
 40
0.9611403102
 40
0.972111951
 40
0.9811855959
 40
0.9883893706
 40
0.9937807429
 40
0.9975021125
 40
1.0
 40
1.0
 40
1.0
 40
1.0
 10
4.6102912938
 20
5.2548077749
 30
0.0
 10
4.6077079351
 20
5.2547054282
 30
0.0
 10
4.6028788172
 20
5.2545037743
 30
0.0
 10
4.5961450865
 20
5.2541828773
 30
0.0
 10
4.5911708646
 20
5.2539070066
 30
0.0
 10
4.5877041492
 20
5.2536840447
 30
0.0
 10
4.585490049
 20
5.2535259905
 30
0.0
 10
4.5835348859
 20
5.253369091
 30
0.0
 10
4.5818394833
 20
5.2532135663
 30
0.0
 10
4.58040441
 20
5.2530595369
 30
0.0
 10
4.5793720615
 20
5.2529260771
 30
0.0
 10
4.5786771624
 20
5.2528169952
 30
0.0
 10
4.5782530041
 20
5.2527404289
 30
0.0
 10
4.5778938314
 20
5.2526643513
 30
0.0
 10
4.5775996328
 20
5.2525885348
 30
0.0
 10
4.5773695457
 20
5.2525140713
 30
0.0
 10
4.5772034571
 20
5.2524388188
 30
0.0
 10
4.5770948343
 20
5.2523667816
 30
0.0
 10
4.5770586657
 20
5.2523000605
 30
0.0
 10
4.577058666
 20
5.2522722188
 30
0.0
  0
SPLINE
  5
443
100
AcDbEntity
  8
0
100
AcDbSpline
 62
7
  6
CONTINUOUS
 70
0
 71
3
 72
42
 73
38
 74
0
 42
0.0000001
 43
0.0000001
 44
0.0000000001
 40
0.0
 40
0.0
 40
0.0
 40
0.0
 40
0.0979265754
 40
0.1950281987
 40
0.2902185196
 40
0.3825798075
 40
0.4712583985
 40
0.555414022
 40
0.6342183249
 40
0.7069142808
 40
0.7407521659
 40
0.7728023244
 40
0.8029914536
 40
0.8312498827
 40
0.8575079565
 40
0.8816970987
 40
0.9037611223
 40
0.9236518734
 40
0.9413213809
 40
0.9567220007
 40
0.9635589306
 40
0.9698159605
 40
0.9754900949
 40
0.9805783684
 40
0.9850778618
 40
0.9889857302
 40
0.9922992582
 40
0.995015984
 40
0.9961501464
 40
0.9971350643
 40
0.9979711163
 40
0.9986589268
 40
0.9991996336
 40
0.9995956442
 40
0.9997412625
 40
0.9998541052
 40
1.0
 40
1.0
 40
1.0
 40
1.0
 10
5.448117236
 20
6.3701365837
 30
0.0
 10
5.4196756295
 20
6.3698454212
 30
0.0
 10
5.3630320529
 20
6.3692617436
 30
0.0
 10
5.2787418505
 20
6.3683691539
 30
0.0
 10
5.1960684311
 20
6.3674549862
 30
0.0
 10
5.11584181
 20
6.3665280406
 30
0.0
 10
5.0388205135
 20
6.3655979635
 30
0.0
 10
4.9657370631
 20
6.3646780226
 30
0.0
 10
4.8972958037
 20
6.3637893352
 30
0.0
 10
4.843468765
 20
6.3630520256
 30
0.0
 10
4.8032210186
 20
6.3624542675
 30
0.0
 10
4.7753185865
 20
6.3620119943
 30
0.0
 10
4.7490370182
 20
6.3615651321
 30
0.0
 10
4.7244381149
 20
6.3611140628
 30
0.0
 10
4.701582316
 20
6.3606591673
 30
0.0
 10
4.6805261661
 20
6.360200565
 30
0.0
 10
4.6613199667
 20
6.3597393131
 30
0.0
 10
4.6440080418
 20
6.3592770234
 30
0.0
 10
4.6286322851
 20
6.3588151262
 30
0.0
 10
4.6170479052
 20
6.3584177714
 30
0.0
 10
4.6087777704
 20
6.3580968848
 30
0.0
 10
4.6033313612
 20
6.3578667847
 30
0.0
 10
4.5983932977
 20
6.3576378323
 30
0.0
 10
4.5939662485
 20
6.3574102839
 30
0.0
 10
4.590052879
 20
6.3571844235
 30
0.0
 10
4.5866558107
 20
6.3569607051
 30
0.0
 10
4.583777687
 20
6.3567394225
 30
0.0
 10
4.5817053949
 20
6.3565482727
 30
0.0
 10
4.5803094442
 20
6.3563924353
 30
0.0
 10
4.5794580205
 20
6.3562834316
 30
0.0
 10
4.5787373453
 20
6.3561750866
 30
0.0
 10
4.578147215
 20
6.3560681038
 30
0.0
 10
4.5776871538
 20
6.3559614777
 30
0.0
 10
4.5773865961
 20
6.3558691166
 30
0.0
 10
4.5772127209
 20
6.3557882479
 30
0.0
 10
4.5771149489
 20
6.3557282059
 30
0.0
 10
4.5770586656
 20
6.3556610509
 30
0.0
 10
4.577058666
 20
6.3556186753
 30
0.0
  0
SPLINE
  5
444
100
AcDbEntity
  8
0
100
AcDbSpline
 62
7
  6
CONTINUOUS
 70
0
 71
3
 72
19
 73
15
 74
0
 42
0.0000001
 43
0.0000001
 44
0.0000000001
 40
0.0
 40
0.0
 40
0.0
 40
0.0
 40
0.1673515302
 40
0.330411033
 40
0.4847849492
 40
0.6265390171
 40
0.6914959785
 40
0.7519397925
 40
0.8074671231
 40
0.8577211521
 40
0.9023774856
 40
0.9411317205
 40
0.9737462417
 40
1.0
 40
1.0
 40
1.0
 40
1.0
 10
5.448117236
 20
5.3248609932
 30
0.0
 10
5.4013771199
 20
5.3243799648
 30
0.0
 10
5.3090956386
 20
5.3234282656
 30
0.0
 10
5.1736995944
 20
5.3219381019
 30
0.0
 10
5.0454539804
 20
5.3204138195
 30
0.0
 10
4.944608225
 20
5.3191352851
 30
0.0
 10
4.8699963596
 20
5.3181447288
 30
0.0
 10
4.8194667614
 20
5.3174304754
 30
0.0
 10
4.7730443708
 20
5.3167079795
 30
0.0
 10
4.7310323399
 20
5.3159730821
 30
0.0
 10
4.6937061446
 20
5.315228994
 30
0.0
 10
4.661308061
 20
5.31447718
 30
0.0
 10
4.6340516342
 20
5.3137248854
 30
0.0
 10
4.6176184259
 20
5.313168925
 30
0.0
 10
4.6102912938
 20
5.312878641
 30
0.0
  0
SPLINE
  5
445
100
AcDbEntity
  8
0
100
AcDbSpline
 62
7
  6
CONTINUOUS
 70
0
 71
3
 72
24
 73
20
 74
0
 42
0.0000001
 43
0.0000001
 44
0.0000000001
 40
0.0
 40
0.0
 40
0.0
 40
0.0
 40
0.2319539033
 40
0.4336307975
 40
0.6048144679
 40
0.6789057395
 40
0.7452959337
 40
0.8039610506
 40
0.8548790421
 40
0.8980366712
 40
0.9334463115
 40
0.9482549697
 40
0.9611403102
 40
0.972111951
 40
0.9811855959
 40
0.9883893706
 40
0.9937807429
 40
0.9975021125
 40
1.0
 40
1.0
 40
1.0
 40
1.0
 10
4.6102912938
 20
5.312878641
 30
0.0
 10
4.6077079351
 20
5.3127762944
 30
0.0
 10
4.6028788172
 20
5.3125746404
 30
0.0
 10
4.5961450865
 20
5.3122537435
 30
0.0
 10
4.5911708646
 20
5.3119778728
 30
0.0
 10
4.5877041492
 20
5.3117549108
 30
0.0
 10
4.585490049
 20
5.3115968567
 30
0.0
 10
4.5835348859
 20
5.3114399571
 30
0.0
 10
4.5818394833
 20
5.3112844325
 30
0.0
 10
4.58040441
 20
5.3111304031
 30
0.0
 10
4.5793720615
 20
5.3109969433
 30
0.0
 10
4.5786771624
 20
5.3108878613
 30
0.0
 10
4.5782530041
 20
5.3108112951
 30
0.0
 10
4.5778938314
 20
5.3107352175
 30
0.0
 10
4.5775996328
 20
5.3106594009
 30
0.0
 10
4.5773695457
 20
5.3105849375
 30
0.0
 10
4.5772034571
 20
5.310509685
 30
0.0
 10
4.5770948343
 20
5.3104376477
 30
0.0
 10
4.5770586657
 20
5.3103709267
 30
0.0
 10
4.577058666
 20
5.3103430849
 30
0.0
  0
SPLINE
  5
446
100
AcDbEntity
  8
0
100
AcDbSpline
 62
7
  6
CONTINUOUS
 70
0
 71
3
 72
34
 73
30
 74
0
 42
0.0000001
 43
0.0000001
 44
0.0000000001
 40
0.0
 40
0.0
 40
0.0
 40
0.0
 40
0.0004313245
 40
0.0010031355
 40
0.0025743814
 40
0.0047204062
 40
0.007443143
 40
0.0107414697
 40
0.0146130225
 40
0.0190552184
 40
0.0240653576
 40
0.0357783262
 40
0.0497293866
 40
0.065891098
 40
0.084221127
 40
0.1046740539
 40
0.1272044004
 40
0.1517653582
 40
0.1782978174
 40
0.2067358643
 40
0.2370134971
 40
0.3028160507
 40
0.3750906328
 40
0.4531712661
 40
0.5363298249
 40
0.6237793284
 40
0.7147225482
 40
0.808350164
 40
1.0
 40
1.0
 40
1.0
 40
1.0
 10
6.3188267456
 20
5.222985073
 30
0.0
 10
6.3187089657
 20
5.2229425664
 30
0.0
 10
6.3184281305
 20
5.222863397
 30
0.0
 10
6.3176972186
 20
5.2227069655
 30
0.0
 10
6.3164646535
 20
5.2225236518
 30
0.0
 10
6.3146070719
 20
5.2223127915
 30
0.0
 10
6.3122455682
 20
5.2220988155
 30
0.0
 10
6.3093819195
 20
5.2218812617
 30
0.0
 10
6.3060179957
 20
5.2216614285
 30
0.0
 10
6.3021563527
 20
5.2214395457
 30
0.0
 10
6.2960199946
 20
5.2211249385
 30
0.0
 10
6.2871234973
 20
5.2207366447
 30
0.0
 10
6.2749895877
 20
5.2202864672
 30
0.0
 10
6.2609336613
 20
5.2198337442
 30
0.0
 10
6.2449894072
 20
5.2193796483
 30
0.0
 10
6.2271956364
 20
5.218925808
 30
0.0
 10
6.2075924321
 20
5.2184735892
 30
0.0
 10
6.1862238169
 20
5.2180245537
 30
0.0
 10
6.1631397513
 20
5.2175791448
 30
0.0
 10
6.1383957531
 20
5.2171375991
 30
0.0
 10
6.1022525058
 20
5.2165374994
 30
0.0
 10
6.0533837459
 20
5.2158082234
 30
0.0
 10
5.9906379063
 20
5.2149573011
 30
0.0
 10
5.9228534459
 20
5.2140802529
 30
0.0
 10
5.8506636354
 20
5.2131751647
 30
0.0
 10
5.7747395815
 20
5.2122612886
 30
0.0
 10
5.6957760606
 20
5.2113508393
 30
0.0
 10
5.5865640873
 20
5.2101467326
 30
0.0
 10
5.5037511261
 20
5.20929182
 30
0.0
 10
5.448117236
 20
5.2087192609
 30
0.0
  0
SPLINE
  5
447
100
AcDbEntity
  8
0
100
AcDbSpline
 62
7
  6
CONTINUOUS
 70
0
 71
3
 72
34
 73
30
 74
0
 42
0.0000001
 43
0.0000001
 44
0.0000000001
 40
0.0
 40
0.0
 40
0.0
 40
0.0
 40
0.0004313245
 40
0.0010031355
 40
0.0025743814
 40
0.0047204062
 40
0.007443143
 40
0.0107414697
 40
0.0146130225
 40
0.0190552184
 40
0.0240653576
 40
0.0357783262
 40
0.0497293866
 40
0.065891098
 40
0.084221127
 40
0.1046740539
 40
0.1272044004
 40
0.1517653582
 40
0.1782978174
 40
0.2067358643
 40
0.2370134971
 40
0.3028160507
 40
0.3750906328
 40
0.4531712661
 40
0.5363298249
 40
0.6237793284
 40
0.7147225482
 40
0.808350164
 40
1.0
 40
1.0
 40
1.0
 40
1.0
 10
6.3188267456
 20
5.2810559392
 30
0.0
 10
6.3187089657
 20
5.2810134326
 30
0.0
 10
6.3184281305
 20
5.2809342632
 30
0.0
 10
6.3176972186
 20
5.2807778316
 30
0.0
 10
6.3164646535
 20
5.280594518
 30
0.0
 10
6.3146070719
 20
5.2803836576
 30
0.0
 10
6.3122455682
 20
5.2801696816
 30
0.0
 10
6.3093819195
 20
5.2799521279
 30
0.0
 10
6.3060179957
 20
5.2797322946
 30
0.0
 10
6.3021563527
 20
5.2795104119
 30
0.0
 10
6.2960199946
 20
5.2791958046
 30
0.0
 10
6.2871234973
 20
5.2788075109
 30
0.0
 10
6.2749895877
 20
5.2783573333
 30
0.0
 10
6.2609336613
 20
5.2779046103
 30
0.0
 10
6.2449894072
 20
5.2774505145
 30
0.0
 10
6.2271956364
 20
5.2769966741
 30
0.0
 10
6.2075924321
 20
5.2765444554
 30
0.0
 10
6.1862238169
 20
5.2760954199
 30
0.0
 10
6.1631397513
 20
5.2756500109
 30
0.0
 10
6.1383957531
 20
5.2752084653
 30
0.0
 10
6.1022525058
 20
5.2746083655
 30
0.0
 10
6.0533837459
 20
5.2738790895
 30
0.0
 10
5.9906379063
 20
5.2730281672
 30
0.0
 10
5.9228534459
 20
5.2721511191
 30
0.0
 10
5.8506636354
 20
5.2712460309
 30
0.0
 10
5.7747395815
 20
5.2703321547
 30
0.0
 10
5.6957760606
 20
5.2694217054
 30
0.0
 10
5.5865640873
 20
5.2682175988
 30
0.0
 10
5.5037511261
 20
5.2673626862
 30
0.0
 10
5.448117236
 20
5.266790127
 30
0.0
  0
SPLINE
  5
448
100
AcDbEntity
  8
0
100
AcDbSpline
 62
7
  6
CONTINUOUS
 70
0
 71
3
 72
34
 73
30
 74
0
 42
0.0000001
 43
0.0000001
 44
0.0000000001
 40
0.0
 40
0.0
 40
0.0
 40
0.0
 40
0.0004313245
 40
0.0010031355
 40
0.0025743814
 40
0.0047204062
 40
0.007443143
 40
0.0107414697
 40
0.0146130225
 40
0.0190552184
 40
0.0240653576
 40
0.0357783262
 40
0.0497293866
 40
0.065891098
 40
0.084221127
 40
0.1046740539
 40
0.1272044004
 40
0.1517653582
 40
0.1782978174
 40
0.2067358643
 40
0.2370134971
 40
0.3028160507
 40
0.3750906328
 40
0.4531712661
 40
0.5363298249
 40
0.6237793284
 40
0.7147225482
 40
0.808350164
 40
1.0
 40
1.0
 40
1.0
 40
1.0
 10
6.3188267456
 20
5.3391268053
 30
0.0
 10
6.3187089657
 20
5.3390842987
 30
0.0
 10
6.3184281305
 20
5.3390051293
 30
0.0
 10
6.3176972186
 20
5.3388486978
 30
0.0
 10
6.3164646535
 20
5.3386653841
 30
0.0
 10
6.3146070719
 20
5.3384545238
 30
0.0
 10
6.3122455682
 20
5.3382405477
 30
0.0
 10
6.3093819195
 20
5.338022994
 30
0.0
 10
6.3060179957
 20
5.3378031608
 30
0.0
 10
6.3021563527
 20
5.337581278
 30
0.0
 10
6.2960199946
 20
5.3372666707
 30
0.0
 10
6.2871234973
 20
5.336878377
 30
0.0
 10
6.2749895877
 20
5.3364281995
 30
0.0
 10
6.2609336613
 20
5.3359754765
 30
0.0
 10
6.2449894072
 20
5.3355213806
 30
0.0
 10
6.2271956364
 20
5.3350675403
 30
0.0
 10
6.2075924321
 20
5.3346153215
 30
0.0
 10
6.1862238169
 20
5.334166286
 30
0.0
 10
6.1631397513
 20
5.3337208771
 30
0.0
 10
6.1383957531
 20
5.3332793314
 30
0.0
 10
6.1022525058
 20
5.3326792317
 30
0.0
 10
6.0533837459
 20
5.3319499557
 30
0.0
 10
5.9906379063
 20
5.3310990334
 30
0.0
 10
5.9228534459
 20
5.3302219852
 30
0.0
 10
5.8506636354
 20
5.329316897
 30
0.0
 10
5.7747395815
 20
5.3284030208
 30
0.0
 10
5.6957760606
 20
5.3274925716
 30
0.0
 10
5.5865640873
 20
5.3262884649
 30
0.0
 10
5.5037511261
 20
5.3254335523
 30
0.0
 10
5.448117236
 20
5.3248609932
 30
0.0
  0
SPLINE
  5
449
100
AcDbEntity
  8
0
100
AcDbSpline
 62
7
  6
CONTINUOUS
 70
0
 71
3
 72
34
 73
30
 74
0
 42
0.0000001
 43
0.0000001
 44
0.0000000001
 40
0.0
 40
0.0
 40
0.0
 40
0.0
 40
0.0004313245
 40
0.0010031355
 40
0.0025743814
 40
0.0047204062
 40
0.007443143
 40
0.0107414697
 40
0.0146130225
 40
0.0190552184
 40
0.0240653576
 40
0.0357783262
 40
0.0497293866
 40
0.065891098
 40
0.084221127
 40
0.1046740539
 40
0.1272044004
 40
0.1517653582
 40
0.1782978174
 40
0.2067358643
 40
0.2370134971
 40
0.3028160507
 40
0.3750906328
 40
0.4531712661
 40
0.5363298249
 40
0.6237793284
 40
0.7147225482
 40
0.808350164
 40
1.0
 40
1.0
 40
1.0
 40
1.0
 10
6.3188267456
 20
5.4552685376
 30
0.0
 10
6.3187089657
 20
5.455226031
 30
0.0
 10
6.3184281305
 20
5.4551468616
 30
0.0
 10
6.3176972186
 20
5.4549904301
 30
0.0
 10
6.3164646535
 20
5.4548071164
 30
0.0
 10
6.3146070719
 20
5.4545962561
 30
0.0
 10
6.3122455682
 20
5.45438228
 30
0.0
 10
6.3093819195
 20
5.4541647263
 30
0.0
 10
6.3060179957
 20
5.4539448931
 30
0.0
 10
6.3021563527
 20
5.4537230103
 30
0.0
 10
6.2960199946
 20
5.453408403
 30
0.0
 10
6.2871234973
 20
5.4530201093
 30
0.0
 10
6.2749895877
 20
5.4525699317
 30
0.0
 10
6.2609336613
 20
5.4521172088
 30
0.0
 10
6.2449894072
 20
5.4516631129
 30
0.0
 10
6.2271956364
 20
5.4512092726
 30
0.0
 10
6.2075924321
 20
5.4507570538
 30
0.0
 10
6.1862238169
 20
5.4503080183
 30
0.0
 10
6.1631397513
 20
5.4498626094
 30
0.0
 10
6.1383957531
 20
5.4494210637
 30
0.0
 10
6.1022525058
 20
5.448820964
 30
0.0
 10
6.0533837459
 20
5.448091688
 30
0.0
 10
5.9906379063
 20
5.4472407657
 30
0.0
 10
5.9228534459
 20
5.4463637175
 30
0.0
 10
5.8506636354
 20
5.4454586293
 30
0.0
 10
5.7747395815
 20
5.4445447531
 30
0.0
 10
5.6957760606
 20
5.4436343038
 30
0.0
 10
5.5865640873
 20
5.4424301972
 30
0.0
 10
5.5037511261
 20
5.4415752846
 30
0.0
 10
5.448117236
 20
5.4410027254
 30
0.0
  0
SPLINE
  5
44A
100
AcDbEntity
  8
0
100
AcDbSpline
 62
7
  6
CONTINUOUS
 70
0
 71
3
 72
34
 73
30
 74
0
 42
0.0000001
 43
0.0000001
 44
0.0000000001
 40
0.0
 40
0.0
 40
0.0
 40
0.0
 40
0.0004313245
 40
0.0010031355
 40
0.0025743814
 40
0.0047204062
 40
0.007443143
 40
0.0107414697
 40
0.0146130225
 40
0.0190552184
 40
0.0240653576
 40
0.0357783262
 40
0.0497293866
 40
0.065891098
 40
0.084221127
 40
0.1046740539
 40
0.1272044004
 40
0.1517653582
 40
0.1782978174
 40
0.2067358643
 40
0.2370134971
 40
0.3028160507
 40
0.3750906328
 40
0.4531712661
 40
0.5363298249
 40
0.6237793284
 40
0.7147225482
 40
0.808350164
 40
1.0
 40
1.0
 40
1.0
 40
1.0
 10
6.3188267456
 20
5.5133394037
 30
0.0
 10
6.3187089657
 20
5.5132968971
 30
0.0
 10
6.3184281305
 20
5.5132177277
 30
0.0
 10
6.3176972186
 20
5.5130612962
 30
0.0
 10
6.3164646535
 20
5.5128779825
 30
0.0
 10
6.3146070719
 20
5.5126671222
 30
0.0
 10
6.3122455682
 20
5.5124531462
 30
0.0
 10
6.3093819195
 20
5.5122355924
 30
0.0
 10
6.3060179957
 20
5.5120157592
 30
0.0
 10
6.3021563527
 20
5.5117938764
 30
0.0
 10
6.2960199946
 20
5.5114792692
 30
0.0
 10
6.2871234973
 20
5.5110909754
 30
0.0
 10
6.2749895877
 20
5.5106407979
 30
0.0
 10
6.2609336613
 20
5.5101880749
 30
0.0
 10
6.2449894072
 20
5.509733979
 30
0.0
 10
6.2271956364
 20
5.5092801387
 30
0.0
 10
6.2075924321
 20
5.5088279199
 30
0.0
 10
6.1862238169
 20
5.5083788844
 30
0.0
 10
6.1631397513
 20
5.5079334755
 30
0.0
 10
6.1383957531
 20
5.5074919299
 30
0.0
 10
6.1022525058
 20
5.5068918301
 30
0.0
 10
6.0533837459
 20
5.5061625541
 30
0.0
 10
5.9906379063
 20
5.5053116318
 30
0.0
 10
5.9228534459
 20
5.5044345837
 30
0.0
 10
5.8506636354
 20
5.5035294954
 30
0.0
 10
5.7747395815
 20
5.5026156193
 30
0.0
 10
5.6957760606
 20
5.50170517
 30
0.0
 10
5.5865640873
 20
5.5005010633
 30
0.0
 10
5.5037511261
 20
5.4996461507
 30
0.0
 10
5.448117236
 20
5.4990735916
 30
0.0
  0
SPLINE
  5
44B
100
AcDbEntity
  8
0
100
AcDbSpline
 62
7
  6
CONTINUOUS
 70
0
 71
3
 72
34
 73
30
 74
0
 42
0.0000001
 43
0.0000001
 44
0.0000000001
 40
0.0
 40
0.0
 40
0.0
 40
0.0
 40
0.0004314896
 40
0.0010035784
 40
0.0025759257
 40
0.004723568
 40
0.0074467741
 40
0.0107442433
 40
0.0146141993
 40
0.0190546375
 40
0.02406343
 40
0.0296383766
 40
0.0357772225
 40
0.0497325047
 40
0.0658927136
 40
0.0842189701
 40
0.1046722617
 40
0.1272074488
 40
0.1517679661
 40
0.1782959715
 40
0.2370154843
 40
0.302816042
 40
0.3750917678
 40
0.45316843
 40
0.5363279633
 40
0.623785862
 40
0.7147286792
 40
0.8083391982
 40
1.0
 40
1.0
 40
1.0
 40
1.0
 10
6.3188289438
 20
5.5714004339
 30
0.0
 10
6.3187111759
 20
5.5713577526
 30
0.0
 10
6.3184302733
 20
5.5712783149
 30
0.0
 10
6.3176989687
 20
5.5711215599
 30
0.0
 10
6.3164654806
 20
5.5709384037
 30
0.0
 10
6.3146068523
 20
5.5707285312
 30
0.0
 10
6.3122448023
 20
5.5705165483
 30
0.0
 10
6.3093815137
 20
5.570301827
 30
0.0
 10
6.3060185928
 20
5.5700853463
 30
0.0
 10
6.3021581081
 20
5.5698670469
 30
0.0
 10
6.2978020445
 20
5.5696470207
 30
0.0
 10
6.29295245
 20
5.5694251879
 30
0.0
 10
6.2855070978
 20
5.5691134118
 30
0.0
 10
6.2749893988
 20
5.5687247337
 30
0.0
 10
6.2609338271
 20
5.5682702228
 30
0.0
 10
6.2449910704
 20
5.5678127179
 30
0.0
 10
6.2271969614
 20
5.5673548183
 30
0.0
 10
6.2075924302
 20
5.566898856
 30
0.0
 10
6.1862238751
 20
5.5664461837
 30
0.0
 10
6.1543520294
 20
5.5658277875
 30
0.0
 10
6.1105082536
 20
5.5650841223
 30
0.0
 10
6.0533837432
 20
5.5642339154
 30
0.0
 10
5.9906392631
 20
5.5633787786
 30
0.0
 10
5.9228551703
 20
5.5625070527
 30
0.0
 10
5.8506636354
 20
5.5616059792
 30
0.0
 10
5.7747369002
 20
5.5606892025
 30
0.0
 10
5.6957759388
 20
5.5597758023
 30
0.0
 10
5.5865657421
 20
5.55856774
 30
0.0
 10
5.5037543925
 20
5.5577170505
 30
0.0
 10
5.448117236
 20
5.5571444577
 30
0.0
  0
SPLINE
  5
44C
100
AcDbEntity
  8
0
100
AcDbSpline
 62
7
  6
CONTINUOUS
 70
0
 71
3
 72
34
 73
30
 74
0
 42
0.0000001
 43
0.0000001
 44
0.0000000001
 40
0.0
 40
0.0
 40
0.0
 40
0.0
 40
0.0004313245
 40
0.0010031355
 40
0.0025743814
 40
0.0047204062
 40
0.007443143
 40
0.0107414697
 40
0.0146130225
 40
0.0190552184
 40
0.0240653576
 40
0.0357783262
 40
0.0497293866
 40
0.065891098
 40
0.084221127
 40
0.1046740539
 40
0.1272044004
 40
0.1517653582
 40
0.1782978174
 40
0.2067358643
 40
0.2370134971
 40
0.3028160507
 40
0.3750906328
 40
0.4531712661
 40
0.5363298249
 40
0.6237793284
 40
0.7147225482
 40
0.808350164
 40
1.0
 40
1.0
 40
1.0
 40
1.0
 10
6.3188267456
 20
6.1521189313
 30
0.0
 10
6.3187089657
 20
6.1520764247
 30
0.0
 10
6.3184281305
 20
6.1519972553
 30
0.0
 10
6.3176972186
 20
6.1518408238
 30
0.0
 10
6.3164646535
 20
6.1516575101
 30
0.0
 10
6.3146070719
 20
6.1514466498
 30
0.0
 10
6.3122455682
 20
6.1512326737
 30
0.0
 10
6.3093819195
 20
6.15101512
 30
0.0
 10
6.3060179957
 20
6.1507952868
 30
0.0
 10
6.3021563527
 20
6.150573404
 30
0.0
 10
6.2960199946
 20
6.1502587967
 30
0.0
 10
6.2871234973
 20
6.149870503
 30
0.0
 10
6.2749895877
 20
6.1494203254
 30
0.0
 10
6.2609336613
 20
6.1489676025
 30
0.0
 10
6.2449894072
 20
6.1485135066
 30
0.0
 10
6.2271956364
 20
6.1480596663
 30
0.0
 10
6.2075924321
 20
6.1476074475
 30
0.0
 10
6.1862238169
 20
6.147158412
 30
0.0
 10
6.1631397513
 20
6.1467130031
 30
0.0
 10
6.1383957531
 20
6.1462714574
 30
0.0
 10
6.1022525058
 20
6.1456713577
 30
0.0
 10
6.0533837459
 20
6.1449420817
 30
0.0
 10
5.9906379063
 20
6.1440911594
 30
0.0
 10
5.9228534459
 20
6.1432141112
 30
0.0
 10
5.8506636354
 20
6.142309023
 30
0.0
 10
5.7747395815
 20
6.1413951468
 30
0.0
 10
5.6957760606
 20
6.1404846975
 30
0.0
 10
5.5865640873
 20
6.1392805909
 30
0.0
 10
5.5037511261
 20
6.1384256783
 30
0.0
 10
5.448117236
 20
6.1378531191
 30
0.0
  0
SPLINE
  5
44D
100
AcDbEntity
  8
0
100
AcDbSpline
 62
7
  6
CONTINUOUS
 70
0
 71
3
 72
34
 73
30
 74
0
 42
0.0000001
 43
0.0000001
 44
0.0000000001
 40
0.0
 40
0.0
 40
0.0
 40
0.0
 40
0.0004313245
 40
0.0010031355
 40
0.0025743814
 40
0.0047204062
 40
0.007443143
 40
0.0107414697
 40
0.0146130225
 40
0.0190552184
 40
0.0240653576
 40
0.0357783262
 40
0.0497293866
 40
0.065891098
 40
0.084221127
 40
0.1046740539
 40
0.1272044004
 40
0.1517653582
 40
0.1782978174
 40
0.2067358643
 40
0.2370134971
 40
0.3028160507
 40
0.3750906328
 40
0.4531712661
 40
0.5363298249
 40
0.6237793284
 40
0.7147225482
 40
0.808350164
 40
1.0
 40
1.0
 40
1.0
 40
1.0
 10
6.3188267456
 20
6.2101897974
 30
0.0
 10
6.3187089657
 20
6.2101472908
 30
0.0
 10
6.3184281305
 20
6.2100681214
 30
0.0
 10
6.3176972186
 20
6.2099116899
 30
0.0
 10
6.3164646535
 20
6.2097283762
 30
0.0
 10
6.3146070719
 20
6.2095175159
 30
0.0
 10
6.3122455682
 20
6.2093035399
 30
0.0
 10
6.3093819195
 20
6.2090859861
 30
0.0
 10
6.3060179957
 20
6.2088661529
 30
0.0
 10
6.3021563527
 20
6.2086442701
 30
0.0
 10
6.2960199946
 20
6.2083296629
 30
0.0
 10
6.2871234973
 20
6.2079413691
 30
0.0
 10
6.2749895877
 20
6.2074911916
 30
0.0
 10
6.2609336613
 20
6.2070384686
 30
0.0
 10
6.2449894072
 20
6.2065843727
 30
0.0
 10
6.2271956364
 20
6.2061305324
 30
0.0
 10
6.2075924321
 20
6.2056783136
 30
0.0
 10
6.1862238169
 20
6.2052292781
 30
0.0
 10
6.1631397513
 20
6.2047838692
 30
0.0
 10
6.1383957531
 20
6.2043423236
 30
0.0
 10
6.1022525058
 20
6.2037422238
 30
0.0
 10
6.0533837459
 20
6.2030129478
 30
0.0
 10
5.9906379063
 20
6.2021620255
 30
0.0
 10
5.9228534459
 20
6.2012849774
 30
0.0
 10
5.8506636354
 20
6.2003798891
 30
0.0
 10
5.7747395815
 20
6.199466013
 30
0.0
 10
5.6957760606
 20
6.1985555637
 30
0.0
 10
5.5865640873
 20
6.197351457
 30
0.0
 10
5.5037511261
 20
6.1964965444
 30
0.0
 10
5.448117236
 20
6.1959239853
 30
0.0
  0
SPLINE
  5
44E
100
AcDbEntity
  8
0
100
AcDbSpline
 62
7
  6
CONTINUOUS
 70
0
 71
3
 72
34
 73
30
 74
0
 42
0.0000001
 43
0.0000001
 44
0.0000000001
 40
0.0
 40
0.0
 40
0.0
 40
0.0
 40
0.0004313245
 40
0.0010031355
 40
0.0025743814
 40
0.0047204062
 40
0.007443143
 40
0.0107414697
 40
0.0146130225
 40
0.0190552184
 40
0.0240653576
 40
0.0357783262
 40
0.0497293866
 40
0.065891098
 40
0.084221127
 40
0.1046740539
 40
0.1272044004
 40
0.1517653582
 40
0.1782978174
 40
0.2067358643
 40
0.2370134971
 40
0.3028160507
 40
0.3750906328
 40
0.4531712661
 40
0.5363298249
 40
0.6237793284
 40
0.7147225482
 40
0.808350164
 40
1.0
 40
1.0
 40
1.0
 40
1.0
 10
6.3188267456
 20
6.2682606636
 30
0.0
 10
6.3187089657
 20
6.268218157
 30
0.0
 10
6.3184281305
 20
6.2681389876
 30
0.0
 10
6.3176972186
 20
6.267982556
 30
0.0
 10
6.3164646535
 20
6.2677992424
 30
0.0
 10
6.3146070719
 20
6.2675883821
 30
0.0
 10
6.3122455682
 20
6.267374406
 30
0.0
 10
6.3093819195
 20
6.2671568523
 30
0.0
 10
6.3060179957
 20
6.266937019
 30
0.0
 10
6.3021563527
 20
6.2667151363
 30
0.0
 10
6.2960199946
 20
6.266400529
 30
0.0
 10
6.2871234973
 20
6.2660122353
 30
0.0
 10
6.2749895877
 20
6.2655620577
 30
0.0
 10
6.2609336613
 20
6.2651093347
 30
0.0
 10
6.2449894072
 20
6.2646552389
 30
0.0
 10
6.2271956364
 20
6.2642013985
 30
0.0
 10
6.2075924321
 20
6.2637491798
 30
0.0
 10
6.1862238169
 20
6.2633001443
 30
0.0
 10
6.1631397513
 20
6.2628547353
 30
0.0
 10
6.1383957531
 20
6.2624131897
 30
0.0
 10
6.1022525058
 20
6.2618130899
 30
0.0
 10
6.0533837459
 20
6.2610838139
 30
0.0
 10
5.9906379063
 20
6.2602328917
 30
0.0
 10
5.9228534459
 20
6.2593558435
 30
0.0
 10
5.8506636354
 20
6.2584507553
 30
0.0
 10
5.7747395815
 20
6.2575368791
 30
0.0
 10
5.6957760606
 20
6.2566264298
 30
0.0
 10
5.5865640873
 20
6.2554223232
 30
0.0
 10
5.5037511261
 20
6.2545674106
 30
0.0
 10
5.448117236
 20
6.2539948514
 30
0.0
  0
SPLINE
  5
44F
100
AcDbEntity
  8
0
100
AcDbSpline
 62
7
  6
CONTINUOUS
 70
0
 71
3
 72
34
 73
30
 74
0
 42
0.0000001
 43
0.0000001
 44
0.0000000001
 40
0.0
 40
0.0
 40
0.0
 40
0.0
 40
0.0004313245
 40
0.0010031355
 40
0.0025743814
 40
0.0047204062
 40
0.007443143
 40
0.0107414697
 40
0.0146130225
 40
0.0190552184
 40
0.0240653576
 40
0.0357783262
 40
0.0497293866
 40
0.065891098
 40
0.084221127
 40
0.1046740539
 40
0.1272044004
 40
0.1517653582
 40
0.1782978174
 40
0.2067358643
 40
0.2370134971
 40
0.3028160507
 40
0.3750906328
 40
0.4531712661
 40
0.5363298249
 40
0.6237793284
 40
0.7147225482
 40
0.808350164
 40
1.0
 40
1.0
 40
1.0
 40
1.0
 10
6.3188267456
 20
6.3263315297
 30
0.0
 10
6.3187089657
 20
6.3262890231
 30
0.0
 10
6.3184281305
 20
6.3262098537
 30
0.0
 10
6.3176972186
 20
6.3260534222
 30
0.0
 10
6.3164646535
 20
6.3258701085
 30
0.0
 10
6.3146070719
 20
6.3256592482
 30
0.0
 10
6.3122455682
 20
6.3254452722
 30
0.0
 10
6.3093819195
 20
6.3252277184
 30
0.0
 10
6.3060179957
 20
6.3250078852
 30
0.0
 10
6.3021563527
 20
6.3247860024
 30
0.0
 10
6.2960199946
 20
6.3244713952
 30
0.0
 10
6.2871234973
 20
6.3240831014
 30
0.0
 10
6.2749895877
 20
6.3236329239
 30
0.0
 10
6.2609336613
 20
6.3231802009
 30
0.0
 10
6.2449894072
 20
6.322726105
 30
0.0
 10
6.2271956364
 20
6.3222722647
 30
0.0
 10
6.2075924321
 20
6.3218200459
 30
0.0
 10
6.1862238169
 20
6.3213710104
 30
0.0
 10
6.1631397513
 20
6.3209256015
 30
0.0
 10
6.1383957531
 20
6.3204840558
 30
0.0
 10
6.1022525058
 20
6.3198839561
 30
0.0
 10
6.0533837459
 20
6.3191546801
 30
0.0
 10
5.9906379063
 20
6.3183037578
 30
0.0
 10
5.9228534459
 20
6.3174267096
 30
0.0
 10
5.8506636354
 20
6.3165216214
 30
0.0
 10
5.7747395815
 20
6.3156077453
 30
0.0
 10
5.6957760606
 20
6.314697296
 30
0.0
 10
5.5865640873
 20
6.3134931893
 30
0.0
 10
5.5037511261
 20
6.3126382767
 30
0.0
 10
5.448117236
 20
6.3120657176
 30
0.0
  0
SPLINE
  5
450
100
AcDbEntity
  8
0
100
AcDbSpline
 62
9
  6
CONTINUOUS
 70
0
 71
3
 72
17
 73
13
 74
0
 42
0.0000001
 43
0.0000001
 44
0.0000000001
 40
0.0
 40
0.0
 40
0.0
 40
0.0
 40
0.1210701617
 40
0.2435816803
 40
0.3052738517
 40
0.3671420835
 40
0.4914619666
 40
0.6170825389
 40
0.6805347332
 40
0.7443638689
 40
0.8724345336
 40
1.0
 40
1.0
 40
1.0
 40
1.0
 10
6.5127596777
 20
4.8736677905
 30
0.0
 10
6.514192126
 20
4.8736677905
 30
0.0
 10
6.5170813168
 20
4.8739795746
 30
0.0
 10
6.5205452505
 20
4.8750868944
 30
0.0
 10
6.5231589406
 20
4.8763796111
 30
0.0
 10
6.5256443051
 20
4.8779453583
 30
0.0
 10
6.5284500383
 20
4.8803806134
 30
0.0
 10
6.5307401005
 20
4.8833282101
 30
0.0
 10
6.532215378
 20
4.8859362251
 30
0.0
 10
6.5334432486
 20
4.8887012211
 30
0.0
 10
6.5344890562
 20
4.8923560709
 30
0.0
 10
6.5347819459
 20
4.8953868391
 30
0.0
 10
6.5347819459
 20
4.896896137
 30
0.0
  0
LINE
  5
451
100
AcDbEntity
  8
0
100
AcDbLine
 62
9
  6
CONTINUOUS
 10
4.360246469
 20
4.8968969118
 11
4.3607091795
 21
4.8968902325
  0
ENDSEC
  0
SECTION
  2
OBJECTS
  0
DICTIONARY
  5
C
100
AcDbDictionary
280
0
281
1
  3
ACAD_GROUP
350
D
  3
ACAD_MLINESTYLE
350
17
  3
ACAD_LAYOUT
350
1A
  3
ACAD_PLOTSETTINGS
350
19
  3
ACAD_PLOTSTYLENAME
350
E
  0
DICTIONARY
  5
D
102
{ACAD_REACTORS
330
C
102
}
100
AcDbDictionary
280
0
281
1
  0
ACDBDICTIONARYWDFLT
  5
E
102
{ACAD_REACTORS
330
C
102
}
100
AcDbDictionary
281
1
  3
Normal
350
F
100
AcDbDictionaryWithDefault
340
F
  0
DICTIONARY
  5
17
102
{ACAD_REACTORS
330
C
102
}
100
AcDbDictionary
280
0
281
1
  3
Standard
350
18
  0
DICTIONARY
  5
19
102
{ACAD_REACTORS
330
C
102
}
100
AcDbDictionary
281
1
  0
DICTIONARY
  5
1A
102
{ACAD_REACTORS
330
C
102
}
100
AcDbDictionary
281
1
  3
Model
350
452
  3
Layout1
350
453
  0
ACDBPLACEHOLDER
  5
F
102
{ACAD_REACTORS
330
E
102
}
  0
MLINESTYLE
  5
18
102
{ACAD_REACTORS
330
17
102
}
100
AcDbMlineStyle
  2
STANDARD
 70
0
  3

 62
256
 51
90.0
 52
90.0
 71
2
 49
0.5
 62
256
  6
BYLAYER
 49
-0.5
 62
256
  6
BYLAYER
  0
LAYOUT
  5
452
102
{ACAD_REACTORS
330
1A
102
}
100
AcDbPlotSettings
  1

  2
none_device
  4
ANSI_A_(11.00_x_8.50_Inches)
  6

 40
0.0
 41
0.0
 42
0.0
 43
0.0
 44
279.4
 45
215.9
 46
0.0
 47
0.0
 48
0.0
 49
0.0
140
0.0
141
0.0
142
1.0
143
1.0
 70
1024
 72
0
 73
0
 74
0
  7

 75
0
147
1.0
148
0.0
149
0.0
100
AcDbLayout
  1
Model
 70
0
 71
0
 10
0.0
 20
0.0
 11
11.0
 21
8.5
 12
0.0
 22
0.0
 32
0.0
 14
0.0
 24
0.0
 34
0.0
 15
0.0
 25
0.0
 35
0.0
146
0.0
 13
0.0
 23
0.0
 33
0.0
 16
1.0
 26
0.0
 36
0.0
 17
0.0
 27
1.0
 37
0.0
 76
0
330
22B
345
0
346
0
  0
LAYOUT
  5
453
102
{ACAD_REACTORS
330
1A
102
}
100
AcDbPlotSettings
  1

  2
none_device
  4
ANSI_A_(11.00_x_8.50_Inches)
  6

 40
0.0
 41
0.0
 42
0.0
 43
0.0
 44
279.4
 45
215.9
 46
0.0
 47
0.0
 48
0.0
 49
0.0
140
0.0
141
0.0
142
1.0
143
1.0
 70
0
 72
0
 73
0
 74
0
  7

 75
0
147
1.0
148
0.0
149
0.0
100
AcDbLayout
  1
Layout1
 70
0
 71
1
 10
0.0
 20
0.0
 11
11.0
 21
8.5
 12
0.0
 22
0.0
 32
0.0
 14
0.0
 24
0.0
 34
0.0
 15
0.0
 25
0.0
 35
0.0
146
0.0
 13
0.0
 23
0.0
 33
0.0
 16
1.0
 26
0.0
 36
0.0
 17
0.0
 27
1.0
 37
0.0
 76
0
330
22C
345
0
346
0
  0
ENDSEC
  0
EOF
