999
DXF file: C:\Prowork\plots\3302_front.dxf
999
Pro/ENGINEER 2018500 by Parametric Technology Corporation
  0
SECTION
  2
HEADER
  9
$ACADVER
  1
AC1032
  9
$DWGCODEPAGE
  3
ANSI_1252
  9
$EXTMAX
 10
11.0
 20
8.5
 30
0.0
  9
$EXTMIN
 10
0.0
 20
0.0
 30
0.0
  9
$LIMMIN
 10
0.0
 20
0.0
  9
$LIMMAX
 10
11.0
 20
8.5
  9
$VIEWCTR
 10
5.5
 20
4.25
  9
$VIEWSIZE
 40
8.5
  9
$CLAYER
  8
0
  9
$LTSCALE
 40
0.605
  9
$CELTYPE
  6
BYLAYER
  9
$DIMSCALE
 40
1.0
  9
$DIMASZ
 40
0.1
  9
$DIMEXO
 40
0.0625
  9
$DIMDLI
 40
0.418
  9
$DIMEXE
 40
0.125
  9
$DIMCEN
 40
0.099
  9
$DIMLFAC
 40
1.0
  9
$DIMBLK
  1
_FILLED
  9
$DIMALT
 70
1
  9
$DIMALTD
 70
2
  9
$DIMALTTD
 70
2
  9
$DIMALTF
 40
25.4
  9
$DIMTXT
 40
0.08
  9
$DIMTOL
 70
1
  9
$DIMLIM
 70
0
  9
$DIMTFAC
 40
1.0
  9
$DIMTP
 40
0.001
  9
$DIMTM
 40
0.001
  9
$DIMGAP
 40
0.09
  9
$DIMDSEP
 70
46
  9
$AUNITS
 70
0
  9
$PDMODE
 70
3
  9
$PDSIZE
 40
0.06
  9
$HANDSEED
  5
48C
  9
$TILEMODE
 70
1
  9
$MEASUREMENT
 70
0
  9
$INSUNITS
 70
1
  0
ENDSEC
  0
SECTION
  2
CLASSES
  0
CLASS
  1
ACDBDICTIONARYWDFLT
  2
AcDbDictionaryWithDefault
  3
AutoCAD 2000
 90
0
 91
1
280
0
281
0
  0
CLASS
  1
ACDBPLACEHOLDER
  2
AcDbPlaceHolder
  3
AutoCAD 2000
 90
0
 91
1
280
0
281
0
  0
CLASS
  1
LAYOUT
  2
AcDbLayout
  3
AutoCAD 2000
 90
0
 91
0
280
0
281
0
  0
ENDSEC
  0
SECTION
  2
TABLES
  0
TABLE
  2
VPORT
  5
8
100
AcDbSymbolTable
 70
2
  0
VPORT
  5
1F4
100
AcDbSymbolTableRecord
100
AcDbViewportTableRecord
  2
*ACTIVE
 70
0
 10
0.0
 20
0.0
 11
1.0
 21
1.0
 12
5.5
 22
4.25
 13
0.0
 23
0.0
 14
1.0
 24
1.0
 15
0.0
 25
0.0
 16
0.0
 26
0.0
 36
1.0
 17
0.0
 27
0.0
 37
0.0
 40
8.5
 41
1.2941176471
 42
50.0
 43
0.0
 44
0.0
 50
0.0
 51
0.0
 71
0
 72
100
 73
1
 74
1
 75
0
 76
0
 77
0
 78
0
  0
ENDTAB
  0
TABLE
  2
LTYPE
  5
5
100
AcDbSymbolTable
 70
6
  0
LTYPE
  5
14
100
AcDbSymbolTableRecord
100
AcDbLinetypeTableRecord
  2
BYBLOCK
 70
0
  3

 72
65
 73
0
 40
0.0
  0
LTYPE
  5
15
100
AcDbSymbolTableRecord
100
AcDbLinetypeTableRecord
  2
BYLAYER
 70
0
  3

 72
65
 73
0
 40
0.0
  0
LTYPE
  5
16
100
AcDbSymbolTableRecord
100
AcDbLinetypeTableRecord
  2
CONTINUOUS
 70
64
  3
Solid line
 72
65
 73
0
 40
0.0
  0
LTYPE
  5
1F5
100
AcDbSymbolTableRecord
100
AcDbLinetypeTableRecord
  2
CENTER
 70
64
  3
____ _ ____ _ ____ _ ____ _ ____ _ ____ _ ____
 72
65
 73
4
 40
0.6
 49
0.375
 74
0
 49
-0.075
 74
0
 49
0.075
 74
0
 49
-0.075
 74
0
  0
LTYPE
  5
1F6
100
AcDbSymbolTableRecord
100
AcDbLinetypeTableRecord
  2
HIDDEN
 70
64
  3
- - - - - - - - - - - - - - - - - - - -
 72
65
 73
2
 40
0.2
 49
0.1
 74
0
 49
-0.1
 74
0
  0
LTYPE
  5
1F7
100
AcDbSymbolTableRecord
100
AcDbLinetypeTableRecord
  2
PHANTOM
 70
64
  3
_____ _ _ _____ _ _ _____ _ _ _____
 72
65
 73
6
 40
0.8
 49
0.45
 74
0
 49
-0.05
 74
0
 49
0.1
 74
0
 49
-0.05
 74
0
 49
0.1
 74
0
 49
-0.05
 74
0
  0
LTYPE
  5
1F8
100
AcDbSymbolTableRecord
100
AcDbLinetypeTableRecord
  2
DOT
 70
64
  3
. . . . . . . . . . . . . . . . . . . .
 72
65
 73
2
 40
0.2
 49
0.1
 74
0
 49
-0.1
 74
0
  0
LTYPE
  5
1F9
100
AcDbSymbolTableRecord
100
AcDbLinetypeTableRecord
  2
DASHED
 70
64
  3
- - - - - - - - - - - - - - - - - - - -
 72
65
 73
2
 40
0.2
 49
0.1
 74
0
 49
-0.1
 74
0
  0
ENDTAB
  0
TABLE
  2
LAYER
  5
2
100
AcDbSymbolTable
 70
36
  0
LAYER
  5
10
100
AcDbSymbolTableRecord
100
AcDbLayerTableRecord
  2
0
 70
0
 62
7
  6
CONTINUOUS
370
-3
390
F
  0
LAYER
  5
1FA
100
AcDbSymbolTableRecord
100
AcDbLayerTableRecord
  2
DEFAULT_1
 70
0
 62
7
  6
CENTER
370
-3
390
F
  0
LAYER
  5
1FB
100
AcDbSymbolTableRecord
100
AcDbLayerTableRecord
  2
DEFAULT_2
 70
0
 62
8
  6
HIDDEN
370
-3
390
F
  0
LAYER
  5
1FC
100
AcDbSymbolTableRecord
100
AcDbLayerTableRecord
  2
DEFAULT_3
 70
0
 62
7
  6
PHANTOM
370
-3
390
F
  0
LAYER
  5
1FD
100
AcDbSymbolTableRecord
100
AcDbLayerTableRecord
  2
1-708
 70
0
 62
7
  6
CONTINUOUS
370
-3
390
F
  0
LAYER
  5
1FE
100
AcDbSymbolTableRecord
100
AcDbLayerTableRecord
  2
12586
 70
0
 62
7
  6
CONTINUOUS
370
-3
390
F
  0
LAYER
  5
1FF
100
AcDbSymbolTableRecord
100
AcDbLayerTableRecord
  2
12587
 70
0
 62
7
  6
CONTINUOUS
370
-3
390
F
  0
LAYER
  5
200
100
AcDbSymbolTableRecord
100
AcDbLayerTableRecord
  2
12588
 70
0
 62
7
  6
CONTINUOUS
370
-3
390
F
  0
LAYER
  5
201
100
AcDbSymbolTableRecord
100
AcDbLayerTableRecord
  2
20-284
 70
0
 62
7
  6
CONTINUOUS
370
-3
390
F
  0
LAYER
  5
202
100
AcDbSymbolTableRecord
100
AcDbLayerTableRecord
  2
91641
 70
0
 62
7
  6
CONTINUOUS
370
-3
390
F
  0
LAYER
  5
203
100
AcDbSymbolTableRecord
100
AcDbLayerTableRecord
  2
91696
 70
0
 62
7
  6
CONTINUOUS
370
-3
390
F
  0
LAYER
  5
204
100
AcDbSymbolTableRecord
100
AcDbLayerTableRecord
  2
91698
 70
0
 62
7
  6
CONTINUOUS
370
-3
390
F
  0
LAYER
  5
205
100
AcDbSymbolTableRecord
100
AcDbLayerTableRecord
  2
91699
 70
0
 62
7
  6
CONTINUOUS
370
-3
390
F
  0
LAYER
  5
206
100
AcDbSymbolTableRecord
100
AcDbLayerTableRecord
  2
91705
 70
0
 62
7
  6
CONTINUOUS
370
-3
390
F
  0
LAYER
  5
207
100
AcDbSymbolTableRecord
100
AcDbLayerTableRecord
  2
92858
 70
0
 62
7
  6
CONTINUOUS
370
-3
390
F
  0
LAYER
  5
208
100
AcDbSymbolTableRecord
100
AcDbLayerTableRecord
  2
DEFAULT_COORDINATE_SYSTEM
 70
0
 62
7
  6
CONTINUOUS
370
-3
390
F
  0
LAYER
  5
209
100
AcDbSymbolTableRecord
100
AcDbLayerTableRecord
  2
DEFAULT_DATUM_AXES
 70
0
 62
7
  6
CONTINUOUS
370
-3
390
F
  0
LAYER
  5
20A
100
AcDbSymbolTableRecord
100
AcDbLayerTableRecord
  2
DEFAULT_DATUM_PLANES
 70
0
 62
7
  6
CONTINUOUS
370
-3
390
F
  0
LAYER
  5
20B
100
AcDbSymbolTableRecord
100
AcDbLayerTableRecord
  2
INTF_11
 70
0
 62
7
  6
CONTINUOUS
370
-3
390
F
  0
LAYER
  5
20C
100
AcDbSymbolTableRecord
100
AcDbLayerTableRecord
  2
INTF_12586
 70
0
 62
7
  6
CONTINUOUS
370
-3
390
F
  0
LAYER
  5
20D
100
AcDbSymbolTableRecord
100
AcDbLayerTableRecord
  2
INTF_12587
 70
0
 62
7
  6
CONTINUOUS
370
-3
390
F
  0
LAYER
  5
20E
100
AcDbSymbolTableRecord
100
AcDbLayerTableRecord
  2
INTF_12588
 70
0
 62
7
  6
CONTINUOUS
370
-3
390
F
  0
LAYER
  5
20F
100
AcDbSymbolTableRecord
100
AcDbLayerTableRecord
  2
INTF_91641
 70
0
 62
7
  6
CONTINUOUS
370
-3
390
F
  0
LAYER
  5
210
100
AcDbSymbolTableRecord
100
AcDbLayerTableRecord
  2
INTF_91696
 70
0
 62
7
  6
CONTINUOUS
370
-3
390
F
  0
LAYER
  5
211
100
AcDbSymbolTableRecord
100
AcDbLayerTableRecord
  2
INTF_91698
 70
0
 62
7
  6
CONTINUOUS
370
-3
390
F
  0
LAYER
  5
212
100
AcDbSymbolTableRecord
100
AcDbLayerTableRecord
  2
INTF_91699
 70
0
 62
7
  6
CONTINUOUS
370
-3
390
F
  0
LAYER
  5
213
100
AcDbSymbolTableRecord
100
AcDbLayerTableRecord
  2
INTF_91705
 70
0
 62
7
  6
CONTINUOUS
370
-3
390
F
  0
LAYER
  5
214
100
AcDbSymbolTableRecord
100
AcDbLayerTableRecord
  2
INTF_92858
 70
0
 62
7
  6
CONTINUOUS
370
-3
390
F
  0
LAYER
  5
215
100
AcDbSymbolTableRecord
100
AcDbLayerTableRecord
  2
NONE
 70
0
 62
7
  6
CONTINUOUS
370
-3
390
F
  0
LAYER
  5
216
100
AcDbSymbolTableRecord
100
AcDbLayerTableRecord
  2
NONE_1
 70
0
 62
7
  6
CONTINUOUS
370
-3
390
F
  0
LAYER
  5
217
100
AcDbSymbolTableRecord
100
AcDbLayerTableRecord
  2
NONE_10
 70
0
 62
7
  6
CONTINUOUS
370
-3
390
F
  0
LAYER
  5
218
100
AcDbSymbolTableRecord
100
AcDbLayerTableRecord
  2
NONE_11
 70
0
 62
7
  6
CONTINUOUS
370
-3
390
F
  0
LAYER
  5
219
100
AcDbSymbolTableRecord
100
AcDbLayerTableRecord
  2
NONE_12
 70
0
 62
7
  6
CONTINUOUS
370
-3
390
F
  0
LAYER
  5
21A
100
AcDbSymbolTableRecord
100
AcDbLayerTableRecord
  2
NONE_13
 70
0
 62
7
  6
CONTINUOUS
370
-3
390
F
  0
LAYER
  5
21B
100
AcDbSymbolTableRecord
100
AcDbLayerTableRecord
  2
NONE_2
 70
0
 62
7
  6
CONTINUOUS
370
-3
390
F
  0
LAYER
  5
21C
100
AcDbSymbolTableRecord
100
AcDbLayerTableRecord
  2
NONE_3
 70
0
 62
7
  6
CONTINUOUS
370
-3
390
F
  0
LAYER
  5
21D
100
AcDbSymbolTableRecord
100
AcDbLayerTableRecord
  2
NONE_4
 70
0
 62
7
  6
CONTINUOUS
370
-3
390
F
  0
LAYER
  5
21E
100
AcDbSymbolTableRecord
100
AcDbLayerTableRecord
  2
NONE_5
 70
0
 62
7
  6
CONTINUOUS
370
-3
390
F
  0
LAYER
  5
21F
100
AcDbSymbolTableRecord
100
AcDbLayerTableRecord
  2
NONE_6
 70
0
 62
7
  6
CONTINUOUS
370
-3
390
F
  0
LAYER
  5
220
100
AcDbSymbolTableRecord
100
AcDbLayerTableRecord
  2
NONE_7
 70
0
 62
7
  6
CONTINUOUS
370
-3
390
F
  0
LAYER
  5
221
100
AcDbSymbolTableRecord
100
AcDbLayerTableRecord
  2
NONE_8
 70
0
 62
7
  6
CONTINUOUS
370
-3
390
F
  0
LAYER
  5
222
100
AcDbSymbolTableRecord
100
AcDbLayerTableRecord
  2
NONE_9
 70
0
 62
7
  6
CONTINUOUS
370
-3
390
F
  0
LAYER
  5
223
100
AcDbSymbolTableRecord
100
AcDbLayerTableRecord
  2
PRODUCT_27206
 70
0
 62
7
  6
CONTINUOUS
370
-3
390
F
  0
LAYER
  5
224
100
AcDbSymbolTableRecord
100
AcDbLayerTableRecord
  2
PRODUCT_27223
 70
0
 62
7
  6
CONTINUOUS
370
-3
390
F
  0
LAYER
  5
225
100
AcDbSymbolTableRecord
100
AcDbLayerTableRecord
  2
PRODUCT_27240
 70
0
 62
7
  6
CONTINUOUS
370
-3
390
F
  0
LAYER
  5
226
100
AcDbSymbolTableRecord
100
AcDbLayerTableRecord
  2
PRODUCT_27257
 70
0
 62
7
  6
CONTINUOUS
370
-3
390
F
  0
LAYER
  5
227
100
AcDbSymbolTableRecord
100
AcDbLayerTableRecord
  2
PRODUCT_27274
 70
0
 62
7
  6
CONTINUOUS
370
-3
390
F
  0
LAYER
  5
228
100
AcDbSymbolTableRecord
100
AcDbLayerTableRecord
  2
PRODUCT_27291
 70
0
 62
7
  6
CONTINUOUS
370
-3
390
F
  0
ENDTAB
  0
TABLE
  2
STYLE
  5
3
100
AcDbSymbolTable
 70
1
  0
STYLE
  5
11
100
AcDbSymbolTableRecord
100
AcDbTextStyleTableRecord
  2
STANDARD
 70
0
 40
0.0
 41
0.8
 50
0.0
 71
0
 42
0.2
  3
txt
  4

  0
STYLE
  5
229
100
AcDbSymbolTableRecord
100
AcDbTextStyleTableRecord
  2
TEXTSTYLE_1
 70
0
 40
0.0
 41
0.8
 50
0.0
 71
0
 42
0.2
  3
gdt
  4

  0
ENDTAB
  0
TABLE
  2
VIEW
  5
6
100
AcDbSymbolTable
 70
0
  0
ENDTAB
  0
TABLE
  2
UCS
  5
7
100
AcDbSymbolTable
 70
0
  0
ENDTAB
  0
TABLE
  2
APPID
  5
9
100
AcDbSymbolTable
 70
1
  0
APPID
  5
22A
100
AcDbSymbolTableRecord
100
AcDbRegAppTableRecord
  2
ACAD
 70
0
  0
ENDTAB
  0
TABLE
  2
BLOCK_RECORD
  5
1
100
AcDbSymbolTable
 70
0
  0
BLOCK_RECORD
  5
22B
100
AcDbSymbolTableRecord
100
AcDbBlockTableRecord
  2
*Model_Space
  0
BLOCK_RECORD
  5
22C
100
AcDbSymbolTableRecord
100
AcDbBlockTableRecord
  2
*Paper_Space
  0
BLOCK_RECORD
  5
22D
100
AcDbSymbolTableRecord
100
AcDbBlockTableRecord
  2
_FILLED
  0
ENDTAB
  0
TABLE
  2
DIMSTYLE
  5
A
100
AcDbSymbolTable
 70
1
100
AcDbDimStyleTable
 71
0
  0
DIMSTYLE
105
22E
100
AcDbSymbolTableRecord
100
AcDbDimStyleTableRecord
  2
STANDARD
 70
0
  3

  4

 40
1.0
 41
0.1
 42
0.0625
 43
0.38
 44
0.125
 45
0.0
 46
0.0
 47
0.001
 48
0.001
140
0.08
141
0.09
142
0.0
143
25.4
144
1.0
145
0.0
146
1.0
147
0.09
 71
1.0
 72
0.0
 73
1
 74
1
 75
0
 76
0
 77
0
 78
4
 79
1
170
1
171
2
172
0
173
0
174
0
175
0
176
0
177
0
178
0
270
2
179
3
271
3
272
3
273
2
274
2
275
0
280
0
281
0
282
0
283
1
284
4
285
0
286
0
287
3
288
0
340
11
278
46
341
22D
342
22D
343
22D
344
22D
  0
ENDTAB
  0
ENDSEC
  0
SECTION
  2
BLOCKS
  0
BLOCK
  5
20
100
AcDbEntity
  8
0
100
AcDbBlockBegin
  2
*Model_Space
 70
0
 10
0.0
 20
0.0
 30
0.0
  3
*Model_Space
  1

  0
ENDBLK
  5
21
100
AcDbEntity
  8
0
100
AcDbBlockEnd
  0
BLOCK
  5
1C
100
AcDbEntity
  8
0
100
AcDbBlockBegin
  2
*Paper_Space
 70
0
 10
0.0
 20
0.0
 30
0.0
  3
*Paper_Space
  1

  0
ENDBLK
  5
1D
100
AcDbEntity
  8
0
100
AcDbBlockEnd
  0
BLOCK
  5
22F
100
AcDbEntity
  8
0
100
AcDbBlockBegin
  2
_FILLED
 70
64
 10
0.0
 20
0.0
  3
_FILLED
  1

  0
SOLID
  5
230
100
AcDbEntity
  8
0
  6
BYBLOCK
 62
0
100
AcDbTrace
 10
0.0
 20
0.0
 11
-1.0
 21
0.2
 12
-1.0
 22
-0.2
 13
-1.0
 23
-0.2
  0
ENDBLK
  5
231
100
AcDbEntity
  8
0
  6
BYBLOCK
 62
0
100
AcDbBlockEnd
  0
ENDSEC
  0
SECTION
  2
ENTITIES
  0
MTEXT
  5
232
100
AcDbEntity
  8
0
100
AcDbMText
 62
7
  6
CONTINUOUS
  7
STANDARD
 71
1
 72
1
 10
9.6909743789
 20
0.3411451863
 30
0.0
 11
1.0
 21
0.0
 31
0.0
 73
2
 44
0.9
  1
SCALE: 1.18
 40
0.08
 41
0.704
  0
LINE
  5
233
100
AcDbEntity
  8
0
100
AcDbLine
 62
7
  6
CONTINUOUS
 10
0.0
 20
0.0
 11
0.0
 21
8.5
  0
LINE
  5
234
100
AcDbEntity
  8
0
100
AcDbLine
 62
7
  6
CONTINUOUS
 10
0.0
 20
0.0
 11
11.0
 21
0.0
  0
LINE
  5
235
100
AcDbEntity
  8
0
100
AcDbLine
 62
7
  6
CONTINUOUS
 10
0.0
 20
8.5
 11
11.0
 21
8.5
  0
LINE
  5
236
100
AcDbEntity
  8
0
100
AcDbLine
 62
7
  6
CONTINUOUS
 10
11.0
 20
0.0
 11
11.0
 21
8.5
  0
LINE
  5
237
100
AcDbEntity
  8
0
100
AcDbLine
 62
7
  6
CONTINUOUS
 10
6.3338407409
 20
0.107434847
 11
4.8621608119
 21
0.107434847
  0
LINE
  5
238
100
AcDbEntity
  8
0
100
AcDbLine
 62
7
  6
CONTINUOUS
 10
4.8782855701
 20
8.1461078932
 11
4.8770016678
 21
8.144106516
  0
LINE
  5
239
100
AcDbEntity
  8
0
100
AcDbLine
 62
7
  6
CONTINUOUS
 10
4.7269377843
 20
6.286035811
 11
4.7273646042
 21
6.2863129419
  0
LINE
  5
23A
100
AcDbEntity
  8
0
100
AcDbLine
 62
7
  6
CONTINUOUS
 10
4.7269377843
 20
6.2279649449
 11
4.7273646029
 21
6.2282420754
  0
LINE
  5
23B
100
AcDbEntity
  8
0
100
AcDbLine
 62
7
  6
CONTINUOUS
 10
4.7269377843
 20
6.1698940787
 11
4.7273646029
 21
6.1701712092
  0
LINE
  5
23C
100
AcDbEntity
  8
0
100
AcDbLine
 62
7
  6
CONTINUOUS
 10
4.7598966935
 20
6.2971083514
 11
4.7273646026
 21
6.2863176658
  0
LINE
  5
23D
100
AcDbEntity
  8
0
100
AcDbLine
 62
7
  6
CONTINUOUS
 10
4.7598966935
 20
6.2390374849
 11
4.7273646014
 21
6.2282467989
  0
LINE
  5
23E
100
AcDbEntity
  8
0
100
AcDbLine
 62
7
  6
CONTINUOUS
 10
4.7598966935
 20
6.1809666187
 11
4.7273646014
 21
6.1701759328
  0
LINE
  5
23F
100
AcDbEntity
  8
0
100
AcDbLine
 62
7
  6
CONTINUOUS
 10
4.7598966935
 20
6.1228957526
 11
4.7273646014
 21
6.1121050666
  0
LINE
  5
240
100
AcDbEntity
  8
0
100
AcDbLine
 62
7
  6
CONTINUOUS
 10
4.6923275481
 20
6.0848293459
 11
4.3590007764
 21
5.6806561176
  0
LINE
  5
241
100
AcDbEntity
  8
0
100
AcDbLine
 62
7
  6
CONTINUOUS
 10
5.4272897967
 20
6.5236016233
 11
5.4392834868
 21
6.5329900119
  0
LINE
  5
242
100
AcDbEntity
  8
0
100
AcDbLine
 62
7
  6
CONTINUOUS
 10
5.4785789426
 20
6.4827739928
 11
5.4706327349
 21
6.4765538817
  0
LINE
  5
243
100
AcDbEntity
  8
0
100
AcDbLine
 62
7
  6
CONTINUOUS
 10
5.4485683313
 20
6.459282367
 11
5.456514539
 21
6.4655024782
  0
LINE
  5
244
100
AcDbEntity
  8
0
100
AcDbLine
 62
7
  6
CONTINUOUS
 10
5.4598127159
 20
6.4591667142
 11
5.4679066703
 21
6.4655024782
  0
LINE
  5
245
100
AcDbEntity
  8
0
100
AcDbLine
 62
7
  6
CONTINUOUS
 10
5.4820248661
 20
6.4765538817
 11
5.5338364826
 21
6.5171108398
  0
LINE
  5
246
100
AcDbEntity
  8
0
100
AcDbLine
 62
7
  6
CONTINUOUS
 10
5.4888355787
 20
6.4676880423
 11
5.4810767308
 21
6.4616145921
  0
LINE
  5
247
100
AcDbEntity
  8
0
100
AcDbLine
 62
7
  6
CONTINUOUS
 10
4.7269377843
 20
5.5311145512
 11
4.7273646029
 21
5.5313916817
  0
LINE
  5
248
100
AcDbEntity
  8
0
100
AcDbLine
 62
7
  6
CONTINUOUS
 10
4.7269377843
 20
5.473043685
 11
4.7273646029
 21
5.4733208155
  0
LINE
  5
249
100
AcDbEntity
  8
0
100
AcDbLine
 62
7
  6
CONTINUOUS
 10
4.7269377843
 20
5.4149728189
 11
4.7273646029
 21
5.4152499494
  0
LINE
  5
24A
100
AcDbEntity
  8
0
100
AcDbLine
 62
7
  6
CONTINUOUS
 10
6.1099966312
 20
6.3529210121
 11
6.0908821193
 21
6.3410066466
  0
LINE
  5
24B
100
AcDbEntity
  8
0
100
AcDbLine
 62
7
  6
CONTINUOUS
 10
6.4361843261
 20
6.2913461513
 11
6.4687140851
 21
6.3032691323
  0
LINE
  5
24C
100
AcDbEntity
  8
0
100
AcDbLine
 62
7
  6
CONTINUOUS
 10
6.4361843261
 20
6.2332752851
 11
6.4687140851
 21
6.2451982661
  0
LINE
  5
24D
100
AcDbEntity
  8
0
100
AcDbLine
 62
7
  6
CONTINUOUS
 10
6.4361843261
 20
6.175204419
 11
6.4687140851
 21
6.1871274
  0
LINE
  5
24E
100
AcDbEntity
  8
0
100
AcDbLine
 62
7
  6
CONTINUOUS
 10
6.4361843261
 20
6.1171335529
 11
6.4687140851
 21
6.1290565339
  0
LINE
  5
24F
100
AcDbEntity
  8
0
100
AcDbLine
 62
7
  6
CONTINUOUS
 10
4.7598966935
 20
5.5421870912
 11
4.7273646014
 21
5.5313964052
  0
LINE
  5
250
100
AcDbEntity
  8
0
100
AcDbLine
 62
7
  6
CONTINUOUS
 10
4.7598966935
 20
5.484116225
 11
4.7273646014
 21
5.4733255391
  0
LINE
  5
251
100
AcDbEntity
  8
0
100
AcDbLine
 62
7
  6
CONTINUOUS
 10
4.204299989
 20
7.7293813601
 11
4.204299989
 21
7.7197748975
  0
LINE
  5
252
100
AcDbEntity
  8
0
100
AcDbLine
 62
7
  6
CONTINUOUS
 10
4.3436700677
 20
7.2495355814
 11
4.3436700677
 21
7.1566221955
  0
LINE
  5
253
100
AcDbEntity
  8
0
100
AcDbLine
 62
7
  6
CONTINUOUS
 10
4.3590007764
 20
5.6806561176
 11
4.3590007764
 21
5.5738057239
  0
LINE
  5
254
100
AcDbEntity
  8
0
100
AcDbLine
 62
7
  6
CONTINUOUS
 10
4.3831582567
 20
5.3875230059
 11
4.3831582567
 21
5.3317749744
  0
LINE
  5
255
100
AcDbEntity
  8
0
100
AcDbLine
 62
7
  6
CONTINUOUS
 10
4.4017409339
 20
5.1061205953
 11
4.4017409339
 21
5.1386402804
  0
LINE
  5
256
100
AcDbEntity
  8
0
100
AcDbLine
 62
7
  6
CONTINUOUS
 10
6.4690637685
 20
6.3035242512
 11
6.4687140839
 21
6.303273453
  0
LINE
  5
257
100
AcDbEntity
  8
0
100
AcDbLine
 62
7
  6
CONTINUOUS
 10
4.7269377843
 20
5.2988310866
 11
4.7273646029
 21
5.2991082171
  0
LINE
  5
258
100
AcDbEntity
  8
0
100
AcDbLine
 62
7
  6
CONTINUOUS
 10
4.7269377843
 20
5.2407602205
 11
4.7273646029
 21
5.2410373509
  0
LINE
  5
259
100
AcDbEntity
  8
0
100
AcDbLine
 62
7
  6
CONTINUOUS
 10
4.7269377843
 20
5.1826893543
 11
4.7273646029
 21
5.1829664848
  0
LINE
  5
25A
100
AcDbEntity
  8
0
100
AcDbLine
 62
7
  6
CONTINUOUS
 10
4.7598966935
 20
5.4260453589
 11
4.7273646014
 21
5.4152546729
  0
LINE
  5
25B
100
AcDbEntity
  8
0
100
AcDbLine
 62
7
  6
CONTINUOUS
 10
4.7598966935
 20
5.3099036266
 11
4.7273646014
 21
5.2991129406
  0
LINE
  5
25C
100
AcDbEntity
  8
0
100
AcDbLine
 62
7
  6
CONTINUOUS
 10
4.7598966935
 20
5.2518327605
 11
4.7273646014
 21
5.2410420745
  0
LINE
  5
25D
100
AcDbEntity
  8
0
100
AcDbLine
 62
7
  6
CONTINUOUS
 10
4.7598966935
 20
5.1937618943
 11
4.7273646014
 21
5.1829712084
  0
LINE
  5
25E
100
AcDbEntity
  8
0
100
AcDbLine
 62
7
  6
CONTINUOUS
 10
4.5101299884
 20
4.8738371308
 11
4.5101299884
 21
5.0550182331
  0
LINE
  5
25F
100
AcDbEntity
  8
0
100
AcDbLine
 62
9
  6
CONTINUOUS
 10
4.5159494016
 20
5.0550182331
 11
4.5159494016
 21
4.8738371308
  0
LINE
  5
260
100
AcDbEntity
  8
0
100
AcDbLine
 62
7
  6
CONTINUOUS
 10
4.7269377843
 20
4.6485047434
 11
4.7269377843
 21
4.6600513817
  0
LINE
  5
261
100
AcDbEntity
  8
0
100
AcDbLine
 62
7
  6
CONTINUOUS
 10
4.7269377843
 20
4.7065756095
 11
4.7269377843
 21
4.7181222479
  0
LINE
  5
262
100
AcDbEntity
  8
0
100
AcDbLine
 62
7
  6
CONTINUOUS
 10
4.7269377843
 20
4.7646464757
 11
4.7269377843
 21
4.776193114
  0
LINE
  5
263
100
AcDbEntity
  8
0
100
AcDbLine
 62
7
  6
CONTINUOUS
 10
4.7269377843
 20
4.8227173418
 11
4.7269377843
 21
4.8342639801
  0
LINE
  5
264
100
AcDbEntity
  8
0
100
AcDbLine
 62
7
  6
CONTINUOUS
 10
4.7269377843
 20
5.1711425387
 11
4.7269377843
 21
5.182689177
  0
LINE
  5
265
100
AcDbEntity
  8
0
100
AcDbLine
 62
7
  6
CONTINUOUS
 10
4.7269377843
 20
5.2292134048
 11
4.7269377843
 21
5.2407600431
  0
LINE
  5
266
100
AcDbEntity
  8
0
100
AcDbLine
 62
7
  6
CONTINUOUS
 10
4.7269377843
 20
5.2872842709
 11
4.7269377843
 21
5.2988309093
  0
LINE
  5
267
100
AcDbEntity
  8
0
100
AcDbLine
 62
7
  6
CONTINUOUS
 10
4.7269377843
 20
5.4034260032
 11
4.7269377843
 21
5.4149726416
  0
LINE
  5
268
100
AcDbEntity
  8
0
100
AcDbLine
 62
7
  6
CONTINUOUS
 10
4.7269377843
 20
5.4614968694
 11
4.7269377843
 21
5.4730435077
  0
LINE
  5
269
100
AcDbEntity
  8
0
100
AcDbLine
 62
7
  6
CONTINUOUS
 10
4.7269377843
 20
5.5195677355
 11
4.7269377843
 21
5.5311143738
  0
LINE
  5
26A
100
AcDbEntity
  8
0
100
AcDbLine
 62
7
  6
CONTINUOUS
 10
4.7269377843
 20
6.1002763969
 11
4.7269377843
 21
6.1118230353
  0
LINE
  5
26B
100
AcDbEntity
  8
0
100
AcDbLine
 62
7
  6
CONTINUOUS
 10
4.7269377843
 20
6.1583472631
 11
4.7269377843
 21
6.1698939014
  0
LINE
  5
26C
100
AcDbEntity
  8
0
100
AcDbLine
 62
7
  6
CONTINUOUS
 10
4.7269377843
 20
6.2164181292
 11
4.7269377843
 21
6.2279647675
  0
LINE
  5
26D
100
AcDbEntity
  8
0
100
AcDbLine
 62
7
  6
CONTINUOUS
 10
4.7269377843
 20
6.2744889953
 11
4.7269377843
 21
6.2860356337
  0
LINE
  5
26E
100
AcDbEntity
  8
0
100
AcDbLine
 62
7
  6
CONTINUOUS
 10
4.7269377843
 20
6.3325598615
 11
4.7269377843
 21
7.1566221955
  0
LINE
  5
26F
100
AcDbEntity
  8
0
100
AcDbLine
 62
7
  6
CONTINUOUS
 10
4.7269377843
 20
7.2495355814
 11
4.7269377843
 21
7.4750148399
  0
LINE
  5
270
100
AcDbEntity
  8
0
100
AcDbLine
 62
7
  6
CONTINUOUS
 10
4.7594574693
 20
6.3206454966
 11
4.7594574693
 21
6.2968167656
  0
LINE
  5
271
100
AcDbEntity
  8
0
100
AcDbLine
 62
7
  6
CONTINUOUS
 10
4.7594574693
 20
6.2625746301
 11
4.7594574693
 21
6.2387458991
  0
LINE
  5
272
100
AcDbEntity
  8
0
100
AcDbLine
 62
7
  6
CONTINUOUS
 10
4.7594574693
 20
6.204503764
 11
4.7594574693
 21
6.1806750329
  0
LINE
  5
273
100
AcDbEntity
  8
0
100
AcDbLine
 62
7
  6
CONTINUOUS
 10
4.7594574693
 20
6.1464328978
 11
4.7594574693
 21
6.1226041668
  0
LINE
  5
274
100
AcDbEntity
  8
0
100
AcDbLine
 62
7
  6
CONTINUOUS
 10
4.7594574693
 20
6.0883620317
 11
4.7594574693
 21
6.0848293459
  0
LINE
  5
275
100
AcDbEntity
  8
0
100
AcDbLine
 62
7
  6
CONTINUOUS
 10
4.7594574693
 20
5.5657242364
 11
4.7594574693
 21
5.5418955054
  0
LINE
  5
276
100
AcDbEntity
  8
0
100
AcDbLine
 62
7
  6
CONTINUOUS
 10
4.7594574693
 20
5.5076533703
 11
4.7594574693
 21
5.4838246392
  0
LINE
  5
277
100
AcDbEntity
  8
0
100
AcDbLine
 62
7
  6
CONTINUOUS
 10
4.7594574693
 20
5.4495825041
 11
4.7594574693
 21
5.4257537731
  0
LINE
  5
278
100
AcDbEntity
  8
0
100
AcDbLine
 62
7
  6
CONTINUOUS
 10
4.7594574693
 20
5.391511638
 11
4.7594574693
 21
5.3875230059
  0
LINE
  5
279
100
AcDbEntity
  8
0
100
AcDbLine
 62
7
  6
CONTINUOUS
 10
4.7594574693
 20
5.3317749744
 11
4.7594574693
 21
5.3096120408
  0
LINE
  5
27A
100
AcDbEntity
  8
0
100
AcDbLine
 62
7
  6
CONTINUOUS
 10
4.7594574693
 20
5.2753699057
 11
4.7594574693
 21
5.2515411747
  0
LINE
  5
27B
100
AcDbEntity
  8
0
100
AcDbLine
 62
7
  6
CONTINUOUS
 10
4.7594574693
 20
5.2172990396
 11
4.7594574693
 21
5.1934703085
  0
LINE
  5
27C
100
AcDbEntity
  8
0
100
AcDbLine
 62
7
  6
CONTINUOUS
 10
4.7594574693
 20
4.8506087843
 11
4.7594574693
 21
4.8450451117
  0
LINE
  5
27D
100
AcDbEntity
  8
0
100
AcDbLine
 62
7
  6
CONTINUOUS
 10
4.7594574693
 20
4.8108029766
 11
4.7594574693
 21
4.7869742455
  0
LINE
  5
27E
100
AcDbEntity
  8
0
100
AcDbLine
 62
7
  6
CONTINUOUS
 10
4.7594574693
 20
4.7527321104
 11
4.7594574693
 21
4.7289033794
  0
LINE
  5
27F
100
AcDbEntity
  8
0
100
AcDbLine
 62
7
  6
CONTINUOUS
 10
4.7594574693
 20
4.6946612443
 11
4.7594574693
 21
4.6708325133
  0
LINE
  5
280
100
AcDbEntity
  8
0
100
AcDbLine
 62
7
  6
CONTINUOUS
 10
4.7594574693
 20
4.6365903755
 11
4.7594574693
 21
4.6127616443
  0
LINE
  5
281
100
AcDbEntity
  8
0
100
AcDbLine
 62
7
  6
CONTINUOUS
 10
4.7487411563
 20
4.6092125774
 11
4.7489576973
 21
4.6094279498
  0
LINE
  5
282
100
AcDbEntity
  8
0
100
AcDbLine
 62
7
  6
CONTINUOUS
 10
6.4690637685
 20
6.2454533851
 11
6.4687140839
 21
6.2452025869
  0
LINE
  5
283
100
AcDbEntity
  8
0
100
AcDbLine
 62
7
  6
CONTINUOUS
 10
6.4690637685
 20
6.1873825189
 11
6.4687140839
 21
6.1871317207
  0
LINE
  5
284
100
AcDbEntity
  8
0
100
AcDbLine
 62
7
  6
CONTINUOUS
 10
6.4690637685
 20
6.1293116528
 11
6.4687140839
 21
6.1290608546
  0
LINE
  5
285
100
AcDbEntity
  8
0
100
AcDbLine
 62
7
  6
CONTINUOUS
 10
4.7269377843
 20
4.8342641575
 11
4.7273646029
 21
4.834541288
  0
LINE
  5
286
100
AcDbEntity
  8
0
100
AcDbLine
 62
7
  6
CONTINUOUS
 10
4.7269377843
 20
4.7761932913
 11
4.727364603
 21
4.7764704218
  0
LINE
  5
287
100
AcDbEntity
  8
0
100
AcDbLine
 62
7
  6
CONTINUOUS
 10
4.7269377843
 20
4.7181224252
 11
4.727364603
 21
4.7183995557
  0
LINE
  5
288
100
AcDbEntity
  8
0
100
AcDbLine
 62
7
  6
CONTINUOUS
 10
6.4361843261
 20
5.5364248914
 11
6.4687140851
 21
5.5483478724
  0
LINE
  5
289
100
AcDbEntity
  8
0
100
AcDbLine
 62
7
  6
CONTINUOUS
 10
6.4361843261
 20
5.4783540253
 11
6.4687140851
 21
5.4902770063
  0
LINE
  5
28A
100
AcDbEntity
  8
0
100
AcDbLine
 62
7
  6
CONTINUOUS
 10
4.7598966935
 20
4.8453366975
 11
4.7273646014
 21
4.8345460115
  0
LINE
  5
28B
100
AcDbEntity
  8
0
100
AcDbLine
 62
7
  6
CONTINUOUS
 10
4.7850086504
 20
7.9722167523
 11
4.7850086504
 21
8.0186734452
  0
LINE
  5
28C
100
AcDbEntity
  8
0
100
AcDbLine
 62
7
  6
CONTINUOUS
 10
4.7861675754
 20
8.2137915554
 11
4.7861675754
 21
8.2486340751
  0
LINE
  5
28D
100
AcDbEntity
  8
0
100
AcDbLine
 62
7
  6
CONTINUOUS
 10
4.8621267606
 20
0.107434847
 11
4.8621267606
 21
4.6077876029
  0
LINE
  5
28E
100
AcDbEntity
  8
0
100
AcDbLine
 62
7
  6
CONTINUOUS
 10
4.8782855701
 20
8.0186734452
 11
4.8782855701
 21
8.1089272609
  0
LINE
  5
28F
100
AcDbEntity
  8
0
100
AcDbLine
 62
7
  6
CONTINUOUS
 10
4.8782855701
 20
8.1461078932
 11
4.8782855701
 21
8.2137915554
  0
LINE
  5
290
100
AcDbEntity
  8
0
100
AcDbLine
 62
7
  6
CONTINUOUS
 10
5.0405204614
 20
6.9701903363
 11
5.0405204614
 21
6.5520801001
  0
LINE
  5
291
100
AcDbEntity
  8
0
100
AcDbLine
 62
7
  6
CONTINUOUS
 10
6.3177159827
 20
8.1089272609
 11
6.3205067483
 21
8.1162325003
  0
LINE
  5
292
100
AcDbEntity
  8
0
100
AcDbLine
 62
7
  6
CONTINUOUS
 10
4.7269377843
 20
4.6600556784
 11
4.7273646008
 21
4.6603354236
  0
LINE
  5
293
100
AcDbEntity
  8
0
100
AcDbLine
 62
7
  6
CONTINUOUS
 10
6.4361843261
 20
5.4202831592
 11
6.4687140851
 21
5.4322061402
  0
LINE
  5
294
100
AcDbEntity
  8
0
100
AcDbLine
 62
7
  6
CONTINUOUS
 10
6.4361843261
 20
5.3041414269
 11
6.4687140851
 21
5.3160644079
  0
LINE
  5
295
100
AcDbEntity
  8
0
100
AcDbLine
 62
7
  6
CONTINUOUS
 10
6.4361843261
 20
5.2460705607
 11
6.4687140851
 21
5.2579935417
  0
LINE
  5
296
100
AcDbEntity
  8
0
100
AcDbLine
 62
7
  6
CONTINUOUS
 10
6.4361843261
 20
5.1879996946
 11
6.4687140851
 21
5.1999226756
  0
LINE
  5
297
100
AcDbEntity
  8
0
100
AcDbLine
 62
7
  6
CONTINUOUS
 10
4.7598966935
 20
4.7872658313
 11
4.7273646014
 21
4.7764751454
  0
LINE
  5
298
100
AcDbEntity
  8
0
100
AcDbLine
 62
7
  6
CONTINUOUS
 10
4.7598966935
 20
4.7291949652
 11
4.7273646014
 21
4.7184042792
  0
LINE
  5
299
100
AcDbEntity
  8
0
100
AcDbLine
 62
7
  6
CONTINUOUS
 10
4.7598966935
 20
4.671124099
 11
4.7273646014
 21
4.6603334131
  0
LINE
  5
29A
100
AcDbEntity
  8
0
100
AcDbLine
 62
7
  6
CONTINUOUS
 10
4.7598910589
 20
4.6130492357
 11
4.7489616604
 21
4.6094239868
  0
LINE
  5
29B
100
AcDbEntity
  8
0
100
AcDbLine
 62
7
  6
CONTINUOUS
 10
5.1891818788
 20
7.7526097066
 11
5.1891818788
 21
7.9722167523
  0
LINE
  5
29C
100
AcDbEntity
  8
0
100
AcDbLine
 62
9
  6
CONTINUOUS
 10
5.2351106942
 20
4.8738371308
 11
5.2351106942
 21
5.0550182331
  0
LINE
  5
29D
100
AcDbEntity
  8
0
100
AcDbLine
 62
7
  6
CONTINUOUS
 10
5.2505047134
 20
6.4591667142
 11
5.2505047134
 21
7.0631037221
  0
LINE
  5
29E
100
AcDbEntity
  8
0
100
AcDbLine
 62
9
  6
CONTINUOUS
 10
5.2571329626
 20
5.0550182331
 11
5.2571329626
 21
4.8738371308
  0
LINE
  5
29F
100
AcDbEntity
  8
0
100
AcDbLine
 62
7
  6
CONTINUOUS
 10
6.4690637685
 20
5.4905321252
 11
6.4687140839
 21
5.490281327
  0
LINE
  5
2A0
100
AcDbEntity
  8
0
100
AcDbLine
 62
7
  6
CONTINUOUS
 10
6.4690637685
 20
5.4324612591
 11
6.4687140839
 21
5.4322104609
  0
LINE
  5
2A1
100
AcDbEntity
  8
0
100
AcDbLine
 62
7
  6
CONTINUOUS
 10
6.4690637685
 20
5.3163195268
 11
6.4687140839
 21
5.3160687286
  0
LINE
  5
2A2
100
AcDbEntity
  8
0
100
AcDbLine
 62
7
  6
CONTINUOUS
 10
6.4690637685
 20
5.2582486607
 11
6.4687140839
 21
5.2579978624
  0
LINE
  5
2A3
100
AcDbEntity
  8
0
100
AcDbLine
 62
7
  6
CONTINUOUS
 10
6.4690637685
 20
5.2001777945
 11
6.4687140839
 21
5.1999269963
  0
LINE
  5
2A4
100
AcDbEntity
  8
0
100
AcDbLine
 62
7
  6
CONTINUOUS
 10
6.436184326
 20
4.8395744977
 11
6.4662894081
 21
4.8506087843
  0
LINE
  5
2A5
100
AcDbEntity
  8
0
100
AcDbLine
 62
7
  6
CONTINUOUS
 10
4.7501661307
 20
4.6077876029
 11
4.7487439128
 21
4.6092098208
  0
LINE
  5
2A6
100
AcDbEntity
  8
0
100
AcDbLine
 62
7
  6
CONTINUOUS
 10
6.4361843261
 20
4.7815036316
 11
6.4687140851
 21
4.7934266126
  0
LINE
  5
2A7
100
AcDbEntity
  8
0
100
AcDbLine
 62
7
  6
CONTINUOUS
 10
6.4361843261
 20
4.7234327655
 11
6.4687140851
 21
4.7353557465
  0
LINE
  5
2A8
100
AcDbEntity
  8
0
100
AcDbLine
 62
7
  6
CONTINUOUS
 10
6.4361843261
 20
4.6653618993
 11
6.4687140851
 21
4.6772848803
  0
LINE
  5
2A9
100
AcDbEntity
  8
0
100
AcDbLine
 62
7
  6
CONTINUOUS
 10
4.7269377843
 20
4.6485045662
 11
4.7272874779
 21
4.6482537647
  0
LINE
  5
2AA
100
AcDbEntity
  8
0
100
AcDbLine
 62
7
  6
CONTINUOUS
 10
4.7269377843
 20
4.7065754323
 11
4.7272874689
 21
4.7063246341
  0
LINE
  5
2AB
100
AcDbEntity
  8
0
100
AcDbLine
 62
7
  6
CONTINUOUS
 10
4.7269377843
 20
4.7646462985
 11
4.7272874689
 21
4.7643955002
  0
LINE
  5
2AC
100
AcDbEntity
  8
0
100
AcDbLine
 62
7
  6
CONTINUOUS
 10
4.7269377843
 20
4.8227171646
 11
4.7272874689
 21
4.8224663664
  0
LINE
  5
2AD
100
AcDbEntity
  8
0
100
AcDbLine
 62
7
  6
CONTINUOUS
 10
6.4690637685
 20
4.7936817315
 11
6.4687140839
 21
4.7934309333
  0
LINE
  5
2AE
100
AcDbEntity
  8
0
100
AcDbLine
 62
7
  6
CONTINUOUS
 10
6.4690637685
 20
4.7356108654
 11
6.4687140839
 21
4.7353600672
  0
LINE
  5
2AF
100
AcDbEntity
  8
0
100
AcDbLine
 62
7
  6
CONTINUOUS
 10
6.4690637685
 20
4.6775399992
 11
6.4687140839
 21
4.677289201
  0
LINE
  5
2B0
100
AcDbEntity
  8
0
100
AcDbLine
 62
7
  6
CONTINUOUS
 10
4.7272874766
 20
4.648249441
 11
4.7598172269
 21
4.6363264633
  0
LINE
  5
2B1
100
AcDbEntity
  8
0
100
AcDbLine
 62
7
  6
CONTINUOUS
 10
4.7272874677
 20
4.7063203134
 11
4.7598172267
 21
4.6943973324
  0
LINE
  5
2B2
100
AcDbEntity
  8
0
100
AcDbLine
 62
7
  6
CONTINUOUS
 10
4.7272874677
 20
4.7643911795
 11
4.7598172267
 21
4.7524681985
  0
LINE
  5
2B3
100
AcDbEntity
  8
0
100
AcDbLine
 62
7
  6
CONTINUOUS
 10
4.7272874677
 20
4.8224620457
 11
4.7598172267
 21
4.8105390647
  0
LINE
  5
2B4
100
AcDbEntity
  8
0
100
AcDbLine
 62
7
  6
CONTINUOUS
 10
4.7269377843
 20
5.1711423615
 11
4.7272874689
 21
5.1708915632
  0
LINE
  5
2B5
100
AcDbEntity
  8
0
100
AcDbLine
 62
7
  6
CONTINUOUS
 10
4.7269377843
 20
5.2292132276
 11
4.7272874689
 21
5.2289624294
  0
LINE
  5
2B6
100
AcDbEntity
  8
0
100
AcDbLine
 62
7
  6
CONTINUOUS
 10
5.9454968394
 20
6.4591667142
 11
5.9454968394
 21
7.0631037221
  0
LINE
  5
2B7
100
AcDbEntity
  8
0
100
AcDbLine
 62
7
  6
CONTINUOUS
 10
6.006819674
 20
7.7526097066
 11
6.006819674
 21
7.9722167523
  0
LINE
  5
2B8
100
AcDbEntity
  8
0
100
AcDbLine
 62
7
  6
CONTINUOUS
 10
6.0908821193
 20
6.3410066466
 11
6.0908820877
 21
6.3171779152
  0
LINE
  5
2B9
100
AcDbEntity
  8
0
100
AcDbLine
 62
7
  6
CONTINUOUS
 10
6.1099965695
 20
6.306396784
 11
6.1099966312
 21
6.3529210121
  0
LINE
  5
2BA
100
AcDbEntity
  8
0
100
AcDbLine
 62
7
  6
CONTINUOUS
 10
6.1554810914
 20
6.5520801001
 11
6.1554810914
 21
6.9701903363
  0
LINE
  5
2BB
100
AcDbEntity
  8
0
100
AcDbLine
 62
7
  6
CONTINUOUS
 10
6.4458354221
 20
4.6077876029
 11
6.469063768
 21
4.6310159488
  0
LINE
  5
2BC
100
AcDbEntity
  8
0
100
AcDbLine
 62
7
  6
CONTINUOUS
 10
4.759190938
 20
4.6103316237
 11
4.7595044855
 21
4.6103477405
  0
LINE
  5
2BD
100
AcDbEntity
  8
0
100
AcDbLine
 62
7
  6
CONTINUOUS
 10
4.759190938
 20
4.6103316237
 11
4.7595630971
 21
4.6103479098
  0
LINE
  5
2BE
100
AcDbEntity
  8
0
100
AcDbLine
 62
7
  6
CONTINUOUS
 10
6.2916388993
 20
4.6600833802
 11
6.2926390527
 21
4.6600960055
  0
LINE
  5
2BF
100
AcDbEntity
  8
0
100
AcDbLine
 62
7
  6
CONTINUOUS
 10
4.9115614713
 20
4.7127319557
 11
4.9103748796
 21
4.7127106549
  0
LINE
  5
2C0
100
AcDbEntity
  8
0
100
AcDbLine
 62
7
  6
CONTINUOUS
 10
4.9521222084
 20
4.7133911388
 11
4.9506390883
 21
4.7133682893
  0
LINE
  5
2C1
100
AcDbEntity
  8
0
100
AcDbLine
 62
7
  6
CONTINUOUS
 10
6.4458174907
 20
4.6077876029
 11
4.750169613
 21
4.6077876029
  0
LINE
  5
2C2
100
AcDbEntity
  8
0
100
AcDbLine
 62
7
  6
CONTINUOUS
 10
6.662643218
 20
4.8506087843
 11
4.5333583348
 21
4.8506087843
  0
LINE
  5
2C3
100
AcDbEntity
  8
0
100
AcDbLine
 62
7
  6
CONTINUOUS
 10
4.7272874677
 20
5.1708872425
 11
4.7392183991
 21
5.1665142961
  0
LINE
  5
2C4
100
AcDbEntity
  8
0
100
AcDbLine
 62
7
  6
CONTINUOUS
 10
4.7269377843
 20
5.2872840937
 11
4.7272874689
 21
5.2870332955
  0
LINE
  5
2C5
100
AcDbEntity
  8
0
100
AcDbLine
 62
7
  6
CONTINUOUS
 10
4.7269377843
 20
5.403425826
 11
4.7272874689
 21
5.4031750278
  0
LINE
  5
2C6
100
AcDbEntity
  8
0
100
AcDbLine
 62
7
  6
CONTINUOUS
 10
4.7269377843
 20
5.4614966922
 11
4.7272874689
 21
5.4612458939
  0
LINE
  5
2C7
100
AcDbEntity
  8
0
100
AcDbLine
 62
7
  6
CONTINUOUS
 10
4.7269377843
 20
5.5195675583
 11
4.7272874689
 21
5.5193167601
  0
LINE
  5
2C8
100
AcDbEntity
  8
0
100
AcDbLine
 62
7
  6
CONTINUOUS
 10
6.3177159827
 20
8.0186734452
 11
6.3177159827
 21
8.1089272609
  0
LINE
  5
2C9
100
AcDbEntity
  8
0
100
AcDbLine
 62
7
  6
CONTINUOUS
 10
6.3177159827
 20
8.1461078932
 11
6.3177159827
 21
8.2137915554
  0
LINE
  5
2CA
100
AcDbEntity
  8
0
100
AcDbLine
 62
9
  6
CONTINUOUS
 10
6.3217754041
 20
4.8738371308
 11
6.3217754041
 21
5.0550182331
  0
LINE
  5
2CB
100
AcDbEntity
  8
0
100
AcDbLine
 62
7
  6
CONTINUOUS
 10
6.3338747921
 20
0.107434847
 11
6.3338747921
 21
4.6077876029
  0
LINE
  5
2CC
100
AcDbEntity
  8
0
100
AcDbLine
 62
9
  6
CONTINUOUS
 10
6.3391843374
 20
5.0550182331
 11
6.3391843374
 21
4.8738371308
  0
LINE
  5
2CD
100
AcDbEntity
  8
0
100
AcDbLine
 62
7
  6
CONTINUOUS
 10
6.4098339774
 20
8.2137915554
 11
6.4098339774
 21
8.2486340751
  0
LINE
  5
2CE
100
AcDbEntity
  8
0
100
AcDbLine
 62
7
  6
CONTINUOUS
 10
6.4109929024
 20
7.9722167523
 11
6.4109929024
 21
8.0186734452
  0
LINE
  5
2CF
100
AcDbEntity
  8
0
100
AcDbLine
 62
7
  6
CONTINUOUS
 10
6.4365440835
 20
4.6417970802
 11
6.4365440835
 21
4.6656258112
  0
LINE
  5
2D0
100
AcDbEntity
  8
0
100
AcDbLine
 62
7
  6
CONTINUOUS
 10
6.4365440835
 20
4.6998679463
 11
6.4365440835
 21
4.7236966774
  0
LINE
  5
2D1
100
AcDbEntity
  8
0
100
AcDbLine
 62
7
  6
CONTINUOUS
 10
6.4365440835
 20
4.7579388125
 11
6.4365440835
 21
4.7817675435
  0
LINE
  5
2D2
100
AcDbEntity
  8
0
100
AcDbLine
 62
7
  6
CONTINUOUS
 10
6.4365440835
 20
4.8160096786
 11
6.4365440835
 21
4.8398384096
  0
LINE
  5
2D3
100
AcDbEntity
  8
0
100
AcDbLine
 62
7
  6
CONTINUOUS
 10
6.4365440835
 20
5.1665142961
 11
6.4365440835
 21
5.1882636065
  0
LINE
  5
2D4
100
AcDbEntity
  8
0
100
AcDbLine
 62
7
  6
CONTINUOUS
 10
6.4365440835
 20
5.2225057416
 11
6.4365440835
 21
5.2463344726
  0
LINE
  5
2D5
100
AcDbEntity
  8
0
100
AcDbLine
 62
7
  6
CONTINUOUS
 10
6.4365440835
 20
5.2805766077
 11
6.4365440835
 21
5.3044053388
  0
LINE
  5
2D6
100
AcDbEntity
  8
0
100
AcDbLine
 62
7
  6
CONTINUOUS
 10
6.4365440835
 20
5.39671834
 11
6.4365440835
 21
5.4205470711
  0
LINE
  5
2D7
100
AcDbEntity
  8
0
100
AcDbLine
 62
7
  6
CONTINUOUS
 10
6.4365440835
 20
5.4547892062
 11
6.4365440835
 21
5.4786179372
  0
LINE
  5
2D8
100
AcDbEntity
  8
0
100
AcDbLine
 62
7
  6
CONTINUOUS
 10
6.4365440835
 20
5.5128600723
 11
6.4365440835
 21
5.5366888033
  0
LINE
  5
2D9
100
AcDbEntity
  8
0
100
AcDbLine
 62
7
  6
CONTINUOUS
 10
6.4365440835
 20
5.5709309385
 11
6.4365440835
 21
5.5738057239
  0
LINE
  5
2DA
100
AcDbEntity
  8
0
100
AcDbLine
 62
7
  6
CONTINUOUS
 10
6.4365440835
 20
6.0935687337
 11
6.4365440835
 21
6.1173974648
  0
LINE
  5
2DB
100
AcDbEntity
  8
0
100
AcDbLine
 62
7
  6
CONTINUOUS
 10
6.4365440835
 20
6.1516395999
 11
6.4365440835
 21
6.1754683309
  0
LINE
  5
2DC
100
AcDbEntity
  8
0
100
AcDbLine
 62
7
  6
CONTINUOUS
 10
6.4365440835
 20
6.209710466
 11
6.4365440835
 21
6.233539197
  0
LINE
  5
2DD
100
AcDbEntity
  8
0
100
AcDbLine
 62
7
  6
CONTINUOUS
 10
6.4365440835
 20
6.2677813322
 11
6.4365440835
 21
6.2916100632
  0
LINE
  5
2DE
100
AcDbEntity
  8
0
100
AcDbLine
 62
7
  6
CONTINUOUS
 10
6.4690637685
 20
4.6775401765
 11
6.4690637685
 21
4.6890868148
  0
LINE
  5
2DF
100
AcDbEntity
  8
0
100
AcDbLine
 62
7
  6
CONTINUOUS
 10
6.4690637685
 20
4.7356110426
 11
6.4690637685
 21
4.7471576809
  0
LINE
  5
2E0
100
AcDbEntity
  8
0
100
AcDbLine
 62
7
  6
CONTINUOUS
 10
6.4690637685
 20
4.7936819087
 11
6.4690637685
 21
4.8052285471
  0
LINE
  5
2E1
100
AcDbEntity
  8
0
100
AcDbLine
 62
7
  6
CONTINUOUS
 10
6.4690637685
 20
5.2001779717
 11
6.4690637685
 21
5.2117246101
  0
LINE
  5
2E2
100
AcDbEntity
  8
0
100
AcDbLine
 62
7
  6
CONTINUOUS
 10
6.4690637685
 20
5.2582488379
 11
6.4690637685
 21
5.2697954762
  0
LINE
  5
2E3
100
AcDbEntity
  8
0
100
AcDbLine
 62
7
  6
CONTINUOUS
 10
6.4690637685
 20
5.316319704
 11
6.4690637685
 21
5.3278663423
  0
LINE
  5
2E4
100
AcDbEntity
  8
0
100
AcDbLine
 62
7
  6
CONTINUOUS
 10
6.4690637685
 20
5.4324614363
 11
6.4690637685
 21
5.4440080746
  0
LINE
  5
2E5
100
AcDbEntity
  8
0
100
AcDbLine
 62
7
  6
CONTINUOUS
 10
6.4690637685
 20
5.4905323024
 11
6.4690637685
 21
5.5020789408
  0
LINE
  5
2E6
100
AcDbEntity
  8
0
100
AcDbLine
 62
7
  6
CONTINUOUS
 10
6.4690637685
 20
5.5486031686
 11
6.4690637685
 21
5.5601498069
  0
LINE
  5
2E7
100
AcDbEntity
  8
0
100
AcDbLine
 62
7
  6
CONTINUOUS
 10
6.4690637685
 20
6.12931183
 11
6.4690637685
 21
6.1408584683
  0
LINE
  5
2E8
100
AcDbEntity
  8
0
100
AcDbLine
 62
7
  6
CONTINUOUS
 10
6.4690637685
 20
6.1873826961
 11
6.4690637685
 21
6.1989293345
  0
LINE
  5
2E9
100
AcDbEntity
  8
0
100
AcDbLine
 62
7
  6
CONTINUOUS
 10
6.4690637685
 20
6.2454535623
 11
6.4690637685
 21
6.2570002006
  0
LINE
  5
2EA
100
AcDbEntity
  8
0
100
AcDbLine
 62
7
  6
CONTINUOUS
 10
6.4690637685
 20
6.3035244284
 11
6.4690637685
 21
7.1566221955
  0
LINE
  5
2EB
100
AcDbEntity
  8
0
100
AcDbLine
 62
7
  6
CONTINUOUS
 10
6.4690637685
 20
7.2495355814
 11
6.4690637685
 21
7.4750148399
  0
LINE
  5
2EC
100
AcDbEntity
  8
0
100
AcDbLine
 62
9
  6
CONTINUOUS
 10
4.5159494016
 20
4.8738371308
 11
5.2351106942
 21
4.8738371308
  0
LINE
  5
2ED
100
AcDbEntity
  8
0
100
AcDbLine
 62
9
  6
CONTINUOUS
 10
5.2571329626
 20
4.8738371308
 11
6.3217754041
 21
4.8738371308
  0
LINE
  5
2EE
100
AcDbEntity
  8
0
100
AcDbLine
 62
9
  6
CONTINUOUS
 10
6.3391843374
 20
4.8738371308
 11
6.6858715644
 21
4.8738371306
  0
LINE
  5
2EF
100
AcDbEntity
  8
0
100
AcDbLine
 62
9
  6
CONTINUOUS
 10
4.5101299884
 20
5.0550182331
 11
6.6858715644
 21
5.0550182331
  0
LINE
  5
2F0
100
AcDbEntity
  8
0
100
AcDbLine
 62
7
  6
CONTINUOUS
 10
4.4296162745
 20
5.0782465796
 11
6.7663852783
 21
5.0782465796
  0
LINE
  5
2F1
100
AcDbEntity
  8
0
100
AcDbLine
 62
9
  6
CONTINUOUS
 10
4.4017409339
 20
5.1061205953
 11
6.7942606189
 21
5.1061205953
  0
LINE
  5
2F2
100
AcDbEntity
  8
0
100
AcDbLine
 62
9
  6
CONTINUOUS
 10
6.7942606189
 20
5.1386402804
 11
4.4017409339
 21
5.1386402804
  0
LINE
  5
2F3
100
AcDbEntity
  8
0
100
AcDbLine
 62
7
  6
CONTINUOUS
 10
6.4686369514
 20
4.63129798
 11
6.4361048593
 21
4.642088666
  0
LINE
  5
2F4
100
AcDbEntity
  8
0
100
AcDbLine
 62
7
  6
CONTINUOUS
 10
6.4686369514
 20
4.6893688462
 11
6.4361048593
 21
4.7001595321
  0
LINE
  5
2F5
100
AcDbEntity
  8
0
100
AcDbLine
 62
7
  6
CONTINUOUS
 10
6.4686369514
 20
4.7474397123
 11
6.4361048593
 21
4.7582303983
  0
LINE
  5
2F6
100
AcDbEntity
  8
0
100
AcDbLine
 62
7
  6
CONTINUOUS
 10
6.4686369514
 20
4.8055105784
 11
6.4361048593
 21
4.8163012644
  0
LINE
  5
2F7
100
AcDbEntity
  8
0
100
AcDbLine
 62
7
  6
CONTINUOUS
 10
4.7272874677
 20
5.2289581087
 11
4.7598172267
 21
5.2170351277
  0
LINE
  5
2F8
100
AcDbEntity
  8
0
100
AcDbLine
 62
7
  6
CONTINUOUS
 10
4.7272874677
 20
5.2870289748
 11
4.7598172267
 21
5.2751059938
  0
LINE
  5
2F9
100
AcDbEntity
  8
0
100
AcDbLine
 62
7
  6
CONTINUOUS
 10
4.7272874677
 20
5.4031707071
 11
4.7598172267
 21
5.3912477261
  0
LINE
  5
2FA
100
AcDbEntity
  8
0
100
AcDbLine
 62
7
  6
CONTINUOUS
 10
4.7272874677
 20
5.4612415732
 11
4.7598172267
 21
5.4493185922
  0
LINE
  5
2FB
100
AcDbEntity
  8
0
100
AcDbLine
 62
7
  6
CONTINUOUS
 10
4.7272874677
 20
5.5193124394
 11
4.7598172267
 21
5.5073894584
  0
LINE
  5
2FC
100
AcDbEntity
  8
0
100
AcDbLine
 62
7
  6
CONTINUOUS
 10
6.4690637685
 20
4.6890869921
 11
6.4686369498
 21
4.6893641226
  0
LINE
  5
2FD
100
AcDbEntity
  8
0
100
AcDbLine
 62
7
  6
CONTINUOUS
 10
6.4690637685
 20
4.7471578583
 11
6.4686369498
 21
4.7474349887
  0
LINE
  5
2FE
100
AcDbEntity
  8
0
100
AcDbLine
 62
7
  6
CONTINUOUS
 10
4.8782855701
 20
8.1089272609
 11
4.8754948045
 21
8.1162325003
  0
LINE
  5
2FF
100
AcDbEntity
  8
0
100
AcDbLine
 62
9
  6
CONTINUOUS
 10
6.6846654863
 20
4.8738371308
 11
6.6846654863
 21
5.0550182331
  0
LINE
  5
300
100
AcDbEntity
  8
0
100
AcDbLine
 62
7
  6
CONTINUOUS
 10
6.6858715644
 20
4.8738371308
 11
6.6858715644
 21
5.0550182331
  0
LINE
  5
301
100
AcDbEntity
  8
0
100
AcDbLine
 62
7
  6
CONTINUOUS
 10
6.7942606189
 20
5.1061205953
 11
6.7942606189
 21
5.1386402804
  0
LINE
  5
302
100
AcDbEntity
  8
0
100
AcDbLine
 62
7
  6
CONTINUOUS
 10
5.532144013
 20
5.3234225353
 11
5.647284723
 21
5.3246576863
  0
LINE
  5
303
100
AcDbEntity
  8
0
100
AcDbLine
 62
7
  6
CONTINUOUS
 10
4.4296421597
 20
5.1665142961
 11
6.7663593931
 21
5.1665142961
  0
LINE
  5
304
100
AcDbEntity
  8
0
100
AcDbLine
 62
7
  6
CONTINUOUS
 10
6.8128281745
 20
5.3317749744
 11
4.3831733783
 21
5.3317749744
  0
LINE
  5
305
100
AcDbEntity
  8
0
100
AcDbLine
 62
7
  6
CONTINUOUS
 10
6.812828181
 20
5.3875230059
 11
4.3831733718
 21
5.3875230059
  0
LINE
  5
306
100
AcDbEntity
  8
0
100
AcDbLine
 62
7
  6
CONTINUOUS
 10
6.4686369514
 20
5.2120066414
 11
6.4361048593
 21
5.2227973274
  0
LINE
  5
307
100
AcDbEntity
  8
0
100
AcDbLine
 62
7
  6
CONTINUOUS
 10
4.7370483771
 20
5.5738057239
 11
4.7598172267
 21
5.5654603245
  0
LINE
  5
308
100
AcDbEntity
  8
0
100
AcDbLine
 62
7
  6
CONTINUOUS
 10
6.4690637685
 20
4.8052287244
 11
6.4686369498
 21
4.8055058549
  0
LINE
  5
309
100
AcDbEntity
  8
0
100
AcDbLine
 62
7
  6
CONTINUOUS
 10
4.7269377843
 20
6.1583470859
 11
4.7272874689
 21
6.1580962876
  0
LINE
  5
30A
100
AcDbEntity
  8
0
100
AcDbLine
 62
7
  6
CONTINUOUS
 10
4.7269377843
 20
6.216417952
 11
4.7272874689
 21
6.2161671538
  0
LINE
  5
30B
100
AcDbEntity
  8
0
100
AcDbLine
 62
7
  6
CONTINUOUS
 10
4.7269377843
 20
6.2744888181
 11
4.7272874689
 21
6.2742380199
  0
LINE
  5
30C
100
AcDbEntity
  8
0
100
AcDbLine
 62
7
  6
CONTINUOUS
 10
4.7269377843
 20
6.3325596843
 11
4.7272874684
 21
6.3323088863
  0
LINE
  5
30D
100
AcDbEntity
  8
0
100
AcDbLine
 62
7
  6
CONTINUOUS
 10
5.4505580195
 20
6.4740227965
 11
5.456514539
 21
6.4655024782
  0
LINE
  5
30E
100
AcDbEntity
  8
0
100
AcDbLine
 62
7
  6
CONTINUOUS
 10
5.4679066703
 20
6.4655024782
 11
5.4272897967
 21
6.5236016233
  0
LINE
  5
30F
100
AcDbEntity
  8
0
100
AcDbLine
 62
7
  6
CONTINUOUS
 10
5.4646762153
 20
6.4850742
 11
5.4706327349
 21
6.4765538817
  0
LINE
  5
310
100
AcDbEntity
  8
0
100
AcDbLine
 62
7
  6
CONTINUOUS
 10
5.4827880321
 20
6.4591667142
 11
5.4810767308
 21
6.4616145921
  0
LINE
  5
311
100
AcDbEntity
  8
0
100
AcDbLine
 62
7
  6
CONTINUOUS
 10
6.8128432961
 20
5.3875230059
 11
6.8128432961
 21
5.3317749744
  0
LINE
  5
312
100
AcDbEntity
  8
0
100
AcDbLine
 62
7
  6
CONTINUOUS
 10
6.8370007764
 20
5.6806561176
 11
6.8370007764
 21
5.5738057239
  0
LINE
  5
313
100
AcDbEntity
  8
0
100
AcDbLine
 62
7
  6
CONTINUOUS
 10
6.8523314851
 20
7.2495355814
 11
6.8523314851
 21
7.1566221955
  0
LINE
  5
314
100
AcDbEntity
  8
0
100
AcDbLine
 62
7
  6
CONTINUOUS
 10
6.9917015638
 20
7.7293813601
 11
6.9917015638
 21
7.7197748975
  0
LINE
  5
315
100
AcDbEntity
  8
0
100
AcDbLine
 62
7
  6
CONTINUOUS
 10
6.8369662812
 20
5.5738057239
 11
4.3590352716
 21
5.5738057239
  0
LINE
  5
316
100
AcDbEntity
  8
0
100
AcDbLine
 62
7
  6
CONTINUOUS
 10
6.8370007764
 20
5.6806561176
 11
4.3590007764
 21
5.6806561176
  0
LINE
  5
317
100
AcDbEntity
  8
0
100
AcDbLine
 62
7
  6
CONTINUOUS
 10
6.4686369514
 20
5.2700775076
 11
6.4361048593
 21
5.2808681935
  0
LINE
  5
318
100
AcDbEntity
  8
0
100
AcDbLine
 62
7
  6
CONTINUOUS
 10
6.4686369514
 20
5.3281483737
 11
6.4577032322
 21
5.3317749744
  0
LINE
  5
319
100
AcDbEntity
  8
0
100
AcDbLine
 62
7
  6
CONTINUOUS
 10
6.4647062592
 20
5.3875230059
 11
6.4361048593
 21
5.3970099258
  0
LINE
  5
31A
100
AcDbEntity
  8
0
100
AcDbLine
 62
7
  6
CONTINUOUS
 10
6.4686369514
 20
5.444290106
 11
6.4361048593
 21
5.455080792
  0
LINE
  5
31B
100
AcDbEntity
  8
0
100
AcDbLine
 62
7
  6
CONTINUOUS
 10
6.4686369514
 20
5.5023609721
 11
6.4361048593
 21
5.5131516581
  0
LINE
  5
31C
100
AcDbEntity
  8
0
100
AcDbLine
 62
7
  6
CONTINUOUS
 10
4.7272874677
 20
6.1000211008
 11
4.7598172267
 21
6.0880981198
  0
LINE
  5
31D
100
AcDbEntity
  8
0
100
AcDbLine
 62
7
  6
CONTINUOUS
 10
6.4690637685
 20
5.2117247874
 11
6.4686369498
 21
5.2120019179
  0
LINE
  5
31E
100
AcDbEntity
  8
0
100
AcDbLine
 62
7
  6
CONTINUOUS
 10
6.4690637685
 20
5.2697956535
 11
6.4686369498
 21
5.270072784
  0
LINE
  5
31F
100
AcDbEntity
  8
0
100
AcDbLine
 62
7
  6
CONTINUOUS
 10
6.4690637685
 20
5.3278665197
 11
6.4686369498
 21
5.3281436502
  0
LINE
  5
320
100
AcDbEntity
  8
0
100
AcDbLine
 62
7
  6
CONTINUOUS
 10
6.4690637685
 20
5.444008252
 11
6.4686369498
 21
5.4442853824
  0
LINE
  5
321
100
AcDbEntity
  8
0
100
AcDbLine
 62
7
  6
CONTINUOUS
 10
6.4686369514
 20
5.5604318383
 11
6.4361048593
 21
5.5712225242
  0
LINE
  5
322
100
AcDbEntity
  8
0
100
AcDbLine
 62
7
  6
CONTINUOUS
 10
4.7272874677
 20
6.1580919669
 11
4.7598172267
 21
6.1461689859
  0
LINE
  5
323
100
AcDbEntity
  8
0
100
AcDbLine
 62
7
  6
CONTINUOUS
 10
4.7272874677
 20
6.2161628331
 11
4.7598172267
 21
6.2042398521
  0
LINE
  5
324
100
AcDbEntity
  8
0
100
AcDbLine
 62
7
  6
CONTINUOUS
 10
4.7272874677
 20
6.2742336992
 11
4.7598172267
 21
6.2623107182
  0
LINE
  5
325
100
AcDbEntity
  8
0
100
AcDbLine
 62
7
  6
CONTINUOUS
 10
4.7272874671
 20
6.3323045658
 11
4.7598172269
 21
6.3203815846
  0
LINE
  5
326
100
AcDbEntity
  8
0
100
AcDbLine
 62
7
  6
CONTINUOUS
 10
6.4690637685
 20
5.5020791181
 11
6.4686369498
 21
5.5023562486
  0
LINE
  5
327
100
AcDbEntity
  8
0
100
AcDbLine
 62
7
  6
CONTINUOUS
 10
6.4690637685
 20
5.5601518848
 11
6.4686369516
 21
5.5604326067
  0
LINE
  5
328
100
AcDbEntity
  8
0
100
AcDbLine
 62
7
  6
CONTINUOUS
 10
4.6923690796
 20
6.0848293459
 11
6.5036324732
 21
6.0848293459
  0
LINE
  5
329
100
AcDbEntity
  8
0
100
AcDbLine
 62
7
  6
CONTINUOUS
 10
6.4633316324
 20
6.0848293459
 11
6.4361048593
 21
6.0938603195
  0
LINE
  5
32A
100
AcDbEntity
  8
0
100
AcDbLine
 62
7
  6
CONTINUOUS
 10
6.4686369514
 20
6.1411404997
 11
6.4361048593
 21
6.1519311857
  0
LINE
  5
32B
100
AcDbEntity
  8
0
100
AcDbLine
 62
7
  6
CONTINUOUS
 10
6.0908820877
 20
6.3171779152
 11
6.1099965695
 21
6.306396784
  0
LINE
  5
32C
100
AcDbEntity
  8
0
100
AcDbLine
 62
7
  6
CONTINUOUS
 10
6.4690637685
 20
6.1408586457
 11
6.4686369498
 21
6.1411357761
  0
LINE
  5
32D
100
AcDbEntity
  8
0
100
AcDbLine
 62
7
  6
CONTINUOUS
 10
6.5036740047
 20
6.0848293459
 11
6.8370007764
 21
5.6806561176
  0
LINE
  5
32E
100
AcDbEntity
  8
0
100
AcDbLine
 62
7
  6
CONTINUOUS
 10
6.0625677055
 20
6.4591667142
 11
5.1334338473
 21
6.4591667142
  0
LINE
  5
32F
100
AcDbEntity
  8
0
100
AcDbLine
 62
7
  6
CONTINUOUS
 10
5.456514539
 20
6.4655024782
 11
5.4679066703
 21
6.4655024782
  0
LINE
  5
330
100
AcDbEntity
  8
0
100
AcDbLine
 62
7
  6
CONTINUOUS
 10
5.4706327349
 20
6.4765538817
 11
5.4820248661
 21
6.4765538817
  0
LINE
  5
331
100
AcDbEntity
  8
0
100
AcDbLine
 62
7
  6
CONTINUOUS
 10
5.4238635206
 20
6.5236016233
 11
5.4272897967
 21
6.5236016233
  0
LINE
  5
332
100
AcDbEntity
  8
0
100
AcDbLine
 62
7
  6
CONTINUOUS
 10
6.4686369514
 20
6.1992113658
 11
6.4361048593
 21
6.2100020518
  0
LINE
  5
333
100
AcDbEntity
  8
0
100
AcDbLine
 62
7
  6
CONTINUOUS
 10
6.4686369514
 20
6.257282232
 11
6.4361048593
 21
6.2680729179
  0
LINE
  5
334
100
AcDbEntity
  8
0
100
AcDbLine
 62
7
  6
CONTINUOUS
 10
6.4690637685
 20
6.1989295118
 11
6.4686369498
 21
6.1992066423
  0
LINE
  5
335
100
AcDbEntity
  8
0
100
AcDbLine
 62
7
  6
CONTINUOUS
 10
6.4690637685
 20
6.257000378
 11
6.4686369498
 21
6.2572775084
  0
LINE
  5
336
100
AcDbEntity
  8
0
100
AcDbLine
 62
7
  6
CONTINUOUS
 10
5.1334338473
 20
7.0631037221
 11
6.0625677055
 21
7.0631037221
  0
LINE
  5
337
100
AcDbEntity
  8
0
100
AcDbLine
 62
7
  6
CONTINUOUS
 10
4.3437052334
 20
7.1566221955
 11
6.8522963194
 21
7.1566221955
  0
LINE
  5
338
100
AcDbEntity
  8
0
100
AcDbLine
 62
7
  6
CONTINUOUS
 10
6.3177159827
 20
8.1461078932
 11
6.318999885
 21
8.144106516
  0
LINE
  5
339
100
AcDbEntity
  8
0
100
AcDbLine
 62
7
  6
CONTINUOUS
 10
6.555702158
 20
7.5873467354
 11
6.9743738859
 21
7.6973085184
  0
LINE
  5
33A
100
AcDbEntity
  8
0
100
AcDbLine
 62
7
  6
CONTINUOUS
 10
4.3437052334
 20
7.2495355814
 11
6.8522963194
 21
7.2495355814
  0
LINE
  5
33B
100
AcDbEntity
  8
0
100
AcDbLine
 62
9
  6
CONTINUOUS
 10
4.7269377843
 20
7.4750148399
 11
6.4690637685
 21
7.4750148399
  0
LINE
  5
33C
100
AcDbEntity
  8
0
100
AcDbLine
 62
7
  6
CONTINUOUS
 10
4.6402993948
 20
7.5873467354
 11
4.2216276669
 21
7.6973085184
  0
LINE
  5
33D
100
AcDbEntity
  8
0
100
AcDbLine
 62
9
  6
CONTINUOUS
 10
6.555702158
 20
7.5873467354
 11
4.6402993948
 21
7.5873467354
  0
LINE
  5
33E
100
AcDbEntity
  8
0
100
AcDbLine
 62
9
  6
CONTINUOUS
 10
6.9743738859
 20
7.6973085184
 11
4.2216276669
 21
7.6973085184
  0
LINE
  5
33F
100
AcDbEntity
  8
0
100
AcDbLine
 62
9
  6
CONTINUOUS
 10
4.204299989
 20
7.7197748975
 11
6.9917015638
 21
7.7197748975
  0
LINE
  5
340
100
AcDbEntity
  8
0
100
AcDbLine
 62
9
  6
CONTINUOUS
 10
6.9917015638
 20
7.7293813601
 11
4.204299989
 21
7.7293813601
  0
LINE
  5
341
100
AcDbEntity
  8
0
100
AcDbLine
 62
7
  6
CONTINUOUS
 10
4.2275283355
 20
7.7526097066
 11
6.9684732173
 21
7.7526097066
  0
LINE
  5
342
100
AcDbEntity
  8
0
100
AcDbLine
 62
7
  6
CONTINUOUS
 10
6.4109720662
 20
7.9722167523
 11
4.7850294866
 21
7.9722167523
  0
LINE
  5
343
100
AcDbEntity
  8
0
100
AcDbLine
 62
7
  6
CONTINUOUS
 10
4.785029464
 20
8.0186734452
 11
6.4109720888
 21
8.0186734452
  0
LINE
  5
344
100
AcDbEntity
  8
0
100
AcDbLine
 62
7
  6
CONTINUOUS
 10
4.8782855701
 20
8.1089272609
 11
6.3177159827
 21
8.1089272609
  0
LINE
  5
345
100
AcDbEntity
  8
0
100
AcDbLine
 62
7
  6
CONTINUOUS
 10
4.7830581146
 20
8.1162325003
 11
6.4129434382
 21
8.1162325003
  0
LINE
  5
346
100
AcDbEntity
  8
0
100
AcDbLine
 62
7
  6
CONTINUOUS
 10
4.7830581146
 20
8.144106516
 11
6.4129434382
 21
8.144106516
  0
LINE
  5
347
100
AcDbEntity
  8
0
100
AcDbLine
 62
7
  6
CONTINUOUS
 10
4.8782855701
 20
8.1461078932
 11
6.3177159827
 21
8.1461078932
  0
LINE
  5
348
100
AcDbEntity
  8
0
100
AcDbLine
 62
7
  6
CONTINUOUS
 10
6.4098131707
 20
8.2137915554
 11
4.7861883821
 21
8.2137915554
  0
LINE
  5
349
100
AcDbEntity
  8
0
100
AcDbLine
 62
7
  6
CONTINUOUS
 10
6.4098339774
 20
8.2486340751
 11
4.7861675758
 21
8.2486340751
  0
ARC
  5
34A
100
AcDbEntity
  8
0
100
AcDbCircle
 62
7
  6
CONTINUOUS
 10
4.610796052
 20
7.4750148399
 40
0.1161417323
100
AcDbArc
 50
0.0
 51
75.2839564378
  0
ARC
  5
34B
100
AcDbEntity
  8
0
100
AcDbCircle
 62
7
  6
CONTINUOUS
 10
4.4296149496
 20
5.1386402804
 40
0.0278740157
100
AcDbArc
 50
90.0
 51
180.0
  0
ARC
  5
34C
100
AcDbEntity
  8
0
100
AcDbCircle
 62
7
  6
CONTINUOUS
 10
4.4296149496
 20
5.1061205953
 40
0.0278740157
100
AcDbArc
 50
180.0
 51
270.0000399618
  0
ARC
  5
34D
100
AcDbEntity
  8
0
100
AcDbCircle
 62
7
  6
CONTINUOUS
 10
4.4869016419
 20
5.0550182331
 40
0.0232283465
100
AcDbArc
 50
0.0
 51
82.4999999602
  0
ARC
  5
34E
100
AcDbEntity
  8
0
100
AcDbCircle
 62
7
  6
CONTINUOUS
 10
4.5333583348
 20
4.8738371308
 40
0.0232283465
100
AcDbArc
 50
180.0
 51
269.9999996543
  0
ARC
  5
34F
100
AcDbEntity
  8
0
100
AcDbCircle
 62
7
  6
CONTINUOUS
 10
4.2275283355
 20
7.7197748975
 40
0.0232283465
100
AcDbArc
 50
180.0
 51
255.2839564378
  0
ARC
  5
350
100
AcDbEntity
  8
0
100
AcDbCircle
 62
7
  6
CONTINUOUS
 10
4.2275283355
 20
7.7293813601
 40
0.0232283465
100
AcDbArc
 50
90.0
 51
180.0
  0
ARC
  5
351
100
AcDbEntity
  8
0
100
AcDbCircle
 62
7
  6
CONTINUOUS
 10
4.7826858158
 20
8.1301695082
 40
0.0139370079
100
AcDbArc
 50
90.0
 51
270.0
  0
ARC
  5
352
100
AcDbEntity
  8
0
100
AcDbCircle
 62
7
  6
CONTINUOUS
 10
3.1134758165
 20
238.081829438
 40
231.7600127819
100
AcDbArc
 50
270.5820142872
 51
270.7001369047
  0
ARC
  5
353
100
AcDbEntity
  8
0
100
AcDbCircle
 62
7
  6
CONTINUOUS
 10
3.8655305344
 20
180.8047937318
 40
174.512835314
100
AcDbArc
 50
270.5688112318
 51
270.7369199089
  0
ARC
  5
354
100
AcDbEntity
  8
0
100
AcDbCircle
 62
7
  6
CONTINUOUS
 10
3.8876422052
 20
178.8122478334
 40
172.4736462317
100
AcDbArc
 50
270.5681907541
 51
270.7382870124
  0
ARC
  5
355
100
AcDbEntity
  8
0
100
AcDbCircle
 62
7
  6
CONTINUOUS
 10
4.3678755658
 20
130.8752668902
 40
125.5571064305
100
AcDbArc
 50
270.5838458944
 51
270.8433422493
  0
ARC
  5
356
100
AcDbEntity
  8
0
100
AcDbCircle
 62
7
  6
CONTINUOUS
 10
5.5662270646
 20
45.4775381371
 40
40.0929527778
100
AcDbArc
 50
270.6941743425
 51
271.0008459218
  0
ARC
  5
357
100
AcDbEntity
  8
0
100
AcDbCircle
 62
7
  6
CONTINUOUS
 10
5.5456160444
 20
-29.809970962
 40
35.3870850734
100
AcDbArc
 50
90.7834780122
 51
90.9839153418
  0
ARC
  5
358
100
AcDbEntity
  8
0
100
AcDbCircle
 62
7
  6
CONTINUOUS
 10
5.1295004788
 20
-6.8735710748
 40
11.5521463202
100
AcDbArc
 50
91.129567414
 51
91.2698104414
  0
ARC
  5
359
100
AcDbEntity
  8
0
100
AcDbCircle
 62
7
  6
CONTINUOUS
 10
5.104314134
 20
-5.709745335
 40
10.3538163462
100
AcDbArc
 50
91.1114861083
 51
91.3404447282
  0
ARC
  5
35A
100
AcDbEntity
  8
0
100
AcDbCircle
 62
7
  6
CONTINUOUS
 10
5.0832498142
 20
-4.6614926479
 40
9.4556994375
100
AcDbArc
 50
91.2299750197
 51
91.3435264172
  0
ARC
  5
35B
100
AcDbEntity
  8
0
100
AcDbCircle
 62
7
  6
CONTINUOUS
 10
5.0578802195
 20
-3.587465302
 40
8.2072105002
100
AcDbArc
 50
91.0738564145
 51
91.6392164517
  0
ARC
  5
35C
100
AcDbEntity
  8
0
100
AcDbCircle
 62
7
  6
CONTINUOUS
 10
5.5980007764
 20
5.8259175397
 40
2.5551181102
100
AcDbArc
 50
71.4744055465
 51
108.5255944535
  0
ARC
  5
35D
100
AcDbEntity
  8
0
100
AcDbCircle
 62
7
  6
CONTINUOUS
 10
5.87531481
 20
5.9611991461
 40
0.7211862367
100
AcDbArc
 50
127.3302277061
 51
128.0482786137
  0
ARC
  5
35E
100
AcDbEntity
  8
0
100
AcDbCircle
 62
7
  6
CONTINUOUS
 10
5.8596865767
 20
5.9812589391
 40
0.6957572435
100
AcDbArc
 50
128.0529110543
 51
128.2166361777
  0
ARC
  5
35F
100
AcDbEntity
  8
0
100
AcDbCircle
 62
7
  6
CONTINUOUS
 10
5.8512911369
 20
5.9919065077
 40
0.6821979648
100
AcDbArc
 50
128.2158692577
 51
128.7956648145
  0
ARC
  5
360
100
AcDbEntity
  8
0
100
AcDbCircle
 62
7
  6
CONTINUOUS
 10
5.9888460721
 20
6.7970371632
 40
0.6099794497
100
AcDbArc
 50
210.3705041194
 51
210.7592565914
  0
ARC
  5
361
100
AcDbEntity
  8
0
100
AcDbCircle
 62
7
  6
CONTINUOUS
 10
5.9823250504
 20
6.797162129
 40
0.6043362295
100
AcDbArc
 50
205.9176441937
 51
207.6581841845
  0
ARC
  5
362
100
AcDbEntity
  8
0
100
AcDbCircle
 62
7
  6
CONTINUOUS
 10
5.9890304594
 20
6.8271881819
 40
0.5499423827
100
AcDbArc
 50
214.2365497986
 51
215.9358138009
  0
ARC
  5
363
100
AcDbEntity
  8
0
100
AcDbCircle
 62
7
  6
CONTINUOUS
 10
5.9327893969
 20
6.772741071
 40
0.5491088757
100
AcDbArc
 50
205.695598794
 51
205.8848925827
  0
ARC
  5
364
100
AcDbEntity
  8
0
100
AcDbCircle
 62
7
  6
CONTINUOUS
 10
5.9722355667
 20
6.815609667
 40
0.5295434941
100
AcDbArc
 50
214.0149621642
 51
214.2232173734
  0
ARC
  5
365
100
AcDbEntity
  8
0
100
AcDbCircle
 62
7
  6
CONTINUOUS
 10
5.4695193533
 20
6.4638108348
 40
0.1198181278
100
AcDbArc
 50
357.7748358935
 51
359.8330579979
  0
ARC
  5
366
100
AcDbEntity
  8
0
100
AcDbCircle
 62
7
  6
CONTINUOUS
 10
5.1334338473
 20
6.9701903363
 40
0.0929133858
100
AcDbArc
 50
90.0
 51
180.0
  0
ARC
  5
367
100
AcDbEntity
  8
0
100
AcDbCircle
 62
7
  6
CONTINUOUS
 10
5.1334338473
 20
6.5520801001
 40
0.0929133858
100
AcDbArc
 50
180.0
 51
270.0
  0
ARC
  5
368
100
AcDbEntity
  8
0
100
AcDbCircle
 62
7
  6
CONTINUOUS
 10
5.4662052822
 20
6.4637686621
 40
0.022967191
100
AcDbArc
 50
348.4339505629
 51
9.8256870821
  0
ARC
  5
369
100
AcDbEntity
  8
0
100
AcDbCircle
 62
7
  6
CONTINUOUS
 10
5.468455826
 20
6.4654679546
 40
0.0200493503
100
AcDbArc
 50
59.674624757
 51
64.3156308222
  0
ARC
  5
36A
100
AcDbEntity
  8
0
100
AcDbCircle
 62
7
  6
CONTINUOUS
 10
6.9603550905
 20
-137.2473693583
 40
141.9749779494
100
AcDbArc
 50
90.5498034919
 51
90.810474623
  0
ARC
  5
36B
100
AcDbEntity
  8
0
100
AcDbCircle
 62
7
  6
CONTINUOUS
 10
6.7879402532
 20
-118.1961986967
 40
123.3755752233
100
AcDbArc
 50
90.6617220721
 51
90.8271704489
  0
ARC
  5
36C
100
AcDbEntity
  8
0
100
AcDbCircle
 62
7
  6
CONTINUOUS
 10
6.0613147898
 20
16.5495956307
 40
11.7994538325
100
AcDbArc
 50
271.1540466375
 51
271.2688552238
  0
ARC
  5
36D
100
AcDbEntity
  8
0
100
AcDbCircle
 62
7
  6
CONTINUOUS
 10
6.0759364404
 20
15.7558821133
 40
11.0979011828
100
AcDbArc
 50
271.1623906805
 51
271.3213350974
  0
ARC
  5
36E
100
AcDbEntity
  8
0
100
AcDbCircle
 62
7
  6
CONTINUOUS
 10
6.1265725075
 20
13.6846555931
 40
8.8518915485
100
AcDbArc
 50
271.2718440288
 51
271.3950945362
  0
ARC
  5
36F
100
AcDbEntity
  8
0
100
AcDbCircle
 62
7
  6
CONTINUOUS
 10
6.3177265569
 20
5.2879316611
 40
1.4418460999
100
AcDbArc
 50
122.4654856121
 51
124.5247829556
  0
ARC
  5
370
100
AcDbEntity
  8
0
100
AcDbCircle
 62
7
  6
CONTINUOUS
 10
6.2880358761
 20
5.331831572
 40
1.4070842325
100
AcDbArc
 50
122.4376293812
 51
125.1186912453
  0
ARC
  5
371
100
AcDbEntity
  8
0
100
AcDbCircle
 62
7
  6
CONTINUOUS
 10
6.3815350348
 20
6.9327816503
 40
1.3762372465
100
AcDbArc
 50
272.2439078807
 51
272.7914656622
  0
ARC
  5
372
100
AcDbEntity
  8
0
100
AcDbCircle
 62
7
  6
CONTINUOUS
 10
6.2155732493
 20
5.4364956558
 40
1.2615503509
100
AcDbArc
 50
124.5265243792
 51
124.9664347058
  0
ARC
  5
373
100
AcDbEntity
  8
0
100
AcDbCircle
 62
7
  6
CONTINUOUS
 10
6.1287432907
 20
5.5608310341
 40
1.1098970732
100
AcDbArc
 50
124.9716002088
 51
125.2080343686
  0
ARC
  5
374
100
AcDbEntity
  8
0
100
AcDbCircle
 62
7
  6
CONTINUOUS
 10
6.0527030919
 20
6.8342581649
 40
0.6838922059
100
AcDbArc
 50
207.6739331885
 51
210.356082824
  0
ARC
  5
375
100
AcDbEntity
  8
0
100
AcDbCircle
 62
7
  6
CONTINUOUS
 10
6.5852055008
 20
7.4750148399
 40
0.1161417323
100
AcDbArc
 50
104.7160435622
 51
180.0
  0
ARC
  5
376
100
AcDbEntity
  8
0
100
AcDbCircle
 62
7
  6
CONTINUOUS
 10
6.0625677055
 20
6.5520801001
 40
0.0929133858
100
AcDbArc
 50
270.0
 51
360.0
  0
ARC
  5
377
100
AcDbEntity
  8
0
100
AcDbCircle
 62
7
  6
CONTINUOUS
 10
6.0625677055
 20
6.9701903363
 40
0.0929133858
100
AcDbArc
 50
0.0
 51
90.0
  0
ARC
  5
378
100
AcDbEntity
  8
0
100
AcDbCircle
 62
7
  6
CONTINUOUS
 10
6.7663866032
 20
5.1386402804
 40
0.0278740157
100
AcDbArc
 50
0.0
 51
90.0
  0
ARC
  5
379
100
AcDbEntity
  8
0
100
AcDbCircle
 62
7
  6
CONTINUOUS
 10
6.7663866032
 20
5.1061205953
 40
0.0278740157
100
AcDbArc
 50
269.9999556359
 51
360.0
  0
ARC
  5
37A
100
AcDbEntity
  8
0
100
AcDbCircle
 62
7
  6
CONTINUOUS
 10
6.662643218
 20
4.8738371308
 40
0.0232283465
100
AcDbArc
 50
270.0000003496
 51
360.0
  0
ARC
  5
37B
100
AcDbEntity
  8
0
100
AcDbCircle
 62
7
  6
CONTINUOUS
 10
6.7090999109
 20
5.0550182331
 40
0.0232283465
100
AcDbArc
 50
95.9414031786
 51
180.0
  0
ARC
  5
37C
100
AcDbEntity
  8
0
100
AcDbCircle
 62
7
  6
CONTINUOUS
 10
6.9684732173
 20
7.7197748975
 40
0.0232283465
100
AcDbArc
 50
284.7160435622
 51
360.0
  0
ARC
  5
37D
100
AcDbEntity
  8
0
100
AcDbCircle
 62
7
  6
CONTINUOUS
 10
6.9684732173
 20
7.7293813601
 40
0.0232283465
100
AcDbArc
 50
0.0
 51
90.0
  0
ARC
  5
37E
100
AcDbEntity
  8
0
100
AcDbCircle
 62
9
  6
CONTINUOUS
 10
6.7078306432
 20
5.0556221604
 40
0.023018708
100
AcDbArc
 50
141.5018828985
 51
151.4244411939
  0
ARC
  5
37F
100
AcDbEntity
  8
0
100
AcDbCircle
 62
7
  6
CONTINUOUS
 10
6.413315737
 20
8.1301695082
 40
0.0139370079
100
AcDbArc
 50
270.0
 51
90.0
  0
SPLINE
  5
380
100
AcDbEntity
  8
0
100
AcDbSpline
 62
7
  6
CONTINUOUS
 70
0
 71
3
 72
26
 73
22
 74
0
 42
0.0000001
 43
0.0000001
 44
0.0000000001
 40
0.0
 40
0.0
 40
0.0
 40
0.0
 40
0.0646274964
 40
0.1291263677
 40
0.1933775875
 40
0.2253916547
 40
0.257307108
 40
0.3207768631
 40
0.3837655031
 40
0.4462651864
 40
0.5083066148
 40
0.5391898311
 40
0.5699842428
 40
0.6313209639
 40
0.6924551948
 40
0.7535212294
 40
0.8146979787
 40
0.8454036878
 40
0.8762009764
 40
0.9379992244
 40
1.0
 40
1.0
 40
1.0
 40
1.0
 10
5.5893369725
 20
6.4634617227
 30
0.0
 10
5.58935204
 20
6.4686443434
 30
0.0
 10
5.5887072493
 20
6.479014749
 30
0.0
 10
5.5857104456
 20
6.4942719494
 30
0.0
 10
5.581587177
 20
6.5065300893
 30
0.0
 10
5.5773513529
 20
6.5159033014
 30
0.0
 10
5.572524037
 20
6.5249148707
 30
0.0
 10
5.5654127349
 20
6.5354876454
 30
0.0
 10
5.5552998778
 20
6.5468360431
 30
0.0
 10
5.5437925064
 20
6.5565924811
 30
0.0
 10
5.5332169731
 20
6.5632730185
 30
0.0
 10
5.5243025078
 20
6.5676452525
 30
0.0
 10
5.5151473959
 20
6.5713391984
 30
0.0
 10
5.5032760615
 20
6.5746959825
 30
0.0
 10
5.4886322804
 20
6.5766230026
 30
0.0
 10
5.4738768452
 20
6.5763811569
 30
0.0
 10
5.4617259003
 20
6.5743945609
 30
0.0
 10
5.4522407135
 20
6.5717551893
 30
0.0
 10
5.4429269555
 20
6.5684115439
 30
0.0
 10
5.43173774
 20
6.5629735847
 30
0.0
 10
5.4234748404
 20
6.5574020698
 30
0.0
 10
5.4195596865
 20
6.5543373762
 30
0.0
  0
SPLINE
  5
381
100
AcDbEntity
  8
0
100
AcDbSpline
 62
7
  6
CONTINUOUS
 70
0
 71
3
 72
14
 73
10
 74
0
 42
0.0000001
 43
0.0000001
 44
0.0000000001
 40
0.0
 40
0.0
 40
0.0
 40
0.0
 40
0.1223133988
 40
0.2458870872
 40
0.370352315
 40
0.4954469075
 40
0.6211069833
 40
0.7472492083
 40
1.0
 40
1.0
 40
1.0
 40
1.0
 10
5.4195596865
 20
6.5543373762
 30
0.0
 10
5.4160820644
 20
6.5516151724
 30
0.0
 10
5.4094296142
 20
6.5456956665
 30
0.0
 10
5.4005643582
 20
6.5356441791
 30
0.0
 10
5.3929015872
 20
6.5245226072
 30
0.0
 10
5.3865941861
 20
6.5124971514
 30
0.0
 10
5.3817123908
 20
6.4997587147
 30
0.0
 10
5.3772031469
 20
6.4820785727
 30
0.0
 10
5.3761536635
 20
6.4682782504
 30
0.0
 10
5.3765026447
 20
6.4591588698
 30
0.0
  0
LINE
  5
382
100
AcDbEntity
  8
0
100
AcDbLine
 62
7
  6
CONTINUOUS
 10
4.7269403737
 20
6.11183083
 11
4.7273660358
 21
6.1121104809
  0
LINE
  5
383
100
AcDbEntity
  8
0
100
AcDbLine
 62
7
  6
CONTINUOUS
 10
4.7269393197
 20
6.1002718065
 11
4.7272901641
 21
6.1000168722
  0
LINE
  5
384
100
AcDbEntity
  8
0
100
AcDbLine
 62
7
  6
CONTINUOUS
 10
6.4690611665
 20
5.5485944858
 11
6.4687124842
 21
5.5483414277
  0
SPLINE
  5
385
100
AcDbEntity
  8
0
100
AcDbSpline
 62
7
  6
CONTINUOUS
 70
0
 71
3
 72
34
 73
30
 74
0
 42
0.0000001
 43
0.0000001
 44
0.0000000001
 40
0.0
 40
0.0
 40
0.0
 40
0.0
 40
0.0004313245
 40
0.0010031355
 40
0.0025743814
 40
0.0047204062
 40
0.007443143
 40
0.0107414697
 40
0.0146130225
 40
0.0190552184
 40
0.0240653576
 40
0.0357783262
 40
0.0497293866
 40
0.065891098
 40
0.084221127
 40
0.1046740539
 40
0.1272044004
 40
0.1517653582
 40
0.1782978174
 40
0.2067358643
 40
0.2370134971
 40
0.3028160507
 40
0.3750906328
 40
0.4531712661
 40
0.5363298249
 40
0.6237793284
 40
0.7147225482
 40
0.808350164
 40
1.0
 40
1.0
 40
1.0
 40
1.0
 10
6.468710286
 20
4.6772882715
 30
0.0
 10
6.4685925061
 20
4.6772457649
 30
0.0
 10
6.4683116708
 20
4.6771665955
 30
0.0
 10
6.467580759
 20
4.677010164
 30
0.0
 10
6.4663481939
 20
4.6768268503
 30
0.0
 10
6.4644906123
 20
4.67661599
 30
0.0
 10
6.4621291086
 20
4.676402014
 30
0.0
 10
6.4592654599
 20
4.6761844602
 30
0.0
 10
6.455901536
 20
4.675964627
 30
0.0
 10
6.4520398931
 20
4.6757427442
 30
0.0
 10
6.445903535
 20
4.675428137
 30
0.0
 10
6.4370070377
 20
4.6750398432
 30
0.0
 10
6.4248731281
 20
4.6745896657
 30
0.0
 10
6.4108172017
 20
4.6741369427
 30
0.0
 10
6.3948729476
 20
4.6736828468
 30
0.0
 10
6.3770791767
 20
4.6732290065
 30
0.0
 10
6.3574759724
 20
4.6727767877
 30
0.0
 10
6.3361073573
 20
4.6723277522
 30
0.0
 10
6.3130232916
 20
4.6718823433
 30
0.0
 10
6.2882792935
 20
4.6714407977
 30
0.0
 10
6.2521360462
 20
4.6708406979
 30
0.0
 10
6.2032672863
 20
4.6701114219
 30
0.0
 10
6.1405214466
 20
4.6692604996
 30
0.0
 10
6.0727369863
 20
4.6683834515
 30
0.0
 10
6.0005471758
 20
4.6674783632
 30
0.0
 10
5.9246231218
 20
4.6665644871
 30
0.0
 10
5.845659601
 20
4.6656540378
 30
0.0
 10
5.7364476277
 20
4.6644499311
 30
0.0
 10
5.6536346665
 20
4.6635950185
 30
0.0
 10
5.5980007764
 20
4.6630224594
 30
0.0
  0
SPLINE
  5
386
100
AcDbEntity
  8
0
100
AcDbSpline
 62
7
  6
CONTINUOUS
 70
0
 71
3
 72
34
 73
30
 74
0
 42
0.0000001
 43
0.0000001
 44
0.0000000001
 40
0.0
 40
0.0
 40
0.0
 40
0.0
 40
0.0004313245
 40
0.0010031355
 40
0.0025743814
 40
0.0047204062
 40
0.007443143
 40
0.0107414697
 40
0.0146130225
 40
0.0190552184
 40
0.0240653576
 40
0.0357783262
 40
0.0497293866
 40
0.065891098
 40
0.084221127
 40
0.1046740539
 40
0.1272044004
 40
0.1517653582
 40
0.1782978174
 40
0.2067358643
 40
0.2370134971
 40
0.3028160507
 40
0.3750906328
 40
0.4531712661
 40
0.5363298249
 40
0.6237793284
 40
0.7147225482
 40
0.808350164
 40
1.0
 40
1.0
 40
1.0
 40
1.0
 10
6.468710286
 20
4.7353591377
 30
0.0
 10
6.4685925061
 20
4.7353166311
 30
0.0
 10
6.4683116708
 20
4.7352374617
 30
0.0
 10
6.467580759
 20
4.7350810301
 30
0.0
 10
6.4663481939
 20
4.7348977165
 30
0.0
 10
6.4644906123
 20
4.7346868562
 30
0.0
 10
6.4621291086
 20
4.7344728801
 30
0.0
 10
6.4592654599
 20
4.7342553264
 30
0.0
 10
6.455901536
 20
4.7340354932
 30
0.0
 10
6.4520398931
 20
4.7338136104
 30
0.0
 10
6.445903535
 20
4.7334990031
 30
0.0
 10
6.4370070377
 20
4.7331107094
 30
0.0
 10
6.4248731281
 20
4.7326605318
 30
0.0
 10
6.4108172017
 20
4.7322078089
 30
0.0
 10
6.3948729476
 20
4.731753713
 30
0.0
 10
6.3770791767
 20
4.7312998726
 30
0.0
 10
6.3574759724
 20
4.7308476539
 30
0.0
 10
6.3361073573
 20
4.7303986184
 30
0.0
 10
6.3130232916
 20
4.7299532094
 30
0.0
 10
6.2882792935
 20
4.7295116638
 30
0.0
 10
6.2521360462
 20
4.728911564
 30
0.0
 10
6.2032672863
 20
4.7281822881
 30
0.0
 10
6.1405214466
 20
4.7273313658
 30
0.0
 10
6.0727369863
 20
4.7264543176
 30
0.0
 10
6.0005471758
 20
4.7255492294
 30
0.0
 10
5.9246231218
 20
4.7246353532
 30
0.0
 10
5.845659601
 20
4.7237249039
 30
0.0
 10
5.7364476277
 20
4.7225207973
 30
0.0
 10
5.6536346665
 20
4.7216658847
 30
0.0
 10
5.5980007764
 20
4.7210933255
 30
0.0
  0
SPLINE
  5
387
100
AcDbEntity
  8
0
100
AcDbSpline
 62
7
  6
CONTINUOUS
 70
0
 71
3
 72
23
 73
19
 74
0
 42
0.0000001
 43
0.0000001
 44
0.0000000001
 40
0.0
 40
0.0
 40
0.0
 40
0.0
 40
0.0041204936
 40
0.0100035614
 40
0.0176707458
 40
0.0271314102
 40
0.0383903603
 40
0.0514475992
 40
0.0829384248
 40
0.1215622482
 40
0.1672728294
 40
0.2200221714
 40
0.2797613635
 40
0.3464402368
 40
0.4199867346
 40
0.5872939792
 40
0.7808983519
 40
1.0
 40
1.0
 40
1.0
 40
1.0
 10
6.468710286
 20
4.7934300038
 30
0.0
 10
6.4685366332
 20
4.7933673328
 30
0.0
 10
6.468100846
 20
4.7932567762
 30
0.0
 10
6.4673224907
 20
4.7931128114
 30
0.0
 10
6.4663014955
 20
4.792966991
 30
0.0
 10
6.4650382767
 20
4.7928189672
 30
0.0
 10
6.463532246
 20
4.7926694936
 30
0.0
 10
6.4610410559
 20
4.7924547206
 30
0.0
 10
6.4573237357
 20
4.7921912705
 30
0.0
 10
6.4521431863
 20
4.7918862278
 30
0.0
 10
6.4460089441
 20
4.7915776348
 30
0.0
 10
6.4389277653
 20
4.7912661225
 30
0.0
 10
6.4309064013
 20
4.7909525605
 30
0.0
 10
6.421952656
 20
4.7906375826
 30
0.0
 10
6.4081808992
 20
4.7901973338
 30
0.0
 10
6.388722801
 20
4.7896550199
 30
0.0
 10
6.3627432279
 20
4.7890292546
 30
0.0
 10
6.3442563327
 20
4.7886388567
 30
0.0
 10
6.3344416099
 20
4.7884424138
 30
0.0
  0
LINE
  5
388
100
AcDbEntity
  8
0
100
AcDbLine
 62
7
  6
CONTINUOUS
 10
6.3344416099
 20
4.7884424138
 11
6.3201192053
 21
4.7881631427
  0
LINE
  5
389
100
AcDbEntity
  8
0
100
AcDbLine
 62
7
  6
CONTINUOUS
 10
6.3201192053
 20
4.7881631427
 11
6.3098767638
 21
4.7879717555
  0
SPLINE
  5
38A
100
AcDbEntity
  8
0
100
AcDbSpline
 62
7
  6
CONTINUOUS
 70
0
 71
3
 72
14
 73
10
 74
0
 42
0.0000001
 43
0.0000001
 44
0.0000000001
 40
0.0
 40
0.0
 40
0.0
 40
0.0
 40
0.091260984
 40
0.1955056046
 40
0.3112354408
 40
0.4368069248
 40
0.5703968068
 40
0.7101381401
 40
1.0
 40
1.0
 40
1.0
 40
1.0
 10
6.3098767638
 20
4.7879717555
 30
0.0
 10
6.2882232233
 20
4.7875739005
 30
0.0
 10
6.2418339267
 20
4.786807412
 30
0.0
 10
6.1679818352
 20
4.7857625335
 30
0.0
 10
6.0859871072
 20
4.7846927151
 30
0.0
 10
5.9970285042
 20
4.7835733744
 30
0.0
 10
5.9023714322
 20
4.7824422864
 30
0.0
 10
5.7687283422
 20
4.7809274922
 30
0.0
 10
5.6667844142
 20
4.7798720822
 30
0.0
 10
5.5980007764
 20
4.7791641917
 30
0.0
  0
LINE
  5
38B
100
AcDbEntity
  8
0
100
AcDbLine
 62
7
  6
CONTINUOUS
 10
6.4558193595
 20
4.8501769533
 11
6.4264179057
 21
4.8488668599
  0
SPLINE
  5
38C
100
AcDbEntity
  8
0
100
AcDbSpline
 62
7
  6
CONTINUOUS
 70
0
 71
3
 72
11
 73
7
 74
0
 42
0.0000001
 43
0.0000001
 44
0.0000000001
 40
0.0
 40
0.0
 40
0.0
 40
0.0
 40
0.1957149067
 40
0.4283883297
 40
0.6968891332
 40
1.0
 40
1.0
 40
1.0
 40
1.0
 10
6.4264179057
 20
4.8488668599
 30
0.0
 10
6.41948526
 20
4.8486229396
 30
0.0
 10
6.4043087351
 20
4.848148324
 30
0.0
 10
6.3796167221
 20
4.8474951853
 30
0.0
 10
6.3511169598
 20
4.8468440725
 30
0.0
 10
6.3308607517
 20
4.8464381876
 30
0.0
 10
6.3201192053
 20
4.8462340089
 30
0.0
  0
LINE
  5
38D
100
AcDbEntity
  8
0
100
AcDbLine
 62
7
  6
CONTINUOUS
 10
6.3201192053
 20
4.8462340089
 11
6.3173681159
 21
4.8461819596
  0
LINE
  5
38E
100
AcDbEntity
  8
0
100
AcDbLine
 62
7
  6
CONTINUOUS
 10
6.3173681159
 20
4.8461819596
 11
6.3101627794
 21
4.8460478792
  0
SPLINE
  5
38F
100
AcDbEntity
  8
0
100
AcDbSpline
 62
7
  6
CONTINUOUS
 70
0
 71
3
 72
14
 73
10
 74
0
 42
0.0000001
 43
0.0000001
 44
0.0000000001
 40
0.0
 40
0.0
 40
0.0
 40
0.0
 40
0.0912175829
 40
0.1954348379
 40
0.3111519534
 40
0.4367237156
 40
0.5703246161
 40
0.7100851968
 40
1.0
 40
1.0
 40
1.0
 40
1.0
 10
6.3101627794
 20
4.8460478792
 30
0.0
 10
6.2885108468
 20
4.8456496882
 30
0.0
 10
6.2421197179
 20
4.8448825848
 30
0.0
 10
6.1682577767
 20
4.8438370804
 30
0.0
 10
6.0862395538
 20
4.8427668157
 30
0.0
 10
5.9972455458
 20
4.8416468944
 30
0.0
 10
5.90254319
 20
4.8405151397
 30
0.0
 10
5.7688266487
 20
4.8389993881
 30
0.0
 10
5.6668246208
 20
4.8379433621
 30
0.0
 10
5.5980007764
 20
4.8372350578
 30
0.0
  0
SPLINE
  5
390
100
AcDbEntity
  8
0
100
AcDbSpline
 62
7
  6
CONTINUOUS
 70
0
 71
3
 72
34
 73
30
 74
0
 42
0.0000001
 43
0.0000001
 44
0.0000000001
 40
0.0
 40
0.0
 40
0.0
 40
0.0
 40
0.0004313245
 40
0.0010031355
 40
0.0025743814
 40
0.0047204062
 40
0.007443143
 40
0.0107414697
 40
0.0146130225
 40
0.0190552184
 40
0.0240653576
 40
0.0357783262
 40
0.0497293866
 40
0.065891098
 40
0.084221127
 40
0.1046740539
 40
0.1272044004
 40
0.1517653582
 40
0.1782978174
 40
0.2067358643
 40
0.2370134971
 40
0.3028160507
 40
0.3750906328
 40
0.4531712661
 40
0.5363298249
 40
0.6237793284
 40
0.7147225482
 40
0.808350164
 40
1.0
 40
1.0
 40
1.0
 40
1.0
 10
6.468710286
 20
5.1999260668
 30
0.0
 10
6.4685925061
 20
5.1998835602
 30
0.0
 10
6.4683116708
 20
5.1998043908
 30
0.0
 10
6.467580759
 20
5.1996479593
 30
0.0
 10
6.4663481939
 20
5.1994646456
 30
0.0
 10
6.4644906123
 20
5.1992537853
 30
0.0
 10
6.4621291086
 20
5.1990398093
 30
0.0
 10
6.4592654599
 20
5.1988222555
 30
0.0
 10
6.455901536
 20
5.1986024223
 30
0.0
 10
6.4520398931
 20
5.1983805395
 30
0.0
 10
6.445903535
 20
5.1980659323
 30
0.0
 10
6.4370070377
 20
5.1976776385
 30
0.0
 10
6.4248731281
 20
5.197227461
 30
0.0
 10
6.4108172017
 20
5.196774738
 30
0.0
 10
6.3948729476
 20
5.1963206421
 30
0.0
 10
6.3770791767
 20
5.1958668018
 30
0.0
 10
6.3574759724
 20
5.195414583
 30
0.0
 10
6.3361073573
 20
5.1949655475
 30
0.0
 10
6.3130232916
 20
5.1945201386
 30
0.0
 10
6.2882792935
 20
5.1940785929
 30
0.0
 10
6.2521360462
 20
5.1934784932
 30
0.0
 10
6.2032672863
 20
5.1927492172
 30
0.0
 10
6.1405214466
 20
5.1918982949
 30
0.0
 10
6.0727369863
 20
5.1910212467
 30
0.0
 10
6.0005471758
 20
5.1901161585
 30
0.0
 10
5.9246231218
 20
5.1892022823
 30
0.0
 10
5.845659601
 20
5.1882918331
 30
0.0
 10
5.7364476277
 20
5.1870877264
 30
0.0
 10
5.6536346665
 20
5.1862328138
 30
0.0
 10
5.5980007764
 20
5.1856602547
 30
0.0
  0
SPLINE
  5
391
100
AcDbEntity
  8
0
100
AcDbSpline
 62
7
  6
CONTINUOUS
 70
0
 71
3
 72
34
 73
30
 74
0
 42
0.0000001
 43
0.0000001
 44
0.0000000001
 40
0.0
 40
0.0
 40
0.0
 40
0.0
 40
0.0004313245
 40
0.0010031355
 40
0.0025743814
 40
0.0047204062
 40
0.007443143
 40
0.0107414697
 40
0.0146130225
 40
0.0190552184
 40
0.0240653576
 40
0.0357783262
 40
0.0497293866
 40
0.065891098
 40
0.084221127
 40
0.1046740539
 40
0.1272044004
 40
0.1517653582
 40
0.1782978174
 40
0.2067358643
 40
0.2370134971
 40
0.3028160507
 40
0.3750906328
 40
0.4531712661
 40
0.5363298249
 40
0.6237793284
 40
0.7147225482
 40
0.808350164
 40
1.0
 40
1.0
 40
1.0
 40
1.0
 10
6.468710286
 20
5.2579969329
 30
0.0
 10
6.4685925061
 20
5.2579544263
 30
0.0
 10
6.4683116708
 20
5.2578752569
 30
0.0
 10
6.467580759
 20
5.2577188254
 30
0.0
 10
6.4663481939
 20
5.2575355118
 30
0.0
 10
6.4644906123
 20
5.2573246514
 30
0.0
 10
6.4621291086
 20
5.2571106754
 30
0.0
 10
6.4592654599
 20
5.2568931216
 30
0.0
 10
6.455901536
 20
5.2566732884
 30
0.0
 10
6.4520398931
 20
5.2564514057
 30
0.0
 10
6.445903535
 20
5.2561367984
 30
0.0
 10
6.4370070377
 20
5.2557485047
 30
0.0
 10
6.4248731281
 20
5.2552983271
 30
0.0
 10
6.4108172017
 20
5.2548456041
 30
0.0
 10
6.3948729476
 20
5.2543915082
 30
0.0
 10
6.3770791767
 20
5.2539376679
 30
0.0
 10
6.3574759724
 20
5.2534854492
 30
0.0
 10
6.3361073573
 20
5.2530364137
 30
0.0
 10
6.3130232916
 20
5.2525910047
 30
0.0
 10
6.2882792935
 20
5.2521494591
 30
0.0
 10
6.2521360462
 20
5.2515493593
 30
0.0
 10
6.2032672863
 20
5.2508200833
 30
0.0
 10
6.1405214466
 20
5.249969161
 30
0.0
 10
6.0727369863
 20
5.2490921129
 30
0.0
 10
6.0005471758
 20
5.2481870246
 30
0.0
 10
5.9246231218
 20
5.2472731485
 30
0.0
 10
5.845659601
 20
5.2463626992
 30
0.0
 10
5.7364476277
 20
5.2451585925
 30
0.0
 10
5.6536346665
 20
5.24430368
 30
0.0
 10
5.5980007764
 20
5.2437311208
 30
0.0
  0
SPLINE
  5
392
100
AcDbEntity
  8
0
100
AcDbSpline
 62
7
  6
CONTINUOUS
 70
0
 71
3
 72
34
 73
30
 74
0
 42
0.0000001
 43
0.0000001
 44
0.0000000001
 40
0.0
 40
0.0
 40
0.0
 40
0.0
 40
0.0004313245
 40
0.0010031355
 40
0.0025743814
 40
0.0047204062
 40
0.007443143
 40
0.0107414697
 40
0.0146130225
 40
0.0190552184
 40
0.0240653576
 40
0.0357783262
 40
0.0497293866
 40
0.065891098
 40
0.084221127
 40
0.1046740539
 40
0.1272044004
 40
0.1517653582
 40
0.1782978174
 40
0.2067358643
 40
0.2370134971
 40
0.3028160507
 40
0.3750906328
 40
0.4531712661
 40
0.5363298249
 40
0.6237793284
 40
0.7147225482
 40
0.808350164
 40
1.0
 40
1.0
 40
1.0
 40
1.0
 10
6.468710286
 20
5.3160677991
 30
0.0
 10
6.4685925061
 20
5.3160252925
 30
0.0
 10
6.4683116708
 20
5.3159461231
 30
0.0
 10
6.467580759
 20
5.3157896916
 30
0.0
 10
6.4663481939
 20
5.3156063779
 30
0.0
 10
6.4644906123
 20
5.3153955176
 30
0.0
 10
6.4621291086
 20
5.3151815415
 30
0.0
 10
6.4592654599
 20
5.3149639878
 30
0.0
 10
6.455901536
 20
5.3147441546
 30
0.0
 10
6.4520398931
 20
5.3145222718
 30
0.0
 10
6.445903535
 20
5.3142076645
 30
0.0
 10
6.4370070377
 20
5.3138193708
 30
0.0
 10
6.4248731281
 20
5.3133691933
 30
0.0
 10
6.4108172017
 20
5.3129164703
 30
0.0
 10
6.3948729476
 20
5.3124623744
 30
0.0
 10
6.3770791767
 20
5.3120085341
 30
0.0
 10
6.3574759724
 20
5.3115563153
 30
0.0
 10
6.3361073573
 20
5.3111072798
 30
0.0
 10
6.3130232916
 20
5.3106618709
 30
0.0
 10
6.2882792935
 20
5.3102203252
 30
0.0
 10
6.2521360462
 20
5.3096202255
 30
0.0
 10
6.2032672863
 20
5.3088909495
 30
0.0
 10
6.1405214466
 20
5.3080400272
 30
0.0
 10
6.0727369863
 20
5.307162979
 30
0.0
 10
6.0005471758
 20
5.3062578908
 30
0.0
 10
5.9246231218
 20
5.3053440146
 30
0.0
 10
5.845659601
 20
5.3044335654
 30
0.0
 10
5.7364476277
 20
5.3032294587
 30
0.0
 10
5.6536346665
 20
5.3023745461
 30
0.0
 10
5.5980007764
 20
5.301801987
 30
0.0
  0
SPLINE
  5
393
100
AcDbEntity
  8
0
100
AcDbSpline
 62
9
  6
CONTINUOUS
 70
0
 71
3
 72
9
 73
5
 74
0
 42
0.0000001
 43
0.0000001
 44
0.0000000001
 40
0.0
 40
0.0
 40
0.0
 40
0.0
 40
0.503137354
 40
1.0
 40
1.0
 40
1.0
 40
1.0
 10
4.5159494016
 20
4.8738371308
 30
0.0
 10
4.5159494016
 20
4.8723232477
 30
0.0
 10
4.5161769232
 20
4.869310711
 30
0.0
 10
4.5168420674
 20
4.8663629504
 30
0.0
 10
4.5172860605
 20
4.8649353984
 30
0.0
  0
SPLINE
  5
394
100
AcDbEntity
  8
0
100
AcDbSpline
 62
9
  6
CONTINUOUS
 70
0
 71
3
 72
11
 73
7
 74
0
 42
0.0000001
 43
0.0000001
 44
0.0000000001
 40
0.0
 40
0.0
 40
0.0
 40
0.0
 40
0.269624138
 40
0.5267011602
 40
0.7698150096
 40
1.0
 40
1.0
 40
1.0
 40
1.0
 10
4.5172860605
 20
4.8649353984
 30
0.0
 10
4.5177147278
 20
4.8635571228
 30
0.0
 10
4.5187625168
 20
4.8609241007
 30
0.0
 10
4.5209122016
 20
4.8573834251
 30
0.0
 10
4.5235450026
 20
4.8544601112
 30
0.0
 10
4.5256192623
 20
4.8529604218
 30
0.0
 10
4.526699164
 20
4.8523668799
 30
0.0
  0
SPLINE
  5
395
100
AcDbEntity
  8
0
100
AcDbSpline
 62
9
  6
CONTINUOUS
 70
0
 71
3
 72
9
 73
5
 74
0
 42
0.0000001
 43
0.0000001
 44
0.0000000001
 40
0.0
 40
0.0
 40
0.0
 40
0.0
 40
0.5079471332
 40
1.0
 40
1.0
 40
1.0
 40
1.0
 10
4.526699164
 20
4.8523668799
 30
0.0
 10
4.5277292038
 20
4.8518007435
 30
0.0
 10
4.529897499
 20
4.8509218084
 30
0.0
 10
4.5322197445
 20
4.8506087843
 30
0.0
 10
4.5333583348
 20
4.8506087843
 30
0.0
  0
SPLINE
  5
396
100
AcDbEntity
  8
0
100
AcDbSpline
 62
7
  6
CONTINUOUS
 70
0
 71
3
 72
34
 73
30
 74
0
 42
0.0000001
 43
0.0000001
 44
0.0000000001
 40
0.0
 40
0.0
 40
0.0
 40
0.0
 40
0.0004313245
 40
0.0010031355
 40
0.0025743814
 40
0.0047204062
 40
0.007443143
 40
0.0107414697
 40
0.0146130225
 40
0.0190552184
 40
0.0240653576
 40
0.0357783262
 40
0.0497293866
 40
0.065891098
 40
0.084221127
 40
0.1046740539
 40
0.1272044004
 40
0.1517653582
 40
0.1782978174
 40
0.2067358643
 40
0.2370134971
 40
0.3028160507
 40
0.3750906328
 40
0.4531712661
 40
0.5363298249
 40
0.6237793284
 40
0.7147225482
 40
0.808350164
 40
1.0
 40
1.0
 40
1.0
 40
1.0
 10
6.468710286
 20
5.4322095314
 30
0.0
 10
6.4685925061
 20
5.4321670248
 30
0.0
 10
6.4683116708
 20
5.4320878554
 30
0.0
 10
6.467580759
 20
5.4319314238
 30
0.0
 10
6.4663481939
 20
5.4317481102
 30
0.0
 10
6.4644906123
 20
5.4315372499
 30
0.0
 10
6.4621291086
 20
5.4313232738
 30
0.0
 10
6.4592654599
 20
5.4311057201
 30
0.0
 10
6.455901536
 20
5.4308858869
 30
0.0
 10
6.4520398931
 20
5.4306640041
 30
0.0
 10
6.445903535
 20
5.4303493968
 30
0.0
 10
6.4370070377
 20
5.4299611031
 30
0.0
 10
6.4248731281
 20
5.4295109255
 30
0.0
 10
6.4108172017
 20
5.4290582026
 30
0.0
 10
6.3948729476
 20
5.4286041067
 30
0.0
 10
6.3770791767
 20
5.4281502663
 30
0.0
 10
6.3574759724
 20
5.4276980476
 30
0.0
 10
6.3361073573
 20
5.4272490121
 30
0.0
 10
6.3130232916
 20
5.4268036031
 30
0.0
 10
6.2882792935
 20
5.4263620575
 30
0.0
 10
6.2521360462
 20
5.4257619577
 30
0.0
 10
6.2032672863
 20
5.4250326818
 30
0.0
 10
6.1405214466
 20
5.4241817595
 30
0.0
 10
6.0727369863
 20
5.4233047113
 30
0.0
 10
6.0005471758
 20
5.4223996231
 30
0.0
 10
5.9246231218
 20
5.4214857469
 30
0.0
 10
5.845659601
 20
5.4205752976
 30
0.0
 10
5.7364476277
 20
5.419371191
 30
0.0
 10
5.6536346665
 20
5.4185162784
 30
0.0
 10
5.5980007764
 20
5.4179437192
 30
0.0
  0
LINE
  5
397
100
AcDbEntity
  8
0
100
AcDbLine
 62
9
  6
CONTINUOUS
 10
4.5105927199
 20
4.8738312263
 11
4.5159494016
 21
4.8738371308
  0
SPLINE
  5
398
100
AcDbEntity
  8
0
100
AcDbSpline
 62
7
  6
CONTINUOUS
 70
0
 71
3
 72
34
 73
30
 74
0
 42
0.0000001
 43
0.0000001
 44
0.0000000001
 40
0.0
 40
0.0
 40
0.0
 40
0.0
 40
0.0004313245
 40
0.0010031355
 40
0.0025743814
 40
0.0047204062
 40
0.007443143
 40
0.0107414697
 40
0.0146130225
 40
0.0190552184
 40
0.0240653576
 40
0.0357783262
 40
0.0497293866
 40
0.065891098
 40
0.084221127
 40
0.1046740539
 40
0.1272044004
 40
0.1517653582
 40
0.1782978174
 40
0.2067358643
 40
0.2370134971
 40
0.3028160507
 40
0.3750906328
 40
0.4531712661
 40
0.5363298249
 40
0.6237793284
 40
0.7147225482
 40
0.808350164
 40
1.0
 40
1.0
 40
1.0
 40
1.0
 10
6.468710286
 20
5.4902803975
 30
0.0
 10
6.4685925061
 20
5.4902378909
 30
0.0
 10
6.4683116708
 20
5.4901587215
 30
0.0
 10
6.467580759
 20
5.49000229
 30
0.0
 10
6.4663481939
 20
5.4898189763
 30
0.0
 10
6.4644906123
 20
5.489608116
 30
0.0
 10
6.4621291086
 20
5.48939414
 30
0.0
 10
6.4592654599
 20
5.4891765862
 30
0.0
 10
6.455901536
 20
5.488956753
 30
0.0
 10
6.4520398931
 20
5.4887348702
 30
0.0
 10
6.445903535
 20
5.488420263
 30
0.0
 10
6.4370070377
 20
5.4880319692
 30
0.0
 10
6.4248731281
 20
5.4875817917
 30
0.0
 10
6.4108172017
 20
5.4871290687
 30
0.0
 10
6.3948729476
 20
5.4866749728
 30
0.0
 10
6.3770791767
 20
5.4862211325
 30
0.0
 10
6.3574759724
 20
5.4857689137
 30
0.0
 10
6.3361073573
 20
5.4853198782
 30
0.0
 10
6.3130232916
 20
5.4848744693
 30
0.0
 10
6.2882792935
 20
5.4844329236
 30
0.0
 10
6.2521360462
 20
5.4838328239
 30
0.0
 10
6.2032672863
 20
5.4831035479
 30
0.0
 10
6.1405214466
 20
5.4822526256
 30
0.0
 10
6.0727369863
 20
5.4813755774
 30
0.0
 10
6.0005471758
 20
5.4804704892
 30
0.0
 10
5.9246231218
 20
5.4795566131
 30
0.0
 10
5.845659601
 20
5.4786461638
 30
0.0
 10
5.7364476277
 20
5.4774420571
 30
0.0
 10
5.6536346665
 20
5.4765871445
 30
0.0
 10
5.5980007764
 20
5.4760145854
 30
0.0
  0
SPLINE
  5
399
100
AcDbEntity
  8
0
100
AcDbSpline
 62
7
  6
CONTINUOUS
 70
0
 71
3
 72
34
 73
30
 74
0
 42
0.0000001
 43
0.0000001
 44
0.0000000001
 40
0.0
 40
0.0
 40
0.0
 40
0.0
 40
0.0004314896
 40
0.0010035784
 40
0.0025759257
 40
0.004723568
 40
0.0074467741
 40
0.0107442433
 40
0.0146141993
 40
0.0190546375
 40
0.02406343
 40
0.0296383766
 40
0.0357772225
 40
0.0497325047
 40
0.0658927136
 40
0.0842189701
 40
0.1046722617
 40
0.1272074488
 40
0.1517679661
 40
0.1782959715
 40
0.2370154843
 40
0.302816042
 40
0.3750917678
 40
0.45316843
 40
0.5363279633
 40
0.623785862
 40
0.7147286792
 40
0.8083391982
 40
1.0
 40
1.0
 40
1.0
 40
1.0
 10
6.4687124842
 20
5.5483414277
 30
0.0
 10
6.4685947163
 20
5.5482987464
 30
0.0
 10
6.4683138137
 20
5.5482193087
 30
0.0
 10
6.4675825091
 20
5.5480625537
 30
0.0
 10
6.4663490209
 20
5.5478793975
 30
0.0
 10
6.4644903926
 20
5.547669525
 30
0.0
 10
6.4621283427
 20
5.547457542
 30
0.0
 10
6.459265054
 20
5.5472428208
 30
0.0
 10
6.4559021332
 20
5.5470263401
 30
0.0
 10
6.4520416485
 20
5.5468080407
 30
0.0
 10
6.4476855848
 20
5.5465880144
 30
0.0
 10
6.4428359904
 20
5.5463661817
 30
0.0
 10
6.4353906382
 20
5.5460544056
 30
0.0
 10
6.4248729392
 20
5.5456657275
 30
0.0
 10
6.4108173674
 20
5.5452112165
 30
0.0
 10
6.3948746108
 20
5.5447537117
 30
0.0
 10
6.3770805018
 20
5.5442958121
 30
0.0
 10
6.3574759706
 20
5.5438398498
 30
0.0
 10
6.3361074155
 20
5.5433871775
 30
0.0
 10
6.3042355697
 20
5.5427687813
 30
0.0
 10
6.2603917939
 20
5.5420251161
 30
0.0
 10
6.2032672836
 20
5.5411749092
 30
0.0
 10
6.1405228034
 20
5.5403197724
 30
0.0
 10
6.0727387107
 20
5.5394480465
 30
0.0
 10
6.0005471758
 20
5.538546973
 30
0.0
 10
5.9246204406
 20
5.5376301963
 30
0.0
 10
5.8456594791
 20
5.5367167961
 30
0.0
 10
5.7364492825
 20
5.5355087338
 30
0.0
 10
5.6536379328
 20
5.5346580443
 30
0.0
 10
5.5980007764
 20
5.5340854515
 30
0.0
  0
SPLINE
  5
39A
100
AcDbEntity
  8
0
100
AcDbSpline
 62
7
  6
CONTINUOUS
 70
0
 71
3
 72
34
 73
30
 74
0
 42
0.0000001
 43
0.0000001
 44
0.0000000001
 40
0.0
 40
0.0
 40
0.0
 40
0.0
 40
0.0004313245
 40
0.0010031355
 40
0.0025743814
 40
0.0047204062
 40
0.007443143
 40
0.0107414697
 40
0.0146130225
 40
0.0190552184
 40
0.0240653576
 40
0.0357783262
 40
0.0497293866
 40
0.065891098
 40
0.084221127
 40
0.1046740539
 40
0.1272044004
 40
0.1517653582
 40
0.1782978174
 40
0.2067358643
 40
0.2370134971
 40
0.3028160507
 40
0.3750906328
 40
0.4531712661
 40
0.5363298249
 40
0.6237793284
 40
0.7147225482
 40
0.808350164
 40
1.0
 40
1.0
 40
1.0
 40
1.0
 10
6.468710286
 20
6.1290599251
 30
0.0
 10
6.4685925061
 20
6.1290174185
 30
0.0
 10
6.4683116708
 20
6.1289382491
 30
0.0
 10
6.467580759
 20
6.1287818175
 30
0.0
 10
6.4663481939
 20
6.1285985039
 30
0.0
 10
6.4644906123
 20
6.1283876436
 30
0.0
 10
6.4621291086
 20
6.1281736675
 30
0.0
 10
6.4592654599
 20
6.1279561138
 30
0.0
 10
6.455901536
 20
6.1277362806
 30
0.0
 10
6.4520398931
 20
6.1275143978
 30
0.0
 10
6.445903535
 20
6.1271997905
 30
0.0
 10
6.4370070377
 20
6.1268114968
 30
0.0
 10
6.4248731281
 20
6.1263613192
 30
0.0
 10
6.4108172017
 20
6.1259085963
 30
0.0
 10
6.3948729476
 20
6.1254545004
 30
0.0
 10
6.3770791767
 20
6.12500066
 30
0.0
 10
6.3574759724
 20
6.1245484413
 30
0.0
 10
6.3361073573
 20
6.1240994058
 30
0.0
 10
6.3130232916
 20
6.1236539968
 30
0.0
 10
6.2882792935
 20
6.1232124512
 30
0.0
 10
6.2521360462
 20
6.1226123514
 30
0.0
 10
6.2032672863
 20
6.1218830755
 30
0.0
 10
6.1405214466
 20
6.1210321532
 30
0.0
 10
6.0727369863
 20
6.120155105
 30
0.0
 10
6.0005471758
 20
6.1192500168
 30
0.0
 10
5.9246231218
 20
6.1183361406
 30
0.0
 10
5.845659601
 20
6.1174256913
 30
0.0
 10
5.7364476277
 20
6.1162215847
 30
0.0
 10
5.6536346665
 20
6.1153666721
 30
0.0
 10
5.5980007764
 20
6.1147941129
 30
0.0
  0
SPLINE
  5
39B
100
AcDbEntity
  8
0
100
AcDbSpline
 62
9
  6
CONTINUOUS
 70
0
 71
3
 72
15
 73
11
 74
0
 42
0.0000001
 43
0.0000001
 44
0.0000000001
 40
0.0
 40
0.0
 40
0.0
 40
0.0
 40
0.1279893779
 40
0.255986029
 40
0.3829205912
 40
0.5085887678
 40
0.6330066739
 40
0.7562833075
 40
0.878624821
 40
1.0
 40
1.0
 40
1.0
 40
1.0
 10
6.3391843373
 20
4.8738371308
 30
0.0
 10
6.3391843373
 20
4.8723231188
 30
0.0
 10
6.3388982194
 20
4.8692882397
 30
0.0
 10
6.3376516174
 20
4.8649070449
 30
0.0
 10
6.3356035387
 20
4.8608661918
 30
0.0
 10
6.3328504054
 20
4.8573219887
 30
0.0
 10
6.3294883607
 20
4.8544138628
 30
0.0
 10
6.3256521843
 20
4.8522434107
 30
0.0
 10
6.3214888022
 20
4.8509145536
 30
0.0
 10
6.3185978403
 20
4.8506087843
 30
0.0
 10
6.317162069
 20
4.8506087843
 30
0.0
  0
SPLINE
  5
39C
100
AcDbEntity
  8
0
100
AcDbSpline
 62
9
  6
CONTINUOUS
 70
0
 71
3
 72
20
 73
16
 74
0
 42
0.0000001
 43
0.0000001
 44
0.0000000001
 40
0.0
 40
0.0
 40
0.0
 40
0.0
 40
0.0189849403
 40
0.0298433326
 40
0.0420251637
 40
0.0710742037
 40
0.1070804562
 40
0.1503571175
 40
0.2009513929
 40
0.2586069221
 40
0.3228709143
 40
0.4691695417
 40
0.6354246125
 40
0.8150297357
 40
1.0
 40
1.0
 40
1.0
 40
1.0
 10
6.317162069
 20
4.8506087843
 30
0.0
 10
6.3173163177
 20
4.8506087843
 30
0.0
 10
6.3175604713
 20
4.8506783399
 30
0.0
 10
6.3178473719
 20
4.8508643912
 30
0.0
 10
6.3181639395
 20
4.8511478523
 30
0.0
 10
6.3185451873
 20
4.8516521349
 30
0.0
 10
6.3189660059
 20
4.852427076
 30
0.0
 10
6.3193708741
 20
4.8534032148
 30
0.0
 10
6.3197540962
 20
4.8545740417
 30
0.0
 10
6.3201128199
 20
4.8559296336
 30
0.0
 10
6.3205747508
 20
4.8580598953
 30
0.0
 10
6.321053487
 20
4.861086219
 30
0.0
 10
6.3214628669
 20
4.8650652912
 30
0.0
 10
6.321716221
 20
4.8693718994
 30
0.0
 10
6.3217754041
 20
4.8723342865
 30
0.0
 10
6.3217754041
 20
4.8738371308
 30
0.0
  0
SPLINE
  5
39D
100
AcDbEntity
  8
0
100
AcDbSpline
 62
7
  6
CONTINUOUS
 70
0
 71
3
 72
34
 73
30
 74
0
 42
0.0000001
 43
0.0000001
 44
0.0000000001
 40
0.0
 40
0.0
 40
0.0
 40
0.0
 40
0.0004313245
 40
0.0010031355
 40
0.0025743814
 40
0.0047204062
 40
0.007443143
 40
0.0107414697
 40
0.0146130225
 40
0.0190552184
 40
0.0240653576
 40
0.0357783262
 40
0.0497293866
 40
0.065891098
 40
0.084221127
 40
0.1046740539
 40
0.1272044004
 40
0.1517653582
 40
0.1782978174
 40
0.2067358643
 40
0.2370134971
 40
0.3028160507
 40
0.3750906328
 40
0.4531712661
 40
0.5363298249
 40
0.6237793284
 40
0.7147225482
 40
0.808350164
 40
1.0
 40
1.0
 40
1.0
 40
1.0
 10
6.468710286
 20
6.1871307912
 30
0.0
 10
6.4685925061
 20
6.1870882846
 30
0.0
 10
6.4683116708
 20
6.1870091152
 30
0.0
 10
6.467580759
 20
6.1868526837
 30
0.0
 10
6.4663481939
 20
6.18666937
 30
0.0
 10
6.4644906123
 20
6.1864585097
 30
0.0
 10
6.4621291086
 20
6.1862445337
 30
0.0
 10
6.4592654599
 20
6.1860269799
 30
0.0
 10
6.455901536
 20
6.1858071467
 30
0.0
 10
6.4520398931
 20
6.1855852639
 30
0.0
 10
6.445903535
 20
6.1852706567
 30
0.0
 10
6.4370070377
 20
6.1848823629
 30
0.0
 10
6.4248731281
 20
6.1844321854
 30
0.0
 10
6.4108172017
 20
6.1839794624
 30
0.0
 10
6.3948729476
 20
6.1835253665
 30
0.0
 10
6.3770791767
 20
6.1830715262
 30
0.0
 10
6.3574759724
 20
6.1826193074
 30
0.0
 10
6.3361073573
 20
6.1821702719
 30
0.0
 10
6.3130232916
 20
6.181724863
 30
0.0
 10
6.2882792935
 20
6.1812833173
 30
0.0
 10
6.2521360462
 20
6.1806832176
 30
0.0
 10
6.2032672863
 20
6.1799539416
 30
0.0
 10
6.1405214466
 20
6.1791030193
 30
0.0
 10
6.0727369863
 20
6.1782259711
 30
0.0
 10
6.0005471758
 20
6.1773208829
 30
0.0
 10
5.9246231218
 20
6.1764070068
 30
0.0
 10
5.845659601
 20
6.1754965575
 30
0.0
 10
5.7364476277
 20
6.1742924508
 30
0.0
 10
5.6536346665
 20
6.1734375382
 30
0.0
 10
5.5980007764
 20
6.1728649791
 30
0.0
  0
LINE
  5
39E
100
AcDbEntity
  8
0
100
AcDbLine
 62
9
  6
CONTINUOUS
 10
6.3217754041
 20
4.8738371308
 11
6.3391843374
 21
4.8738371308
  0
SPLINE
  5
39F
100
AcDbEntity
  8
0
100
AcDbSpline
 62
7
  6
CONTINUOUS
 70
0
 71
3
 72
34
 73
30
 74
0
 42
0.0000001
 43
0.0000001
 44
0.0000000001
 40
0.0
 40
0.0
 40
0.0
 40
0.0
 40
0.0004313245
 40
0.0010031355
 40
0.0025743814
 40
0.0047204062
 40
0.007443143
 40
0.0107414697
 40
0.0146130225
 40
0.0190552184
 40
0.0240653576
 40
0.0357783262
 40
0.0497293866
 40
0.065891098
 40
0.084221127
 40
0.1046740539
 40
0.1272044004
 40
0.1517653582
 40
0.1782978174
 40
0.2067358643
 40
0.2370134971
 40
0.3028160507
 40
0.3750906328
 40
0.4531712661
 40
0.5363298249
 40
0.6237793284
 40
0.7147225482
 40
0.808350164
 40
1.0
 40
1.0
 40
1.0
 40
1.0
 10
6.468710286
 20
6.2452016574
 30
0.0
 10
6.4685925061
 20
6.2451591508
 30
0.0
 10
6.4683116708
 20
6.2450799814
 30
0.0
 10
6.467580759
 20
6.2449235498
 30
0.0
 10
6.4663481939
 20
6.2447402362
 30
0.0
 10
6.4644906123
 20
6.2445293758
 30
0.0
 10
6.4621291086
 20
6.2443153998
 30
0.0
 10
6.4592654599
 20
6.2440978461
 30
0.0
 10
6.455901536
 20
6.2438780128
 30
0.0
 10
6.4520398931
 20
6.2436561301
 30
0.0
 10
6.445903535
 20
6.2433415228
 30
0.0
 10
6.4370070377
 20
6.2429532291
 30
0.0
 10
6.4248731281
 20
6.2425030515
 30
0.0
 10
6.4108172017
 20
6.2420503285
 30
0.0
 10
6.3948729476
 20
6.2415962326
 30
0.0
 10
6.3770791767
 20
6.2411423923
 30
0.0
 10
6.3574759724
 20
6.2406901736
 30
0.0
 10
6.3361073573
 20
6.2402411381
 30
0.0
 10
6.3130232916
 20
6.2397957291
 30
0.0
 10
6.2882792935
 20
6.2393541835
 30
0.0
 10
6.2521360462
 20
6.2387540837
 30
0.0
 10
6.2032672863
 20
6.2380248077
 30
0.0
 10
6.1405214466
 20
6.2371738854
 30
0.0
 10
6.0727369863
 20
6.2362968373
 30
0.0
 10
6.0005471758
 20
6.2353917491
 30
0.0
 10
5.9246231218
 20
6.2344778729
 30
0.0
 10
5.845659601
 20
6.2335674236
 30
0.0
 10
5.7364476277
 20
6.232363317
 30
0.0
 10
5.6536346665
 20
6.2315084044
 30
0.0
 10
5.5980007764
 20
6.2309358452
 30
0.0
  0
SPLINE
  5
3A0
100
AcDbEntity
  8
0
100
AcDbSpline
 62
9
  6
CONTINUOUS
 70
0
 71
3
 72
15
 73
11
 74
0
 42
0.0000001
 43
0.0000001
 44
0.0000000001
 40
0.0
 40
0.0
 40
0.0
 40
0.0
 40
0.1065306762
 40
0.216485468
 40
0.3320903827
 40
0.4543963636
 40
0.5834802769
 40
0.7186352695
 40
0.8584148205
 40
1.0
 40
1.0
 40
1.0
 40
1.0
 10
5.2525196274
 20
4.8506087843
 30
0.0
 10
5.2513823666
 20
4.8506087843
 30
0.0
 10
5.2490613841
 20
4.8509231542
 30
0.0
 10
5.2457495834
 20
4.8522811489
 30
0.0
 10
5.2427147322
 20
4.8544749923
 30
0.0
 10
5.2400640301
 20
4.8573942851
 30
0.0
 10
5.237902977
 20
4.8609355437
 30
0.0
 10
5.2363012175
 20
4.8649612164
 30
0.0
 10
5.2353316998
 20
4.8693176959
 30
0.0
 10
5.2351106942
 20
4.872325648
 30
0.0
 10
5.2351106942
 20
4.8738371308
 30
0.0
  0
LINE
  5
3A1
100
AcDbEntity
  8
0
100
AcDbLine
 62
9
  6
CONTINUOUS
 10
5.2351106942
 20
4.8738371308
 11
5.2571329626
 21
4.8738371301
  0
SPLINE
  5
3A2
100
AcDbEntity
  8
0
100
AcDbSpline
 62
9
  6
CONTINUOUS
 70
0
 71
3
 72
20
 73
16
 74
0
 42
0.0000001
 43
0.0000001
 44
0.0000000001
 40
0.0
 40
0.0
 40
0.0
 40
0.0
 40
0.1849702643
 40
0.3645753875
 40
0.5308304583
 40
0.6771290856
 40
0.7413930777
 40
0.7990486068
 40
0.8496428821
 40
0.8929195432
 40
0.9289257954
 40
0.9579748353
 40
0.9701566664
 40
0.9810150588
 40
1.0
 40
1.0
 40
1.0
 40
1.0
 10
5.2571329626
 20
4.8738371308
 30
0.0
 10
5.2571329625
 20
4.8723342865
 30
0.0
 10
5.2570737794
 20
4.8693718994
 30
0.0
 10
5.2568204253
 20
4.8650652912
 30
0.0
 10
5.2564110454
 20
4.861086219
 30
0.0
 10
5.2559323092
 20
4.8580598953
 30
0.0
 10
5.2554703783
 20
4.8559296336
 30
0.0
 10
5.2551116546
 20
4.8545740417
 30
0.0
 10
5.2547284325
 20
4.8534032148
 30
0.0
 10
5.2543235643
 20
4.852427076
 30
0.0
 10
5.2539027457
 20
4.8516521349
 30
0.0
 10
5.2535214979
 20
4.8511478523
 30
0.0
 10
5.2532049304
 20
4.8508643912
 30
0.0
 10
5.2529180297
 20
4.8506783399
 30
0.0
 10
5.2526738761
 20
4.8506087843
 30
0.0
 10
5.2525196274
 20
4.8506087843
 30
0.0
  0
SPLINE
  5
3A3
100
AcDbEntity
  8
0
100
AcDbSpline
 62
7
  6
CONTINUOUS
 70
0
 71
3
 72
34
 73
30
 74
0
 42
0.0000001
 43
0.0000001
 44
0.0000000001
 40
0.0
 40
0.0
 40
0.0
 40
0.0
 40
0.0004313245
 40
0.0010031355
 40
0.0025743814
 40
0.0047204062
 40
0.007443143
 40
0.0107414697
 40
0.0146130225
 40
0.0190552184
 40
0.0240653576
 40
0.0357783262
 40
0.0497293866
 40
0.065891098
 40
0.084221127
 40
0.1046740539
 40
0.1272044004
 40
0.1517653582
 40
0.1782978174
 40
0.2067358643
 40
0.2370134971
 40
0.3028160507
 40
0.3750906328
 40
0.4531712661
 40
0.5363298249
 40
0.6237793284
 40
0.7147225482
 40
0.808350164
 40
1.0
 40
1.0
 40
1.0
 40
1.0
 10
6.468710286
 20
6.3032725235
 30
0.0
 10
6.4685925061
 20
6.3032300169
 30
0.0
 10
6.4683116708
 20
6.3031508475
 30
0.0
 10
6.467580759
 20
6.302994416
 30
0.0
 10
6.4663481939
 20
6.3028111023
 30
0.0
 10
6.4644906123
 20
6.302600242
 30
0.0
 10
6.4621291086
 20
6.3023862659
 30
0.0
 10
6.4592654599
 20
6.3021687122
 30
0.0
 10
6.455901536
 20
6.301948879
 30
0.0
 10
6.4520398931
 20
6.3017269962
 30
0.0
 10
6.445903535
 20
6.3014123889
 30
0.0
 10
6.4370070377
 20
6.3010240952
 30
0.0
 10
6.4248731281
 20
6.3005739177
 30
0.0
 10
6.4108172017
 20
6.3001211947
 30
0.0
 10
6.3948729476
 20
6.2996670988
 30
0.0
 10
6.3770791767
 20
6.2992132585
 30
0.0
 10
6.3574759724
 20
6.2987610397
 30
0.0
 10
6.3361073573
 20
6.2983120042
 30
0.0
 10
6.3130232916
 20
6.2978665953
 30
0.0
 10
6.2882792935
 20
6.2974250496
 30
0.0
 10
6.2521360462
 20
6.2968249499
 30
0.0
 10
6.2032672863
 20
6.2960956739
 30
0.0
 10
6.1405214466
 20
6.2952447516
 30
0.0
 10
6.0727369863
 20
6.2943677034
 30
0.0
 10
6.0005471758
 20
6.2934626152
 30
0.0
 10
5.9246231218
 20
6.292548739
 30
0.0
 10
5.845659601
 20
6.2916382898
 30
0.0
 10
5.7364476277
 20
6.2904341831
 30
0.0
 10
5.6536346665
 20
6.2895792705
 30
0.0
 10
5.5980007764
 20
6.2890067114
 30
0.0
  0
SPLINE
  5
3A4
100
AcDbEntity
  8
0
100
AcDbSpline
 62
7
  6
CONTINUOUS
 70
0
 71
3
 72
20
 73
16
 74
0
 42
0.0000001
 43
0.0000001
 44
0.0000000001
 40
0.0
 40
0.0
 40
0.0
 40
0.0
 40
0.0058578907
 40
0.0133391054
 40
0.0332322628
 40
0.05974998
 40
0.0929163702
 40
0.1327220409
 40
0.1791405244
 40
0.2321425539
 40
0.291697391
 40
0.4303381474
 40
0.5948046882
 40
0.7848250918
 40
1.0
 40
1.0
 40
1.0
 40
1.0
 10
4.75987578
 20
4.6130483276
 30
0.0
 10
4.7599932491
 20
4.613087118
 30
0.0
 10
4.7602655102
 20
4.6131607689
 30
0.0
 10
4.7609521818
 20
4.613306339
 30
0.0
 10
4.76207787
 20
4.6134788054
 30
0.0
 10
4.7637467472
 20
4.6136765604
 30
0.0
 10
4.7658384074
 20
4.6138767987
 30
0.0
 10
4.7683515781
 20
4.6140797422
 30
0.0
 10
4.7712846942
 20
4.6142845164
 30
0.0
 10
4.7746356386
 20
4.614490949
 30
0.0
 10
4.7799324602
 20
4.6147830103
 30
0.0
 10
4.7875828352
 20
4.615143729
 30
0.0
 10
4.7979884135
 20
4.615562735
 30
0.0
 10
4.8100112631
 20
4.6159851254
 30
0.0
 10
4.8185641168
 20
4.6162517779
 30
0.0
 10
4.8231062211
 20
4.6163865595
 30
0.0
  0
LINE
  5
3A5
100
AcDbEntity
  8
0
100
AcDbLine
 62
7
  6
CONTINUOUS
 10
4.9040669764
 20
4.6183037468
 11
4.9108019972
 21
4.6184339955
  0
SPLINE
  5
3A6
100
AcDbEntity
  8
0
100
AcDbSpline
 62
7
  6
CONTINUOUS
 70
0
 71
3
 72
21
 73
17
 74
0
 42
0.0000001
 43
0.0000001
 44
0.0000000001
 40
0.0
 40
0.0
 40
0.0
 40
0.0
 40
0.0454834407
 40
0.0975214655
 40
0.1553585487
 40
0.2181670518
 40
0.3549917921
 40
0.4270366838
 40
0.5001308713
 40
0.6452507461
 40
0.7151861782
 40
0.7820236441
 40
0.8447953724
 40
0.9025942001
 40
0.9545794054
 40
1.0
 40
1.0
 40
1.0
 40
1.0
 10
4.9108019972
 20
4.6184339955
 30
0.0
 10
4.9316451912
 20
4.6188324189
 30
0.0
 10
4.9763369295
 20
4.6196000942
 30
0.0
 10
5.0475365264
 20
4.6206593658
 30
0.0
 10
5.1266774933
 20
4.6217352
 30
0.0
 10
5.2446771428
 20
4.6232706222
 30
0.0
 10
5.3691897594
 20
4.6247764758
 30
0.0
 10
5.4984178005
 20
4.6262157379
 30
0.0
 10
5.6314482919
 20
4.6276349594
 30
0.0
 10
5.7635118938
 20
4.6290542471
 30
0.0
 10
5.8927063863
 20
4.6305797023
 30
0.0
 10
5.9841591467
 20
4.6317161012
 30
0.0
 10
6.0700490328
 20
4.6328291164
 30
0.0
 10
6.1491313069
 20
4.6339113971
 30
0.0
 10
6.2202604024
 20
4.6349666921
 30
0.0
 10
6.2648991351
 20
4.6357337876
 30
0.0
 10
6.2857134905
 20
4.6361336838
 30
0.0
  0
LINE
  5
3A7
100
AcDbEntity
  8
0
100
AcDbLine
 62
7
  6
CONTINUOUS
 10
6.2857134905
 20
4.6361336838
 11
6.2923713595
 21
4.6362630905
  0
SPLINE
  5
3A8
100
AcDbEntity
  8
0
100
AcDbSpline
 62
7
  6
CONTINUOUS
 70
0
 71
3
 72
32
 73
28
 74
0
 42
0.0000001
 43
0.0000001
 44
0.0000000001
 40
0.0
 40
0.0
 40
0.0
 40
0.0
 40
0.2285868872
 40
0.3325228382
 40
0.4293436138
 40
0.5189192304
 40
0.60114359
 40
0.675911512
 40
0.7431179833
 40
0.8026582518
 40
0.8544331305
 40
0.8983818208
 40
0.9174080558
 40
0.9344620615
 40
0.9495391079
 40
0.9626349607
 40
0.973746239
 40
0.9828711638
 40
0.986689204
 40
0.9900118146
 40
0.9928406232
 40
0.9951787588
 40
0.9970327136
 40
0.998416906
 40
0.9989433387
 40
0.9993701814
 40
1.0
 40
1.0
 40
1.0
 40
1.0
 10
6.2923713595
 20
4.6362630905
 30
0.0
 10
6.3033745755
 20
4.6364794773
 30
0.0
 10
6.3193804957
 20
4.6368123539
 30
0.0
 10
6.3400457238
 20
4.6372926663
 30
0.0
 10
6.3540194171
 20
4.6376434543
 30
0.0
 10
6.3669474092
 20
4.6379956997
 30
0.0
 10
6.3788132272
 20
4.6383482888
 30
0.0
 10
6.3896015837
 20
4.6387001985
 30
0.0
 10
6.3992972338
 20
4.6390503546
 30
0.0
 10
6.407885197
 20
4.6393976127
 30
0.0
 10
6.4153525484
 20
4.6397408732
 30
0.0
 10
6.4208694235
 20
4.6400354474
 30
0.0
 10
6.4247150764
 20
4.640273691
 30
0.0
 10
6.4271722622
 20
4.6404428054
 30
0.0
 10
6.4293432416
 20
4.6406110135
 30
0.0
 10
6.4312272402
 20
4.640778187
 30
0.0
 10
6.4328234587
 20
4.6409442795
 30
0.0
 10
6.433972711
 20
4.6410885229
 30
0.0
 10
6.4347469068
 20
4.6412066305
 30
0.0
 10
6.4352197284
 20
4.6412895577
 30
0.0
 10
6.4356200939
 20
4.6413721342
 30
0.0
 10
6.4359482319
 20
4.641454043
 30
0.0
 10
6.4362041843
 20
4.6415355698
 30
0.0
 10
6.4363714088
 20
4.6416071456
 30
0.0
 10
6.4364666673
 20
4.6416682314
 30
0.0
 10
6.4365239376
 20
4.6417177081
 30
0.0
 10
6.4365510929
 20
4.6417671286
 30
0.0
 10
6.436551089
 20
4.6417974513
 30
0.0
  0
SPLINE
  5
3A9
100
AcDbEntity
  8
0
100
AcDbSpline
 62
7
  6
CONTINUOUS
 70
0
 71
3
 72
14
 73
10
 74
0
 42
0.0000001
 43
0.0000001
 44
0.0000000001
 40
0.0
 40
0.0
 40
0.0
 40
0.0
 40
0.0458010434
 40
0.1140683429
 40
0.2049857231
 40
0.3186046275
 40
0.4549320692
 40
0.6139560212
 40
1.0
 40
1.0
 40
1.0
 40
1.0
 10
4.7489586396
 20
4.6094264329
 30
0.0
 10
4.7491076728
 20
4.6094757477
 30
0.0
 10
4.7494910432
 20
4.6095588622
 30
0.0
 10
4.7501849412
 20
4.609666914
 30
0.0
 10
4.7511139385
 20
4.6097759496
 30
0.0
 10
4.7522769258
 20
4.6098868055
 30
0.0
 10
4.7536742691
 20
4.6099984054
 30
0.0
 10
4.7560042109
 20
4.6101588329
 30
0.0
 10
4.7578695643
 20
4.610263224
 30
0.0
 10
4.759190938
 20
4.6103316237
 30
0.0
  0
LINE
  5
3AA
100
AcDbEntity
  8
0
100
AcDbLine
 62
7
  6
CONTINUOUS
 10
4.7595044855
 20
4.6103477405
 11
4.7690910294
 21
4.6107636541
  0
SPLINE
  5
3AB
100
AcDbEntity
  8
0
100
AcDbSpline
 62
7
  6
CONTINUOUS
 70
0
 71
3
 72
11
 73
7
 74
0
 42
0.0000001
 43
0.0000001
 44
0.0000000001
 40
0.0
 40
0.0
 40
0.0
 40
0.0
 40
0.1843687757
 40
0.4130681735
 40
0.6853200461
 40
1.0
 40
1.0
 40
1.0
 40
1.0
 10
4.7690910294
 20
4.6107636541
 30
0.0
 10
4.7734556878
 20
4.6109286175
 30
0.0
 10
4.7832364169
 20
4.6112461574
 30
0.0
 10
4.7994662143
 20
4.6116788161
 30
0.0
 10
4.8187839996
 20
4.6121144101
 30
0.0
 10
4.8326860259
 20
4.6123860978
 30
0.0
 10
4.8401396593
 20
4.6125236157
 30
0.0
  0
SPLINE
  5
3AC
100
AcDbEntity
  8
0
100
AcDbSpline
 62
7
  6
CONTINUOUS
 70
0
 71
3
 72
23
 73
19
 74
0
 42
0.0000001
 43
0.0000001
 44
0.0000000001
 40
0.0
 40
0.0
 40
0.0
 40
0.0
 40
0.0379274896
 40
0.0837574773
 40
0.1367394778
 40
0.1959954395
 40
0.2605589808
 40
0.3293917187
 40
0.4013890917
 40
0.475394928
 40
0.5502204881
 40
0.6246664932
 40
0.6975516975
 40
0.7677218698
 40
0.8340616215
 40
0.8955172805
 40
0.9511174802
 40
1.0
 40
1.0
 40
1.0
 40
1.0
 10
4.8401396593
 20
4.6125236157
 30
0.0
 10
4.8584990595
 20
4.6128623426
 30
0.0
 10
4.8990451264
 20
4.6135046421
 30
0.0
 10
4.9652417964
 20
4.6143610266
 30
0.0
 10
5.0417655226
 20
4.615201509
 30
0.0
 10
5.1273593834
 20
4.6160562204
 30
0.0
 10
5.2206274743
 20
4.6169353404
 30
0.0
 10
5.320064361
 20
4.6178357792
 30
0.0
 10
5.4240729572
 20
4.6187294106
 30
0.0
 10
5.5309832717
 20
4.6195986692
 30
0.0
 10
5.6390793579
 20
4.6204381781
 30
0.0
 10
5.7466328325
 20
4.621283226
 30
0.0
 10
5.8519321445
 20
4.6221527062
 30
0.0
 10
5.9533064368
 20
4.6230511813
 30
0.0
 10
6.0491469502
 20
4.6239445967
 30
0.0
 10
6.1379333871
 20
4.6248098851
 30
0.0
 10
6.2182678736
 20
4.6256392491
 30
0.0
 10
6.2688495563
 20
4.6262321376
 30
0.0
 10
6.2925139324
 20
4.6265403106
 30
0.0
  0
SPLINE
  5
3AD
100
AcDbEntity
  8
0
100
AcDbSpline
 62
7
  6
CONTINUOUS
 70
0
 71
3
 72
31
 73
27
 74
0
 42
0.0000001
 43
0.0000001
 44
0.0000000001
 40
0.0
 40
0.0
 40
0.0
 40
0.0
 40
0.2253987612
 40
0.3282011794
 40
0.4241883661
 40
0.5132139751
 40
0.5951317005
 40
0.6697954549
 40
0.7370774178
 40
0.7968837721
 40
0.8491245806
 40
0.8723798994
 40
0.8937102642
 40
0.9131045979
 40
0.9305546516
 40
0.946057169
 40
0.959609576
 40
0.9712096056
 40
0.9808555478
 40
0.9885468178
 40
0.9916600456
 40
0.9942858655
 40
0.9964258857
 40
0.998083483
 40
0.9992666705
 40
1.0
 40
1.0
 40
1.0
 40
1.0
 10
6.2925139324
 20
4.6265403106
 30
0.0
 10
6.3057862483
 20
4.6267131514
 30
0.0
 10
6.3251117792
 20
4.6269789693
 30
0.0
 10
6.3500886953
 20
4.6273656387
 30
0.0
 10
6.3670353894
 20
4.6276494547
 30
0.0
 10
6.3827519951
 20
4.6279349602
 30
0.0
 10
6.3972126541
 20
4.6282211601
 30
0.0
 10
6.4103925919
 20
4.6285070216
 30
0.0
 10
6.4222701145
 20
4.6287916016
 30
0.0
 10
6.4328268076
 20
4.6290742129
 30
0.0
 10
6.4407909591
 20
4.6293157952
 30
0.0
 10
6.4464896464
 20
4.6295099302
 30
0.0
 10
6.4502547859
 20
4.6296489843
 30
0.0
 10
6.4536778448
 20
4.6297870951
 30
0.0
 10
6.4567574457
 20
4.6299242134
 30
0.0
 10
6.4594926951
 20
4.6300603518
 30
0.0
 10
6.4618830126
 20
4.6301955254
 30
0.0
 10
6.463927905
 20
4.6303295792
 30
0.0
 10
6.4656268134
 20
4.6304625357
 30
0.0
 10
6.4668257105
 20
4.6305783812
 30
0.0
 10
6.4676107894
 20
4.6306740719
 30
0.0
 10
6.4680701846
 20
4.6307403232
 30
0.0
 10
6.4684424828
 20
4.6308060575
 30
0.0
 10
6.4687295106
 20
4.6308708006
 30
0.0
 10
6.4689288661
 20
4.6309342486
 30
0.0
 10
6.4690332313
 20
4.6309854121
 30
0.0
 10
6.4690637676
 20
4.6310159484
 30
0.0
  0
SPLINE
  5
3AE
100
AcDbEntity
  8
0
100
AcDbSpline
 62
7
  6
CONTINUOUS
 70
0
 71
3
 72
22
 73
18
 74
0
 42
0.0000001
 43
0.0000001
 44
0.0000000001
 40
0.0
 40
0.0
 40
0.0
 40
0.0
 40
0.0048089951
 40
0.0113370884
 40
0.0195989856
 40
0.0295998302
 40
0.0548208058
 40
0.0869927681
 40
0.126096045
 40
0.1721066787
 40
0.2249983444
 40
0.2847265676
 40
0.3512215488
 40
0.4244112085
 40
0.5905850885
 40
0.7826682158
 40
1.0
 40
1.0
 40
1.0
 40
1.0
 10
4.7598991877
 20
4.6711242325
 30
0.0
 10
4.760067959
 20
4.6711796935
 30
0.0
 10
4.760475109
 20
4.6712811862
 30
0.0
 10
4.761186759
 20
4.6714145181
 30
0.0
 10
4.7620928309
 20
4.6715492042
 30
0.0
 10
4.7636871557
 20
4.6717458983
 30
0.0
 10
4.7661658495
 20
4.6719829209
 30
0.0
 10
4.7697201889
 20
4.6722552268
 30
0.0
 10
4.7740442217
 20
4.6725306571
 30
0.0
 10
4.7791347354
 20
4.6728094045
 30
0.0
 10
4.7849880084
 20
4.6730911203
 30
0.0
 10
4.7915986412
 20
4.6733756299
 30
0.0
 10
4.7989596448
 20
4.6736622637
 30
0.0
 10
4.8102513312
 20
4.6740636941
 30
0.0
 10
4.8261818592
 20
4.6745601713
 30
0.0
 10
4.8474371327
 20
4.6751341712
 30
0.0
 10
4.862557218
 20
4.6754926373
 30
0.0
 10
4.8705837001
 20
4.6756731893
 30
0.0
  0
LINE
  5
3AF
100
AcDbEntity
  8
0
100
AcDbLine
 62
7
  6
CONTINUOUS
 10
4.8705837001
 20
4.6756731893
 11
4.8734984602
 21
4.6757383231
  0
LINE
  5
3B0
100
AcDbEntity
  8
0
100
AcDbLine
 62
7
  6
CONTINUOUS
 10
4.9017684732
 20
4.6763303419
 11
4.9037622622
 21
4.6763696953
  0
SPLINE
  5
3B1
100
AcDbEntity
  8
0
100
AcDbSpline
 62
7
  6
CONTINUOUS
 70
0
 71
3
 72
22
 73
18
 74
0
 42
0.0000001
 43
0.0000001
 44
0.0000000001
 40
0.0
 40
0.0
 40
0.0
 40
0.0
 40
0.044897837
 40
0.0965588374
 40
0.1542153489
 40
0.217002443
 40
0.2839880144
 40
0.3541734572
 40
0.49996466
 40
0.5734078145
 40
0.6457598372
 40
0.7159519891
 40
0.7829418031
 40
0.8457384288
 40
0.903402132
 40
0.9550776468
 40
1.0
 40
1.0
 40
1.0
 40
1.0
 10
4.9037622622
 20
4.6763696953
 30
0.0
 10
4.924537231
 20
4.6767782734
 30
0.0
 10
4.9692185093
 20
4.6775594429
 30
0.0
 10
5.0405822908
 20
4.678629502
 30
0.0
 10
5.1202258055
 20
4.6797250618
 30
0.0
 10
5.2069618409
 20
4.6808509894
 30
0.0
 10
5.2994964592
 20
4.6820044332
 30
0.0
 10
5.4304439249
 20
4.6835520482
 30
0.0
 10
5.5643813953
 20
4.6849934599
 30
0.0
 10
5.6993216399
 20
4.6864317667
 30
0.0
 10
5.799275635
 20
4.6875480466
 30
0.0
 10
5.8962424591
 20
4.6886929931
 30
0.0
 10
5.9887865741
 20
4.6898453181
 30
0.0
 10
6.0755322459
 20
4.6909762523
 30
0.0
 10
6.1551903163
 20
4.6920648398
 30
0.0
 10
6.2265754131
 20
4.6931402866
 30
0.0
 10
6.2712747812
 20
4.6939197124
 30
0.0
 10
6.292061131
 20
4.6943266279
 30
0.0
  0
LINE
  5
3B2
100
AcDbEntity
  8
0
100
AcDbLine
 62
7
  6
CONTINUOUS
 10
6.292061131
 20
4.6943266279
 11
6.3077866931
 21
4.6946439918
  0
LINE
  5
3B3
100
AcDbEntity
  8
0
100
AcDbLine
 62
7
  6
CONTINUOUS
 10
6.3077866931
 20
4.6946439918
 11
6.3222320725
 21
4.6949545285
  0
SPLINE
  5
3B4
100
AcDbEntity
  8
0
100
AcDbSpline
 62
7
  6
CONTINUOUS
 70
0
 71
3
 72
29
 73
25
 74
0
 42
0.0000001
 43
0.0000001
 44
0.0000000001
 40
0.0
 40
0.0
 40
0.0
 40
0.0
 40
0.2296493543
 40
0.3338552415
 40
0.4308284907
 40
0.5204541241
 40
0.6026182092
 40
0.6772306446
 40
0.7442264409
 40
0.8035421599
 40
0.8551149651
 40
0.8988830624
 40
0.9347866339
 40
0.9497728485
 40
0.9627797204
 40
0.973809412
 40
0.9828660979
 40
0.9866571405
 40
0.9899587771
 40
0.9927738271
 40
0.9951069466
 40
0.9969665068
 40
0.9983695025
 40
1.0
 40
1.0
 40
1.0
 40
1.0
 10
6.3222320725
 20
4.6949545285
 30
0.0
 10
6.3310005026
 20
4.6951491804
 30
0.0
 10
6.3437473493
 20
4.6954489023
 30
0.0
 10
6.3601955749
 20
4.6958800819
 30
0.0
 10
6.3712973582
 20
4.696193241
 30
0.0
 10
6.3815569866
 20
4.6965060984
 30
0.0
 10
6.3909622297
 20
4.6968180058
 30
0.0
 10
6.3995027452
 20
4.6971284554
 30
0.0
 10
6.4071700939
 20
4.6974370599
 30
0.0
 10
6.4139568339
 20
4.697743428
 30
0.0
 10
6.4198556154
 20
4.6980469408
 30
0.0
 10
6.4248590623
 20
4.698347177
 30
0.0
 10
6.428465018
 20
4.6986065541
 30
0.0
 10
6.4308961761
 20
4.6988180225
 30
0.0
 10
6.4323792039
 20
4.6989659038
 30
0.0
 10
6.4336345891
 20
4.6991127604
 30
0.0
 10
6.4345376794
 20
4.6992402749
 30
0.0
 10
6.4351456368
 20
4.6993447232
 30
0.0
 10
6.4355167863
 20
4.6994179963
 30
0.0
 10
6.4358315293
 20
4.6994912991
 30
0.0
 10
6.4360883286
 20
4.6995632136
 30
0.0
 10
6.4362922482
 20
4.6996372297
 30
0.0
 10
6.4364536588
 20
4.6997140404
 30
0.0
 10
6.4365621541
 20
4.6998054062
 30
0.0
 10
6.4365621456
 20
4.6998676769
 30
0.0
  0
SPLINE
  5
3B5
100
AcDbEntity
  8
0
100
AcDbSpline
 62
7
  6
CONTINUOUS
 70
0
 71
3
 72
33
 73
29
 74
0
 42
0.0000001
 43
0.0000001
 44
0.0000000001
 40
0.0
 40
0.0
 40
0.0
 40
0.0
 40
0.0004649475
 40
0.0010706952
 40
0.0027098567
 40
0.0049220353
 40
0.007707074
 40
0.0110637679
 40
0.0149904831
 40
0.0194853756
 40
0.0245464867
 40
0.0363589263
 40
0.0504020528
 40
0.0666390839
 40
0.0850324628
 40
0.1055441395
 40
0.1281268311
 40
0.15272427
 40
0.1792797928
 40
0.2380268834
 40
0.3038171285
 40
0.3760494375
 40
0.4540509739
 40
0.537108173
 40
0.6244389239
 40
0.7152357083
 40
0.8086866017
 40
1.0
 40
1.0
 40
1.0
 40
1.0
 10
4.7273654956
 20
4.6603373778
 30
0.0
 10
4.7274937379
 20
4.66037944
 30
0.0
 10
4.7277947883
 20
4.6604584482
 30
0.0
 10
4.7285659029
 20
4.660614437
 30
0.0
 10
4.7298474847
 20
4.6607978058
 30
0.0
 10
4.7317623825
 20
4.6610078799
 30
0.0
 10
4.7341782403
 20
4.6612201144
 30
0.0
 10
4.7370930156
 20
4.6614349885
 30
0.0
 10
4.7405051812
 20
4.6616516596
 30
0.0
 10
4.7444128383
 20
4.6618702094
 30
0.0
 10
4.750607911
 20
4.6621801678
 30
0.0
 10
4.759574213
 20
4.66256456
 30
0.0
 10
4.7717845641
 20
4.6630136911
 30
0.0
 10
4.7859061757
 20
4.6634677308
 30
0.0
 10
4.8019062336
 20
4.6639243619
 30
0.0
 10
4.8197489721
 20
4.6643807657
 30
0.0
 10
4.8393931921
 20
4.6648350682
 30
0.0
 10
4.8607923093
 20
4.6652859139
 30
0.0
 10
4.8926879752
 20
4.6659014338
 30
0.0
 10
4.9365407434
 20
4.6666420164
 30
0.0
 10
4.9936523835
 20
4.6674914879
 30
0.0
 10
5.0563536532
 20
4.6683462921
 30
0.0
 10
5.1240673546
 20
4.669217709
 30
0.0
 10
5.1961637945
 20
4.6701176133
 30
0.0
 10
5.2719745222
 20
4.6710317404
 30
0.0
 10
5.35080256
 20
4.671942775
 30
0.0
 10
5.4598130983
 20
4.6731480141
 30
0.0
 10
5.5424696072
 20
4.6739975957
 30
0.0
 10
5.5980007764
 20
4.6745690977
 30
0.0
  0
SPLINE
  5
3B6
100
AcDbEntity
  8
0
100
AcDbSpline
 62
9
  6
CONTINUOUS
 70
0
 71
3
 72
9
 73
5
 74
0
 42
0.0000001
 43
0.0000001
 44
0.0000000001
 40
0.0
 40
0.0
 40
0.0
 40
0.0
 40
0.492477496
 40
1.0
 40
1.0
 40
1.0
 40
1.0
 10
4.4985404681
 20
5.0782465796
 30
0.0
 10
4.4995509246
 20
5.0782465796
 30
0.0
 10
4.5016087163
 20
5.0779942127
 30
0.0
 10
4.5035544596
 20
5.0772891785
 30
0.0
 10
4.5044920655
 20
5.0768361286
 30
0.0
  0
SPLINE
  5
3B7
100
AcDbEntity
  8
0
100
AcDbSpline
 62
9
  6
CONTINUOUS
 70
0
 71
3
 72
15
 73
11
 74
0
 42
0.0000001
 43
0.0000001
 44
0.0000000001
 40
0.0
 40
0.0
 40
0.0
 40
0.0
 40
0.1094417209
 40
0.2233951032
 40
0.3424129997
 40
0.4665802102
 40
0.5956618027
 40
0.7287824789
 40
0.8642070748
 40
1.0
 40
1.0
 40
1.0
 40
1.0
 10
4.5044920655
 20
5.0768361286
 30
0.0
 10
4.505342332
 20
5.076425281
 30
0.0
 10
4.50700319
 20
5.0754225655
 30
0.0
 10
4.5092345987
 20
5.0734659329
 30
0.0
 10
4.5112092553
 20
5.0710848833
 30
0.0
 10
4.5128900568
 20
5.0683355128
 30
0.0
 10
4.5142330817
 20
5.0652737694
 30
0.0
 10
4.5152097702
 20
5.0619761162
 30
0.0
 10
4.5158106492
 20
5.0585322371
 30
0.0
 10
4.5159494013
 20
5.0561899306
 30
0.0
 10
4.5159494013
 20
5.0550182331
 30
0.0
  0
SPLINE
  5
3B8
100
AcDbEntity
  8
0
100
AcDbSpline
 62
7
  6
CONTINUOUS
 70
0
 71
3
 72
12
 73
8
 74
0
 42
0.0000001
 43
0.0000001
 44
0.0000000001
 40
0.0
 40
0.0
 40
0.0
 40
0.0
 40
0.0584597689
 40
0.1357109619
 40
0.3472441009
 40
0.6352805617
 40
1.0
 40
1.0
 40
1.0
 40
1.0
 10
4.7598848831
 20
4.7291950277
 30
0.0
 10
4.7600299468
 20
4.7292427431
 30
0.0
 10
4.760373709
 20
4.7293316502
 30
0.0
 10
4.7612637476
 20
4.7295072402
 30
0.0
 10
4.7627574277
 20
4.7297129634
 30
0.0
 10
4.7650026871
 20
4.7299492332
 30
0.0
 10
4.7667020328
 20
4.7300918301
 30
0.0
 10
4.7676518791
 20
4.7301658562
 30
0.0
  0
SPLINE
  5
3B9
100
AcDbEntity
  8
0
100
AcDbSpline
 62
7
  6
CONTINUOUS
 70
0
 71
3
 72
14
 73
10
 74
0
 42
0.0000001
 43
0.0000001
 44
0.0000000001
 40
0.0
 40
0.0
 40
0.0
 40
0.0
 40
0.0603382335
 40
0.1397455111
 40
0.2379676093
 40
0.3547448396
 40
0.4897809849
 40
0.6426451179
 40
1.0
 40
1.0
 40
1.0
 40
1.0
 10
4.7676518791
 20
4.7301658562
 30
0.0
 10
4.7701490741
 20
4.7303604747
 30
0.0
 10
4.7759392881
 20
4.7307242225
 30
0.0
 10
4.7858058153
 20
4.7312123218
 30
0.0
 10
4.7980173181
 20
4.7317087362
 30
0.0
 10
4.8125393692
 20
4.732211619
 30
0.0
 10
4.8293307996
 20
4.7327180421
 30
0.0
 10
4.8561072171
 20
4.7334321229
 30
0.0
 10
4.8772823432
 20
4.7339039698
 30
0.0
 10
4.8921137796
 20
4.7342081127
 30
0.0
  0
SPLINE
  5
3BA
100
AcDbEntity
  8
0
100
AcDbSpline
 62
7
  6
CONTINUOUS
 70
0
 71
3
 72
23
 73
19
 74
0
 42
0.0000001
 43
0.0000001
 44
0.0000000001
 40
0.0
 40
0.0
 40
0.0
 40
0.0
 40
0.0436663804
 40
0.0943432553
 40
0.1512675074
 40
0.2135655213
 40
0.2802879243
 40
0.3504221135
 40
0.422896813
 40
0.4966099597
 40
0.5704354631
 40
0.6432510897
 40
0.7139485685
 40
0.7814568669
 40
0.8447420978
 40
0.9028407299
 40
0.9548562554
 40
1.0
 40
1.0
 40
1.0
 40
1.0
 10
4.8921137796
 20
4.7342081127
 30
0.0
 10
4.9124919687
 20
4.734626001
 30
0.0
 10
4.9565221985
 20
4.7354209615
 30
0.0
 10
5.0271220566
 20
4.7365102314
 30
0.0
 10
5.1064195262
 20
4.7376086703
 30
0.0
 10
5.1932068181
 20
4.7387461147
 30
0.0
 10
5.2861603379
 20
4.7399133638
 30
0.0
 10
5.3838645311
 20
4.7410746405
 30
0.0
 10
5.4848323489
 20
4.7422111825
 30
0.0
 10
5.5875237157
 20
4.7433086238
 30
0.0
 10
5.6903742005
 20
4.7444085116
 30
0.0
 10
5.7918166926
 20
4.7455331461
 30
0.0
 10
5.8903098892
 20
4.7466909756
 30
0.0
 10
5.9843540376
 20
4.7478610072
 30
0.0
 10
6.0725172185
 20
4.7490024799
 30
0.0
 10
6.1534485031
 20
4.7501132266
 30
0.0
 10
6.2259112693
 20
4.7511975989
 30
0.0
 10
6.2712562175
 20
4.7519884501
 30
0.0
 10
6.292324213
 20
4.7524029954
 30
0.0
  0
LINE
  5
3BB
100
AcDbEntity
  8
0
100
AcDbLine
 62
7
  6
CONTINUOUS
 10
6.292324213
 20
4.7524029954
 11
6.2989622993
 21
4.7525352169
  0
LINE
  5
3BC
100
AcDbEntity
  8
0
100
AcDbLine
 62
7
  6
CONTINUOUS
 10
6.3226006126
 20
4.7530350953
 11
6.3300921685
 21
4.7532044235
  0
LINE
  5
3BD
100
AcDbEntity
  8
0
100
AcDbLine
 62
7
  6
CONTINUOUS
 10
6.3300921685
 20
4.7532044235
 11
6.3343984765
 21
4.7533044999
  0
SPLINE
  5
3BE
100
AcDbEntity
  8
0
100
AcDbSpline
 62
7
  6
CONTINUOUS
 70
0
 71
3
 72
28
 73
24
 74
0
 42
0.0000001
 43
0.0000001
 44
0.0000000001
 40
0.0
 40
0.0
 40
0.0
 40
0.0
 40
0.2301139635
 40
0.3343975507
 40
0.4313719324
 40
0.5209565295
 40
0.6030708788
 40
0.6776346835
 40
0.7445678937
 40
0.8037908637
 40
0.8552370564
 40
0.8988744567
 40
0.9346788572
 40
0.9626309593
 40
0.9736599893
 40
0.982725928
 40
0.9865247527
 40
0.9898360575
 40
0.99266263
 40
0.9950092841
 40
0.996884906
 40
0.9983077305
 40
1.0
 40
1.0
 40
1.0
 40
1.0
 10
6.3343984765
 20
4.7533044999
 30
0.0
 10
6.3422498989
 20
4.7534888869
 30
0.0
 10
6.3536591091
 20
4.7537720132
 30
0.0
 10
6.3683758241
 20
4.7541794103
 30
0.0
 10
6.3782976286
 20
4.7544751012
 30
0.0
 10
6.3874624644
 20
4.754770486
 30
0.0
 10
6.3958620464
 20
4.7550650129
 30
0.0
 10
6.4034880937
 20
4.7553580879
 30
0.0
 10
6.410332328
 20
4.7556491069
 30
0.0
 10
6.4163869183
 20
4.7559373744
 30
0.0
 10
6.421645588
 20
4.7562223692
 30
0.0
 10
6.4261039207
 20
4.7565037078
 30
0.0
 10
6.4297586928
 20
4.7567816939
 30
0.0
 10
6.4322999605
 20
4.7570236123
 30
0.0
 10
6.4339274916
 20
4.7572247267
 30
0.0
 10
6.4347341543
 20
4.7573452834
 30
0.0
 10
6.4352774145
 20
4.7574440389
 30
0.0
 10
6.435609332
 20
4.757513378
 30
0.0
 10
6.4358908582
 20
4.7575827471
 30
0.0
 10
6.4361208146
 20
4.7576508853
 30
0.0
 10
6.4363031274
 20
4.7577209153
 30
0.0
 10
6.4364494621
 20
4.7577944627
 30
0.0
 10
6.4365445623
 20
4.7578811685
 30
0.0
 10
6.4365445406
 20
4.7579389242
 30
0.0
  0
SPLINE
  5
3BF
100
AcDbEntity
  8
0
100
AcDbSpline
 62
7
  6
CONTINUOUS
 70
0
 71
3
 72
33
 73
29
 74
0
 42
0.0000001
 43
0.0000001
 44
0.0000000001
 40
0.0
 40
0.0
 40
0.0
 40
0.0
 40
0.0004647028
 40
0.0010699418
 40
0.0027071548
 40
0.0049173632
 40
0.0077021453
 40
0.0110601032
 40
0.0149888514
 40
0.0194858047
 40
0.0245482692
 40
0.0363586362
 40
0.0503975075
 40
0.0666369358
 40
0.0850343656
 40
0.1055446313
 40
0.1281225106
 40
0.1527212231
 40
0.1792814062
 40
0.2380238402
 40
0.3038169022
 40
0.3760476165
 40
0.4540534637
 40
0.5371092734
 40
0.6244323404
 40
0.7152298316
 40
0.8086969647
 40
1.0
 40
1.0
 40
1.0
 40
1.0
 10
4.7273682693
 20
4.7184005632
 30
0.0
 10
4.7274964903
 20
4.7184424612
 30
0.0
 10
4.7277973741
 20
4.7185212127
 30
0.0
 10
4.728567752
 20
4.7186768674
 30
0.0
 10
4.7298480007
 20
4.7188603549
 30
0.0
 10
4.731761581
 20
4.7190712751
 30
0.0
 10
4.7341769882
 20
4.7192853266
 30
0.0
 10
4.7370924522
 20
4.7195027597
 30
0.0
 10
4.740505977
 20
4.7197224281
 30
0.0
 10
4.7444150348
 20
4.7199440822
 30
0.0
 10
4.7506102812
 20
4.7202580761
 30
0.0
 10
4.7595749858
 20
4.7206457369
 30
0.0
 10
4.7717841576
 20
4.7210952495
 30
0.0
 10
4.7859064418
 20
4.7215472162
 30
0.0
 10
4.8019080211
 20
4.7220004733
 30
0.0
 10
4.8197501747
 20
4.7224534078
 30
0.0
 10
4.8393929815
 20
4.7229046528
 30
0.0
 10
4.8607924326
 20
4.7233527051
 30
0.0
 10
4.8926884344
 20
4.723966029
 30
0.0
 10
4.936541806
 20
4.724712989
 30
0.0
 10
4.9936523003
 20
4.7255639821
 30
0.0
 10
5.0563551014
 20
4.7264133746
 30
0.0
 10
5.1240689707
 20
4.7272892357
 30
0.0
 10
5.1961638148
 20
4.7281927561
 30
0.0
 10
5.2719719605
 20
4.7291049069
 30
0.0
 10
5.3508025301
 20
4.7300135606
 30
0.0
 10
5.4598147634
 20
4.7312151916
 30
0.0
 10
5.5424727453
 20
4.7320684941
 30
0.0
 10
5.5980007764
 20
4.7326399639
 30
0.0
  0
SPLINE
  5
3C0
100
AcDbEntity
  8
0
100
AcDbSpline
 62
9
  6
CONTINUOUS
 70
0
 71
3
 72
16
 73
12
 74
0
 42
0.0000001
 43
0.0000001
 44
0.0000000001
 40
0.0
 40
0.0
 40
0.0
 40
0.0
 40
0.1064117374
 40
0.2166682432
 40
0.2738155785
 40
0.3324509719
 40
0.4545552031
 40
0.5835489911
 40
0.7189810121
 40
0.8588713417
 40
1.0
 40
1.0
 40
1.0
 40
1.0
 10
5.2177017612
 20
5.0782465796
 30
0.0
 10
5.2188378731
 20
5.0782465796
 30
0.0
 10
5.2211599895
 20
5.077925724
 30
0.0
 10
5.2238919037
 20
5.0768075352
 30
0.0
 10
5.2259398852
 20
5.0755224955
 30
0.0
 10
5.227927891
 20
5.0739338027
 30
0.0
 10
5.2301590692
 20
5.0714601215
 30
0.0
 10
5.2323177206
 20
5.0679182011
 30
0.0
 10
5.2339053031
 20
5.0638827118
 30
0.0
 10
5.2348821573
 20
5.0595295459
 30
0.0
 10
5.2351106944
 20
5.0565250025
 30
0.0
 10
5.2351106944
 20
5.0550182331
 30
0.0
  0
SPLINE
  5
3C1
100
AcDbEntity
  8
0
100
AcDbSpline
 62
7
  6
CONTINUOUS
 70
0
 71
3
 72
12
 73
8
 74
0
 42
0.0000001
 43
0.0000001
 44
0.0000000001
 40
0.0
 40
0.0
 40
0.0
 40
0.0
 40
0.0654853324
 40
0.1478014346
 40
0.3634670313
 40
0.6475159553
 40
1.0
 40
1.0
 40
1.0
 40
1.0
 10
4.7598926628
 20
4.7872656687
 30
0.0
 10
4.7600008236
 20
4.7873012255
 30
0.0
 10
4.7602489208
 20
4.7873692363
 30
0.0
 10
4.7608665187
 20
4.7875036674
 30
0.0
 10
4.7618663781
 20
4.7876635391
 30
0.0
 10
4.763336749
 20
4.787846468
 30
0.0
 10
4.7644379787
 20
4.787957547
 30
0.0
 10
4.7650481407
 20
4.7880148011
 30
0.0
  0
SPLINE
  5
3C2
100
AcDbEntity
  8
0
100
AcDbSpline
 62
7
  6
CONTINUOUS
 70
0
 71
3
 72
15
 73
11
 74
0
 42
0.0000001
 43
0.0000001
 44
0.0000000001
 40
0.0
 40
0.0
 40
0.0
 40
0.0
 40
0.0265639687
 40
0.0580338793
 40
0.1356291076
 40
0.232651698
 40
0.3489223306
 40
0.4841320678
 40
0.637942231
 40
1.0
 40
1.0
 40
1.0
 40
1.0
 10
4.7650481407
 20
4.7880148011
 30
0.0
 10
4.7658995144
 20
4.788094689
 30
0.0
 10
4.7677612239
 20
4.7882508081
 30
0.0
 10
4.7721162267
 20
4.7885613915
 30
0.0
 10
4.7787398202
 20
4.7889397117
 30
0.0
 10
4.7880935513
 20
4.7893776128
 30
0.0
 10
4.7993033666
 20
4.7898226719
 30
0.0
 10
4.8123422364
 20
4.7902728332
 30
0.0
 10
4.8332912135
 20
4.7909114603
 30
0.0
 10
4.8498921248
 20
4.7913337607
 30
0.0
 10
4.8615438194
 20
4.791607283
 30
0.0
  0
LINE
  5
3C3
100
AcDbEntity
  8
0
100
AcDbLine
 62
7
  6
CONTINUOUS
 10
4.8802788285
 20
4.7920281053
 11
4.8862231023
 21
4.7921545141
  0
LINE
  5
3C4
100
AcDbEntity
  8
0
100
AcDbLine
 62
7
  6
CONTINUOUS
 10
4.8862231023
 20
4.7921545141
 11
4.9034686985
 21
4.7925049191
  0
LINE
  5
3C5
100
AcDbEntity
  8
0
100
AcDbLine
 62
7
  6
CONTINUOUS
 10
4.9034686985
 20
4.7925049191
 11
4.9128621172
 21
4.7926867061
  0
SPLINE
  5
3C6
100
AcDbEntity
  8
0
100
AcDbSpline
 62
7
  6
CONTINUOUS
 70
0
 71
3
 72
21
 73
17
 74
0
 42
0.0000001
 43
0.0000001
 44
0.0000000001
 40
0.0
 40
0.0
 40
0.0
 40
0.0
 40
0.0462202877
 40
0.0991794378
 40
0.158075113
 40
0.222005674
 40
0.290001053
 40
0.3610241567
 40
0.5078360832
 40
0.5814049282
 40
0.6535927173
 40
0.7895039037
 40
0.8511644791
 40
0.9073499897
 40
0.957210704
 40
1.0
 40
1.0
 40
1.0
 40
1.0
 10
4.9128621172
 20
4.7926867061
 30
0.0
 10
4.9343873177
 20
4.793096594
 30
0.0
 10
4.9805778551
 20
4.7938820276
 30
0.0
 10
5.0542002649
 20
4.7949636972
 30
0.0
 10
5.136072375
 20
4.7960767443
 30
0.0
 10
5.2249484481
 20
4.7972214529
 30
0.0
 10
5.3194735733
 20
4.7983877788
 30
0.0
 10
5.4526024167
 20
4.7999422319
 30
0.0
 10
5.5883287358
 20
4.8013865909
 30
0.0
 10
5.7245973785
 20
4.8028491563
 30
0.0
 10
5.8557879637
 20
4.8043356463
 30
0.0
 10
5.981430722
 20
4.8058797882
 30
0.0
 10
6.099618868
 20
4.8074406208
 30
0.0
 10
6.177727986
 20
4.8085315449
 30
0.0
 10
6.2470460962
 20
4.8096185106
 30
0.0
 10
6.2901946014
 20
4.8104165897
 30
0.0
 10
6.3101211738
 20
4.8108352362
 30
0.0
  0
LINE
  5
3C7
100
AcDbEntity
  8
0
100
AcDbLine
 62
7
  6
CONTINUOUS
 10
6.3101211738
 20
4.8108352362
 11
6.3176826282
 21
4.810996723
  0
LINE
  5
3C8
100
AcDbEntity
  8
0
100
AcDbLine
 62
7
  6
CONTINUOUS
 10
6.3176826282
 20
4.810996723
 11
6.3277122095
 21
4.8112196542
  0
LINE
  5
3C9
100
AcDbEntity
  8
0
100
AcDbLine
 62
7
  6
CONTINUOUS
 10
6.3277122095
 20
4.8112196542
 11
6.3341613029
 21
4.8113687626
  0
SPLINE
  5
3CA
100
AcDbEntity
  8
0
100
AcDbSpline
 62
7
  6
CONTINUOUS
 70
0
 71
3
 72
28
 73
24
 74
0
 42
0.0000001
 43
0.0000001
 44
0.0000000001
 40
0.0
 40
0.0
 40
0.0
 40
0.0
 40
0.2300266161
 40
0.3343177523
 40
0.431322886
 40
0.5209387174
 40
0.6030626357
 40
0.677612137
 40
0.7445295732
 40
0.8037592345
 40
0.8552460922
 40
0.8989362957
 40
0.934778226
 40
0.9627279089
 40
0.9737417528
 40
0.9827876722
 40
0.9865757467
 40
0.9898763776
 40
0.9926927771
 40
0.9950301783
 40
0.9968978749
 40
0.9983144753
 40
1.0
 40
1.0
 40
1.0
 40
1.0
 10
6.3341613029
 20
4.8113687626
 30
0.0
 10
6.3420293893
 20
4.81155361
 30
0.0
 10
6.3534644162
 20
4.8118378962
 30
0.0
 10
6.3682162923
 20
4.8122462412
 30
0.0
 10
6.3781653219
 20
4.8125423609
 30
0.0
 10
6.3873555681
 20
4.8128378605
 30
0.0
 10
6.3957771166
 20
4.8131321495
 30
0.0
 10
6.4034215958
 20
4.8134247846
 30
0.0
 10
6.410282204
 20
4.8137155384
 30
0.0
 10
6.4163530537
 20
4.8140040878
 30
0.0
 10
6.421628301
 20
4.8142901458
 30
0.0
 10
6.4261022423
 20
4.8145728699
 30
0.0
 10
6.4297691369
 20
4.8148521013
 30
0.0
 10
6.4323174436
 20
4.8150946752
 30
0.0
 10
6.4339477835
 20
4.8152960298
 30
0.0
 10
6.4347549204
 20
4.8154165867
 30
0.0
 10
6.4352981526
 20
4.815515295
 30
0.0
 10
6.4356298471
 20
4.8155845672
 30
0.0
 10
6.4359110783
 20
4.8156538551
 30
0.0
 10
6.4361407159
 20
4.815721906
 30
0.0
 10
6.4363227162
 20
4.8157918363
 30
0.0
 10
6.4364687987
 20
4.8158653052
 30
0.0
 10
6.4365636804
 20
4.8159518783
 30
0.0
 10
6.4365636851
 20
4.8160095478
 30
0.0
  0
SPLINE
  5
3CB
100
AcDbEntity
  8
0
100
AcDbSpline
 62
7
  6
CONTINUOUS
 70
0
 71
3
 72
23
 73
19
 74
0
 42
0.0000001
 43
0.0000001
 44
0.0000000001
 40
0.0
 40
0.0
 40
0.0
 40
0.0
 40
0.0044016398
 40
0.0105529548
 40
0.0184720162
 40
0.0281670158
 40
0.0396421312
 40
0.0528964187
 40
0.0847235363
 40
0.1236067901
 40
0.1695004712
 40
0.2223572267
 40
0.2821288412
 40
0.3487656142
 40
0.4221948214
 40
0.5890467557
 40
0.7819113083
 40
1.0
 40
1.0
 40
1.0
 40
1.0
 10
4.7273682693
 20
4.7764714293
 30
0.0
 10
4.72755591
 20
4.7765327436
 30
0.0
 10
4.7280173461
 20
4.7766426706
 30
0.0
 10
4.7288331457
 20
4.7767864132
 30
0.0
 10
4.7298892742
 20
4.7769319892
 30
0.0
 10
4.7311855162
 20
4.7770795775
 30
0.0
 10
4.7327222396
 20
4.777228596
 30
0.0
 10
4.7352497019
 20
4.7774422939
 30
0.0
 10
4.7390063627
 20
4.7777046847
 30
0.0
 10
4.7442270275
 20
4.778008616
 30
0.0
 10
4.7503920108
 20
4.7783159996
 30
0.0
 10
4.7574946523
 20
4.7786262107
 30
0.0
 10
4.7655282789
 20
4.7789384114
 30
0.0
 10
4.7744851062
 20
4.7792519755
 30
0.0
 10
4.7882427762
 20
4.7796900387
 30
0.0
 10
4.8076610279
 20
4.7802297399
 30
0.0
 10
4.8335669299
 20
4.7808525881
 30
0.0
 10
4.8519932469
 20
4.7812412881
 30
0.0
 10
4.8617721115
 20
4.7814368556
 30
0.0
  0
LINE
  5
3CC
100
AcDbEntity
  8
0
100
AcDbLine
 62
7
  6
CONTINUOUS
 10
4.8617721115
 20
4.7814368556
 11
4.8758823475
 21
4.7817118814
  0
LINE
  5
3CD
100
AcDbEntity
  8
0
100
AcDbLine
 62
7
  6
CONTINUOUS
 10
4.8758823475
 20
4.7817118814
 11
4.886309017
 21
4.7819066522
  0
SPLINE
  5
3CE
100
AcDbEntity
  8
0
100
AcDbSpline
 62
7
  6
CONTINUOUS
 70
0
 71
3
 72
14
 73
10
 74
0
 42
0.0000001
 43
0.0000001
 44
0.0000000001
 40
0.0
 40
0.0
 40
0.0
 40
0.0
 40
0.0912889034
 40
0.1955511263
 40
0.3112891446
 40
0.4368604488
 40
0.5704432428
 40
0.7101721953
 40
1.0
 40
1.0
 40
1.0
 40
1.0
 10
4.886309017
 20
4.7819066522
 30
0.0
 10
4.9079635804
 20
4.7823042904
 30
0.0
 10
4.9543516752
 20
4.783070382
 30
0.0
 10
5.0281973968
 20
4.784114859
 30
0.0
 10
5.1101769785
 20
4.7851843917
 30
0.0
 10
5.1991127757
 20
4.7863033591
 30
0.0
 10
5.2937406886
 20
4.7874340184
 30
0.0
 10
5.4273364928
 20
4.7889481958
 30
0.0
 10
5.52924302
 20
4.7900032058
 30
0.0
 10
5.5980007764
 20
4.79071083
 30
0.0
  0
SPLINE
  5
3CF
100
AcDbEntity
  8
0
100
AcDbSpline
 62
9
  6
CONTINUOUS
 70
0
 71
3
 72
20
 73
16
 74
0
 42
0.0000001
 43
0.0000001
 44
0.0000000001
 40
0.0
 40
0.0
 40
0.0
 40
0.0
 40
0.0189849403
 40
0.0298433326
 40
0.0420251637
 40
0.0710742037
 40
0.1070804562
 40
0.1503571175
 40
0.2009513929
 40
0.2586069221
 40
0.3228709143
 40
0.4691695417
 40
0.6354246125
 40
0.8150297357
 40
1.0
 40
1.0
 40
1.0
 40
1.0
 10
5.2617462972
 20
5.0782465796
 30
0.0
 10
5.2615920486
 20
5.0782465796
 30
0.0
 10
5.261347895
 20
5.078177024
 30
0.0
 10
5.2610609944
 20
5.0779909727
 30
0.0
 10
5.2607444268
 20
5.0777075116
 30
0.0
 10
5.260363179
 20
5.077203229
 30
0.0
 10
5.2599423604
 20
5.0764282879
 30
0.0
 10
5.2595374922
 20
5.0754521491
 30
0.0
 10
5.2591542701
 20
5.0742813222
 30
0.0
 10
5.2587955464
 20
5.0729257303
 30
0.0
 10
5.2583336155
 20
5.0707954686
 30
0.0
 10
5.2578548793
 20
5.0677691449
 30
0.0
 10
5.2574454994
 20
5.0637900727
 30
0.0
 10
5.2571921453
 20
5.0594834645
 30
0.0
 10
5.2571329621
 20
5.0565210774
 30
0.0
 10
5.2571329621
 20
5.0550182331
 30
0.0
  0
SPLINE
  5
3D0
100
AcDbEntity
  8
0
100
AcDbSpline
 62
7
  6
CONTINUOUS
 70
0
 71
3
 72
22
 73
18
 74
0
 42
0.0000001
 43
0.0000001
 44
0.0000000001
 40
0.0
 40
0.0
 40
0.0
 40
0.0
 40
0.0048280401
 40
0.0113665751
 40
0.0196324667
 40
0.0296330658
 40
0.0548496244
 40
0.0870265117
 40
0.1261570552
 40
0.1722011458
 40
0.2251048584
 40
0.2848132008
 40
0.3512705833
 40
0.4244210458
 40
0.5905733645
 40
0.7826878241
 40
1.0
 40
1.0
 40
1.0
 40
1.0
 10
4.7598896667
 20
4.8453370068
 30
0.0
 10
4.7600557132
 20
4.8453916221
 30
0.0
 10
4.760455676
 20
4.8454917355
 30
0.0
 10
4.7611542083
 20
4.8456233044
 30
0.0
 10
4.7620425993
 20
4.8457561978
 30
0.0
 10
4.7636049517
 20
4.8459502774
 30
0.0
 10
4.7660340614
 20
4.8461843862
 30
0.0
 10
4.7695183488
 20
4.8464537699
 30
0.0
 10
4.7737583469
 20
4.8467268669
 30
0.0
 10
4.7787498145
 20
4.8470034957
 30
0.0
 10
4.7844871608
 20
4.8472827413
 30
0.0
 10
4.7909642318
 20
4.8475641531
 30
0.0
 10
4.7981748799
 20
4.84784729
 30
0.0
 10
4.8092377625
 20
4.8482436096
 30
0.0
 10
4.8248494845
 20
4.8487337653
 30
0.0
 10
4.8456804553
 20
4.8493018243
 30
0.0
 10
4.8604993844
 20
4.8496577979
 30
0.0
 10
4.8683650719
 20
4.8498369405
 30
0.0
  0
LINE
  5
3D1
100
AcDbEntity
  8
0
100
AcDbLine
 62
7
  6
CONTINUOUS
 10
4.8683650719
 20
4.8498369405
 11
4.8732457157
 21
4.8499468427
  0
SPLINE
  5
3D2
100
AcDbEntity
  8
0
100
AcDbSpline
 62
7
  6
CONTINUOUS
 70
0
 71
3
 72
23
 73
19
 74
0
 42
0.0000001
 43
0.0000001
 44
0.0000000001
 40
0.0
 40
0.0
 40
0.0
 40
0.0
 40
0.0042513993
 40
0.0102688034
 40
0.0180702392
 40
0.0276636822
 40
0.0390527296
 40
0.0522349773
 40
0.0839579563
 40
0.1227872465
 40
0.1686736395
 40
0.221566387
 40
0.2814139372
 40
0.3481571119
 40
0.4217029383
 40
0.5887905001
 40
0.7818517584
 40
1.0
 40
1.0
 40
1.0
 40
1.0
 10
4.7273682693
 20
4.8345422955
 30
0.0
 10
4.7275685159
 20
4.8346077289
 30
0.0
 10
4.7280652113
 20
4.8347238304
 30
0.0
 10
4.7289475893
 20
4.8348753837
 30
0.0
 10
4.7300978459
 20
4.8350289373
 30
0.0
 10
4.7315156281
 20
4.8351848182
 30
0.0
 10
4.7332013022
 20
4.8353422989
 30
0.0
 10
4.7359816677
 20
4.8355683967
 30
0.0
 10
4.740121787
 20
4.8358459231
 30
0.0
 10
4.7458826758
 20
4.8361673449
 30
0.0
 10
4.7526937826
 20
4.8364924311
 30
0.0
 10
4.7605472663
 20
4.836820467
 30
0.0
 10
4.7694349661
 20
4.8371504814
 30
0.0
 10
4.779346654
 20
4.8374817508
 30
0.0
 10
4.7945708278
 20
4.8379443296
 30
0.0
 10
4.8160538842
 20
4.8385135322
 30
0.0
 10
4.8447023115
 20
4.8391690167
 30
0.0
 10
4.8650745771
 20
4.8395773104
 30
0.0
 10
4.8758823475
 20
4.8397827475
 30
0.0
  0
LINE
  5
3D3
100
AcDbEntity
  8
0
100
AcDbLine
 62
7
  6
CONTINUOUS
 10
4.8758823475
 20
4.8397827475
 11
4.8859411317
 21
4.839970759
  0
SPLINE
  5
3D4
100
AcDbEntity
  8
0
100
AcDbSpline
 62
7
  6
CONTINUOUS
 70
0
 71
3
 72
12
 73
8
 74
0
 42
0.0000001
 43
0.0000001
 44
0.0000000001
 40
0.0
 40
0.0
 40
0.0
 40
0.0
 40
0.2060684035
 40
0.4443866905
 40
0.5743064803
 40
0.7106443451
 40
1.0
 40
1.0
 40
1.0
 40
1.0
 10
4.8859411317
 20
4.839970759
 30
0.0
 10
4.9105162568
 20
4.8404225598
 30
0.0
 10
4.963514584
 20
4.8412853178
 30
0.0
 10
5.0320097816
 20
4.8422314407
 30
0.0
 10
5.0921890702
 20
4.8430191687
 30
0.0
 10
5.1584556878
 20
4.8438671406
 30
0.0
 10
5.2092274097
 20
4.8444921219
 30
0.0
 10
5.2437384945
 20
4.8449049882
 30
0.0
  0
LINE
  5
3D5
100
AcDbEntity
  8
0
100
AcDbLine
 62
7
  6
CONTINUOUS
 10
5.2437384945
 20
4.8449049882
 11
5.2524737385
 21
4.8450092348
  0
LINE
  5
3D6
100
AcDbEntity
  8
0
100
AcDbLine
 62
7
  6
CONTINUOUS
 10
5.2524737385
 20
4.8450092348
 11
5.5980007764
 21
4.8487816962
  0
SPLINE
  5
3D7
100
AcDbEntity
  8
0
100
AcDbSpline
 62
9
  6
CONTINUOUS
 70
0
 71
3
 72
20
 73
16
 74
0
 42
0.0000001
 43
0.0000001
 44
0.0000000001
 40
0.0
 40
0.0
 40
0.0
 40
0.0
 40
0.0189849403
 40
0.0298433326
 40
0.0420251637
 40
0.0710742037
 40
0.1070804562
 40
0.1503571175
 40
0.2009513929
 40
0.2586069222
 40
0.3228709143
 40
0.4691695418
 40
0.6354246125
 40
0.8150297357
 40
1.0
 40
1.0
 40
1.0
 40
1.0
 10
6.3263887392
 20
5.0782465796
 30
0.0
 10
6.3262344906
 20
5.0782465796
 30
0.0
 10
6.325990337
 20
5.078177024
 30
0.0
 10
6.3257034364
 20
5.0779909727
 30
0.0
 10
6.3253868688
 20
5.0777075116
 30
0.0
 10
6.325005621
 20
5.077203229
 30
0.0
 10
6.3245848024
 20
5.0764282879
 30
0.0
 10
6.3241799342
 20
5.0754521491
 30
0.0
 10
6.3237967121
 20
5.0742813222
 30
0.0
 10
6.3234379884
 20
5.0729257303
 30
0.0
 10
6.3229760575
 20
5.0707954686
 30
0.0
 10
6.3224973213
 20
5.0677691449
 30
0.0
 10
6.3220879414
 20
5.0637900727
 30
0.0
 10
6.3218345873
 20
5.0594834645
 30
0.0
 10
6.3217754041
 20
5.0565210774
 30
0.0
 10
6.3217754041
 20
5.0550182331
 30
0.0
  0
SPLINE
  5
3D8
100
AcDbEntity
  8
0
100
AcDbSpline
 62
9
  6
CONTINUOUS
 70
0
 71
3
 72
17
 73
13
 74
0
 42
0.0000001
 43
0.0000001
 44
0.0000000001
 40
0.0
 40
0.0
 40
0.0
 40
0.0
 40
0.121070162
 40
0.2435816805
 40
0.3052738518
 40
0.3671420835
 40
0.4914619665
 40
0.6170825389
 40
0.6805347332
 40
0.744363869
 40
0.8724345337
 40
1.0
 40
1.0
 40
1.0
 40
1.0
 10
6.3612066055
 20
5.0782465796
 30
0.0
 10
6.3597741572
 20
5.0782465796
 30
0.0
 10
6.3568849665
 20
5.0779347955
 30
0.0
 10
6.3534210328
 20
5.0768274757
 30
0.0
 10
6.3508073426
 20
5.075534759
 30
0.0
 10
6.3483219781
 20
5.0739690119
 30
0.0
 10
6.3455162449
 20
5.0715337568
 30
0.0
 10
6.3432261826
 20
5.0685861601
 30
0.0
 10
6.3417509051
 20
5.0659781451
 30
0.0
 10
6.3405230345
 20
5.063213149
 30
0.0
 10
6.3394772269
 20
5.0595582992
 30
0.0
 10
6.3391843372
 20
5.056527531
 30
0.0
 10
6.3391843372
 20
5.0550182331
 30
0.0
  0
SPLINE
  5
3D9
100
AcDbEntity
  8
0
100
AcDbSpline
 62
9
  6
CONTINUOUS
 70
0
 71
3
 72
9
 73
5
 74
0
 42
0.0000001
 43
0.0000001
 44
0.0000000001
 40
0.0
 40
0.0
 40
0.0
 40
0.0
 40
0.4972542575
 40
1.0
 40
1.0
 40
1.0
 40
1.0
 10
6.7066877547
 20
5.0782465796
 30
0.0
 10
6.7054128836
 20
5.0782465796
 30
0.0
 10
6.7028442139
 20
5.0779999096
 30
0.0
 10
6.7003630927
 20
5.0772960648
 30
0.0
 10
6.6991589949
 20
5.0768361286
 30
0.0
  0
SPLINE
  5
3DA
100
AcDbEntity
  8
0
100
AcDbSpline
 62
9
  6
CONTINUOUS
 70
0
 71
3
 72
10
 73
6
 74
0
 42
0.0000001
 43
0.0000001
 44
0.0000000001
 40
0.0
 40
0.0
 40
0.0
 40
0.0
 40
0.2484707364
 40
0.4979232438
 40
1.0
 40
1.0
 40
1.0
 40
1.0
 10
6.6991589949
 20
5.0768361286
 30
0.0
 10
6.6982518233
 20
5.076489611
 30
0.0
 10
6.6964773589
 20
5.0756723681
 30
0.0
 10
6.6931764284
 20
5.0735646071
 30
0.0
 10
6.6910371246
 20
5.0714867082
 30
0.0
 10
6.6898155437
 20
5.0699510511
 30
0.0
  0
SPLINE
  5
3DB
100
AcDbEntity
  8
0
100
AcDbSpline
 62
9
  6
CONTINUOUS
 70
0
 71
3
 72
9
 73
5
 74
0
 42
0.0000001
 43
0.0000001
 44
0.0000000001
 40
0.0
 40
0.0
 40
0.0
 40
0.0
 40
0.5000183969
 40
1.0
 40
1.0
 40
1.0
 40
1.0
 10
6.6876159109
 20
5.0666324064
 30
0.0
 10
6.6866531945
 20
5.0648650951
 30
0.0
 10
6.6851835026
 20
5.0610680828
 30
0.0
 10
6.6846654864
 20
5.0570305989
 30
0.0
 10
6.6846654864
 20
5.0550182331
 30
0.0
  0
SPLINE
  5
3DC
100
AcDbEntity
  8
0
100
AcDbSpline
 62
7
  6
CONTINUOUS
 70
0
 71
3
 72
35
 73
31
 74
0
 42
0.0000001
 43
0.0000001
 44
0.0000000001
 40
0.0
 40
0.0
 40
0.0
 40
0.0
 40
0.1127525809
 40
0.2203279111
 40
0.3222845348
 40
0.4181830754
 40
0.5076560821
 40
0.5904255478
 40
0.6662191485
 40
0.7347709087
 40
0.7958573491
 40
0.823536812
 40
0.8492728569
 40
0.8730398327
 40
0.8948122846
 40
0.9145702267
 40
0.932300305
 40
0.947989682
 40
0.9616257215
 40
0.9731961359
 40
0.9826892956
 40
0.9900950296
 40
0.9930139461
 40
0.9954119378
 40
0.9972920927
 40
0.998039938
 40
0.9986614199
 40
0.9991592386
 40
0.9995387354
 40
1.0
 40
1.0
 40
1.0
 40
1.0
 10
6.0862399277
 20
6.0848293459
 30
0.0
 10
6.0994157839
 20
6.085006414
 30
0.0
 10
6.1251624436
 20
6.0853567795
 30
0.0
 10
6.1628230859
 20
6.0858888415
 30
0.0
 10
6.1985138735
 20
6.0864188636
 30
0.0
 10
6.2320888295
 20
6.0869503885
 30
0.0
 10
6.2634210747
 20
6.0874859754
 30
0.0
 10
6.2924032585
 20
6.0880264967
 30
0.0
 10
6.3189398624
 20
6.0885730049
 30
0.0
 10
6.3429416679
 20
6.0891274298
 30
0.0
 10
6.3613206665
 20
6.0896075983
 30
0.0
 10
6.3746965218
 20
6.0899961536
 30
0.0
 10
6.3837122169
 20
6.0902775864
 30
0.0
 10
6.3920372441
 20
6.0905581745
 30
0.0
 10
6.3996632489
 20
6.0908373863
 30
0.0
 10
6.406583294
 20
6.0911148535
 30
0.0
 10
6.4127918811
 20
6.0913904448
 30
0.0
 10
6.4182843434
 20
6.0916639377
 30
0.0
 10
6.4230560545
 20
6.0919351286
 30
0.0
 10
6.4271025197
 20
6.0922033387
 30
0.0
 10
6.4304191409
 20
6.0924683848
 30
0.0
 10
6.4327240571
 20
6.0926990444
 30
0.0
 10
6.4341986776
 20
6.0928902807
 30
0.0
 10
6.4350296864
 20
6.0930212214
 30
0.0
 10
6.4356060287
 20
6.0931354145
 30
0.0
 10
6.43597409
 20
6.0932306438
 30
0.0
 10
6.4361818693
 20
6.0932954445
 30
0.0
 10
6.4363462884
 20
6.0933619027
 30
0.0
 10
6.4364798559
 20
6.093432558
 30
0.0
 10
6.4365639592
 20
6.0935149146
 30
0.0
 10
6.4365639695
 20
6.0935688211
 30
0.0
  0
SPLINE
  5
3DD
100
AcDbEntity
  8
0
100
AcDbSpline
 62
7
  6
CONTINUOUS
 70
0
 71
3
 72
12
 73
8
 74
0
 42
0.0000001
 43
0.0000001
 44
0.0000000001
 40
0.0
 40
0.0
 40
0.0
 40
0.0
 40
0.058641469
 40
0.1360608057
 40
0.3478123462
 40
0.6357829205
 40
1.0
 40
1.0
 40
1.0
 40
1.0
 10
4.7599021537
 20
5.1937622991
 30
0.0
 10
4.7600472219
 20
5.1938099736
 30
0.0
 10
4.7603907803
 20
5.1938988262
 30
0.0
 10
4.7612794458
 20
5.1940742461
 30
0.0
 10
4.7627692053
 20
5.1942796959
 30
0.0
 10
4.7650064538
 20
5.1945153859
 30
0.0
 10
4.7666989598
 20
5.1946574876
 30
0.0
 10
4.7676445064
 20
5.194731181
 30
0.0
  0
SPLINE
  5
3DE
100
AcDbEntity
  8
0
100
AcDbSpline
 62
7
  6
CONTINUOUS
 70
0
 71
3
 72
60
 73
56
 74
0
 42
0.0000001
 43
0.0000001
 44
0.0000000001
 40
0.0
 40
0.0
 40
0.0
 40
0.0
 40
0.003836731
 40
0.0087588024
 40
0.0147559681
 40
0.0218124785
 40
0.029912218
 40
0.0390390052
 40
0.0602973496
 40
0.085393877
 40
0.1141163717
 40
0.1462110646
 40
0.1813962318
 40
0.219364265
 40
0.2597750229
 40
0.3464900898
 40
0.3920313698
 40
0.4384990617
 40
0.4854853226
 40
0.5325781003
 40
0.5793617646
 40
0.6254252204
 40
0.6703655357
 40
0.71378541
 40
0.7553067795
 40
0.7945591168
 40
0.8312001272
 40
0.8649051364
 40
0.8805620903
 40
0.8953778245
 40
0.9093196826
 40
0.9223551012
 40
0.9344551673
 40
0.9455959415
 40
0.9557538511
 40
0.9649053387
 40
0.9730277745
 40
0.9801049076
 40
0.9832472768
 40
0.9861232807
 40
0.9887312588
 40
0.9910695668
 40
0.9931365859
 40
0.9949307661
 40
0.9964512939
 40
0.997698174
 40
0.9982190964
 40
0.9986717808
 40
0.9990563951
 40
0.9993732413
 40
0.9996229
 40
0.9998066352
 40
0.9998747695
 40
0.9999281949
 40
1.0
 40
1.0
 40
1.0
 40
1.0
 10
4.7676445064
 20
5.194731181
 30
0.0
 10
4.7697730163
 20
5.1948970713
 30
0.0
 10
4.7746370902
 20
5.1952113154
 30
0.0
 10
4.7828371396
 20
5.1956368081
 30
0.0
 10
4.7928305341
 20
5.1960701904
 30
0.0
 10
4.8045932929
 20
5.1965091658
 30
0.0
 10
4.8180984928
 20
5.1969512857
 30
0.0
 10
4.8395045281
 20
5.1975742767
 30
0.0
 10
4.8703683761
 20
5.1983316449
 30
0.0
 10
4.9121366652
 20
5.1991931071
 30
0.0
 10
4.9599363528
 20
5.2000345457
 30
0.0
 10
5.013350817
 20
5.2008651386
 30
0.0
 10
5.0719104593
 20
5.2017024737
 30
0.0
 10
5.1350978317
 20
5.2025556474
 30
0.0
 10
5.2269572856
 20
5.203744898
 30
0.0
 10
5.3230312883
 20
5.2049316178
 30
0.0
 10
5.4224764083
 20
5.2060777007
 30
0.0
 10
5.4998161223
 20
5.2069350266
 30
0.0
 10
5.5780193996
 20
5.2077762527
 30
0.0
 10
5.656398585
 20
5.2086104974
 30
0.0
 10
5.7342641138
 20
5.2094568437
 30
0.0
 10
5.8109315767
 20
5.210325423
 30
0.0
 10
5.8857269642
 20
5.2112074755
 30
0.0
 10
5.9579946153
 20
5.2120970709
 30
0.0
 10
6.0270969907
 20
5.2129808168
 30
0.0
 10
6.0924272107
 20
5.2138423569
 30
0.0
 10
6.1534078539
 20
5.2146844826
 30
0.0
 10
6.2012592916
 20
5.2153956302
 30
0.0
 10
6.236966606
 20
5.2159707698
 30
0.0
 10
6.2616776472
 20
5.2163937057
 30
0.0
 10
6.2849296349
 20
5.2168201786
 30
0.0
 10
6.3066701052
 20
5.2172519231
 30
0.0
 10
6.3268514497
 20
5.2176893524
 30
0.0
 10
6.3454311021
 20
5.2181303708
 30
0.0
 10
6.3623694522
 20
5.2185733215
 30
0.0
 10
6.3776276033
 20
5.2190163775
 30
0.0
 10
6.3911706835
 20
5.2194579127
 30
0.0
 10
6.4013701561
 20
5.2198366539
 30
0.0
 10
6.4086508251
 20
5.2201418032
 30
0.0
 10
6.413446025
 20
5.2203604295
 30
0.0
 10
6.4177933555
 20
5.220577808
 30
0.0
 10
6.4216899835
 20
5.2207937419
 30
0.0
 10
6.4251330944
 20
5.2210080152
 30
0.0
 10
6.4281203067
 20
5.2212202494
 30
0.0
 10
6.4306499669
 20
5.221430396
 30
0.0
 10
6.432470866
 20
5.2216124568
 30
0.0
 10
6.4336975062
 20
5.2217613707
 30
0.0
 10
6.4344461021
 20
5.2218657731
 30
0.0
 10
6.4350799437
 20
5.2219697121
 30
0.0
 10
6.4355992487
 20
5.2220725801
 30
0.0
 10
6.4360042352
 20
5.2221751328
 30
0.0
 10
6.4362690235
 20
5.2222643949
 30
0.0
 10
6.4364215704
 20
5.2223420246
 30
0.0
 10
6.4365091852
 20
5.2224011873
 30
0.0
 10
6.4365568811
 20
5.2224653996
 30
0.0
 10
6.4365568902
 20
5.2225053559
 30
0.0
  0
SPLINE
  5
3DF
100
AcDbEntity
  8
0
100
AcDbSpline
 62
7
  6
CONTINUOUS
 70
0
 71
3
 72
33
 73
29
 74
0
 42
0.0000001
 43
0.0000001
 44
0.0000000001
 40
0.0
 40
0.0
 40
0.0
 40
0.0
 40
0.0004647028
 40
0.0010699418
 40
0.0027071548
 40
0.0049173632
 40
0.0077021453
 40
0.0110601032
 40
0.0149888514
 40
0.0194858047
 40
0.0245482692
 40
0.0363586362
 40
0.0503975075
 40
0.0666369358
 40
0.0850343656
 40
0.1055446313
 40
0.1281225106
 40
0.1527212231
 40
0.1792814062
 40
0.2380238402
 40
0.3038169022
 40
0.3760476165
 40
0.4540534637
 40
0.5371092734
 40
0.6244323404
 40
0.7152298316
 40
0.8086969647
 40
1.0
 40
1.0
 40
1.0
 40
1.0
 10
4.7273682693
 20
5.1829674923
 30
0.0
 10
4.7274964903
 20
5.1830093904
 30
0.0
 10
4.7277973741
 20
5.1830881418
 30
0.0
 10
4.728567752
 20
5.1832437965
 30
0.0
 10
4.7298480007
 20
5.183427284
 30
0.0
 10
4.731761581
 20
5.1836382043
 30
0.0
 10
4.7341769882
 20
5.1838522557
 30
0.0
 10
4.7370924522
 20
5.1840696888
 30
0.0
 10
4.740505977
 20
5.1842893572
 30
0.0
 10
4.7444150348
 20
5.1845110113
 30
0.0
 10
4.7506102812
 20
5.1848250052
 30
0.0
 10
4.7595749858
 20
5.185212666
 30
0.0
 10
4.7717841576
 20
5.1856621786
 30
0.0
 10
4.7859064418
 20
5.1861141453
 30
0.0
 10
4.8019080211
 20
5.1865674024
 30
0.0
 10
4.8197501747
 20
5.1870203369
 30
0.0
 10
4.8393929815
 20
5.1874715819
 30
0.0
 10
4.8607924326
 20
5.1879196343
 30
0.0
 10
4.8926884344
 20
5.1885329582
 30
0.0
 10
4.936541806
 20
5.1892799181
 30
0.0
 10
4.9936523003
 20
5.1901309112
 30
0.0
 10
5.0563551014
 20
5.1909803037
 30
0.0
 10
5.1240689707
 20
5.1918561649
 30
0.0
 10
5.1961638148
 20
5.1927596852
 30
0.0
 10
5.2719719605
 20
5.193671836
 30
0.0
 10
5.3508025301
 20
5.1945804897
 30
0.0
 10
5.4598147634
 20
5.1957821208
 30
0.0
 10
5.5424727453
 20
5.1966354232
 30
0.0
 10
5.5980007764
 20
5.197206893
 30
0.0
  0
SPLINE
  5
3E0
100
AcDbEntity
  8
0
100
AcDbSpline
 62
7
  6
CONTINUOUS
 70
0
 71
3
 72
13
 73
9
 74
0
 42
0.0000001
 43
0.0000001
 44
0.0000000001
 40
0.0
 40
0.0
 40
0.0
 40
0.0
 40
0.2854773695
 40
0.5562980434
 40
0.681840517
 40
0.7986212396
 40
0.9051304832
 40
1.0
 40
1.0
 40
1.0
 40
1.0
 10
5.5980007764
 20
4.79071083
 30
0.0
 10
5.6633229258
 20
4.7913830965
 30
0.0
 10
5.7906134613
 20
4.7927000502
 30
0.0
 10
5.9466282848
 20
4.7944984218
 30
0.0
 10
6.0640415924
 20
4.7959593351
 30
0.0
 10
6.1438580476
 20
4.7969903582
 30
0.0
 10
6.2166555017
 20
4.7979849018
 30
0.0
 10
6.2627314001
 20
4.7986989741
 30
0.0
 10
6.2844371842
 20
4.7990686851
 30
0.0
  0
LINE
  5
3E1
100
AcDbEntity
  8
0
100
AcDbLine
 62
7
  6
CONTINUOUS
 10
6.2844371842
 20
4.7990686851
 11
6.2921106173
 21
4.7992008057
  0
LINE
  5
3E2
100
AcDbEntity
  8
0
100
AcDbLine
 62
7
  6
CONTINUOUS
 10
6.2921106173
 20
4.7992008057
 11
6.3201705578
 21
4.7997107892
  0
LINE
  5
3E3
100
AcDbEntity
  8
0
100
AcDbLine
 62
7
  6
CONTINUOUS
 10
6.3201705578
 20
4.7997107892
 11
6.3343951006
 21
4.7999881508
  0
SPLINE
  5
3E4
100
AcDbEntity
  8
0
100
AcDbSpline
 62
7
  6
CONTINUOUS
 70
0
 71
3
 72
11
 73
7
 74
0
 42
0.0000001
 43
0.0000001
 44
0.0000000001
 40
0.0
 40
0.0
 40
0.0
 40
0.0
 40
0.3095044078
 40
0.5801983102
 40
0.8107846673
 40
1.0
 40
1.0
 40
1.0
 40
1.0
 10
6.3343951006
 20
4.7999881508
 30
0.0
 10
6.3448650768
 20
4.8001976671
 30
0.0
 10
6.3644916927
 20
4.8006134816
 30
0.0
 10
6.3919164748
 20
4.8012825857
 30
0.0
 10
6.4152698707
 20
4.8019511324
 30
0.0
 10
6.4294655678
 20
4.8024410421
 30
0.0
 10
6.4358626395
 20
4.8026946089
 30
0.0
  0
SPLINE
  5
3E5
100
AcDbEntity
  8
0
100
AcDbSpline
 62
7
  6
CONTINUOUS
 70
0
 71
3
 72
24
 73
20
 74
0
 42
0.0000001
 43
0.0000001
 44
0.0000000001
 40
0.0
 40
0.0
 40
0.0
 40
0.0
 40
0.2319539837
 40
0.4336305223
 40
0.6048135371
 40
0.678904413
 40
0.745294191
 40
0.8039588917
 40
0.8548764892
 40
0.8980338211
 40
0.9334433239
 40
0.9482519829
 40
0.9611373785
 40
0.9721091383
 40
0.9811829819
 40
0.9883870621
 40
0.9937788979
 40
0.9975009925
 40
1.0
 40
1.0
 40
1.0
 40
1.0
 10
6.4358626395
 20
4.8026946089
 30
0.0
 10
6.4384432198
 20
4.8027968978
 30
0.0
 10
6.4432671391
 20
4.8029984375
 30
0.0
 10
6.449993613
 20
4.8033191518
 30
0.0
 10
6.4549624643
 20
4.8035948653
 30
0.0
 10
6.4584254293
 20
4.8038177001
 30
0.0
 10
6.4606371299
 20
4.8039756643
 30
0.0
 10
6.4625901712
 20
4.8041324746
 30
0.0
 10
6.4642837317
 20
4.8042879111
 30
0.0
 10
6.4657172446
 20
4.8044418539
 30
0.0
 10
6.4667484697
 20
4.8045752394
 30
0.0
 10
6.4674426119
 20
4.804684261
 30
0.0
 10
6.467866309
 20
4.8047607851
 30
0.0
 10
6.4682250915
 20
4.8048368212
 30
0.0
 10
6.4685189707
 20
4.8049125961
 30
0.0
 10
6.468748809
 20
4.8049870207
 30
0.0
 10
6.4689147192
 20
4.8050622314
 30
0.0
 10
6.469023228
 20
4.8051342395
 30
0.0
 10
6.4690593467
 20
4.805200915
 30
0.0
 10
6.4690593465
 20
4.8052287393
 30
0.0
  0
SPLINE
  5
3E6
100
AcDbEntity
  8
0
100
AcDbSpline
 62
7
  6
CONTINUOUS
 70
0
 71
3
 72
12
 73
8
 74
0
 42
0.0000001
 43
0.0000001
 44
0.0000000001
 40
0.0
 40
0.0
 40
0.0
 40
0.0
 40
0.0624406533
 40
0.1425335271
 40
0.3563132534
 40
0.6420559558
 40
1.0
 40
1.0
 40
1.0
 40
1.0
 10
4.7598816545
 20
5.2518326711
 30
0.0
 10
4.760003842
 20
5.2518728648
 30
0.0
 10
4.7602878113
 20
5.2519489918
 30
0.0
 10
4.7610063835
 20
5.2520993715
 30
0.0
 10
4.7621878587
 20
5.2522771437
 30
0.0
 10
4.7639424812
 20
5.252480825
 30
0.0
 10
4.7652628713
 20
5.252604212
 30
0.0
 10
4.7659974744
 20
5.2526680285
 30
0.0
  0
SPLINE
  5
3E7
100
AcDbEntity
  8
0
100
AcDbSpline
 62
7
  6
CONTINUOUS
 70
0
 71
3
 72
59
 73
55
 74
0
 42
0.0000001
 43
0.0000001
 44
0.0000000001
 40
0.0
 40
0.0
 40
0.0
 40
0.0
 40
0.0035183328
 40
0.0081334194
 40
0.01383338
 40
0.0206059406
 40
0.0284384988
 40
0.0373139065
 40
0.0581041389
 40
0.0827957251
 40
0.1111731792
 40
0.1429821329
 40
0.1779477278
 40
0.2157526689
 40
0.2560668044
 40
0.2985270877
 40
0.3427589744
 40
0.4349504886
 40
0.529372431
 40
0.5763733395
 40
0.6226795891
 40
0.6678795362
 40
0.7115757629
 40
0.7533772231
 40
0.7929133612
 40
0.8298297837
 40
0.8637945408
 40
0.8795770133
 40
0.8945105632
 40
0.908560853
 40
0.9216994972
 40
0.9338990259
 40
0.9451319791
 40
0.9553713082
 40
0.9645952796
 40
0.9727859525
 40
0.9799255035
 40
0.9830955588
 40
0.985996183
 40
0.9886255114
 40
0.9909825513
 40
0.9930664713
 40
0.9948764836
 40
0.9964118743
 40
0.9976720696
 40
0.9981988785
 40
0.9986568335
 40
0.999046026
 40
0.9993666813
 40
0.999619304
 40
0.9998050853
 40
0.9998738919
 40
0.9999277764
 40
1.0
 40
1.0
 40
1.0
 40
1.0
 10
4.7659974744
 20
5.2526680285
 30
0.0
 10
4.767949839
 20
5.2528376347
 30
0.0
 10
4.7724695178
 20
5.2531549514
 30
0.0
 10
4.7801630279
 20
5.2535806013
 30
0.0
 10
4.7896711586
 20
5.2540133069
 30
0.0
 10
4.80097266
 20
5.2544519351
 30
0.0
 10
4.8140439064
 20
5.254894656
 30
0.0
 10
4.8349210886
 20
5.2555218513
 30
0.0
 10
4.8651886451
 20
5.2562873009
 30
0.0
 10
4.9063193908
 20
5.2571516058
 30
0.0
 10
4.9535890701
 20
5.2579978147
 30
0.0
 10
5.0065822949
 20
5.2588365957
 30
0.0
 10
5.0648272399
 20
5.2596750719
 30
0.0
 10
5.127809854
 20
5.2605267452
 30
0.0
 10
5.1949670514
 20
5.2614039159
 30
0.0
 10
5.2657041861
 20
5.2622950073
 30
0.0
 10
5.3653354218
 20
5.2635016723
 30
0.0
 10
5.4939084601
 20
5.2649593167
 30
0.0
 10
5.6240248668
 20
5.2663304502
 30
0.0
 10
5.7285841354
 20
5.2674677114
 30
0.0
 10
5.8057279854
 20
5.2683339696
 30
0.0
 10
5.8810307559
 20
5.269221522
 30
0.0
 10
5.9538240749
 20
5.2701167359
 30
0.0
 10
6.0234625209
 20
5.2710018517
 30
0.0
 10
6.0893245073
 20
5.2718701273
 30
0.0
 10
6.1508212828
 20
5.2727202727
 30
0.0
 10
6.199087856
 20
5.2734325261
 30
0.0
 10
6.2351105562
 20
5.2740093028
 30
0.0
 10
6.2600418541
 20
5.2744344998
 30
0.0
 10
6.2835002148
 20
5.2748648537
 30
0.0
 10
6.3054353629
 20
5.2752995479
 30
0.0
 10
6.3258008384
 20
5.2757380403
 30
0.0
 10
6.3445509146
 20
5.2761796377
 30
0.0
 10
6.3616430285
 20
5.2766239998
 30
0.0
 10
6.3770399243
 20
5.2770695727
 30
0.0
 10
6.3907094602
 20
5.2775141424
 30
0.0
 10
6.4010071492
 20
5.2778953999
 30
0.0
 10
6.4083588885
 20
5.2782021287
 30
0.0
 10
6.4131998514
 20
5.2784215441
 30
0.0
 10
6.4175875354
 20
5.2786393254
 30
0.0
 10
6.4215197845
 20
5.2788555164
 30
0.0
 10
6.4249949972
 20
5.2790701381
 30
0.0
 10
6.4280116942
 20
5.2792830604
 30
0.0
 10
6.4305683701
 20
5.2794942935
 30
0.0
 10
6.4324100314
 20
5.2796775238
 30
0.0
 10
6.4336514992
 20
5.2798274981
 30
0.0
 10
6.4344095846
 20
5.2799326948
 30
0.0
 10
6.4350516444
 20
5.2800374378
 30
0.0
 10
6.435577769
 20
5.2801410895
 30
0.0
 10
6.4359880572
 20
5.2802444099
 30
0.0
 10
6.4362562577
 20
5.2803342854
 30
0.0
 10
6.4364107117
 20
5.2804124978
 30
0.0
 10
6.4364992286
 20
5.2804719663
 30
0.0
 10
6.4365474944
 20
5.2805366755
 30
0.0
 10
6.4365474236
 20
5.2805769042
 30
0.0
  0
SPLINE
  5
3E8
100
AcDbEntity
  8
0
100
AcDbSpline
 62
7
  6
CONTINUOUS
 70
0
 71
3
 72
33
 73
29
 74
0
 42
0.0000001
 43
0.0000001
 44
0.0000000001
 40
0.0
 40
0.0
 40
0.0
 40
0.0
 40
0.0004647028
 40
0.0010699418
 40
0.0027071548
 40
0.0049173632
 40
0.0077021453
 40
0.0110601032
 40
0.0149888514
 40
0.0194858047
 40
0.0245482692
 40
0.0363586362
 40
0.0503975075
 40
0.0666369358
 40
0.0850343656
 40
0.1055446313
 40
0.1281225106
 40
0.1527212231
 40
0.1792814062
 40
0.2380238402
 40
0.3038169022
 40
0.3760476165
 40
0.4540534637
 40
0.5371092734
 40
0.6244323404
 40
0.7152298316
 40
0.8086969647
 40
1.0
 40
1.0
 40
1.0
 40
1.0
 10
4.7273682693
 20
5.2410383585
 30
0.0
 10
4.7274964903
 20
5.2410802565
 30
0.0
 10
4.7277973741
 20
5.241159008
 30
0.0
 10
4.728567752
 20
5.2413146627
 30
0.0
 10
4.7298480007
 20
5.2414981502
 30
0.0
 10
4.731761581
 20
5.2417090704
 30
0.0
 10
4.7341769882
 20
5.2419231219
 30
0.0
 10
4.7370924522
 20
5.242140555
 30
0.0
 10
4.740505977
 20
5.2423602233
 30
0.0
 10
4.7444150348
 20
5.2425818775
 30
0.0
 10
4.7506102812
 20
5.2428958713
 30
0.0
 10
4.7595749858
 20
5.2432835322
 30
0.0
 10
4.7717841576
 20
5.2437330448
 30
0.0
 10
4.7859064418
 20
5.2441850115
 30
0.0
 10
4.8019080211
 20
5.2446382686
 30
0.0
 10
4.8197501747
 20
5.2450912031
 30
0.0
 10
4.8393929815
 20
5.2455424481
 30
0.0
 10
4.8607924326
 20
5.2459905004
 30
0.0
 10
4.8926884344
 20
5.2466038243
 30
0.0
 10
4.936541806
 20
5.2473507842
 30
0.0
 10
4.9936523003
 20
5.2482017773
 30
0.0
 10
5.0563551014
 20
5.2490511699
 30
0.0
 10
5.1240689707
 20
5.249927031
 30
0.0
 10
5.1961638148
 20
5.2508305514
 30
0.0
 10
5.2719719605
 20
5.2517427022
 30
0.0
 10
5.3508025301
 20
5.2526513559
 30
0.0
 10
5.4598147634
 20
5.2538529869
 30
0.0
 10
5.5424727453
 20
5.2547062894
 30
0.0
 10
5.5980007764
 20
5.2552777591
 30
0.0
  0
SPLINE
  5
3E9
100
AcDbEntity
  8
0
100
AcDbSpline
 62
7
  6
CONTINUOUS
 70
0
 71
3
 72
13
 73
9
 74
0
 42
0.0000001
 43
0.0000001
 44
0.0000000001
 40
0.0
 40
0.0
 40
0.0
 40
0.0
 40
0.2854773695
 40
0.5562980434
 40
0.681840517
 40
0.7986212396
 40
0.9051304832
 40
1.0
 40
1.0
 40
1.0
 40
1.0
 10
5.5980007764
 20
4.7326399639
 30
0.0
 10
5.6633229258
 20
4.7333122304
 30
0.0
 10
5.7906134613
 20
4.734629184
 30
0.0
 10
5.9466282848
 20
4.7364275557
 30
0.0
 10
6.0640415924
 20
4.7378884689
 30
0.0
 10
6.1438580476
 20
4.7389194921
 30
0.0
 10
6.2166555017
 20
4.7399140357
 30
0.0
 10
6.2627314001
 20
4.740628108
 30
0.0
 10
6.2844371842
 20
4.740997819
 30
0.0
  0
LINE
  5
3EA
100
AcDbEntity
  8
0
100
AcDbLine
 62
7
  6
CONTINUOUS
 10
6.2844371842
 20
4.740997819
 11
6.2925248211
 21
4.7411371539
  0
LINE
  5
3EB
100
AcDbEntity
  8
0
100
AcDbLine
 62
7
  6
CONTINUOUS
 10
6.2925248211
 20
4.7411371539
 11
6.3201705578
 21
4.741639923
  0
LINE
  5
3EC
100
AcDbEntity
  8
0
100
AcDbLine
 62
7
  6
CONTINUOUS
 10
6.3201705578
 20
4.741639923
 11
6.3225805375
 21
4.7416859317
  0
SPLINE
  5
3ED
100
AcDbEntity
  8
0
100
AcDbSpline
 62
7
  6
CONTINUOUS
 70
0
 71
3
 72
11
 73
7
 74
0
 42
0.0000001
 43
0.0000001
 44
0.0000000001
 40
0.0
 40
0.0
 40
0.0
 40
0.0
 40
0.3125211142
 40
0.5843727635
 40
0.8140181789
 40
1.0
 40
1.0
 40
1.0
 40
1.0
 10
6.3225805375
 20
4.7416859317
 30
0.0
 10
6.3343835119
 20
4.7419122028
 30
0.0
 10
6.3564530246
 20
4.7423608409
 30
0.0
 10
6.3871932025
 20
4.7430859205
 30
0.0
 10
6.4131519122
 20
4.7438110329
 30
0.0
 10
6.4288428921
 20
4.7443454944
 30
0.0
 10
6.4358626395
 20
4.7446237427
 30
0.0
  0
SPLINE
  5
3EE
100
AcDbEntity
  8
0
100
AcDbSpline
 62
7
  6
CONTINUOUS
 70
0
 71
3
 72
24
 73
20
 74
0
 42
0.0000001
 43
0.0000001
 44
0.0000000001
 40
0.0
 40
0.0
 40
0.0
 40
0.0
 40
0.2319539837
 40
0.4336305223
 40
0.6048135371
 40
0.678904413
 40
0.745294191
 40
0.8039588917
 40
0.8548764892
 40
0.8980338211
 40
0.9334433239
 40
0.9482519829
 40
0.9611373785
 40
0.9721091383
 40
0.9811829819
 40
0.9883870621
 40
0.9937788979
 40
0.9975009925
 40
1.0
 40
1.0
 40
1.0
 40
1.0
 10
6.4358626395
 20
4.7446237427
 30
0.0
 10
6.4384432198
 20
4.7447260316
 30
0.0
 10
6.4432671391
 20
4.7449275713
 30
0.0
 10
6.449993613
 20
4.7452482857
 30
0.0
 10
6.4549624643
 20
4.7455239991
 30
0.0
 10
6.4584254293
 20
4.745746834
 30
0.0
 10
6.4606371299
 20
4.7459047981
 30
0.0
 10
6.4625901712
 20
4.7460616085
 30
0.0
 10
6.4642837317
 20
4.746217045
 30
0.0
 10
6.4657172446
 20
4.7463709878
 30
0.0
 10
6.4667484697
 20
4.7465043733
 30
0.0
 10
6.4674426119
 20
4.7466133949
 30
0.0
 10
6.467866309
 20
4.7466899189
 30
0.0
 10
6.4682250915
 20
4.7467659551
 30
0.0
 10
6.4685189707
 20
4.74684173
 30
0.0
 10
6.468748809
 20
4.7469161546
 30
0.0
 10
6.4689147192
 20
4.7469913653
 30
0.0
 10
6.469023228
 20
4.7470633733
 30
0.0
 10
6.4690593467
 20
4.7471300489
 30
0.0
 10
6.4690593465
 20
4.7471578732
 30
0.0
  0
LINE
  5
3EF
100
AcDbEntity
  8
0
100
AcDbLine
 62
7
  6
CONTINUOUS
 10
5.5980007764
 20
4.8487816962
 11
5.7722307551
 21
4.8506083664
  0
SPLINE
  5
3F0
100
AcDbEntity
  8
0
100
AcDbSpline
 62
7
  6
CONTINUOUS
 70
0
 71
3
 72
33
 73
29
 74
0
 42
0.0000001
 43
0.0000001
 44
0.0000000001
 40
0.0
 40
0.0
 40
0.0
 40
0.0
 40
0.0004925987
 40
0.0011226501
 40
0.0027992589
 40
0.0050338134
 40
0.0078265824
 40
0.0111767627
 40
0.0150830932
 40
0.0195440852
 40
0.0245581234
 40
0.0362383284
 40
0.0501013163
 40
0.0661126537
 40
0.0842368623
 40
0.1044383724
 40
0.1266807985
 40
0.1509173782
 40
0.1770938626
 40
0.2350487608
 40
0.3000882812
 40
0.3716592125
 40
0.4491760729
 40
0.5319857253
 40
0.6193892056
 40
0.7106628873
 40
0.8050441557
 40
1.0
 40
1.0
 40
1.0
 40
1.0
 10
4.7598970313
 20
5.309903644
 30
0.0
 10
4.7600175158
 20
5.3099432563
 30
0.0
 10
4.7602970055
 20
5.3100183782
 30
0.0
 10
4.7610024206
 20
5.3101667615
 30
0.0
 10
4.7621591426
 20
5.3103422799
 30
0.0
 10
4.7638734977
 20
5.3105431659
 30
0.0
 10
4.7660210783
 20
5.3107459985
 30
0.0
 10
4.7686003656
 20
5.3109510567
 30
0.0
 10
4.7716102394
 20
5.3111576291
 30
0.0
 10
4.7750492698
 20
5.3113657364
 30
0.0
 10
4.7804881611
 20
5.3116603005
 30
0.0
 10
4.7883473768
 20
5.3120248648
 30
0.0
 10
4.7990380129
 20
5.3124498726
 30
0.0
 10
4.8113887773
 20
5.3128788935
 30
0.0
 10
4.8253723065
 20
5.313310066
 30
0.0
 10
4.840960829
 20
5.3137413322
 30
0.0
 10
4.8581236941
 20
5.3141705861
 30
0.0
 10
4.8768254373
 20
5.3145969854
 30
0.0
 10
4.9047208027
 20
5.3151813109
 30
0.0
 10
4.9431212642
 20
5.315892729
 30
0.0
 10
4.993209421
 20
5.3167035065
 30
0.0
 10
5.0483348016
 20
5.3175125737
 30
0.0
 10
5.1080357024
 20
5.3183361328
 30
0.0
 10
5.1718131387
 20
5.3191772113
 30
0.0
 10
5.2391326387
 20
5.3200335384
 30
0.0
 10
5.3094315889
 20
5.3208998129
 30
0.0
 10
5.4074204935
 20
5.3220598016
 30
0.0
 10
5.4819115408
 20
5.3228801797
 30
0.0
 10
5.5321038415
 20
5.3234226575
 30
0.0
  0
SPLINE
  5
3F1
100
AcDbEntity
  8
0
100
AcDbSpline
 62
7
  6
CONTINUOUS
 70
0
 71
3
 72
33
 73
29
 74
0
 42
0.0000001
 43
0.0000001
 44
0.0000000001
 40
0.0
 40
0.0
 40
0.0
 40
0.0
 40
0.0004647028
 40
0.0010699418
 40
0.0027071548
 40
0.0049173632
 40
0.0077021453
 40
0.0110601032
 40
0.0149888514
 40
0.0194858047
 40
0.0245482692
 40
0.0363586362
 40
0.0503975075
 40
0.0666369358
 40
0.0850343656
 40
0.1055446313
 40
0.1281225106
 40
0.1527212231
 40
0.1792814062
 40
0.2380238402
 40
0.3038169022
 40
0.3760476165
 40
0.4540534637
 40
0.5371092734
 40
0.6244323404
 40
0.7152298316
 40
0.8086969647
 40
1.0
 40
1.0
 40
1.0
 40
1.0
 10
4.7273682693
 20
5.2991092246
 30
0.0
 10
4.7274964903
 20
5.2991511226
 30
0.0
 10
4.7277973741
 20
5.2992298741
 30
0.0
 10
4.728567752
 20
5.2993855288
 30
0.0
 10
4.7298480007
 20
5.2995690163
 30
0.0
 10
4.731761581
 20
5.2997799366
 30
0.0
 10
4.7341769882
 20
5.299993988
 30
0.0
 10
4.7370924522
 20
5.3002114211
 30
0.0
 10
4.740505977
 20
5.3004310895
 30
0.0
 10
4.7444150348
 20
5.3006527436
 30
0.0
 10
4.7506102812
 20
5.3009667375
 30
0.0
 10
4.7595749858
 20
5.3013543983
 30
0.0
 10
4.7717841576
 20
5.3018039109
 30
0.0
 10
4.7859064418
 20
5.3022558776
 30
0.0
 10
4.8019080211
 20
5.3027091347
 30
0.0
 10
4.8197501747
 20
5.3031620692
 30
0.0
 10
4.8393929815
 20
5.3036133142
 30
0.0
 10
4.8607924326
 20
5.3040613666
 30
0.0
 10
4.8926884344
 20
5.3046746904
 30
0.0
 10
4.936541806
 20
5.3054216504
 30
0.0
 10
4.9936523003
 20
5.3062726435
 30
0.0
 10
5.0563551014
 20
5.307122036
 30
0.0
 10
5.1240689707
 20
5.3079978971
 30
0.0
 10
5.1961638148
 20
5.3089014175
 30
0.0
 10
5.2719719605
 20
5.3098135683
 30
0.0
 10
5.3508025301
 20
5.310722222
 30
0.0
 10
5.4598147634
 20
5.311923853
 30
0.0
 10
5.5424727453
 20
5.3127771555
 30
0.0
 10
5.5980007764
 20
5.3133486253
 30
0.0
  0
SPLINE
  5
3F2
100
AcDbEntity
  8
0
100
AcDbSpline
 62
7
  6
CONTINUOUS
 70
0
 71
3
 72
13
 73
9
 74
0
 42
0.0000001
 43
0.0000001
 44
0.0000000001
 40
0.0
 40
0.0
 40
0.0
 40
0.0
 40
0.2854773695
 40
0.5562980434
 40
0.681840517
 40
0.7986212396
 40
0.9051304832
 40
1.0
 40
1.0
 40
1.0
 40
1.0
 10
5.5980007764
 20
4.6745690977
 30
0.0
 10
5.6633229258
 20
4.6752413642
 30
0.0
 10
5.7906134613
 20
4.6765583179
 30
0.0
 10
5.9466282848
 20
4.6783566895
 30
0.0
 10
6.0640415924
 20
4.6798176028
 30
0.0
 10
6.1438580476
 20
4.6808486259
 30
0.0
 10
6.2166555017
 20
4.6818431695
 30
0.0
 10
6.2627314001
 20
4.6825572418
 30
0.0
 10
6.2844371842
 20
4.6829269528
 30
0.0
  0
LINE
  5
3F3
100
AcDbEntity
  8
0
100
AcDbLine
 62
7
  6
CONTINUOUS
 10
6.2844371842
 20
4.6829269528
 11
6.2921475182
 21
4.6830597157
  0
LINE
  5
3F4
100
AcDbEntity
  8
0
100
AcDbLine
 62
7
  6
CONTINUOUS
 10
6.2921475182
 20
4.6830597157
 11
6.3201705578
 21
4.6835690569
  0
LINE
  5
3F5
100
AcDbEntity
  8
0
100
AcDbLine
 62
7
  6
CONTINUOUS
 10
6.3201705578
 20
4.6835690569
 11
6.3221402191
 21
4.6836066308
  0
SPLINE
  5
3F6
100
AcDbEntity
  8
0
100
AcDbSpline
 62
7
  6
CONTINUOUS
 70
0
 71
3
 72
11
 73
7
 74
0
 42
0.0000001
 43
0.0000001
 44
0.0000000001
 40
0.0
 40
0.0
 40
0.0
 40
0.0
 40
0.3126267898
 40
0.5845197104
 40
0.8141323182
 40
1.0
 40
1.0
 40
1.0
 40
1.0
 10
6.3221402191
 20
4.6836066308
 30
0.0
 10
6.3339930763
 20
4.6838335105
 30
0.0
 10
6.3561539417
 20
4.6842833402
 30
0.0
 10
6.3870179322
 20
4.6850104529
 30
0.0
 10
6.4130735365
 20
4.6857376271
 30
0.0
 10
6.4288199363
 20
4.6862737183
 30
0.0
 10
6.4358626395
 20
4.6865528766
 30
0.0
  0
SPLINE
  5
3F7
100
AcDbEntity
  8
0
100
AcDbSpline
 62
7
  6
CONTINUOUS
 70
0
 71
3
 72
24
 73
20
 74
0
 42
0.0000001
 43
0.0000001
 44
0.0000000001
 40
0.0
 40
0.0
 40
0.0
 40
0.0
 40
0.2319539837
 40
0.4336305223
 40
0.6048135371
 40
0.678904413
 40
0.745294191
 40
0.8039588917
 40
0.8548764892
 40
0.8980338211
 40
0.9334433239
 40
0.9482519829
 40
0.9611373785
 40
0.9721091383
 40
0.9811829819
 40
0.9883870621
 40
0.9937788979
 40
0.9975009925
 40
1.0
 40
1.0
 40
1.0
 40
1.0
 10
6.4358626395
 20
4.6865528766
 30
0.0
 10
6.4384432198
 20
4.6866551655
 30
0.0
 10
6.4432671391
 20
4.6868567052
 30
0.0
 10
6.449993613
 20
4.6871774195
 30
0.0
 10
6.4549624643
 20
4.687453133
 30
0.0
 10
6.4584254293
 20
4.6876759678
 30
0.0
 10
6.4606371299
 20
4.687833932
 30
0.0
 10
6.4625901712
 20
4.6879907423
 30
0.0
 10
6.4642837317
 20
4.6881461788
 30
0.0
 10
6.4657172446
 20
4.6883001216
 30
0.0
 10
6.4667484697
 20
4.6884335071
 30
0.0
 10
6.4674426119
 20
4.6885425287
 30
0.0
 10
6.467866309
 20
4.6886190528
 30
0.0
 10
6.4682250915
 20
4.6886950889
 30
0.0
 10
6.4685189707
 20
4.6887708638
 30
0.0
 10
6.468748809
 20
4.6888452884
 30
0.0
 10
6.4689147192
 20
4.6889204991
 30
0.0
 10
6.469023228
 20
4.6889925072
 30
0.0
 10
6.4690593467
 20
4.6890591827
 30
0.0
 10
6.4690593465
 20
4.689087007
 30
0.0
  0
LINE
  5
3F8
100
AcDbEntity
  8
0
100
AcDbLine
 62
7
  6
CONTINUOUS
 10
6.2665375079
 20
5.3906969402
 11
6.2695595329
 21
5.3907516554
  0
SPLINE
  5
3F9
100
AcDbEntity
  8
0
100
AcDbSpline
 62
7
  6
CONTINUOUS
 70
0
 71
3
 72
32
 73
28
 74
0
 42
0.0000001
 43
0.0000001
 44
0.0000000001
 40
0.0
 40
0.0
 40
0.0
 40
0.0
 40
0.2277902847
 40
0.3315354624
 40
0.4282963676
 40
0.5179098667
 40
0.6002155941
 40
0.675087403
 40
0.7424227942
 40
0.8021199637
 40
0.8540774849
 40
0.8981948224
 40
0.9172871119
 40
0.9343952553
 40
0.9495157435
 40
0.962645498
 40
0.9737821823
 40
0.9829248522
 40
0.9867490199
 40
0.9900759181
 40
0.9929070387
 40
0.9952451827
 40
0.9970958454
 40
0.9984709945
 40
0.9989894164
 40
0.9994049483
 40
1.0
 40
1.0
 40
1.0
 40
1.0
 10
6.2695595329
 20
5.3907516554
 30
0.0
 10
6.2822562711
 20
5.3909826566
 30
0.0
 10
6.3007352814
 20
5.3913391875
 30
0.0
 10
6.3246063705
 20
5.391854434
 30
0.0
 10
6.3407755635
 20
5.3922310604
 30
0.0
 10
6.3557491606
 20
5.3926093764
 30
0.0
 10
6.3695020312
 20
5.3929889134
 30
0.0
 10
6.3820124208
 20
5.393368687
 30
0.0
 10
6.3932618234
 20
5.3937474353
 30
0.0
 10
6.4032330871
 20
5.3941238519
 30
0.0
 10
6.4119090893
 20
5.3944967378
 30
0.0
 10
6.4183215428
 20
5.3948164865
 30
0.0
 10
6.4227916815
 20
5.3950743951
 30
0.0
 10
6.4256468966
 20
5.3952571843
 30
0.0
 10
6.4281690351
 20
5.395438779
 30
0.0
 10
6.4303574181
 20
5.3956190982
 30
0.0
 10
6.4322113412
 20
5.3957981495
 30
0.0
 10
6.4335462156
 20
5.39595361
 30
0.0
 10
6.4344456379
 20
5.3960809187
 30
0.0
 10
6.4349949578
 20
5.3961702979
 30
0.0
 10
6.4354602257
 20
5.396259322
 30
0.0
 10
6.4358416701
 20
5.3963475926
 30
0.0
 10
6.4361393157
 20
5.3964355054
 30
0.0
 10
6.436333974
 20
5.3965124992
 30
0.0
 10
6.4364453264
 20
5.3965786258
 30
0.0
 10
6.4365113606
 20
5.3966311737
 30
0.0
 10
6.436544112
 20
5.3966851521
 30
0.0
 10
6.4365440973
 20
5.396718325
 30
0.0
  0
SPLINE
  5
3FA
100
AcDbEntity
  8
0
100
AcDbSpline
 62
7
  6
CONTINUOUS
 70
0
 71
3
 72
19
 73
15
 74
0
 42
0.0000001
 43
0.0000001
 44
0.0000000001
 40
0.0
 40
0.0
 40
0.0
 40
0.0
 40
0.1673637048
 40
0.3304340151
 40
0.4848161553
 40
0.6265746892
 40
0.691532161
 40
0.7519751997
 40
0.8075003662
 40
0.8577508061
 40
0.9024020328
 40
0.9411496329
 40
0.973755987
 40
1.0
 40
1.0
 40
1.0
 40
1.0
 10
5.5980007764
 20
6.2424824836
 30
0.0
 10
5.6447462982
 20
6.2429635677
 30
0.0
 10
5.7370381576
 20
6.2439153766
 30
0.0
 10
5.8724487264
 20
6.2454057209
 30
0.0
 10
6.0007064048
 20
6.2469301812
 30
0.0
 10
6.1015601733
 20
6.2482088381
 30
0.0
 10
6.1761764125
 20
6.2491994938
 30
0.0
 10
6.2267074993
 20
6.2499138286
 30
0.0
 10
6.2731300568
 20
6.250636425
 30
0.0
 10
6.3151408551
 20
6.2513714208
 30
0.0
 10
6.3524643674
 20
6.2521156085
 30
0.0
 10
6.3848582772
 20
6.2528675152
 30
0.0
 10
6.412109013
 20
6.2536198872
 30
0.0
 10
6.4285379188
 20
6.2541759255
 30
0.0
 10
6.4358626395
 20
6.2544662624
 30
0.0
  0
SPLINE
  5
3FB
100
AcDbEntity
  8
0
100
AcDbSpline
 62
7
  6
CONTINUOUS
 70
0
 71
3
 72
24
 73
20
 74
0
 42
0.0000001
 43
0.0000001
 44
0.0000000001
 40
0.0
 40
0.0
 40
0.0
 40
0.0
 40
0.2319539837
 40
0.4336305223
 40
0.6048135371
 40
0.678904413
 40
0.745294191
 40
0.8039588917
 40
0.8548764892
 40
0.8980338211
 40
0.9334433239
 40
0.9482519829
 40
0.9611373785
 40
0.9721091383
 40
0.9811829819
 40
0.9883870621
 40
0.9937788979
 40
0.9975009925
 40
1.0
 40
1.0
 40
1.0
 40
1.0
 10
6.4358626395
 20
6.2544662624
 30
0.0
 10
6.4384432198
 20
6.2545685513
 30
0.0
 10
6.4432671391
 20
6.254770091
 30
0.0
 10
6.449993613
 20
6.2550908054
 30
0.0
 10
6.4549624643
 20
6.2553665188
 30
0.0
 10
6.4584254293
 20
6.2555893537
 30
0.0
 10
6.4606371299
 20
6.2557473178
 30
0.0
 10
6.4625901712
 20
6.2559041282
 30
0.0
 10
6.4642837317
 20
6.2560595647
 30
0.0
 10
6.4657172446
 20
6.2562135074
 30
0.0
 10
6.4667484697
 20
6.2563468929
 30
0.0
 10
6.4674426119
 20
6.2564559145
 30
0.0
 10
6.467866309
 20
6.2565324386
 30
0.0
 10
6.4682250915
 20
6.2566084748
 30
0.0
 10
6.4685189707
 20
6.2566842496
 30
0.0
 10
6.468748809
 20
6.2567586742
 30
0.0
 10
6.4689147192
 20
6.2568338849
 30
0.0
 10
6.469023228
 20
6.256905893
 30
0.0
 10
6.4690593467
 20
6.2569725686
 30
0.0
 10
6.4690593465
 20
6.2570003929
 30
0.0
  0
SPLINE
  5
3FC
100
AcDbEntity
  8
0
100
AcDbSpline
 62
7
  6
CONTINUOUS
 70
0
 71
3
 72
12
 73
8
 74
0
 42
0.0000001
 43
0.0000001
 44
0.0000000001
 40
0.0
 40
0.0
 40
0.0
 40
0.0
 40
0.0601019927
 40
0.1385460064
 40
0.3511438304
 40
0.6383230114
 40
1.0
 40
1.0
 40
1.0
 40
1.0
 10
4.7598877004
 20
5.4260450047
 30
0.0
 10
4.7600227412
 20
5.4260894389
 30
0.0
 10
4.7603401501
 20
5.4261728655
 30
0.0
 10
4.7611543446
 20
5.4263376914
 30
0.0
 10
4.7625091406
 20
5.4265315617
 30
0.0
 10
4.7645346023
 20
5.4267539421
 30
0.0
 10
4.7660636561
 20
5.426888289
 30
0.0
 10
4.766916322
 20
5.4269578568
 30
0.0
  0
SPLINE
  5
3FD
100
AcDbEntity
  8
0
100
AcDbSpline
 62
7
  6
CONTINUOUS
 70
0
 71
3
 72
60
 73
56
 74
0
 42
0.0000001
 43
0.0000001
 44
0.0000000001
 40
0.0
 40
0.0
 40
0.0
 40
0.0
 40
0.0037030618
 40
0.0084933409
 40
0.014362126
 40
0.021298868
 40
0.029286091
 40
0.0383043276
 40
0.0593557008
 40
0.0842764005
 40
0.1128421536
 40
0.1448125343
 40
0.1798995943
 40
0.2177971421
 40
0.258166769
 40
0.3448721961
 40
0.3904416634
 40
0.4369594737
 40
0.4840131795
 40
0.5311880796
 40
0.5780684131
 40
0.6242387727
 40
0.6692934254
 40
0.712833845
 40
0.754474353
 40
0.7938491089
 40
0.8306041541
 40
0.8644203342
 40
0.8801292911
 40
0.894992128
 40
0.9089785985
 40
0.922058549
 40
0.9342018374
 40
0.9453803791
 40
0.9555721263
 40
0.9647561501
 40
0.9729115429
 40
0.9800176667
 40
0.9831720794
 40
0.9860588741
 40
0.9886767235
 40
0.9910243172
 40
0.9931003711
 40
0.9949036436
 40
0.9964329661
 40
0.9976873085
 40
0.9982111635
 40
0.9986662368
 40
0.9990527433
 40
0.9993710322
 40
0.999621731
 40
0.9998061494
 40
0.9998745056
 40
0.9999280805
 40
1.0
 40
1.0
 40
1.0
 40
1.0
 10
4.766916322
 20
5.4269578568
 30
0.0
 10
4.7689709894
 20
5.4271254941
 30
0.0
 10
4.7736890825
 20
5.4274411498
 30
0.0
 10
4.781673252
 20
5.4278659107
 30
0.0
 10
4.7914594326
 20
5.4282978211
 30
0.0
 10
4.8030264827
 20
5.4287365298
 30
0.0
 10
4.8163477927
 20
5.4291793207
 30
0.0
 10
4.8375248317
 20
5.4298049021
 30
0.0
 10
4.868128638
 20
5.4305658056
 30
0.0
 10
4.9096150152
 20
5.4314253015
 30
0.0
 10
4.957181346
 20
5.4322726278
 30
0.0
 10
5.010408283
 20
5.4331062094
 30
0.0
 10
5.0688307694
 20
5.4339415492
 30
0.0
 10
5.1319292908
 20
5.434796512
 30
0.0
 10
5.2237617873
 20
5.4359906798
 30
0.0
 10
5.319865717
 20
5.4371754653
 30
0.0
 10
5.4193929421
 20
5.4383293798
 30
0.0
 10
5.49684801
 20
5.4391853136
 30
0.0
 10
5.5751970106
 20
5.4400286243
 30
0.0
 10
5.6537478894
 20
5.4408672536
 30
0.0
 10
5.7318069078
 20
5.4417128055
 30
0.0
 10
5.8086852684
 20
5.4425806104
 30
0.0
 10
5.8837039571
 20
5.4434672117
 30
0.0
 10
5.9562006445
 20
5.4443578631
 30
0.0
 10
6.0255351714
 20
5.4452416667
 30
0.0
 10
6.09109217
 20
5.4461094195
 30
0.0
 10
6.1522932985
 20
5.4469527322
 30
0.0
 10
6.20032024
 20
5.447663478
 30
0.0
 10
6.2361603901
 20
5.4482404765
 30
0.0
 10
6.2609623424
 20
5.4486654976
 30
0.0
 10
6.2843004399
 20
5.4490937994
 30
0.0
 10
6.3061242185
 20
5.4495259465
 30
0.0
 10
6.3263844022
 20
5.4499624856
 30
0.0
 10
6.3450362065
 20
5.450403901
 30
0.0
 10
6.3620400162
 20
5.4508479632
 30
0.0
 10
6.3773601953
 20
5.4512925251
 30
0.0
 10
6.3909618474
 20
5.4517355328
 30
0.0
 10
6.4012070306
 20
5.4521148671
 30
0.0
 10
6.4085197979
 20
5.4524200591
 30
0.0
 10
6.4133353507
 20
5.4526386265
 30
0.0
 10
6.4177013017
 20
5.4528559775
 30
0.0
 10
6.4216153695
 20
5.4530720311
 30
0.0
 10
6.4250752759
 20
5.4532866745
 30
0.0
 10
6.4280787898
 20
5.4534996351
 30
0.0
 10
6.430623654
 20
5.4537107828
 30
0.0
 10
6.4324560119
 20
5.4538937475
 30
0.0
 10
6.4336902884
 20
5.4540433435
 30
0.0
 10
6.4344432183
 20
5.4541481623
 30
0.0
 10
6.435080517
 20
5.4542524667
 30
0.0
 10
6.4356024802
 20
5.4543556479
 30
0.0
 10
6.4360094096
 20
5.4544584718
 30
0.0
 10
6.4362753976
 20
5.4545479306
 30
0.0
 10
6.4364286165
 20
5.4546257219
 30
0.0
 10
6.4365165456
 20
5.4546849508
 30
0.0
 10
6.4365644852
 20
5.45474927
 30
0.0
 10
6.436564503
 20
5.4547893076
 30
0.0
  0
SPLINE
  5
3FE
100
AcDbEntity
  8
0
100
AcDbSpline
 62
7
  6
CONTINUOUS
 70
0
 71
3
 72
33
 73
29
 74
0
 42
0.0000001
 43
0.0000001
 44
0.0000000001
 40
0.0
 40
0.0
 40
0.0
 40
0.0
 40
0.0004647028
 40
0.0010699418
 40
0.0027071548
 40
0.0049173632
 40
0.0077021453
 40
0.0110601032
 40
0.0149888514
 40
0.0194858047
 40
0.0245482692
 40
0.0363586362
 40
0.0503975075
 40
0.0666369358
 40
0.0850343656
 40
0.1055446313
 40
0.1281225106
 40
0.1527212231
 40
0.1792814062
 40
0.2380238402
 40
0.3038169022
 40
0.3760476165
 40
0.4540534637
 40
0.5371092734
 40
0.6244323404
 40
0.7152298316
 40
0.8086969647
 40
1.0
 40
1.0
 40
1.0
 40
1.0
 10
4.7273682693
 20
5.4152509569
 30
0.0
 10
4.7274964903
 20
5.4152928549
 30
0.0
 10
4.7277973741
 20
5.4153716064
 30
0.0
 10
4.728567752
 20
5.4155272611
 30
0.0
 10
4.7298480007
 20
5.4157107486
 30
0.0
 10
4.731761581
 20
5.4159216688
 30
0.0
 10
4.7341769882
 20
5.4161357203
 30
0.0
 10
4.7370924522
 20
5.4163531534
 30
0.0
 10
4.740505977
 20
5.4165728218
 30
0.0
 10
4.7444150348
 20
5.4167944759
 30
0.0
 10
4.7506102812
 20
5.4171084698
 30
0.0
 10
4.7595749858
 20
5.4174961306
 30
0.0
 10
4.7717841576
 20
5.4179456432
 30
0.0
 10
4.7859064418
 20
5.4183976099
 30
0.0
 10
4.8019080211
 20
5.418850867
 30
0.0
 10
4.8197501747
 20
5.4193038015
 30
0.0
 10
4.8393929815
 20
5.4197550465
 30
0.0
 10
4.8607924326
 20
5.4202030988
 30
0.0
 10
4.8926884344
 20
5.4208164227
 30
0.0
 10
4.936541806
 20
5.4215633827
 30
0.0
 10
4.9936523003
 20
5.4224143758
 30
0.0
 10
5.0563551014
 20
5.4232637683
 30
0.0
 10
5.1240689707
 20
5.4241396294
 30
0.0
 10
5.1961638148
 20
5.4250431498
 30
0.0
 10
5.2719719605
 20
5.4259553006
 30
0.0
 10
5.3508025301
 20
5.4268639543
 30
0.0
 10
5.4598147634
 20
5.4280655853
 30
0.0
 10
5.5424727453
 20
5.4289188878
 30
0.0
 10
5.5980007764
 20
5.4294903576
 30
0.0
  0
SPLINE
  5
3FF
100
AcDbEntity
  8
0
100
AcDbSpline
 62
7
  6
CONTINUOUS
 70
0
 71
3
 72
19
 73
15
 74
0
 42
0.0000001
 43
0.0000001
 44
0.0000000001
 40
0.0
 40
0.0
 40
0.0
 40
0.0
 40
0.1673637048
 40
0.3304340151
 40
0.4848161553
 40
0.6265746892
 40
0.691532161
 40
0.7519751997
 40
0.8075003662
 40
0.8577508061
 40
0.9024020328
 40
0.9411496329
 40
0.973755987
 40
1.0
 40
1.0
 40
1.0
 40
1.0
 10
5.5980007764
 20
6.1844116174
 30
0.0
 10
5.6447462982
 20
6.1848927015
 30
0.0
 10
5.7370381576
 20
6.1858445105
 30
0.0
 10
5.8724487264
 20
6.1873348547
 30
0.0
 10
6.0007064048
 20
6.1888593151
 30
0.0
 10
6.1015601733
 20
6.190137972
 30
0.0
 10
6.1761764125
 20
6.1911286277
 30
0.0
 10
6.2267074993
 20
6.1918429625
 30
0.0
 10
6.2731300568
 20
6.1925655589
 30
0.0
 10
6.3151408551
 20
6.1933005546
 30
0.0
 10
6.3524643674
 20
6.1940447424
 30
0.0
 10
6.3848582772
 20
6.194796649
 30
0.0
 10
6.412109013
 20
6.1955490211
 30
0.0
 10
6.4285379188
 20
6.1961050594
 30
0.0
 10
6.4358626395
 20
6.1963953963
 30
0.0
  0
SPLINE
  5
400
100
AcDbEntity
  8
0
100
AcDbSpline
 62
7
  6
CONTINUOUS
 70
0
 71
3
 72
24
 73
20
 74
0
 42
0.0000001
 43
0.0000001
 44
0.0000000001
 40
0.0
 40
0.0
 40
0.0
 40
0.0
 40
0.2319539837
 40
0.4336305223
 40
0.6048135371
 40
0.678904413
 40
0.745294191
 40
0.8039588917
 40
0.8548764892
 40
0.8980338211
 40
0.9334433239
 40
0.9482519829
 40
0.9611373785
 40
0.9721091383
 40
0.9811829819
 40
0.9883870621
 40
0.9937788979
 40
0.9975009925
 40
1.0
 40
1.0
 40
1.0
 40
1.0
 10
6.4358626395
 20
6.1963953963
 30
0.0
 10
6.4384432198
 20
6.1964976852
 30
0.0
 10
6.4432671391
 20
6.1966992249
 30
0.0
 10
6.449993613
 20
6.1970199392
 30
0.0
 10
6.4549624643
 20
6.1972956527
 30
0.0
 10
6.4584254293
 20
6.1975184875
 30
0.0
 10
6.4606371299
 20
6.1976764517
 30
0.0
 10
6.4625901712
 20
6.197833262
 30
0.0
 10
6.4642837317
 20
6.1979886985
 30
0.0
 10
6.4657172446
 20
6.1981426413
 30
0.0
 10
6.4667484697
 20
6.1982760268
 30
0.0
 10
6.4674426119
 20
6.1983850484
 30
0.0
 10
6.467866309
 20
6.1984615725
 30
0.0
 10
6.4682250915
 20
6.1985376086
 30
0.0
 10
6.4685189707
 20
6.1986133835
 30
0.0
 10
6.468748809
 20
6.1986878081
 30
0.0
 10
6.4689147192
 20
6.1987630188
 30
0.0
 10
6.469023228
 20
6.1988350269
 30
0.0
 10
6.4690593467
 20
6.1989017024
 30
0.0
 10
6.4690593465
 20
6.1989295267
 30
0.0
  0
SPLINE
  5
401
100
AcDbEntity
  8
0
100
AcDbSpline
 62
7
  6
CONTINUOUS
 70
0
 71
3
 72
12
 73
8
 74
0
 42
0.0000001
 43
0.0000001
 44
0.0000000001
 40
0.0
 40
0.0
 40
0.0
 40
0.0
 40
0.057553881
 40
0.1341604294
 40
0.3451881034
 40
0.633748077
 40
1.0
 40
1.0
 40
1.0
 40
1.0
 10
4.7598857149
 20
5.4841163701
 30
0.0
 10
4.7600367285
 20
5.4841660442
 30
0.0
 10
4.7603963063
 20
5.4842581925
 30
0.0
 10
4.7613323507
 20
5.4844402041
 30
0.0
 10
4.762910686
 20
5.4846529745
 30
0.0
 10
4.7652896712
 20
5.4848975175
 30
0.0
 10
4.767092541
 20
5.4850449816
 30
0.0
 10
4.7681012856
 20
5.4851216017
 30
0.0
  0
SPLINE
  5
402
100
AcDbEntity
  8
0
100
AcDbSpline
 62
7
  6
CONTINUOUS
 70
0
 71
3
 72
60
 73
56
 74
0
 42
0.0000001
 43
0.0000001
 44
0.0000000001
 40
0.0
 40
0.0
 40
0.0
 40
0.0
 40
0.0039299217
 40
0.008940932
 40
0.0150204007
 40
0.022155427
 40
0.030332812
 40
0.0395348249
 40
0.0609222489
 40
0.0861342392
 40
0.114953089
 40
0.1471230749
 40
0.1823696228
 40
0.2203764697
 40
0.2608156584
 40
0.303327122
 40
0.347538064
 40
0.4394972326
 40
0.4864405353
 40
0.5334780755
 40
0.5801970747
 40
0.6261911118
 40
0.6710568866
 40
0.714404213
 40
0.7558503302
 40
0.7950303803
 40
0.8316001673
 40
0.8652328074
 40
0.8808572575
 40
0.8956400288
 40
0.909546842
 40
0.9225492151
 40
0.9346206845
 40
0.9457347981
 40
0.9558651842
 40
0.9649891568
 40
0.9730895314
 40
0.9801496085
 40
0.9832843375
 40
0.9861527628
 40
0.9887528989
 40
0.9910835305
 40
0.9931439098
 40
0.9949333377
 40
0.9964511897
 40
0.9976969814
 40
0.9982177921
 40
0.9986705664
 40
0.999055407
 40
0.9993725502
 40
0.9996225115
 40
0.9998064892
 40
0.9998747027
 40
0.9999281716
 40
1.0
 40
1.0
 40
1.0
 40
1.0
 10
4.7681012856
 20
5.4851216017
 30
0.0
 10
4.7702812122
 20
5.4852871799
 30
0.0
 10
4.7752453658
 20
5.4856021209
 30
0.0
 10
4.7835903573
 20
5.4860285821
 30
0.0
 10
4.7937200205
 20
5.4864614644
 30
0.0
 10
4.8056122553
 20
5.4868993229
 30
0.0
 10
4.8192424724
 20
5.4873404158
 30
0.0
 10
4.8407994258
 20
5.4879622984
 30
0.0
 10
4.8718324917
 20
5.4887210507
 30
0.0
 10
4.9137788159
 20
5.4895775583
 30
0.0
 10
4.9617248456
 20
5.4904159488
 30
0.0
 10
5.0152538963
 20
5.4912488538
 30
0.0
 10
5.0738947244
 20
5.4920845254
 30
0.0
 10
5.1371359343
 20
5.4929337762
 30
0.0
 10
5.204418624
 20
5.4938077091
 30
0.0
 10
5.2751527473
 20
5.4946950959
 30
0.0
 10
5.3745456711
 20
5.4958920075
 30
0.0
 10
5.4764047535
 20
5.4970411947
 30
0.0
 10
5.5798368027
 20
5.4981485956
 30
0.0
 10
5.658103335
 20
5.4989831153
 30
0.0
 10
5.7358416152
 20
5.4998313663
 30
0.0
 10
5.8123715051
 20
5.5006949095
 30
0.0
 10
5.8870254009
 20
5.5015772222
 30
0.0
 10
5.9591490231
 20
5.5024670684
 30
0.0
 10
6.0281095734
 20
5.5033463364
 30
0.0
 10
6.0932997236
 20
5.5042068185
 30
0.0
 10
6.1541430796
 20
5.5050509401
 30
0.0
 10
6.2018831262
 20
5.5057591593
 30
0.0
 10
6.2375037358
 20
5.5063325751
 30
0.0
 10
6.2621519111
 20
5.5067550485
 30
0.0
 10
6.2853411078
 20
5.5071828528
 30
0.0
 10
6.3070216466
 20
5.5076154186
 30
0.0
 10
6.3271481996
 20
5.5080518222
 30
0.0
 10
6.345676599
 20
5.5084911924
 30
0.0
 10
6.3625647533
 20
5.5089327994
 30
0.0
 10
6.3777757123
 20
5.5093754982
 30
0.0
 10
6.3912778889
 20
5.5098171601
 30
0.0
 10
6.4014484565
 20
5.5101959736
 30
0.0
 10
6.4087091171
 20
5.5105008032
 30
0.0
 10
6.4134901466
 20
5.5107189166
 30
0.0
 10
6.4178234304
 20
5.510935404
 30
0.0
 10
6.421706675
 20
5.5111502258
 30
0.0
 10
6.4251382518
 20
5.5113634334
 30
0.0
 10
6.4281168284
 20
5.5115749132
 30
0.0
 10
6.4306410491
 20
5.5117846964
 30
0.0
 10
6.4324592734
 20
5.511966669
 30
0.0
 10
6.4336849368
 20
5.5121156206
 30
0.0
 10
6.4344334209
 20
5.5122201105
 30
0.0
 10
6.435067407
 20
5.5123241597
 30
0.0
 10
6.4355870052
 20
5.5124271454
 30
0.0
 10
6.4359923247
 20
5.5125298121
 30
0.0
 10
6.4362573695
 20
5.5126191527
 30
0.0
 10
6.4364100603
 20
5.5126968454
 30
0.0
 10
6.4364977195
 20
5.5127560316
 30
0.0
 10
6.4365454004
 20
5.5128202956
 30
0.0
 10
6.4365453772
 20
5.5128602536
 30
0.0
  0
SPLINE
  5
403
100
AcDbEntity
  8
0
100
AcDbSpline
 62
7
  6
CONTINUOUS
 70
0
 71
3
 72
33
 73
29
 74
0
 42
0.0000001
 43
0.0000001
 44
0.0000000001
 40
0.0
 40
0.0
 40
0.0
 40
0.0
 40
0.0004647028
 40
0.0010699418
 40
0.0027071548
 40
0.0049173632
 40
0.0077021453
 40
0.0110601032
 40
0.0149888514
 40
0.0194858047
 40
0.0245482692
 40
0.0363586362
 40
0.0503975075
 40
0.0666369358
 40
0.0850343656
 40
0.1055446313
 40
0.1281225106
 40
0.1527212231
 40
0.1792814062
 40
0.2380238402
 40
0.3038169022
 40
0.3760476165
 40
0.4540534637
 40
0.5371092734
 40
0.6244323404
 40
0.7152298316
 40
0.8086969647
 40
1.0
 40
1.0
 40
1.0
 40
1.0
 10
4.7273682693
 20
5.473321823
 30
0.0
 10
4.7274964903
 20
5.4733637211
 30
0.0
 10
4.7277973741
 20
5.4734424725
 30
0.0
 10
4.728567752
 20
5.4735981272
 30
0.0
 10
4.7298480007
 20
5.4737816147
 30
0.0
 10
4.731761581
 20
5.473992535
 30
0.0
 10
4.7341769882
 20
5.4742065864
 30
0.0
 10
4.7370924522
 20
5.4744240195
 30
0.0
 10
4.740505977
 20
5.4746436879
 30
0.0
 10
4.7444150348
 20
5.474865342
 30
0.0
 10
4.7506102812
 20
5.4751793359
 30
0.0
 10
4.7595749858
 20
5.4755669967
 30
0.0
 10
4.7717841576
 20
5.4760165094
 30
0.0
 10
4.7859064418
 20
5.476468476
 30
0.0
 10
4.8019080211
 20
5.4769217331
 30
0.0
 10
4.8197501747
 20
5.4773746676
 30
0.0
 10
4.8393929815
 20
5.4778259127
 30
0.0
 10
4.8607924326
 20
5.478273965
 30
0.0
 10
4.8926884344
 20
5.4788872889
 30
0.0
 10
4.936541806
 20
5.4796342488
 30
0.0
 10
4.9936523003
 20
5.4804852419
 30
0.0
 10
5.0563551014
 20
5.4813346345
 30
0.0
 10
5.1240689707
 20
5.4822104956
 30
0.0
 10
5.1961638148
 20
5.4831140159
 30
0.0
 10
5.2719719605
 20
5.4840261667
 30
0.0
 10
5.3508025301
 20
5.4849348204
 30
0.0
 10
5.4598147634
 20
5.4861364515
 30
0.0
 10
5.5424727453
 20
5.4869897539
 30
0.0
 10
5.5980007764
 20
5.4875612237
 30
0.0
  0
SPLINE
  5
404
100
AcDbEntity
  8
0
100
AcDbSpline
 62
7
  6
CONTINUOUS
 70
0
 71
3
 72
19
 73
15
 74
0
 42
0.0000001
 43
0.0000001
 44
0.0000000001
 40
0.0
 40
0.0
 40
0.0
 40
0.0
 40
0.1673637048
 40
0.3304340151
 40
0.4848161553
 40
0.6265746892
 40
0.691532161
 40
0.7519751997
 40
0.8075003662
 40
0.8577508061
 40
0.9024020328
 40
0.9411496329
 40
0.973755987
 40
1.0
 40
1.0
 40
1.0
 40
1.0
 10
5.5980007764
 20
6.1263407513
 30
0.0
 10
5.6447462982
 20
6.1268218354
 30
0.0
 10
5.7370381576
 20
6.1277736443
 30
0.0
 10
5.8724487264
 20
6.1292639886
 30
0.0
 10
6.0007064048
 20
6.1307884489
 30
0.0
 10
6.1015601733
 20
6.1320671058
 30
0.0
 10
6.1761764125
 20
6.1330577615
 30
0.0
 10
6.2267074993
 20
6.1337720963
 30
0.0
 10
6.2731300568
 20
6.1344946927
 30
0.0
 10
6.3151408551
 20
6.1352296885
 30
0.0
 10
6.3524643674
 20
6.1359738762
 30
0.0
 10
6.3848582772
 20
6.1367257829
 30
0.0
 10
6.412109013
 20
6.137478155
 30
0.0
 10
6.4285379188
 20
6.1380341932
 30
0.0
 10
6.4358626395
 20
6.1383245301
 30
0.0
  0
SPLINE
  5
405
100
AcDbEntity
  8
0
100
AcDbSpline
 62
7
  6
CONTINUOUS
 70
0
 71
3
 72
24
 73
20
 74
0
 42
0.0000001
 43
0.0000001
 44
0.0000000001
 40
0.0
 40
0.0
 40
0.0
 40
0.0
 40
0.2319539837
 40
0.4336305223
 40
0.6048135371
 40
0.678904413
 40
0.745294191
 40
0.8039588917
 40
0.8548764892
 40
0.8980338211
 40
0.9334433239
 40
0.9482519829
 40
0.9611373785
 40
0.9721091383
 40
0.9811829819
 40
0.9883870621
 40
0.9937788979
 40
0.9975009925
 40
1.0
 40
1.0
 40
1.0
 40
1.0
 10
6.4358626395
 20
6.1383245301
 30
0.0
 10
6.4384432198
 20
6.138426819
 30
0.0
 10
6.4432671391
 20
6.1386283587
 30
0.0
 10
6.449993613
 20
6.1389490731
 30
0.0
 10
6.4549624643
 20
6.1392247865
 30
0.0
 10
6.4584254293
 20
6.1394476214
 30
0.0
 10
6.4606371299
 20
6.1396055855
 30
0.0
 10
6.4625901712
 20
6.1397623959
 30
0.0
 10
6.4642837317
 20
6.1399178324
 30
0.0
 10
6.4657172446
 20
6.1400717752
 30
0.0
 10
6.4667484697
 20
6.1402051607
 30
0.0
 10
6.4674426119
 20
6.1403141823
 30
0.0
 10
6.467866309
 20
6.1403907063
 30
0.0
 10
6.4682250915
 20
6.1404667425
 30
0.0
 10
6.4685189707
 20
6.1405425174
 30
0.0
 10
6.468748809
 20
6.140616942
 30
0.0
 10
6.4689147192
 20
6.1406921527
 30
0.0
 10
6.469023228
 20
6.1407641607
 30
0.0
 10
6.4690593467
 20
6.1408308363
 30
0.0
 10
6.4690593465
 20
6.1408586606
 30
0.0
  0
LINE
  5
406
100
AcDbEntity
  8
0
100
AcDbLine
 62
7
  6
CONTINUOUS
 10
4.7598933737
 20
5.5421869418
 11
4.7649057363
 21
5.5429226358
  0
SPLINE
  5
407
100
AcDbEntity
  8
0
100
AcDbSpline
 62
7
  6
CONTINUOUS
 70
0
 71
3
 72
30
 73
26
 74
0
 42
0.0000001
 43
0.0000001
 44
0.0000000001
 40
0.0
 40
0.0
 40
0.0
 40
0.0
 40
0.0027582323
 40
0.0062767242
 40
0.0105515984
 40
0.0155786549
 40
0.0278619469
 40
0.0430512205
 40
0.0610648568
 40
0.0818093478
 40
0.1051649953
 40
0.1310082689
 40
0.1592007623
 40
0.1895805241
 40
0.2562286397
 40
0.3294688085
 40
0.4076792141
 40
0.4891321571
 40
0.5720288134
 40
0.6545404762
 40
0.7348426524
 40
0.8111618289
 40
0.8818130655
 40
0.9452281705
 40
1.0
 40
1.0
 40
1.0
 40
1.0
 10
4.7649057363
 20
5.5429226358
 30
0.0
 10
4.7662809903
 20
5.5430533163
 30
0.0
 10
4.7694152087
 20
5.5433010401
 30
0.0
 10
4.7746894239
 20
5.5436352021
 30
0.0
 10
4.7811016293
 20
5.5439741385
 30
0.0
 10
4.7919013745
 20
5.5444656192
 30
0.0
 10
4.8081677281
 20
5.5450690189
 30
0.0
 10
4.8309387402
 20
5.5457650646
 30
0.0
 10
4.8579491912
 20
5.5464609486
 30
0.0
 10
4.889051028
 20
5.5471497509
 30
0.0
 10
4.9240752995
 20
5.5478307807
 30
0.0
 10
4.9628306784
 20
5.5485014001
 30
0.0
 10
5.0051046622
 20
5.5491635296
 30
0.0
 10
5.0678141266
 20
5.5500753456
 30
0.0
 10
5.1530844122
 20
5.5512252909
 30
0.0
 10
5.2623093864
 20
5.5526137271
 30
0.0
 10
5.3789496667
 20
5.5540187112
 30
0.0
 10
5.50042728
 20
5.5553719526
 30
0.0
 10
5.6240596505
 20
5.5566906041
 30
0.0
 10
5.7471155909
 20
5.5580137196
 30
0.0
 10
5.8668763503
 20
5.5593980509
 30
0.0
 10
5.9806962238
 20
5.5608002887
 30
0.0
 10
6.0860579438
 20
5.562175654
 30
0.0
 10
6.1806276573
 20
5.5634862165
 30
0.0
 10
6.2398136771
 20
5.5644293722
 30
0.0
 10
6.2672414461
 20
5.5649244048
 30
0.0
  0
SPLINE
  5
408
100
AcDbEntity
  8
0
100
AcDbSpline
 62
7
  6
CONTINUOUS
 70
0
 71
3
 72
32
 73
28
 74
0
 42
0.0000001
 43
0.0000001
 44
0.0000000001
 40
0.0
 40
0.0
 40
0.0
 40
0.0
 40
0.227667191
 40
0.3313692287
 40
0.4280806528
 40
0.5176617525
 40
0.5999757775
 40
0.6748860723
 40
0.7422561247
 40
0.8019618028
 40
0.8539223359
 40
0.8980671524
 40
0.9171870269
 40
0.9343272089
 40
0.949479518
 40
0.9626361872
 40
0.9737903905
 40
0.9829406692
 40
0.9867658175
 40
0.9900923037
 40
0.9929219729
 40
0.995257958
 40
0.9971060427
 40
0.9984783816
 40
0.9989952914
 40
0.9994091699
 40
1.0
 40
1.0
 40
1.0
 40
1.0
 10
6.2672414461
 20
5.5649244048
 30
0.0
 10
6.2801093484
 20
5.5651566523
 30
0.0
 10
6.2988382401
 20
5.5655134606
 30
0.0
 10
6.3230320706
 20
5.5660305514
 30
0.0
 10
6.3394210448
 20
5.5664100089
 30
0.0
 10
6.3546005515
 20
5.5667917604
 30
0.0
 10
6.368547192
 20
5.5671745942
 30
0.0
 10
6.3812377366
 20
5.5675571875
 30
0.0
 10
6.3926496446
 20
5.5679382371
 30
0.0
 10
6.4027635111
 20
5.5683164247
 30
0.0
 10
6.4115635542
 20
5.5686912077
 30
0.0
 10
6.4180693438
 20
5.5690133305
 30
0.0
 10
6.4226071724
 20
5.5692738453
 30
0.0
 10
6.4255076473
 20
5.5694586944
 30
0.0
 10
6.4280703405
 20
5.569642362
 30
0.0
 10
6.4302937905
 20
5.5698246237
 30
0.0
 10
6.4321767511
 20
5.5700053562
 30
0.0
 10
6.43353194
 20
5.5701620594
 30
0.0
 10
6.4344445702
 20
5.5702902575
 30
0.0
 10
6.4350016566
 20
5.5703801913
 30
0.0
 10
6.435473359
 20
5.5704697259
 30
0.0
 10
6.4358599679
 20
5.5705584631
 30
0.0
 10
6.4361615776
 20
5.5706468178
 30
0.0
 10
6.4363588121
 20
5.570724166
 30
0.0
 10
6.4364716937
 20
5.5707906204
 30
0.0
 10
6.4365385496
 20
5.5708433278
 30
0.0
 10
6.4365719253
 20
5.5708975785
 30
0.0
 10
6.436571997
 20
5.570930978
 30
0.0
  0
SPLINE
  5
409
100
AcDbEntity
  8
0
100
AcDbSpline
 62
7
  6
CONTINUOUS
 70
0
 71
3
 72
33
 73
29
 74
0
 42
0.0000001
 43
0.0000001
 44
0.0000000001
 40
0.0
 40
0.0
 40
0.0
 40
0.0
 40
0.0004647028
 40
0.0010699418
 40
0.0027071548
 40
0.0049173632
 40
0.0077021453
 40
0.0110601032
 40
0.0149888514
 40
0.0194858047
 40
0.0245482692
 40
0.0363586362
 40
0.0503975075
 40
0.0666369358
 40
0.0850343656
 40
0.1055446313
 40
0.1281225106
 40
0.1527212231
 40
0.1792814062
 40
0.2380238402
 40
0.3038169022
 40
0.3760476165
 40
0.4540534637
 40
0.5371092734
 40
0.6244323404
 40
0.7152298316
 40
0.8086969647
 40
1.0
 40
1.0
 40
1.0
 40
1.0
 10
4.7273682693
 20
5.5313926892
 30
0.0
 10
4.7274964903
 20
5.5314345872
 30
0.0
 10
4.7277973741
 20
5.5315133387
 30
0.0
 10
4.728567752
 20
5.5316689934
 30
0.0
 10
4.7298480007
 20
5.5318524809
 30
0.0
 10
4.731761581
 20
5.5320634011
 30
0.0
 10
4.7341769882
 20
5.5322774526
 30
0.0
 10
4.7370924522
 20
5.5324948857
 30
0.0
 10
4.740505977
 20
5.532714554
 30
0.0
 10
4.7444150348
 20
5.5329362082
 30
0.0
 10
4.7506102812
 20
5.533250202
 30
0.0
 10
4.7595749858
 20
5.5336378629
 30
0.0
 10
4.7717841576
 20
5.5340873755
 30
0.0
 10
4.7859064418
 20
5.5345393422
 30
0.0
 10
4.8019080211
 20
5.5349925993
 30
0.0
 10
4.8197501747
 20
5.5354455338
 30
0.0
 10
4.8393929815
 20
5.5358967788
 30
0.0
 10
4.8607924326
 20
5.5363448311
 30
0.0
 10
4.8926884344
 20
5.536958155
 30
0.0
 10
4.936541806
 20
5.5377051149
 30
0.0
 10
4.9936523003
 20
5.538556108
 30
0.0
 10
5.0563551014
 20
5.5394055006
 30
0.0
 10
5.1240689707
 20
5.5402813617
 30
0.0
 10
5.1961638148
 20
5.5411848821
 30
0.0
 10
5.2719719605
 20
5.5420970329
 30
0.0
 10
5.3508025301
 20
5.5430056866
 30
0.0
 10
5.4598147634
 20
5.5442073176
 30
0.0
 10
5.5424727453
 20
5.5450606201
 30
0.0
 10
5.5980007764
 20
5.5456320899
 30
0.0
  0
SPLINE
  5
40A
100
AcDbEntity
  8
0
100
AcDbSpline
 62
7
  6
CONTINUOUS
 70
0
 71
3
 72
19
 73
15
 74
0
 42
0.0000001
 43
0.0000001
 44
0.0000000001
 40
0.0
 40
0.0
 40
0.0
 40
0.0
 40
0.1673637048
 40
0.3304340151
 40
0.4848161553
 40
0.6265746892
 40
0.691532161
 40
0.7519751997
 40
0.8075003662
 40
0.8577508061
 40
0.9024020328
 40
0.9411496329
 40
0.973755987
 40
1.0
 40
1.0
 40
1.0
 40
1.0
 10
5.5980007764
 20
5.197206893
 30
0.0
 10
5.6447462982
 20
5.1976879771
 30
0.0
 10
5.7370381576
 20
5.198639786
 30
0.0
 10
5.8724487264
 20
5.2001301303
 30
0.0
 10
6.0007064048
 20
5.2016545907
 30
0.0
 10
6.1015601733
 20
5.2029332476
 30
0.0
 10
6.1761764125
 20
5.2039239033
 30
0.0
 10
6.2267074993
 20
5.204638238
 30
0.0
 10
6.2731300568
 20
5.2053608345
 30
0.0
 10
6.3151408551
 20
5.2060958302
 30
0.0
 10
6.3524643674
 20
5.206840018
 30
0.0
 10
6.3848582772
 20
5.2075919246
 30
0.0
 10
6.412109013
 20
5.2083442967
 30
0.0
 10
6.4285379188
 20
5.208900335
 30
0.0
 10
6.4358626395
 20
5.2091906719
 30
0.0
  0
SPLINE
  5
40B
100
AcDbEntity
  8
0
100
AcDbSpline
 62
7
  6
CONTINUOUS
 70
0
 71
3
 72
24
 73
20
 74
0
 42
0.0000001
 43
0.0000001
 44
0.0000000001
 40
0.0
 40
0.0
 40
0.0
 40
0.0
 40
0.2319539837
 40
0.4336305223
 40
0.6048135371
 40
0.678904413
 40
0.745294191
 40
0.8039588917
 40
0.8548764892
 40
0.8980338211
 40
0.9334433239
 40
0.9482519829
 40
0.9611373785
 40
0.9721091383
 40
0.9811829819
 40
0.9883870621
 40
0.9937788979
 40
0.9975009925
 40
1.0
 40
1.0
 40
1.0
 40
1.0
 10
6.4358626395
 20
5.2091906719
 30
0.0
 10
6.4384432198
 20
5.2092929608
 30
0.0
 10
6.4432671391
 20
5.2094945004
 30
0.0
 10
6.449993613
 20
5.2098152148
 30
0.0
 10
6.4549624643
 20
5.2100909283
 30
0.0
 10
6.4584254293
 20
5.2103137631
 30
0.0
 10
6.4606371299
 20
5.2104717273
 30
0.0
 10
6.4625901712
 20
5.2106285376
 30
0.0
 10
6.4642837317
 20
5.2107839741
 30
0.0
 10
6.4657172446
 20
5.2109379169
 30
0.0
 10
6.4667484697
 20
5.2110713024
 30
0.0
 10
6.4674426119
 20
5.211180324
 30
0.0
 10
6.467866309
 20
5.2112568481
 30
0.0
 10
6.4682250915
 20
5.2113328842
 30
0.0
 10
6.4685189707
 20
5.2114086591
 30
0.0
 10
6.468748809
 20
5.2114830837
 30
0.0
 10
6.4689147192
 20
5.2115582944
 30
0.0
 10
6.469023228
 20
5.2116303025
 30
0.0
 10
6.4690593467
 20
5.211696978
 30
0.0
 10
6.4690593465
 20
5.2117248023
 30
0.0
  0
SPLINE
  5
40C
100
AcDbEntity
  8
0
100
AcDbSpline
 62
7
  6
CONTINUOUS
 70
0
 71
3
 72
19
 73
15
 74
0
 42
0.0000001
 43
0.0000001
 44
0.0000000001
 40
0.0
 40
0.0
 40
0.0
 40
0.0
 40
0.1673637048
 40
0.3304340151
 40
0.4848161553
 40
0.6265746892
 40
0.691532161
 40
0.7519751997
 40
0.8075003662
 40
0.8577508061
 40
0.9024020328
 40
0.9411496329
 40
0.973755987
 40
1.0
 40
1.0
 40
1.0
 40
1.0
 10
5.5980007764
 20
5.2552777591
 30
0.0
 10
5.6447462982
 20
5.2557588432
 30
0.0
 10
5.7370381576
 20
5.2567106522
 30
0.0
 10
5.8724487264
 20
5.2582009964
 30
0.0
 10
6.0007064048
 20
5.2597254568
 30
0.0
 10
6.1015601733
 20
5.2610041137
 30
0.0
 10
6.1761764125
 20
5.2619947694
 30
0.0
 10
6.2267074993
 20
5.2627091042
 30
0.0
 10
6.2731300568
 20
5.2634317006
 30
0.0
 10
6.3151408551
 20
5.2641666964
 30
0.0
 10
6.3524643674
 20
5.2649108841
 30
0.0
 10
6.3848582772
 20
5.2656627907
 30
0.0
 10
6.412109013
 20
5.2664151628
 30
0.0
 10
6.4285379188
 20
5.2669712011
 30
0.0
 10
6.4358626395
 20
5.267261538
 30
0.0
  0
SPLINE
  5
40D
100
AcDbEntity
  8
0
100
AcDbSpline
 62
7
  6
CONTINUOUS
 70
0
 71
3
 72
24
 73
20
 74
0
 42
0.0000001
 43
0.0000001
 44
0.0000000001
 40
0.0
 40
0.0
 40
0.0
 40
0.0
 40
0.2319539837
 40
0.4336305223
 40
0.6048135371
 40
0.678904413
 40
0.745294191
 40
0.8039588917
 40
0.8548764892
 40
0.8980338211
 40
0.9334433239
 40
0.9482519829
 40
0.9611373785
 40
0.9721091383
 40
0.9811829819
 40
0.9883870621
 40
0.9937788979
 40
0.9975009925
 40
1.0
 40
1.0
 40
1.0
 40
1.0
 10
6.4358626395
 20
5.267261538
 30
0.0
 10
6.4384432198
 20
5.2673638269
 30
0.0
 10
6.4432671391
 20
5.2675653666
 30
0.0
 10
6.449993613
 20
5.2678860809
 30
0.0
 10
6.4549624643
 20
5.2681617944
 30
0.0
 10
6.4584254293
 20
5.2683846293
 30
0.0
 10
6.4606371299
 20
5.2685425934
 30
0.0
 10
6.4625901712
 20
5.2686994037
 30
0.0
 10
6.4642837317
 20
5.2688548403
 30
0.0
 10
6.4657172446
 20
5.269008783
 30
0.0
 10
6.4667484697
 20
5.2691421685
 30
0.0
 10
6.4674426119
 20
5.2692511901
 30
0.0
 10
6.467866309
 20
5.2693277142
 30
0.0
 10
6.4682250915
 20
5.2694037503
 30
0.0
 10
6.4685189707
 20
5.2694795252
 30
0.0
 10
6.468748809
 20
5.2695539498
 30
0.0
 10
6.4689147192
 20
5.2696291605
 30
0.0
 10
6.469023228
 20
5.2697011686
 30
0.0
 10
6.4690593467
 20
5.2697678442
 30
0.0
 10
6.4690593465
 20
5.2697956684
 30
0.0
  0
SPLINE
  5
40E
100
AcDbEntity
  8
0
100
AcDbSpline
 62
7
  6
CONTINUOUS
 70
0
 71
3
 72
19
 73
15
 74
0
 42
0.0000001
 43
0.0000001
 44
0.0000000001
 40
0.0
 40
0.0
 40
0.0
 40
0.0
 40
0.1673637048
 40
0.3304340151
 40
0.4848161553
 40
0.6265746892
 40
0.691532161
 40
0.7519751997
 40
0.8075003662
 40
0.8577508061
 40
0.9024020328
 40
0.9411496329
 40
0.973755987
 40
1.0
 40
1.0
 40
1.0
 40
1.0
 10
5.5980007764
 20
5.3133486253
 30
0.0
 10
5.6447462982
 20
5.3138297094
 30
0.0
 10
5.7370381576
 20
5.3147815183
 30
0.0
 10
5.8724487264
 20
5.3162718626
 30
0.0
 10
6.0007064048
 20
5.317796323
 30
0.0
 10
6.1015601733
 20
5.3190749798
 30
0.0
 10
6.1761764125
 20
5.3200656356
 30
0.0
 10
6.2267074993
 20
5.3207799703
 30
0.0
 10
6.2731300568
 20
5.3215025668
 30
0.0
 10
6.3151408551
 20
5.3222375625
 30
0.0
 10
6.3524643674
 20
5.3229817503
 30
0.0
 10
6.3848582772
 20
5.3237336569
 30
0.0
 10
6.412109013
 20
5.324486029
 30
0.0
 10
6.4285379188
 20
5.3250420673
 30
0.0
 10
6.4358626395
 20
5.3253324041
 30
0.0
  0
SPLINE
  5
40F
100
AcDbEntity
  8
0
100
AcDbSpline
 62
7
  6
CONTINUOUS
 70
0
 71
3
 72
24
 73
20
 74
0
 42
0.0000001
 43
0.0000001
 44
0.0000000001
 40
0.0
 40
0.0
 40
0.0
 40
0.0
 40
0.2319539837
 40
0.4336305223
 40
0.6048135371
 40
0.678904413
 40
0.745294191
 40
0.8039588917
 40
0.8548764892
 40
0.8980338211
 40
0.9334433239
 40
0.9482519829
 40
0.9611373785
 40
0.9721091383
 40
0.9811829819
 40
0.9883870621
 40
0.9937788979
 40
0.9975009925
 40
1.0
 40
1.0
 40
1.0
 40
1.0
 10
6.4358626395
 20
5.3253324041
 30
0.0
 10
6.4384432198
 20
5.3254346931
 30
0.0
 10
6.4432671391
 20
5.3256362327
 30
0.0
 10
6.449993613
 20
5.3259569471
 30
0.0
 10
6.4549624643
 20
5.3262326605
 30
0.0
 10
6.4584254293
 20
5.3264554954
 30
0.0
 10
6.4606371299
 20
5.3266134596
 30
0.0
 10
6.4625901712
 20
5.3267702699
 30
0.0
 10
6.4642837317
 20
5.3269257064
 30
0.0
 10
6.4657172446
 20
5.3270796492
 30
0.0
 10
6.4667484697
 20
5.3272130347
 30
0.0
 10
6.4674426119
 20
5.3273220563
 30
0.0
 10
6.467866309
 20
5.3273985804
 30
0.0
 10
6.4682250915
 20
5.3274746165
 30
0.0
 10
6.4685189707
 20
5.3275503914
 30
0.0
 10
6.468748809
 20
5.327624816
 30
0.0
 10
6.4689147192
 20
5.3277000267
 30
0.0
 10
6.469023228
 20
5.3277720348
 30
0.0
 10
6.4690593467
 20
5.3278387103
 30
0.0
 10
6.4690593465
 20
5.3278665346
 30
0.0
  0
SPLINE
  5
410
100
AcDbEntity
  8
0
100
AcDbSpline
 62
7
  6
CONTINUOUS
 70
0
 71
3
 72
70
 73
66
 74
0
 42
0.0000001
 43
0.0000001
 44
0.0000000001
 40
0.0
 40
0.0
 40
0.0
 40
0.0
 40
0.0002431363
 40
0.0005578272
 40
0.0014042949
 40
0.0025419311
 40
0.0039713281
 40
0.0056925381
 40
0.0077053621
 40
0.0100088056
 40
0.0126010528
 40
0.0186443653
 40
0.0258199824
 40
0.0341123994
 40
0.0435048614
 40
0.0539734278
 40
0.0654914316
 40
0.0780321824
 40
0.0915687905
 40
0.1060697114
 40
0.1214985595
 40
0.1549935344
 40
0.1917458453
 40
0.2314018537
 40
0.2735925038
 40
0.3179148359
 40
0.3639531974
 40
0.4112727678
 40
0.45942713
 40
0.5079633261
 40
0.5564216276
 40
0.6043455447
 40
0.6512850015
 40
0.6967962808
 40
0.7404541056
 40
0.7818415537
 40
0.8205714903
 40
0.8562718534
 40
0.8728802248
 40
0.8886093239
 40
0.9034207211
 40
0.9172776693
 40
0.9301500345
 40
0.9420093211
 40
0.9528270455
 40
0.9625751477
 40
0.9712314645
 40
0.9787782933
 40
0.9821301724
 40
0.985198115
 40
0.9879799503
 40
0.9904735378
 40
0.9926773719
 40
0.9945908094
 40
0.9962133389
 40
0.997544589
 40
0.9981009569
 40
0.9985845258
 40
0.9989954121
 40
0.9993338665
 40
0.9996004184
 40
0.9997962841
 40
0.9998686899
 40
0.9999252028
 40
1.0
 40
1.0
 40
1.0
 40
1.0
 10
4.7598928518
 20
6.1228961124
 30
0.0
 10
4.7600219743
 20
6.1229385804
 30
0.0
 10
4.7603238281
 20
6.1230186212
 30
0.0
 10
4.7610929703
 20
6.1231766532
 30
0.0
 10
4.7623654003
 20
6.1233628743
 30
0.0
 10
4.7642617845
 20
6.1235761982
 30
0.0
 10
4.7666496409
 20
6.1237918542
 30
0.0
 10
4.7695280469
 20
6.1240103745
 30
0.0
 10
4.7728961729
 20
6.1242310578
 30
0.0
 10
4.7767520189
 20
6.124453884
 30
0.0
 10
4.782859416
 20
6.1247696797
 30
0.0
 10
4.7916902511
 20
6.1251600327
 30
0.0
 10
4.8037078149
 20
6.1256135435
 30
0.0
 10
4.8175987809
 20
6.1260704402
 30
0.0
 10
4.8333315067
 20
6.1265290054
 30
0.0
 10
4.8508682044
 20
6.1269874235
 30
0.0
 10
4.8701655628
 20
6.1274438628
 30
0.0
 10
4.8911786493
 20
6.1278965829
 30
0.0
 10
4.9138598293
 20
6.1283434072
 30
0.0
 10
4.9381560163
 20
6.1287843869
 30
0.0
 10
4.9736089993
 20
6.1293839078
 30
0.0
 10
5.0215011946
 20
6.1301207801
 30
0.0
 10
5.0829372704
 20
6.1309889488
 30
0.0
 10
5.149234962
 20
6.1318728684
 30
0.0
 10
5.2197647474
 20
6.132782761
 30
0.0
 10
5.2938627732
 20
6.1337042177
 30
0.0
 10
5.3708284417
 20
6.1346197605
 30
0.0
 10
5.4499367387
 20
6.1355215293
 30
0.0
 10
5.5304417935
 20
6.1364018095
 30
0.0
 10
5.6115836765
 20
6.1372656053
 30
0.0
 10
5.6925966616
 20
6.1381349558
 30
0.0
 10
5.7727167243
 20
6.1390228686
 30
0.0
 10
5.8511889406
 20
6.1399275437
 30
0.0
 10
5.9272758106
 20
6.1408484404
 30
0.0
 10
6.00025857
 20
6.14176794
 30
0.0
 10
6.0694501231
 20
6.1426671176
 30
0.0
 10
6.1341928637
 20
6.1435472437
 30
0.0
 10
6.1850833427
 20
6.1442843113
 30
0.0
 10
6.2231157458
 20
6.1448775062
 30
0.0
 10
6.2494710469
 20
6.1453135285
 30
0.0
 10
6.2742878556
 20
6.1457534669
 30
0.0
 10
6.2975072026
 20
6.1461996477
 30
0.0
 10
6.3190757219
 20
6.1466508089
 30
0.0
 10
6.3389446572
 20
6.1471056824
 30
0.0
 10
6.3570663934
 20
6.147562958
 30
0.0
 10
6.3733968278
 20
6.1480215065
 30
0.0
 10
6.3878978501
 20
6.1484796612
 30
0.0
 10
6.3988231988
 20
6.1488730536
 30
0.0
 10
6.4066249319
 20
6.1491899435
 30
0.0
 10
6.4117641879
 20
6.1494168621
 30
0.0
 10
6.4164231716
 20
6.1496422605
 30
0.0
 10
6.4205985442
 20
6.1498658389
 30
0.0
 10
6.4242877716
 20
6.1500874435
 30
0.0
 10
6.4274891849
 20
6.1503070166
 30
0.0
 10
6.4302015805
 20
6.1505246393
 30
0.0
 10
6.4321550365
 20
6.1507133051
 30
0.0
 10
6.4334716919
 20
6.1508676975
 30
0.0
 10
6.4342755769
 20
6.1509759756
 30
0.0
 10
6.4349564438
 20
6.1510837965
 30
0.0
 10
6.4355144018
 20
6.1511904853
 30
0.0
 10
6.4359496592
 20
6.1512968921
 30
0.0
 10
6.43623426
 20
6.1513893654
 30
0.0
 10
6.4363985586
 20
6.1514700161
 30
0.0
 10
6.436492177
 20
6.1515308609
 30
0.0
 10
6.4365443244
 20
6.151597705
 30
0.0
 10
6.4365443464
 20
6.1516395209
 30
0.0
  0
SPLINE
  5
411
100
AcDbEntity
  8
0
100
AcDbSpline
 62
7
  6
CONTINUOUS
 70
0
 71
3
 72
33
 73
29
 74
0
 42
0.0000001
 43
0.0000001
 44
0.0000000001
 40
0.0
 40
0.0
 40
0.0
 40
0.0
 40
0.0004649033
 40
0.0010704761
 40
0.0027089539
 40
0.0049207816
 40
0.0077058704
 40
0.0110628594
 40
0.0149899577
 40
0.019485164
 40
0.0245463623
 40
0.0363579052
 40
0.0504008783
 40
0.0666385058
 40
0.0850321907
 40
0.1055431596
 40
0.1281258408
 40
0.1527237741
 40
0.1792794943
 40
0.23802609
 40
0.3038168652
 40
0.3760489036
 40
0.4540505994
 40
0.537107576
 40
0.6244389499
 40
0.7152359328
 40
0.8086859585
 40
1.0
 40
1.0
 40
1.0
 40
1.0
 10
4.7273660358
 20
6.1121104809
 30
0.0
 10
4.7274942602
 20
6.1121525563
 30
0.0
 10
4.7277952393
 20
6.1122315858
 30
0.0
 10
4.7285660827
 20
6.1123875918
 30
0.0
 10
4.7298473094
 20
6.112570966
 30
0.0
 10
4.7317619274
 20
6.1127809629
 30
0.0
 10
4.7341777904
 20
6.1129931015
 30
0.0
 10
4.7370927858
 20
6.1132078378
 30
0.0
 10
4.7405052495
 20
6.1134243215
 30
0.0
 10
4.7444131459
 20
6.1136426188
 30
0.0
 10
4.7506080933
 20
6.1139521143
 30
0.0
 10
4.7595741451
 20
6.1143356651
 30
0.0
 10
4.7717843796
 20
6.1147841156
 30
0.0
 10
4.7859062099
 20
6.1152377903
 30
0.0
 10
4.8019063142
 20
6.1156943604
 30
0.0
 10
4.819748913
 20
6.1161510363
 30
0.0
 10
4.8393930459
 20
6.1166056826
 30
0.0
 10
4.8607923357
 20
6.1170569865
 30
0.0
 10
4.8926880192
 20
6.1176733656
 30
0.0
 10
4.936540807
 20
6.1184149674
 30
0.0
 10
4.9936523462
 20
6.1192639066
 30
0.0
 10
5.0563537005
 20
6.1201180987
 30
0.0
 10
5.1240672649
 20
6.1209888516
 30
0.0
 10
5.1961638196
 20
6.1218884084
 30
0.0
 10
5.2719746598
 20
6.1228031034
 30
0.0
 10
5.3508026232
 20
6.1237144962
 30
0.0
 10
5.4598130727
 20
6.1249200034
 30
0.0
 10
5.5424694605
 20
6.1257692477
 30
0.0
 10
5.5980007764
 20
6.1263407513
 30
0.0
  0
SPLINE
  5
412
100
AcDbEntity
  8
0
100
AcDbSpline
 62
7
  6
CONTINUOUS
 70
0
 71
3
 72
12
 73
8
 74
0
 42
0.0000001
 43
0.0000001
 44
0.0000000001
 40
0.0
 40
0.0
 40
0.0
 40
0.0
 40
0.0589526169
 40
0.1365698711
 40
0.348503231
 40
0.6363525957
 40
1.0
 40
1.0
 40
1.0
 40
1.0
 10
4.7598859041
 20
6.1809662767
 30
0.0
 10
4.7600278611
 20
6.1810129652
 30
0.0
 10
4.7603634348
 20
6.1811001916
 30
0.0
 10
4.7612299952
 20
6.181272542
 30
0.0
 10
4.762680571
 20
6.1814747574
 30
0.0
 10
4.764856869
 20
6.1817069128
 30
0.0
 10
4.7665025524
 20
6.1818470263
 30
0.0
 10
4.7674214881
 20
6.1819196574
 30
0.0
  0
SPLINE
  5
413
100
AcDbEntity
  8
0
100
AcDbSpline
 62
7
  6
CONTINUOUS
 70
0
 71
3
 72
60
 73
56
 74
0
 42
0.0000001
 43
0.0000001
 44
0.0000000001
 40
0.0
 40
0.0
 40
0.0
 40
0.0
 40
0.0038014436
 40
0.0086862845
 40
0.0146455579
 40
0.0216683755
 40
0.0297371778
 40
0.0388326813
 40
0.0600263496
 40
0.0850721748
 40
0.1137446431
 40
0.1458030011
 40
0.1809590016
 40
0.2189063372
 40
0.2593083366
 40
0.3460268681
 40
0.3915773966
 40
0.4380592274
 40
0.485063127
 40
0.5321770231
 40
0.5789877799
 40
0.6250821472
 40
0.6700559328
 40
0.7135138275
 40
0.7550708084
 40
0.7943628154
 40
0.8310356614
 40
0.8647718072
 40
0.8804430896
 40
0.8952689512
 40
0.9092195533
 40
0.9222654743
 40
0.9343773021
 40
0.9455265544
 40
0.9556906508
 40
0.964849352
 40
0.9729824457
 40
0.9800698083
 40
0.9832158462
 40
0.9860948918
 40
0.9887056649
 40
0.9910469024
 40
0.9931173675
 40
0.9949158663
 40
0.9964412779
 40
0.9976926205
 40
0.9982152994
 40
0.9986693319
 40
0.9990549345
 40
0.9993724642
 40
0.9996225568
 40
0.9998065309
 40
0.9998747283
 40
0.9999281878
 40
1.0
 40
1.0
 40
1.0
 40
1.0
 10
4.7674214881
 20
6.1819196574
 30
0.0
 10
4.7695305305
 20
6.1820863526
 30
0.0
 10
4.7743547953
 20
6.1824014425
 30
0.0
 10
4.7824944766
 20
6.1828264126
 30
0.0
 10
4.7924286957
 20
6.1832583921
 30
0.0
 10
4.8041359934
 20
6.1836969164
 30
0.0
 10
4.8175896375
 20
6.1841392928
 30
0.0
 10
4.8389279288
 20
6.1847636041
 30
0.0
 10
4.8697143436
 20
6.1855227038
 30
0.0
 10
4.9113963897
 20
6.1863802515
 30
0.0
 10
4.959126283
 20
6.1872259377
 30
0.0
 10
5.01248377
 20
6.1880584365
 30
0.0
 10
5.0710035345
 20
6.18889284
 30
0.0
 10
5.1341669583
 20
6.1897470161
 30
0.0
 10
5.2260245249
 20
6.1909410177
 30
0.0
 10
5.322114006
 20
6.1921229377
 30
0.0
 10
5.4215876727
 20
6.1932760129
 30
0.0
 10
5.4989608974
 20
6.1941302006
 30
0.0
 10
5.5772043795
 20
6.194970911
 30
0.0
 10
5.6556309605
 20
6.195808715
 30
0.0
 10
5.7335512516
 20
6.1966538812
 30
0.0
 10
5.8102802034
 20
6.1975199926
 30
0.0
 10
5.885142832
 20
6.1984058167
 30
0.0
 10
5.9574800362
 20
6.1992953815
 30
0.0
 10
6.0266550092
 20
6.2001769452
 30
0.0
 10
6.0920537737
 20
6.201043334
 30
0.0
 10
6.1530999298
 20
6.2018858297
 30
0.0
 10
6.2010010047
 20
6.2025951481
 30
0.0
 10
6.2367441644
 20
6.20317103
 30
0.0
 10
6.2614770569
 20
6.2035956644
 30
0.0
 10
6.2847485653
 20
6.2040237219
 30
0.0
 10
6.3065092843
 20
6.2044555879
 30
0.0
 10
6.326710553
 20
6.2048914574
 30
0.0
 10
6.3453074879
 20
6.2053319433
 30
0.0
 10
6.3622603407
 20
6.2057752754
 30
0.0
 10
6.3775339633
 20
6.206219174
 30
0.0
 10
6.3910945271
 20
6.2066615881
 30
0.0
 10
6.4013090736
 20
6.2070404634
 30
0.0
 10
6.4086002005
 20
6.2073451566
 30
0.0
 10
6.413401378
 20
6.2075633206
 30
0.0
 10
6.4177542155
 20
6.2077802408
 30
0.0
 10
6.4216565106
 20
6.2079958559
 30
0.0
 10
6.425106064
 20
6.2082100715
 30
0.0
 10
6.4281007239
 20
6.2084226345
 30
0.0
 10
6.4306383121
 20
6.2086334338
 30
0.0
 10
6.4324656095
 20
6.2088161439
 30
0.0
 10
6.4336966023
 20
6.2089655592
 30
0.0
 10
6.4344475614
 20
6.2090702611
 30
0.0
 10
6.4350831551
 20
6.2091744482
 30
0.0
 10
6.43560369
 20
6.2092775125
 30
0.0
 10
6.4360094773
 20
6.2093802158
 30
0.0
 10
6.4362747044
 20
6.2094695731
 30
0.0
 10
6.4364274592
 20
6.2095472654
 30
0.0
 10
6.4365151458
 20
6.2096064416
 30
0.0
 10
6.4365628939
 20
6.2096706726
 30
0.0
 10
6.4365629001
 20
6.2097106383
 30
0.0
  0
SPLINE
  5
414
100
AcDbEntity
  8
0
100
AcDbSpline
 62
7
  6
CONTINUOUS
 70
0
 71
3
 72
33
 73
29
 74
0
 42
0.0000001
 43
0.0000001
 44
0.0000000001
 40
0.0
 40
0.0
 40
0.0
 40
0.0
 40
0.0004647028
 40
0.0010699418
 40
0.0027071548
 40
0.0049173632
 40
0.0077021453
 40
0.0110601032
 40
0.0149888514
 40
0.0194858047
 40
0.0245482692
 40
0.0363586362
 40
0.0503975075
 40
0.0666369358
 40
0.0850343656
 40
0.1055446313
 40
0.1281225106
 40
0.1527212231
 40
0.1792814062
 40
0.2380238402
 40
0.3038169022
 40
0.3760476165
 40
0.4540534637
 40
0.5371092734
 40
0.6244323404
 40
0.7152298316
 40
0.8086969647
 40
1.0
 40
1.0
 40
1.0
 40
1.0
 10
4.7273682693
 20
6.1701722167
 30
0.0
 10
4.7274964903
 20
6.1702141148
 30
0.0
 10
4.7277973741
 20
6.1702928662
 30
0.0
 10
4.728567752
 20
6.1704485209
 30
0.0
 10
4.7298480007
 20
6.1706320084
 30
0.0
 10
4.731761581
 20
6.1708429287
 30
0.0
 10
4.7341769882
 20
6.1710569801
 30
0.0
 10
4.7370924522
 20
6.1712744132
 30
0.0
 10
4.740505977
 20
6.1714940816
 30
0.0
 10
4.7444150348
 20
6.1717157357
 30
0.0
 10
4.7506102812
 20
6.1720297296
 30
0.0
 10
4.7595749858
 20
6.1724173904
 30
0.0
 10
4.7717841576
 20
6.1728669031
 30
0.0
 10
4.7859064418
 20
6.1733188697
 30
0.0
 10
4.8019080211
 20
6.1737721268
 30
0.0
 10
4.8197501747
 20
6.1742250613
 30
0.0
 10
4.8393929815
 20
6.1746763064
 30
0.0
 10
4.8607924326
 20
6.1751243587
 30
0.0
 10
4.8926884344
 20
6.1757376826
 30
0.0
 10
4.936541806
 20
6.1764846425
 30
0.0
 10
4.9936523003
 20
6.1773356356
 30
0.0
 10
5.0563551014
 20
6.1781850282
 30
0.0
 10
5.1240689707
 20
6.1790608893
 30
0.0
 10
5.1961638148
 20
6.1799644096
 30
0.0
 10
5.2719719605
 20
6.1808765604
 30
0.0
 10
5.3508025301
 20
6.1817852141
 30
0.0
 10
5.4598147634
 20
6.1829868452
 30
0.0
 10
5.5424727453
 20
6.1838401476
 30
0.0
 10
5.5980007764
 20
6.1844116174
 30
0.0
  0
SPLINE
  5
415
100
AcDbEntity
  8
0
100
AcDbSpline
 62
7
  6
CONTINUOUS
 70
0
 71
3
 72
19
 73
15
 74
0
 42
0.0000001
 43
0.0000001
 44
0.0000000001
 40
0.0
 40
0.0
 40
0.0
 40
0.0
 40
0.1673637048
 40
0.3304340151
 40
0.4848161553
 40
0.6265746892
 40
0.691532161
 40
0.7519751997
 40
0.8075003662
 40
0.8577508061
 40
0.9024020328
 40
0.9411496329
 40
0.973755987
 40
1.0
 40
1.0
 40
1.0
 40
1.0
 10
5.5980007764
 20
5.4294903576
 30
0.0
 10
5.6447462982
 20
5.4299714417
 30
0.0
 10
5.7370381576
 20
5.4309232506
 30
0.0
 10
5.8724487264
 20
5.4324135949
 30
0.0
 10
6.0007064048
 20
5.4339380552
 30
0.0
 10
6.1015601733
 20
5.4352167121
 30
0.0
 10
6.1761764125
 20
5.4362073678
 30
0.0
 10
6.2267074993
 20
5.4369217026
 30
0.0
 10
6.2731300568
 20
5.437644299
 30
0.0
 10
6.3151408551
 20
5.4383792948
 30
0.0
 10
6.3524643674
 20
5.4391234825
 30
0.0
 10
6.3848582772
 20
5.4398753892
 30
0.0
 10
6.412109013
 20
5.4406277613
 30
0.0
 10
6.4285379188
 20
5.4411837995
 30
0.0
 10
6.4358626395
 20
5.4414741364
 30
0.0
  0
SPLINE
  5
416
100
AcDbEntity
  8
0
100
AcDbSpline
 62
7
  6
CONTINUOUS
 70
0
 71
3
 72
24
 73
20
 74
0
 42
0.0000001
 43
0.0000001
 44
0.0000000001
 40
0.0
 40
0.0
 40
0.0
 40
0.0
 40
0.2319539837
 40
0.4336305223
 40
0.6048135371
 40
0.678904413
 40
0.745294191
 40
0.8039588917
 40
0.8548764892
 40
0.8980338211
 40
0.9334433239
 40
0.9482519829
 40
0.9611373785
 40
0.9721091383
 40
0.9811829819
 40
0.9883870621
 40
0.9937788979
 40
0.9975009925
 40
1.0
 40
1.0
 40
1.0
 40
1.0
 10
6.4358626395
 20
5.4414741364
 30
0.0
 10
6.4384432198
 20
5.4415764253
 30
0.0
 10
6.4432671391
 20
5.441777965
 30
0.0
 10
6.449993613
 20
5.4420986794
 30
0.0
 10
6.4549624643
 20
5.4423743928
 30
0.0
 10
6.4584254293
 20
5.4425972277
 30
0.0
 10
6.4606371299
 20
5.4427551918
 30
0.0
 10
6.4625901712
 20
5.4429120022
 30
0.0
 10
6.4642837317
 20
5.4430674387
 30
0.0
 10
6.4657172446
 20
5.4432213815
 30
0.0
 10
6.4667484697
 20
5.443354767
 30
0.0
 10
6.4674426119
 20
5.4434637886
 30
0.0
 10
6.467866309
 20
5.4435403126
 30
0.0
 10
6.4682250915
 20
5.4436163488
 30
0.0
 10
6.4685189707
 20
5.4436921237
 30
0.0
 10
6.468748809
 20
5.4437665483
 30
0.0
 10
6.4689147192
 20
5.443841759
 30
0.0
 10
6.469023228
 20
5.443913767
 30
0.0
 10
6.4690593467
 20
5.4439804426
 30
0.0
 10
6.4690593465
 20
5.4440082669
 30
0.0
  0
SPLINE
  5
417
100
AcDbEntity
  8
0
100
AcDbSpline
 62
7
  6
CONTINUOUS
 70
0
 71
3
 72
70
 73
66
 74
0
 42
0.0000001
 43
0.0000001
 44
0.0000000001
 40
0.0
 40
0.0
 40
0.0
 40
0.0
 40
0.0002432508
 40
0.0005580648
 40
0.001404766
 40
0.0025425559
 40
0.0039719509
 40
0.0056929276
 40
0.0077052355
 40
0.0100082741
 40
0.0126003725
 40
0.0186438253
 40
0.0258196184
 40
0.0341115907
 40
0.0435031332
 40
0.0539717799
 40
0.0654903833
 40
0.0780316468
 40
0.0915682508
 40
0.1060701125
 40
0.1215007517
 40
0.1549987743
 40
0.1917543028
 40
0.2314134047
 40
0.2736041393
 40
0.3179261945
 40
0.3639631153
 40
0.4112821718
 40
0.45943567
 40
0.5079708081
 40
0.5564275247
 40
0.6043484131
 40
0.651284707
 40
0.69679327
 40
0.740449295
 40
0.7818364693
 40
0.8205668481
 40
0.8562685042
 40
0.8728771443
 40
0.8886066043
 40
0.9034188027
 40
0.9172766515
 40
0.9301494422
 40
0.9420090146
 40
0.9528272266
 40
0.9625761112
 40
0.9712325604
 40
0.9787791202
 40
0.982130857
 40
0.9851987281
 40
0.98798062
 40
0.9904744351
 40
0.9926784204
 40
0.9945918466
 40
0.9962142456
 40
0.9975452893
 40
0.9981015391
 40
0.9985849873
 40
0.9989957558
 40
0.9993341007
 40
0.9996005573
 40
0.9997963476
 40
0.9998687253
 40
0.9999252178
 40
1.0
 40
1.0
 40
1.0
 40
1.0
 10
4.7598964946
 20
6.2390379022
 30
0.0
 10
4.7600256796
 20
6.2390803845
 30
0.0
 10
4.7603276629
 20
6.2391604526
 30
0.0
 10
4.7610970634
 20
6.2393185301
 30
0.0
 10
4.7623697738
 20
6.2395047909
 30
0.0
 10
4.7642663706
 20
6.2397181267
 30
0.0
 10
4.7666541809
 20
6.2399337434
 30
0.0
 10
4.7695321688
 20
6.240152163
 30
0.0
 10
4.7728996546
 20
6.240372666
 30
0.0
 10
4.7767549023
 20
6.2405953652
 30
0.0
 10
4.7828620605
 20
6.2409111144
 30
0.0
 10
4.7916929701
 20
6.2413015702
 30
0.0
 10
4.803710435
 20
6.2417552837
 30
0.0
 10
4.8176007092
 20
6.2422123365
 30
0.0
 10
4.8333326936
 20
6.2426708428
 30
0.0
 10
4.8508692351
 20
6.2431290289
 30
0.0
 10
4.8701672328
 20
6.2435853202
 30
0.0
 10
4.891180904
 20
6.2440380834
 30
0.0
 10
4.9138628458
 20
6.2444855256
 30
0.0
 10
4.9381605167
 20
6.2449266404
 30
0.0
 10
4.9736166781
 20
6.2455259456
 30
0.0
 10
5.0215133092
 20
6.2462622501
 30
0.0
 10
5.0829545054
 20
6.2471313488
 30
0.0
 10
5.149255662
 20
6.2480156173
 30
0.0
 10
5.2197869716
 20
6.2489242892
 30
0.0
 10
5.2938839585
 20
6.2498462691
 30
0.0
 10
5.3708482533
 20
6.2507620315
 30
0.0
 10
5.4499548604
 20
6.2516626323
 30
0.0
 10
5.5304584135
 20
6.252543848
 30
0.0
 10
5.6115982034
 20
6.2534078388
 30
0.0
 10
5.692607898
 20
6.2542761925
 30
0.0
 10
5.7727234797
 20
6.255164527
 30
0.0
 10
5.8511905851
 20
6.2560695678
 30
0.0
 10
5.9272730442
 20
6.256990069
 30
0.0
 10
6.0002530067
 20
6.2579096956
 30
0.0
 10
6.0694435345
 20
6.2588090137
 30
0.0
 10
6.1341869946
 20
6.2596886557
 30
0.0
 10
6.1850785083
 20
6.260426003
 30
0.0
 10
6.223111923
 20
6.2610193415
 30
0.0
 10
6.2494679813
 20
6.2614553865
 30
0.0
 10
6.2742859069
 20
6.2618951207
 30
0.0
 10
6.2975064107
 20
6.2623410599
 30
0.0
 10
6.3190757952
 20
6.262792298
 30
0.0
 10
6.3389453656
 20
6.2632473237
 30
0.0
 10
6.3570679388
 20
6.2637047505
 30
0.0
 10
6.3733991324
 20
6.2641632543
 30
0.0
 10
6.3879004953
 20
6.2646213233
 30
0.0
 10
6.3988256726
 20
6.2650146541
 30
0.0
 10
6.4066271235
 20
6.2653315341
 30
0.0
 10
6.4117662821
 20
6.2655584778
 30
0.0
 10
6.4164253746
 20
6.2657839361
 30
0.0
 10
6.420600978
 20
6.2660076313
 30
0.0
 10
6.4242904004
 20
6.2662293165
 30
0.0
 10
6.4274918118
 20
6.2664489161
 30
0.0
 10
6.4302040087
 20
6.2666665244
 30
0.0
 10
6.4321572094
 20
6.2668551549
 30
0.0
 10
6.4334736164
 20
6.26700951
 30
0.0
 10
6.4342773031
 20
6.2671177572
 30
0.0
 10
6.4349579768
 20
6.2672255469
 30
0.0
 10
6.4355157563
 20
6.2673322057
 30
0.0
 10
6.4359508578
 20
6.267438585
 30
0.0
 10
6.4362353492
 20
6.267531039
 30
0.0
 10
6.4363995755
 20
6.2676116758
 30
0.0
 10
6.4364931581
 20
6.2676725167
 30
0.0
 10
6.4365452688
 20
6.2677393549
 30
0.0
 10
6.4365452885
 20
6.2677811624
 30
0.0
  0
SPLINE
  5
418
100
AcDbEntity
  8
0
100
AcDbSpline
 62
7
  6
CONTINUOUS
 70
0
 71
3
 72
33
 73
29
 74
0
 42
0.0000001
 43
0.0000001
 44
0.0000000001
 40
0.0
 40
0.0
 40
0.0
 40
0.0
 40
0.0004647028
 40
0.0010699418
 40
0.0027071548
 40
0.0049173632
 40
0.0077021453
 40
0.0110601032
 40
0.0149888514
 40
0.0194858047
 40
0.0245482692
 40
0.0363586362
 40
0.0503975075
 40
0.0666369358
 40
0.0850343656
 40
0.1055446313
 40
0.1281225106
 40
0.1527212231
 40
0.1792814062
 40
0.2380238402
 40
0.3038169022
 40
0.3760476165
 40
0.4540534637
 40
0.5371092734
 40
0.6244323404
 40
0.7152298316
 40
0.8086969647
 40
1.0
 40
1.0
 40
1.0
 40
1.0
 10
4.7273682693
 20
6.2282430829
 30
0.0
 10
4.7274964903
 20
6.2282849809
 30
0.0
 10
4.7277973741
 20
6.2283637324
 30
0.0
 10
4.728567752
 20
6.2285193871
 30
0.0
 10
4.7298480007
 20
6.2287028746
 30
0.0
 10
4.731761581
 20
6.2289137948
 30
0.0
 10
4.7341769882
 20
6.2291278463
 30
0.0
 10
4.7370924522
 20
6.2293452794
 30
0.0
 10
4.740505977
 20
6.2295649477
 30
0.0
 10
4.7444150348
 20
6.2297866019
 30
0.0
 10
4.7506102812
 20
6.2301005957
 30
0.0
 10
4.7595749858
 20
6.2304882566
 30
0.0
 10
4.7717841576
 20
6.2309377692
 30
0.0
 10
4.7859064418
 20
6.2313897359
 30
0.0
 10
4.8019080211
 20
6.231842993
 30
0.0
 10
4.8197501747
 20
6.2322959275
 30
0.0
 10
4.8393929815
 20
6.2327471725
 30
0.0
 10
4.8607924326
 20
6.2331952248
 30
0.0
 10
4.8926884344
 20
6.2338085487
 30
0.0
 10
4.936541806
 20
6.2345555086
 30
0.0
 10
4.9936523003
 20
6.2354065017
 30
0.0
 10
5.0563551014
 20
6.2362558943
 30
0.0
 10
5.1240689707
 20
6.2371317554
 30
0.0
 10
5.1961638148
 20
6.2380352758
 30
0.0
 10
5.2719719605
 20
6.2389474266
 30
0.0
 10
5.3508025301
 20
6.2398560803
 30
0.0
 10
5.4598147634
 20
6.2410577113
 30
0.0
 10
5.5424727453
 20
6.2419110138
 30
0.0
 10
5.5980007764
 20
6.2424824836
 30
0.0
  0
SPLINE
  5
419
100
AcDbEntity
  8
0
100
AcDbSpline
 62
7
  6
CONTINUOUS
 70
0
 71
3
 72
19
 73
15
 74
0
 42
0.0000001
 43
0.0000001
 44
0.0000000001
 40
0.0
 40
0.0
 40
0.0
 40
0.0
 40
0.1673637048
 40
0.3304340151
 40
0.4848161553
 40
0.6265746892
 40
0.691532161
 40
0.7519751997
 40
0.8075003662
 40
0.8577508061
 40
0.9024020328
 40
0.9411496329
 40
0.973755987
 40
1.0
 40
1.0
 40
1.0
 40
1.0
 10
5.5980007764
 20
5.4875612237
 30
0.0
 10
5.6447462982
 20
5.4880423078
 30
0.0
 10
5.7370381576
 20
5.4889941168
 30
0.0
 10
5.8724487264
 20
5.490484461
 30
0.0
 10
6.0007064048
 20
5.4920089214
 30
0.0
 10
6.1015601733
 20
5.4932875783
 30
0.0
 10
6.1761764125
 20
5.494278234
 30
0.0
 10
6.2267074993
 20
5.4949925688
 30
0.0
 10
6.2731300568
 20
5.4957151652
 30
0.0
 10
6.3151408551
 20
5.4964501609
 30
0.0
 10
6.3524643674
 20
5.4971943487
 30
0.0
 10
6.3848582772
 20
5.4979462553
 30
0.0
 10
6.412109013
 20
5.4986986274
 30
0.0
 10
6.4285379188
 20
5.4992546657
 30
0.0
 10
6.4358626395
 20
5.4995450026
 30
0.0
  0
SPLINE
  5
41A
100
AcDbEntity
  8
0
100
AcDbSpline
 62
7
  6
CONTINUOUS
 70
0
 71
3
 72
24
 73
20
 74
0
 42
0.0000001
 43
0.0000001
 44
0.0000000001
 40
0.0
 40
0.0
 40
0.0
 40
0.0
 40
0.2319539837
 40
0.4336305223
 40
0.6048135371
 40
0.678904413
 40
0.745294191
 40
0.8039588917
 40
0.8548764892
 40
0.8980338211
 40
0.9334433239
 40
0.9482519829
 40
0.9611373785
 40
0.9721091383
 40
0.9811829819
 40
0.9883870621
 40
0.9937788979
 40
0.9975009925
 40
1.0
 40
1.0
 40
1.0
 40
1.0
 10
6.4358626395
 20
5.4995450026
 30
0.0
 10
6.4384432198
 20
5.4996472915
 30
0.0
 10
6.4432671391
 20
5.4998488312
 30
0.0
 10
6.449993613
 20
5.5001695455
 30
0.0
 10
6.4549624643
 20
5.500445259
 30
0.0
 10
6.4584254293
 20
5.5006680938
 30
0.0
 10
6.4606371299
 20
5.500826058
 30
0.0
 10
6.4625901712
 20
5.5009828683
 30
0.0
 10
6.4642837317
 20
5.5011383048
 30
0.0
 10
6.4657172446
 20
5.5012922476
 30
0.0
 10
6.4667484697
 20
5.5014256331
 30
0.0
 10
6.4674426119
 20
5.5015346547
 30
0.0
 10
6.467866309
 20
5.5016111788
 30
0.0
 10
6.4682250915
 20
5.5016872149
 30
0.0
 10
6.4685189707
 20
5.5017629898
 30
0.0
 10
6.468748809
 20
5.5018374144
 30
0.0
 10
6.4689147192
 20
5.5019126251
 30
0.0
 10
6.469023228
 20
5.5019846332
 30
0.0
 10
6.4690593467
 20
5.5020513087
 30
0.0
 10
6.4690593465
 20
5.502079133
 30
0.0
  0
SPLINE
  5
41B
100
AcDbEntity
  8
0
100
AcDbSpline
 62
7
  6
CONTINUOUS
 70
0
 71
3
 72
36
 73
32
 74
0
 42
0.0000001
 43
0.0000001
 44
0.0000000001
 40
0.0
 40
0.0
 40
0.0
 40
0.0
 40
0.0004522903
 40
0.001066824
 40
0.0018454069
 40
0.0027886165
 40
0.0051686316
 40
0.0082051364
 40
0.011895226
 40
0.0162355942
 40
0.0212227456
 40
0.0268530836
 40
0.0331225111
 40
0.0400243613
 40
0.0556949495
 40
0.0738040061
 40
0.0942901701
 40
0.1170794016
 40
0.1420824451
 40
0.1692091028
 40
0.1983652525
 40
0.2294383348
 40
0.2623103332
 40
0.3329667525
 40
0.4092723953
 40
0.4900919424
 40
0.5742160167
 40
0.6603994317
 40
0.7473614508
 40
0.8338028567
 40
1.0
 40
1.0
 40
1.0
 40
1.0
 10
4.7598860446
 20
6.2971079821
 30
0.0
 10
4.7600545386
 20
6.2971634166
 30
0.0
 10
4.7604612617
 20
6.297264892
 30
0.0
 10
4.7611726242
 20
6.2973982297
 30
0.0
 10
4.762079142
 20
6.2975330012
 30
0.0
 10
4.7636757442
 20
6.2977300095
 30
0.0
 10
4.7661589477
 20
6.2979675695
 30
0.0
 10
4.7697199803
 20
6.2982405885
 30
0.0
 10
4.7740515293
 20
6.2985166543
 30
0.0
 10
4.7791491655
 20
6.2987957685
 30
0.0
 10
4.7850085959
 20
6.2990773705
 30
0.0
 10
4.7916252188
 20
6.2993613704
 30
0.0
 10
4.7989932737
 20
6.2996476716
 30
0.0
 10
4.8102973437
 20
6.3000489514
 30
0.0
 10
4.8262441087
 20
6.3005456774
 30
0.0
 10
4.8475182899
 20
6.3011206964
 30
0.0
 10
4.8715852519
 20
6.3016914395
 30
0.0
 10
4.8983567022
 20
6.3022554967
 30
0.0
 10
4.9277330491
 20
6.3028135553
 30
0.0
 10
4.959606885
 20
6.3033654875
 30
0.0
 10
4.9938616892
 20
6.3039112473
 30
0.0
 10
5.0303699827
 20
6.3044554902
 30
0.0
 10
5.0831525749
 20
6.3052027403
 30
0.0
 10
5.1536733617
 20
6.3061498173
 30
0.0
 10
5.2429972344
 20
6.3072910249
 30
0.0
 10
5.3376030701
 20
6.3084467935
 30
0.0
 10
5.4360832525
 20
6.3095843501
 30
0.0
 10
5.5369729556
 20
6.3106840399
 30
0.0
 10
5.6387716714
 20
6.3117692886
 30
0.0
 10
5.7719481431
 20
6.3132045333
 30
0.0
 10
5.8710208436
 20
6.314370775
 30
0.0
 10
5.9361948722
 20
6.3151778449
 30
0.0
  0
LINE
  5
41C
100
AcDbEntity
  8
0
100
AcDbLine
 62
7
  6
CONTINUOUS
 10
5.9361948722
 20
6.3151778449
 11
5.9457154942
 21
6.315296015
  0
LINE
  5
41D
100
AcDbEntity
  8
0
100
AcDbLine
 62
7
  6
CONTINUOUS
 10
5.9457154942
 20
6.315296015
 11
6.0908820956
 21
6.3171779152
  0
SPLINE
  5
41E
100
AcDbEntity
  8
0
100
AcDbSpline
 62
7
  6
CONTINUOUS
 70
0
 71
3
 72
33
 73
29
 74
0
 42
0.0000001
 43
0.0000001
 44
0.0000000001
 40
0.0
 40
0.0
 40
0.0
 40
0.0
 40
0.0004647033
 40
0.0010699428
 40
0.0027071568
 40
0.0049173661
 40
0.0077021491
 40
0.0110601079
 40
0.014988857
 40
0.0194858111
 40
0.0245482764
 40
0.0363586448
 40
0.0503975175
 40
0.0666369469
 40
0.0850343777
 40
0.1055446443
 40
0.1281225242
 40
0.1527212373
 40
0.1792814209
 40
0.2380238552
 40
0.3038169171
 40
0.3760476307
 40
0.4540534768
 40
0.537109285
 40
0.6244323501
 40
0.7152298391
 40
0.8086969699
 40
1.0
 40
1.0
 40
1.0
 40
1.0
 10
4.7273682705
 20
6.2863139494
 30
0.0
 10
4.7274964916
 20
6.2863558474
 30
0.0
 10
4.7277973758
 20
6.2864345989
 30
0.0
 10
4.7285677542
 20
6.2865902536
 30
0.0
 10
4.7298480037
 20
6.2867737411
 30
0.0
 10
4.7317615848
 20
6.2869846613
 30
0.0
 10
4.7341769928
 20
6.2871987128
 30
0.0
 10
4.7370924576
 20
6.2874161459
 30
0.0
 10
4.7405059831
 20
6.2876358143
 30
0.0
 10
4.7444150416
 20
6.2878574684
 30
0.0
 10
4.7506102889
 20
6.2881714623
 30
0.0
 10
4.7595749944
 20
6.2885591231
 30
0.0
 10
4.7717841674
 20
6.2890086357
 30
0.0
 10
4.7859064525
 20
6.2894606023
 30
0.0
 10
4.8019080327
 20
6.2899138593
 30
0.0
 10
4.819750187
 20
6.2903667938
 30
0.0
 10
4.8393929944
 20
6.2908180389
 30
0.0
 10
4.8607924459
 20
6.2912660913
 30
0.0
 10
4.8926884481
 20
6.2918794155
 30
0.0
 10
4.9365418199
 20
6.2926263754
 30
0.0
 10
4.993652314
 20
6.2934773671
 30
0.0
 10
5.0563551144
 20
6.2943267588
 30
0.0
 10
5.1240689826
 20
6.295202624
 30
0.0
 10
5.1961638253
 20
6.2961061491
 30
0.0
 10
5.2719719694
 20
6.2970182889
 30
0.0
 10
5.3508025372
 20
6.2979269213
 30
0.0
 10
5.4598147672
 20
6.2991285873
 30
0.0
 10
5.5424727457
 20
6.2999819956
 30
0.0
 10
5.5980007764
 20
6.3005533497
 30
0.0
  0
SPLINE
  5
41F
100
AcDbEntity
  8
0
100
AcDbSpline
 62
7
  6
CONTINUOUS
 70
0
 71
3
 72
28
 73
24
 74
0
 42
0.0000001
 43
0.0000001
 44
0.0000000001
 40
0.0
 40
0.0
 40
0.0
 40
0.0
 40
0.0016851362
 40
0.0031020084
 40
0.0049700871
 40
0.0073078294
 40
0.0101243879
 40
0.0134248604
 40
0.0172123271
 40
0.0262551637
 40
0.0372625775
 40
0.0651855928
 40
0.1009955137
 40
0.1446710225
 40
0.1961561492
 40
0.255390468
 40
0.3223124015
 40
0.3968597086
 40
0.4789697385
 40
0.5685780668
 40
0.6655953149
 40
0.7699117116
 40
1.0
 40
1.0
 40
1.0
 40
1.0
 10
4.7594426743
 20
4.6365907462
 30
0.0
 10
4.7594426791
 20
4.6366485495
 30
0.0
 10
4.7595379104
 20
4.6367352733
 30
0.0
 10
4.7596843975
 20
4.636808841
 30
0.0
 10
4.7598669342
 20
4.6368788762
 30
0.0
 10
4.7600972111
 20
4.6369470168
 30
0.0
 10
4.7603791957
 20
4.6370163878
 30
0.0
 10
4.7607117367
 20
4.6370857324
 30
0.0
 10
4.7612562516
 20
4.6371845221
 30
0.0
 10
4.7620651321
 20
4.6373051475
 30
0.0
 10
4.763698441
 20
4.6375065314
 30
0.0
 10
4.7662510693
 20
4.6377490502
 30
0.0
 10
4.7699248487
 20
4.6380282835
 30
0.0
 10
4.7744085604
 20
4.6383113958
 30
0.0
 10
4.7796968674
 20
4.6385981025
 30
0.0
 10
4.7857834589
 20
4.6388874502
 30
0.0
 10
4.7926618087
 20
4.6391790035
 30
0.0
 10
4.8003253982
 20
4.6394723114
 30
0.0
 10
4.8087676371
 20
4.6397670101
 30
0.0
 10
4.817981031
 20
4.6400627353
 30
0.0
 10
4.8279564871
 20
4.6403590612
 30
0.0
 10
4.842749421
 20
4.6407677485
 30
0.0
 10
4.8542166155
 20
4.6410524166
 30
0.0
 10
4.8621068957
 20
4.6412376418
 30
0.0
  0
SPLINE
  5
420
100
AcDbEntity
  8
0
100
AcDbSpline
 62
7
  6
CONTINUOUS
 70
0
 71
3
 72
23
 73
19
 74
0
 42
0.0000001
 43
0.0000001
 44
0.0000000001
 40
0.0
 40
0.0
 40
0.0
 40
0.0
 40
0.0448723717
 40
0.0965023932
 40
0.1541283809
 40
0.216894659
 40
0.2838646081
 40
0.3540463855
 40
0.4263949523
 40
0.4998401917
 40
0.5732901215
 40
0.6456557388
 40
0.7158592271
 40
0.7828660946
 40
0.8456812188
 40
0.9033710978
 40
0.9550645352
 40
1.0
 40
1.0
 40
1.0
 40
1.0
 10
4.9034720938
 20
4.6421228735
 30
0.0
 10
4.9242386445
 20
4.6425301949
 30
0.0
 10
4.9689010191
 20
4.6433093476
 30
0.0
 10
5.0402359476
 20
4.6443852898
 30
0.0
 10
5.1198542743
 20
4.6454743994
 30
0.0
 10
5.2065732272
 20
4.6466043416
 30
0.0
 10
5.2991041871
 20
4.6477577875
 30
0.0
 10
5.3960710404
 20
4.6489019418
 30
0.0
 10
5.4960356784
 20
4.6500198153
 30
0.0
 10
5.5975135603
 20
4.6511015307
 30
0.0
 10
5.69899927
 20
4.652189258
 30
0.0
 10
5.7989840726
 20
4.6533025431
 30
0.0
 10
5.8959859557
 20
4.6544471086
 30
0.0
 10
5.9885666494
 20
4.6556018988
 30
0.0
 10
6.0753549397
 20
4.6567274698
 30
0.0
 10
6.1550547177
 20
4.6578233465
 30
0.0
 10
6.2264778566
 20
4.658894594
 30
0.0
 10
6.2711987891
 20
4.6596746276
 30
0.0
 10
6.2919945231
 20
4.6600833238
 30
0.0
  0
LINE
  5
421
100
AcDbEntity
  8
0
100
AcDbLine
 62
7
  6
CONTINUOUS
 10
6.2926390527
 20
4.6600960055
 11
6.301070161
 21
4.6602647141
  0
LINE
  5
422
100
AcDbEntity
  8
0
100
AcDbLine
 62
7
  6
CONTINUOUS
 10
6.3318496452
 20
4.6609319514
 11
6.3340018469
 21
4.6609821409
  0
SPLINE
  5
423
100
AcDbEntity
  8
0
100
AcDbSpline
 62
7
  6
CONTINUOUS
 70
0
 71
3
 72
14
 73
10
 74
0
 42
0.0000001
 43
0.0000001
 44
0.0000000001
 40
0.0
 40
0.0
 40
0.0
 40
0.0
 40
0.3482266262
 40
0.498422307
 40
0.6323135874
 40
0.7496519186
 40
0.8501897278
 40
0.9336877211
 40
1.0
 40
1.0
 40
1.0
 40
1.0
 10
6.3340018469
 20
4.6609821409
 30
0.0
 10
6.3448745816
 20
4.6612370302
 30
0.0
 10
6.3604363134
 20
4.661629574
 30
0.0
 10
6.3801758634
 20
4.6622167017
 30
0.0
 10
6.3927061658
 20
4.6626338265
 30
0.0
 10
6.4036847016
 20
4.6630480214
 30
0.0
 10
6.4130883254
 20
4.6634572721
 30
0.0
 10
6.4208968376
 20
4.6638595716
 30
0.0
 10
6.4255665955
 20
4.6641550021
 30
0.0
 10
6.4276318708
 20
4.6643095208
 30
0.0
  0
SPLINE
  5
424
100
AcDbEntity
  8
0
100
AcDbSpline
 62
7
  6
CONTINUOUS
 70
0
 71
3
 72
13
 73
9
 74
0
 42
0.0000001
 43
0.0000001
 44
0.0000000001
 40
0.0
 40
0.0
 40
0.0
 40
0.0
 40
0.3718145658
 40
0.6623134804
 40
0.7770653779
 40
0.8715167742
 40
0.9457541735
 40
1.0
 40
1.0
 40
1.0
 40
1.0
 10
6.4276318708
 20
4.6643095208
 30
0.0
 10
6.428697744
 20
4.6643892667
 30
0.0
 10
6.4305954985
 20
4.6645431412
 30
0.0
 10
6.432818311
 20
4.6647687756
 30
0.0
 10
6.4342425752
 20
4.6649563048
 30
0.0
 10
6.4350474777
 20
4.6650845238
 30
0.0
 10
6.4356756531
 20
4.6652114566
 30
0.0
 10
6.4360329965
 20
4.6653083665
 30
0.0
 10
6.4361795849
 20
4.6653615563
 30
0.0
  0
SPLINE
  5
425
100
AcDbEntity
  8
0
100
AcDbSpline
 62
7
  6
CONTINUOUS
 70
0
 71
3
 72
32
 73
28
 74
0
 42
0.0000001
 43
0.0000001
 44
0.0000000001
 40
0.0
 40
0.0
 40
0.0
 40
0.0
 40
0.0006180466
 40
0.0010406046
 40
0.0015636273
 40
0.0029428347
 40
0.0047933237
 40
0.0071290203
 40
0.0099568263
 40
0.0132802718
 40
0.0171008409
 40
0.0262353004
 40
0.037361193
 40
0.0504758095
 40
0.0655749086
 40
0.0826534339
 40
0.1017058559
 40
0.1457087934
 40
0.1975353399
 40
0.2571260821
 40
0.3243805235
 40
0.3991868158
 40
0.4814328632
 40
0.5710064117
 40
0.6677948321
 40
0.7716662014
 40
1.0
 40
1.0
 40
1.0
 40
1.0
 10
4.7594466171
 20
4.6946608267
 30
0.0
 10
4.7594465933
 20
4.6946919604
 30
0.0
 10
4.7594752741
 20
4.6947427095
 30
0.0
 10
4.7595350139
 20
4.6947930942
 30
0.0
 10
4.7596347997
 20
4.6948556551
 30
0.0
 10
4.7598098009
 20
4.6949288266
 30
0.0
 10
4.7600776236
 20
4.6950122391
 30
0.0
 10
4.7604210541
 20
4.6950960499
 30
0.0
 10
4.7608402056
 20
4.6951805678
 30
0.0
 10
4.7613353641
 20
4.6952654567
 30
0.0
 10
4.762146459
 20
4.6953864075
 30
0.0
 10
4.7633506662
 20
4.695534152
 30
0.0
 10
4.7650233368
 20
4.6957043234
 30
0.0
 10
4.7669976863
 20
4.6958756456
 30
0.0
 10
4.7692727635
 20
4.6960480582
 30
0.0
 10
4.771847642
 20
4.6962214156
 30
0.0
 10
4.7758769676
 20
4.6964656277
 30
0.0
 10
4.7816562848
 20
4.696767552
 30
0.0
 10
4.789477624
 20
4.6971192294
 30
0.0
 10
4.7984711097
 20
4.6974749454
 30
0.0
 10
4.8086228706
 20
4.6978336323
 30
0.0
 10
4.8199164599
 20
4.69819403
 30
0.0
 10
4.8323348611
 20
4.6985549786
 30
0.0
 10
4.8458610408
 20
4.6989153567
 30
0.0
 10
4.8604769827
 20
4.6992739705
 30
0.0
 10
4.8820817234
 20
4.6997643123
 30
0.0
 10
4.8988129434
 20
4.7001038761
 30
0.0
 10
4.910313003
 20
4.7003246557
 30
0.0
  0
LINE
  5
426
100
AcDbEntity
  8
0
100
AcDbLine
 62
7
  6
CONTINUOUS
 10
4.910313003
 20
4.7003246557
 11
4.9184652341
 21
4.700479049
  0
LINE
  5
427
100
AcDbEntity
  8
0
100
AcDbLine
 62
7
  6
CONTINUOUS
 10
4.9184652341
 20
4.700479049
 11
4.9522875471
 21
4.7010798459
  0
LINE
  5
428
100
AcDbEntity
  8
0
100
AcDbLine
 62
7
  6
CONTINUOUS
 10
4.9522875471
 20
4.7010798459
 11
4.954909326
 21
4.7011240692
  0
SPLINE
  5
429
100
AcDbEntity
  8
0
100
AcDbSpline
 62
7
  6
CONTINUOUS
 70
0
 71
3
 72
18
 73
14
 74
0
 42
0.0000001
 43
0.0000001
 44
0.0000000001
 40
0.0
 40
0.0
 40
0.0
 40
0.0
 40
0.0486528139
 40
0.1027087989
 40
0.2243844523
 40
0.3591836633
 40
0.500659499
 40
0.6420479397
 40
0.7765934095
 40
0.8392652532
 40
0.8978519812
 40
0.9516451713
 40
1.0
 40
1.0
 40
1.0
 40
1.0
 10
4.954909326
 20
4.7011240692
 30
0.0
 10
4.9758155044
 20
4.7014754912
 30
0.0
 10
5.0199505977
 20
4.7021584877
 30
0.0
 10
5.1163730141
 20
4.7035126159
 30
0.0
 10
5.2498162514
 20
4.7052386961
 30
0.0
 10
5.4208281642
 20
4.7072835131
 30
0.0
 10
5.6003138178
 20
4.7092034351
 30
0.0
 10
5.7796903926
 20
4.7111252457
 30
0.0
 10
5.9251998973
 20
4.7128678072
 30
0.0
 10
6.0351257883
 20
4.7142724351
 30
0.0
 10
6.1103497076
 20
4.7152753668
 30
0.0
 10
6.1794205583
 20
4.7162479535
 30
0.0
 10
6.2233145849
 20
4.7169333531
 30
0.0
 10
6.24409267
 20
4.7172855006
 30
0.0
  0
LINE
  5
42A
100
AcDbEntity
  8
0
100
AcDbLine
 62
7
  6
CONTINUOUS
 10
6.24409267
 20
4.7172855006
 11
6.2584073961
 21
4.7175327415
  0
LINE
  5
42B
100
AcDbEntity
  8
0
100
AcDbLine
 62
7
  6
CONTINUOUS
 10
6.2584073961
 20
4.7175327415
 11
6.2857944043
 21
4.7180353343
  0
LINE
  5
42C
100
AcDbEntity
  8
0
100
AcDbLine
 62
7
  6
CONTINUOUS
 10
6.2857944043
 20
4.7180353343
 11
6.293358297
 21
4.7181822224
  0
SPLINE
  5
42D
100
AcDbEntity
  8
0
100
AcDbSpline
 62
7
  6
CONTINUOUS
 70
0
 71
3
 72
23
 73
19
 74
0
 42
0.0000001
 43
0.0000001
 44
0.0000000001
 40
0.0
 40
0.0
 40
0.0
 40
0.0
 40
0.2186290513
 40
0.4120420164
 40
0.5793541203
 40
0.6529659232
 40
0.7197449289
 40
0.7795938808
 40
0.8324475035
 40
0.8782534771
 40
0.9169604529
 40
0.9485188957
 40
0.9616031205
 40
0.9728838045
 40
0.9823573032
 40
0.9900258948
 40
0.9958993661
 40
1.0
 40
1.0
 40
1.0
 40
1.0
 10
6.293358297
 20
4.7181822224
 30
0.0
 10
6.3037771116
 20
4.7183872768
 30
0.0
 10
6.3234126617
 20
4.7187950008
 30
0.0
 10
6.3510194477
 20
4.7194534966
 30
0.0
 10
6.3717140218
 20
4.720026532
 30
0.0
 10
6.3863731609
 20
4.7204913688
 30
0.0
 10
6.3959117171
 20
4.720823438
 30
0.0
 10
6.4044602799
 20
4.7211530653
 30
0.0
 10
6.4120084605
 20
4.7214799205
 30
0.0
 10
6.4185480259
 20
4.7218035113
 30
0.0
 10
6.4240712965
 20
4.7221236077
 30
0.0
 10
6.4280346446
 20
4.7224006057
 30
0.0
 10
6.4306906023
 20
4.7226270894
 30
0.0
 10
6.4322958299
 20
4.7227850377
 30
0.0
 10
6.4336415033
 20
4.7229417359
 30
0.0
 10
6.4347279973
 20
4.723096267
 30
0.0
 10
6.4355547456
 20
4.7232489767
 30
0.0
 10
6.4360170033
 20
4.7233663775
 30
0.0
 10
6.4362007093
 20
4.7234331199
 30
0.0
  0
SPLINE
  5
42E
100
AcDbEntity
  8
0
100
AcDbSpline
 62
7
  6
CONTINUOUS
 70
0
 71
3
 72
29
 73
25
 74
0
 42
0.0000001
 43
0.0000001
 44
0.0000000001
 40
0.0
 40
0.0
 40
0.0
 40
0.0
 40
0.0016366035
 40
0.0030434277
 40
0.0049070755
 40
0.0072443656
 40
0.010063485
 40
0.0133688991
 40
0.0171632327
 40
0.0262242501
 40
0.0372539423
 40
0.0502548758
 40
0.0652275977
 40
0.1010853799
 40
0.14481537
 40
0.1963717204
 40
0.2556836993
 40
0.3226789405
 40
0.3972844993
 40
0.4794270749
 40
0.5690330994
 40
0.6660155725
 40
0.770254388
 40
1.0
 40
1.0
 40
1.0
 40
1.0
 10
4.7594522512
 20
4.7527324719
 30
0.0
 10
4.7594523882
 20
4.7527947757
 30
0.0
 10
4.7595608476
 20
4.7528860282
 30
0.0
 10
4.7597222065
 20
4.7529628902
 30
0.0
 10
4.7599258861
 20
4.753036865
 30
0.0
 10
4.7601822981
 20
4.75310875
 30
0.0
 10
4.7604964612
 20
4.7531819985
 30
0.0
 10
4.7608668231
 20
4.7532552045
 30
0.0
 10
4.761473242
 20
4.7533595154
 30
0.0
 10
4.7623737099
 20
4.7534868139
 30
0.0
 10
4.763625001
 20
4.7536333439
 30
0.0
 10
4.7651025375
 20
4.7537807921
 30
0.0
 10
4.7675234376
 20
4.7539914536
 30
0.0
 10
4.7711141661
 20
4.7542496478
 30
0.0
 10
4.7760977799
 20
4.7545488883
 30
0.0
 10
4.7819754404
 20
4.7548519647
 30
0.0
 10
4.7887396385
 20
4.7551582327
 30
0.0
 10
4.7963819917
 20
4.7554668832
 30
0.0
 10
4.8048940482
 20
4.7557773094
 30
0.0
 10
4.8142673519
 20
4.7560889313
 30
0.0
 10
4.8244929326
 20
4.7564011862
 30
0.0
 10
4.835560054
 20
4.7567135343
 30
0.0
 10
4.8519609247
 20
4.7571436021
 30
0.0
 10
4.8646719034
 20
4.7574427427
 30
0.0
 10
4.8734159368
 20
4.7576372816
 30
0.0
  0
LINE
  5
42F
100
AcDbEntity
  8
0
100
AcDbLine
 62
7
  6
CONTINUOUS
 10
4.8734159368
 20
4.7576372816
 11
4.8763397167
 21
4.7577019059
  0
LINE
  5
430
100
AcDbEntity
  8
0
100
AcDbLine
 62
7
  6
CONTINUOUS
 10
4.8763397167
 20
4.7577019059
 11
4.8860417005
 21
4.7579105433
  0
LINE
  5
431
100
AcDbEntity
  8
0
100
AcDbLine
 62
7
  6
CONTINUOUS
 10
4.8860417005
 20
4.7579105433
 11
4.9035509869
 21
4.7582667032
  0
LINE
  5
432
100
AcDbEntity
  8
0
100
AcDbLine
 62
7
  6
CONTINUOUS
 10
4.9035509869
 20
4.7582667032
 11
4.9087942895
 21
4.7583687612
  0
SPLINE
  5
433
100
AcDbEntity
  8
0
100
AcDbSpline
 62
7
  6
CONTINUOUS
 70
0
 71
3
 72
23
 73
19
 74
0
 42
0.0000001
 43
0.0000001
 44
0.0000000001
 40
0.0
 40
0.0
 40
0.0
 40
0.0
 40
0.045263177
 40
0.0971011609
 40
0.1547747633
 40
0.2174437887
 40
0.2842044236
 40
0.3540924494
 40
0.4261000131
 40
0.4991895364
 40
0.5723056937
 40
0.6443926845
 40
0.7144133924
 40
0.7813587724
 40
0.8442627464
 40
0.9022174499
 40
0.9543780492
 40
1.0
 40
1.0
 40
1.0
 40
1.0
 10
4.9087942895
 20
4.7583687612
 30
0.0
 10
4.9295439841
 20
4.7587687273
 30
0.0
 10
4.9740592146
 20
4.7595330322
 30
0.0
 10
5.0450168409
 20
4.7605937651
 30
0.0
 10
5.1239557526
 20
4.7616723767
 30
0.0
 10
5.2097369659
 20
4.7627850234
 30
0.0
 10
5.3011187124
 20
4.7639243729
 30
0.0
 10
5.3967827297
 20
4.7650508082
 30
0.0
 10
5.4953490666
 20
4.7661526877
 30
0.0
 10
5.5953959662
 20
4.7672223013
 30
0.0
 10
5.6954792993
 20
4.7682906365
 30
0.0
 10
5.7941551273
 20
4.7693908464
 30
0.0
 10
5.8900011317
 20
4.7705161298
 30
0.0
 10
5.9816361638
 20
4.7716557342
 30
0.0
 10
6.0677387018
 20
4.7727701264
 30
0.0
 10
6.1470621598
 20
4.7738504801
 30
0.0
 10
6.2184611409
 20
4.7749113969
 30
0.0
 10
6.2632888602
 20
4.7756742956
 30
0.0
 10
6.2842031045
 20
4.776073292
 30
0.0
  0
LINE
  5
434
100
AcDbEntity
  8
0
100
AcDbLine
 62
7
  6
CONTINUOUS
 10
6.2842031045
 20
4.776073292
 11
6.2926077971
 21
4.7762361208
  0
LINE
  5
435
100
AcDbEntity
  8
0
100
AcDbLine
 62
7
  6
CONTINUOUS
 10
6.2926077971
 20
4.7762361208
 11
6.3100593606
 21
4.7765913816
  0
LINE
  5
436
100
AcDbEntity
  8
0
100
AcDbLine
 62
7
  6
CONTINUOUS
 10
6.3100593606
 20
4.7765913816
 11
6.3168595387
 21
4.7767367708
  0
SPLINE
  5
437
100
AcDbEntity
  8
0
100
AcDbSpline
 62
7
  6
CONTINUOUS
 70
0
 71
3
 72
15
 73
11
 74
0
 42
0.0000001
 43
0.0000001
 44
0.0000000001
 40
0.0
 40
0.0
 40
0.0
 40
0.0
 40
0.368552572
 40
0.5242082971
 40
0.6601324205
 40
0.7759866277
 40
0.8714459428
 40
0.9461905819
 40
0.9757171846
 40
1.0
 40
1.0
 40
1.0
 40
1.0
 10
6.3168595387
 20
4.7767367708
 30
0.0
 10
6.3309509019
 20
4.7770424347
 30
0.0
 10
6.3509929517
 20
4.7775141439
 30
0.0
 10
6.3762284484
 20
4.7782323395
 30
0.0
 10
6.3918018968
 20
4.7787387645
 30
0.0
 10
6.4050720605
 20
4.7792401845
 30
0.0
 10
6.4160007703
 20
4.7797345003
 30
0.0
 10
6.4236275755
 20
4.7801613134
 30
0.0
 10
6.428531419
 20
4.7805127191
 30
0.0
 10
6.4305818252
 20
4.7806893177
 30
0.0
 10
6.4315059992
 20
4.7807804437
 30
0.0
  0
SPLINE
  5
438
100
AcDbEntity
  8
0
100
AcDbSpline
 62
7
  6
CONTINUOUS
 70
0
 71
3
 72
12
 73
8
 74
0
 42
0.0000001
 43
0.0000001
 44
0.0000000001
 40
0.0
 40
0.0
 40
0.0
 40
0.0
 40
0.355203347
 40
0.6400272791
 40
0.8546964576
 40
0.9359297244
 40
1.0
 40
1.0
 40
1.0
 40
1.0
 10
6.4315059992
 20
4.7807804437
 30
0.0
 10
6.4320646708
 20
4.7808355301
 30
0.0
 10
6.4330706827
 20
4.7809422745
 30
0.0
 10
6.434409972
 20
4.7811185043
 30
0.0
 10
6.4353154456
 20
4.7812726511
 30
0.0
 10
6.4358694233
 20
4.7814027423
 30
0.0
 10
6.4360897558
 20
4.7814686154
 30
0.0
 10
6.4361849328
 20
4.7815031824
 30
0.0
  0
SPLINE
  5
439
100
AcDbEntity
  8
0
100
AcDbSpline
 62
7
  6
CONTINUOUS
 70
0
 71
3
 72
28
 73
24
 74
0
 42
0.0000001
 43
0.0000001
 44
0.0000000001
 40
0.0
 40
0.0
 40
0.0
 40
0.0
 40
0.0016427495
 40
0.003049059
 40
0.0049110775
 40
0.0072463016
 40
0.0100634553
 40
0.0133674732
 40
0.0171614133
 40
0.0262262879
 40
0.0372686366
 40
0.0652905005
 40
0.1012007428
 40
0.1449542385
 40
0.1965014287
 40
0.2557906864
 40
0.3227692907
 40
0.3973820364
 40
0.4795462071
 40
0.5691582666
 40
0.6661140174
 40
0.7703091597
 40
1.0
 40
1.0
 40
1.0
 40
1.0
 10
4.7594377833
 20
4.8108028324
 30
0.0
 10
4.7594377937
 20
4.8108640251
 30
0.0
 10
4.759543072
 20
4.8109542888
 30
0.0
 10
4.7597009117
 20
4.8110303432
 30
0.0
 10
4.7598997166
 20
4.8111034429
 30
0.0
 10
4.7601502191
 20
4.8111745051
 30
0.0
 10
4.7604572313
 20
4.8112469339
 30
0.0
 10
4.7608193318
 20
4.81131935
 30
0.0
 10
4.7614125801
 20
4.8114225925
 30
0.0
 10
4.7622940674
 20
4.8115487126
 30
0.0
 10
4.7640745645
 20
4.8117594292
 30
0.0
 10
4.7668562007
 20
4.812013302
 30
0.0
 10
4.7708569244
 20
4.8123053958
 30
0.0
 10
4.7757357095
 20
4.8126010085
 30
0.0
 10
4.7814864746
 20
4.8129000617
 30
0.0
 10
4.7881032692
 20
4.8132017776
 30
0.0
 10
4.7955799347
 20
4.813505941
 30
0.0
 10
4.8039092401
 20
4.8138123194
 30
0.0
 10
4.8130821004
 20
4.8141204143
 30
0.0
 10
4.8230876379
 20
4.814429488
 30
0.0
 10
4.8339141835
 20
4.8147388604
 30
0.0
 10
4.8499574464
 20
4.8151648024
 30
0.0
 10
4.8623912504
 20
4.815460685
 30
0.0
 10
4.8709451076
 20
4.8156527172
 30
0.0
  0
SPLINE
  5
43A
100
AcDbEntity
  8
0
100
AcDbSpline
 62
7
  6
CONTINUOUS
 70
0
 71
3
 72
22
 73
18
 74
0
 42
0.0000001
 43
0.0000001
 44
0.0000000001
 40
0.0
 40
0.0
 40
0.0
 40
0.0
 40
0.0415152301
 40
0.0907229741
 40
0.1468184367
 40
0.20886765
 40
0.2758368364
 40
0.3466192841
 40
0.4200325575
 40
0.4948603509
 40
0.6437942911
 40
0.7154338853
 40
0.7835928688
 40
0.847138215
 40
0.9050103393
 40
0.9562507795
 40
1.0
 40
1.0
 40
1.0
 40
1.0
 10
4.8709451076
 20
4.8156527172
 30
0.0
 10
4.8908486531
 20
4.8160995474
 30
0.0
 10
4.9343466643
 20
4.8169452141
 30
0.0
 10
5.0047440584
 20
4.8180829909
 30
0.0
 10
5.0849896375
 20
4.8192184015
 30
0.0
 10
5.1737528551
 20
4.8203976668
 30
0.0
 10
5.2695593787
 20
4.8216086179
 30
0.0
 10
5.3708158569
 20
4.8228256806
 30
0.0
 10
5.475841532
 20
4.8240121859
 30
0.0
 10
5.6183431367
 20
4.8255391131
 30
0.0
 10
5.7599943172
 20
4.8270508117
 30
0.0
 10
5.8984458348
 20
4.8286899699
 30
0.0
 10
5.9959515125
 20
4.8299052547
 30
0.0
 10
6.0868548089
 20
4.8310950542
 30
0.0
 10
6.1696446924
 20
4.8322425766
 30
0.0
 10
6.2429406453
 20
4.8333722758
 30
0.0
 10
6.2884851893
 20
4.834211723
 30
0.0
 10
6.309460445
 20
4.8346515701
 30
0.0
  0
LINE
  5
43B
100
AcDbEntity
  8
0
100
AcDbLine
 62
7
  6
CONTINUOUS
 10
6.309460445
 20
4.8346515701
 11
6.3121896561
 21
4.8347091205
  0
LINE
  5
43C
100
AcDbEntity
  8
0
100
AcDbLine
 62
7
  6
CONTINUOUS
 10
6.3121896561
 20
4.8347091205
 11
6.3230494723
 21
4.8349448188
  0
SPLINE
  5
43D
100
AcDbEntity
  8
0
100
AcDbSpline
 62
7
  6
CONTINUOUS
 70
0
 71
3
 72
14
 73
10
 74
0
 42
0.0000001
 43
0.0000001
 44
0.0000000001
 40
0.0
 40
0.0
 40
0.0
 40
0.0
 40
0.3583555117
 40
0.5111648912
 40
0.6459786439
 40
0.7624853967
 40
0.8604205575
 40
0.9396339768
 40
1.0
 40
1.0
 40
1.0
 40
1.0
 10
6.3420858563
 20
4.8353879407
 30
0.0
 10
6.3526652758
 20
4.8356464263
 30
0.0
 10
6.367755295
 20
4.8360452704
 30
0.0
 10
6.3868222602
 20
4.8366449417
 30
0.0
 10
6.3987491476
 20
4.83706787
 30
0.0
 10
6.4090545515
 20
4.8374861986
 30
0.0
 10
6.4177168524
 20
4.8378975183
 30
0.0
 10
6.4247192754
 20
4.8383018394
 30
0.0
 10
6.4288305995
 20
4.8386037874
 30
0.0
 10
6.43060591
 20
4.8387655573
 30
0.0
  0
SPLINE
  5
43E
100
AcDbEntity
  8
0
100
AcDbSpline
 62
7
  6
CONTINUOUS
 70
0
 71
3
 72
12
 73
8
 74
0
 42
0.0000001
 43
0.0000001
 44
0.0000000001
 40
0.0
 40
0.0
 40
0.0
 40
0.0
 40
0.3603501956
 40
0.6469988436
 40
0.8599909151
 40
0.9390226224
 40
1.0
 40
1.0
 40
1.0
 40
1.0
 10
6.43060591
 20
4.8387655573
 30
0.0
 10
6.4312818312
 20
4.8388271487
 30
0.0
 10
6.4324947817
 20
4.8389462086
 30
0.0
 10
6.4341025337
 20
4.8391433154
 30
0.0
 10
6.435179653
 20
4.8393154163
 30
0.0
 10
6.4358284156
 20
4.839461523
 30
0.0
 10
6.43608199
 20
4.8395355134
 30
0.0
 10
6.4361899355
 20
4.839574738
 30
0.0
  0
SPLINE
  5
43F
100
AcDbEntity
  8
0
100
AcDbSpline
 62
7
  6
CONTINUOUS
 70
0
 71
3
 72
18
 73
14
 74
0
 42
0.0000001
 43
0.0000001
 44
0.0000000001
 40
0.0
 40
0.0
 40
0.0
 40
0.0
 40
0.1672211534
 40
0.3301513549
 40
0.4844358276
 40
0.6261393295
 40
0.7515442231
 40
0.8070945904
 40
0.8573919118
 40
0.9021022244
 40
0.9409328868
 40
0.9736409365
 40
1.0
 40
1.0
 40
1.0
 40
1.0
 10
5.5980007764
 20
5.5456320899
 30
0.0
 10
5.6446817772
 20
5.5461125099
 30
0.0
 10
5.7368459516
 20
5.5470591207
 30
0.0
 10
5.8720786808
 20
5.5485513219
 30
0.0
 10
6.0001867662
 20
5.5500751222
 30
0.0
 10
6.1178184946
 20
5.5515607929
 30
0.0
 10
6.2078876206
 20
5.5527790094
 30
0.0
 10
6.2724391753
 20
5.553777891
 30
0.0
 10
6.3144645335
 20
5.5545033214
 30
0.0
 10
6.3518211752
 20
5.5552429079
 30
0.0
 10
6.3842659973
 20
5.5559965317
 30
0.0
 10
6.4115859468
 20
5.5567522673
 30
0.0
 10
6.428066642
 20
5.5573096132
 30
0.0
 10
6.4354196362
 20
5.5575996957
 30
0.0
  0
SPLINE
  5
440
100
AcDbEntity
  8
0
100
AcDbSpline
 62
7
  6
CONTINUOUS
 70
0
 71
3
 72
19
 73
15
 74
0
 42
0.0000001
 43
0.0000001
 44
0.0000000001
 40
0.0
 40
0.0
 40
0.0
 40
0.0
 40
0.2318948935
 40
0.4333064138
 40
0.6040432347
 40
0.7440076279
 40
0.8532059506
 40
0.9317075446
 40
0.959525443
 40
0.9706100994
 40
0.9798395477
 40
0.9872559898
 40
0.9929427923
 40
1.0
 40
1.0
 40
1.0
 40
1.0
 10
6.4485591578
 20
5.5581774434
 30
0.0
 10
6.4501567427
 20
5.5582568879
 30
0.0
 10
6.4531415187
 20
5.5584132707
 30
0.0
 10
6.4573007221
 20
5.5586617341
 30
0.0
 10
6.4608246507
 20
5.5589072634
 30
0.0
 10
6.4637112057
 20
5.5591486014
 30
0.0
 10
6.4659587947
 20
5.5593864012
 30
0.0
 10
6.4674319097
 20
5.5595938702
 30
0.0
 10
6.4682251889
 20
5.5597583314
 30
0.0
 10
6.4685459461
 20
5.5598453558
 30
0.0
 10
6.4687273604
 20
5.5599046725
 30
0.0
 10
6.4688708457
 20
5.559965383
 30
0.0
 10
6.4689887937
 20
5.5600307707
 30
0.0
 10
6.4690611326
 20
5.5601058019
 30
0.0
 10
6.4690614404
 20
5.56015448
 30
0.0
  0
SPLINE
  5
441
100
AcDbEntity
  8
0
100
AcDbSpline
 62
7
  6
CONTINUOUS
 70
0
 71
3
 72
14
 73
10
 74
0
 42
0.0000001
 43
0.0000001
 44
0.0000000001
 40
0.0
 40
0.0
 40
0.0
 40
0.0
 40
0.2898587467
 40
0.4295988455
 40
0.5631879151
 40
0.6887593104
 40
0.8044899277
 40
0.9087362609
 40
1.0
 40
1.0
 40
1.0
 40
1.0
 10
5.5980007764
 20
4.8372350578
 30
0.0
 10
5.5292196631
 20
4.8365271933
 30
0.0
 10
5.4272794134
 20
4.8354718333
 30
0.0
 10
5.2936410177
 20
4.833957086
 30
0.0
 10
5.1989869098
 20
4.8328260465
 30
0.0
 10
5.1100306446
 20
4.8317067563
 30
0.0
 10
5.0280374749
 20
4.8306369524
 30
0.0
 10
4.9541860547
 20
4.8295921231
 30
0.0
 10
4.9077969024
 20
4.8288256445
 30
0.0
 10
4.88614327
 20
4.8284278057
 30
0.0
  0
LINE
  5
442
100
AcDbEntity
  8
0
100
AcDbLine
 62
7
  6
CONTINUOUS
 10
4.88614327
 20
4.8284278057
 11
4.875830995
 21
4.8282351011
  0
LINE
  5
443
100
AcDbEntity
  8
0
100
AcDbLine
 62
7
  6
CONTINUOUS
 10
4.875830995
 20
4.8282351011
 11
4.8615827597
 21
4.8279572657
  0
SPLINE
  5
444
100
AcDbEntity
  8
0
100
AcDbSpline
 62
7
  6
CONTINUOUS
 70
0
 71
3
 72
11
 73
7
 74
0
 42
0.0000001
 43
0.0000001
 44
0.0000000001
 40
0.0
 40
0.0
 40
0.0
 40
0.0
 40
0.3094547658
 40
0.5801308226
 40
0.8107331351
 40
1.0
 40
1.0
 40
1.0
 40
1.0
 10
4.8615827597
 20
4.8279572657
 30
0.0
 10
4.8511206144
 20
4.8277478877
 30
0.0
 10
4.8315078136
 20
4.8273323418
 30
0.0
 10
4.8041008884
 20
4.826663698
 30
0.0
 10
4.7807595344
 20
4.8259956033
 30
0.0
 10
4.7665698931
 20
4.8255060631
 30
0.0
 10
4.7601748342
 20
4.8252527057
 30
0.0
  0
SPLINE
  5
445
100
AcDbEntity
  8
0
100
AcDbSpline
 62
7
  6
CONTINUOUS
 70
0
 71
3
 72
24
 73
20
 74
0
 42
0.0000001
 43
0.0000001
 44
0.0000000001
 40
0.0
 40
0.0
 40
0.0
 40
0.0
 40
0.2319539033
 40
0.4336307975
 40
0.6048144679
 40
0.6789057395
 40
0.7452959337
 40
0.8039610506
 40
0.8548790421
 40
0.8980366712
 40
0.9334463115
 40
0.9482549697
 40
0.9611403102
 40
0.972111951
 40
0.9811855959
 40
0.9883893706
 40
0.9937807429
 40
0.9975021125
 40
1.0
 40
1.0
 40
1.0
 40
1.0
 10
4.7601748342
 20
4.8252527057
 30
0.0
 10
4.7575914755
 20
4.825150359
 30
0.0
 10
4.7527623576
 20
4.8249487051
 30
0.0
 10
4.7460286269
 20
4.8246278081
 30
0.0
 10
4.7410544049
 20
4.8243519374
 30
0.0
 10
4.7375876896
 20
4.8241289755
 30
0.0
 10
4.7353735894
 20
4.8239709213
 30
0.0
 10
4.7334184263
 20
4.8238140218
 30
0.0
 10
4.7317230237
 20
4.8236584971
 30
0.0
 10
4.7302879503
 20
4.8235044677
 30
0.0
 10
4.7292556019
 20
4.8233710079
 30
0.0
 10
4.7285607028
 20
4.823261926
 30
0.0
 10
4.7281365445
 20
4.8231853597
 30
0.0
 10
4.7277773718
 20
4.8231092821
 30
0.0
 10
4.7274831732
 20
4.8230334656
 30
0.0
 10
4.7272530861
 20
4.8229590021
 30
0.0
 10
4.7270869975
 20
4.8228837496
 30
0.0
 10
4.7269783747
 20
4.8228117124
 30
0.0
 10
4.7269422061
 20
4.8227449913
 30
0.0
 10
4.7269422063
 20
4.8227171496
 30
0.0
  0
LINE
  5
446
100
AcDbEntity
  8
0
100
AcDbLine
 62
7
  6
CONTINUOUS
 10
4.9506390883
 20
4.7133682893
 11
4.9115643686
 21
4.7127354719
  0
SPLINE
  5
447
100
AcDbEntity
  8
0
100
AcDbSpline
 62
7
  6
CONTINUOUS
 70
0
 71
3
 72
12
 73
8
 74
0
 42
0.0000001
 43
0.0000001
 44
0.0000000001
 40
0.0
 40
0.0
 40
0.0
 40
0.0
 40
0.3199718617
 40
0.5948920733
 40
0.8222612402
 40
0.9174603697
 40
1.0
 40
1.0
 40
1.0
 40
1.0
 10
4.9103240897
 20
4.71271431
 30
0.0
 10
4.8943070507
 20
4.7124405516
 30
0.0
 10
4.8645286809
 20
4.711898722
 30
0.0
 10
4.8233716328
 20
4.7110144136
 30
0.0
 10
4.7934683113
 20
4.7102364015
 30
0.0
 10
4.7731966449
 20
4.7095966784
 30
0.0
 10
4.7643039383
 20
4.7092745589
 30
0.0
 10
4.7601748342
 20
4.7091109734
 30
0.0
  0
SPLINE
  5
448
100
AcDbEntity
  8
0
100
AcDbSpline
 62
7
  6
CONTINUOUS
 70
0
 71
3
 72
24
 73
20
 74
0
 42
0.0000001
 43
0.0000001
 44
0.0000000001
 40
0.0
 40
0.0
 40
0.0
 40
0.0
 40
0.2319539033
 40
0.4336307975
 40
0.6048144679
 40
0.6789057395
 40
0.7452959337
 40
0.8039610506
 40
0.8548790421
 40
0.8980366712
 40
0.9334463115
 40
0.9482549697
 40
0.9611403102
 40
0.972111951
 40
0.9811855959
 40
0.9883893706
 40
0.9937807429
 40
0.9975021125
 40
1.0
 40
1.0
 40
1.0
 40
1.0
 10
4.7601748342
 20
4.7091109734
 30
0.0
 10
4.7575914755
 20
4.7090086267
 30
0.0
 10
4.7527623576
 20
4.7088069728
 30
0.0
 10
4.7460286269
 20
4.7084860758
 30
0.0
 10
4.7410544049
 20
4.7082102051
 30
0.0
 10
4.7375876896
 20
4.7079872432
 30
0.0
 10
4.7353735894
 20
4.707829189
 30
0.0
 10
4.7334184263
 20
4.7076722895
 30
0.0
 10
4.7317230237
 20
4.7075167648
 30
0.0
 10
4.7302879503
 20
4.7073627355
 30
0.0
 10
4.7292556019
 20
4.7072292757
 30
0.0
 10
4.7285607028
 20
4.7071201937
 30
0.0
 10
4.7281365445
 20
4.7070436274
 30
0.0
 10
4.7277773718
 20
4.7069675498
 30
0.0
 10
4.7274831732
 20
4.7068917333
 30
0.0
 10
4.7272530861
 20
4.7068172698
 30
0.0
 10
4.7270869975
 20
4.7067420174
 30
0.0
 10
4.7269783747
 20
4.7066699801
 30
0.0
 10
4.7269422061
 20
4.706603259
 30
0.0
 10
4.7269422063
 20
4.7065754173
 30
0.0
  0
SPLINE
  5
449
100
AcDbEntity
  8
0
100
AcDbSpline
 62
7
  6
CONTINUOUS
 70
0
 71
3
 72
13
 73
9
 74
0
 42
0.0000001
 43
0.0000001
 44
0.0000000001
 40
0.0
 40
0.0
 40
0.0
 40
0.0
 40
0.2854773695
 40
0.5562980434
 40
0.681840517
 40
0.7986212396
 40
0.9051304832
 40
1.0
 40
1.0
 40
1.0
 40
1.0
 10
5.5980007764
 20
4.7791641917
 30
0.0
 10
5.532678627
 20
4.7784919253
 30
0.0
 10
5.4053880914
 20
4.7771749756
 30
0.0
 10
5.2493732679
 20
4.7753766038
 30
0.0
 10
5.1319599603
 20
4.7739156896
 30
0.0
 10
5.0521435052
 20
4.7728846652
 30
0.0
 10
4.979346051
 20
4.7718901203
 30
0.0
 10
4.9332701526
 20
4.7711760485
 30
0.0
 10
4.9115643686
 20
4.770806338
 30
0.0
  0
LINE
  5
44A
100
AcDbEntity
  8
0
100
AcDbLine
 62
7
  6
CONTINUOUS
 10
4.9115643686
 20
4.770806338
 11
4.9039500991
 21
4.7706752474
  0
LINE
  5
44B
100
AcDbEntity
  8
0
100
AcDbLine
 62
7
  6
CONTINUOUS
 10
4.9039500991
 20
4.7706752474
 11
4.8858571448
 21
4.7703516802
  0
LINE
  5
44C
100
AcDbEntity
  8
0
100
AcDbLine
 62
7
  6
CONTINUOUS
 10
4.8858571448
 20
4.7703516802
 11
4.875830995
 21
4.770164235
  0
LINE
  5
44D
100
AcDbEntity
  8
0
100
AcDbLine
 62
7
  6
CONTINUOUS
 10
4.875830995
 20
4.770164235
 11
4.8618187276
 21
4.7698911199
  0
SPLINE
  5
44E
100
AcDbEntity
  8
0
100
AcDbSpline
 62
7
  6
CONTINUOUS
 70
0
 71
3
 72
11
 73
7
 74
0
 42
0.0000001
 43
0.0000001
 44
0.0000000001
 40
0.0
 40
0.0
 40
0.0
 40
0.0
 40
0.3095186537
 40
0.5802188622
 40
0.8108011635
 40
1.0
 40
1.0
 40
1.0
 40
1.0
 10
4.8618187276
 20
4.7698911199
 30
0.0
 10
4.8513300732
 20
4.7696813988
 30
0.0
 10
4.8316686519
 20
4.76926518
 30
0.0
 10
4.8041956473
 20
4.7685953904
 30
0.0
 10
4.780802144
 20
4.7679261413
 30
0.0
 10
4.7665824675
 20
4.7674356951
 30
0.0
 10
4.7601748342
 20
4.7671818396
 30
0.0
  0
SPLINE
  5
44F
100
AcDbEntity
  8
0
100
AcDbSpline
 62
7
  6
CONTINUOUS
 70
0
 71
3
 72
24
 73
20
 74
0
 42
0.0000001
 43
0.0000001
 44
0.0000000001
 40
0.0
 40
0.0
 40
0.0
 40
0.0
 40
0.2319539033
 40
0.4336307975
 40
0.6048144679
 40
0.6789057395
 40
0.7452959337
 40
0.8039610506
 40
0.8548790421
 40
0.8980366712
 40
0.9334463115
 40
0.9482549697
 40
0.9611403102
 40
0.972111951
 40
0.9811855959
 40
0.9883893706
 40
0.9937807429
 40
0.9975021125
 40
1.0
 40
1.0
 40
1.0
 40
1.0
 10
4.7601748342
 20
4.7671818396
 30
0.0
 10
4.7575914755
 20
4.7670794929
 30
0.0
 10
4.7527623576
 20
4.7668778389
 30
0.0
 10
4.7460286269
 20
4.766556942
 30
0.0
 10
4.7410544049
 20
4.7662810713
 30
0.0
 10
4.7375876896
 20
4.7660581094
 30
0.0
 10
4.7353735894
 20
4.7659000552
 30
0.0
 10
4.7334184263
 20
4.7657431557
 30
0.0
 10
4.7317230237
 20
4.765587631
 30
0.0
 10
4.7302879503
 20
4.7654336016
 30
0.0
 10
4.7292556019
 20
4.7653001418
 30
0.0
 10
4.7285607028
 20
4.7651910598
 30
0.0
 10
4.7281365445
 20
4.7651144936
 30
0.0
 10
4.7277773718
 20
4.765038416
 30
0.0
 10
4.7274831732
 20
4.7649625995
 30
0.0
 10
4.7272530861
 20
4.764888136
 30
0.0
 10
4.7270869975
 20
4.7648128835
 30
0.0
 10
4.7269783747
 20
4.7647408462
 30
0.0
 10
4.7269422061
 20
4.7646741252
 30
0.0
 10
4.7269422063
 20
4.7646462834
 30
0.0
  0
LINE
  5
450
100
AcDbEntity
  8
0
100
AcDbLine
 62
7
  6
CONTINUOUS
 10
5.3630791785
 20
5.1711478106
 11
5.370833114
 21
5.1712382374
  0
LINE
  5
451
100
AcDbEntity
  8
0
100
AcDbLine
 62
7
  6
CONTINUOUS
 10
5.370833114
 20
5.1712382374
 11
5.8249875926
 21
5.1762521587
  0
SPLINE
  5
452
100
AcDbEntity
  8
0
100
AcDbSpline
 62
7
  6
CONTINUOUS
 70
0
 71
3
 72
33
 73
29
 74
0
 42
0.0000001
 43
0.0000001
 44
0.0000000001
 40
0.0
 40
0.0
 40
0.0
 40
0.0
 40
0.1033029567
 40
0.2036329263
 40
0.300367446
 40
0.3928911635
 40
0.480616154
 40
0.5630044079
 40
0.6395267651
 40
0.709709769
 40
0.773124504
 40
0.8293587242
 40
0.8546774593
 40
0.8780793563
 40
0.8995260067
 40
0.9189791793
 40
0.9364072664
 40
0.9517878464
 40
0.9650992937
 40
0.9763202062
 40
0.9854296195
 40
0.9891867021
 40
0.9924109961
 40
0.9951027457
 40
0.9972627453
 40
0.9988930571
 40
0.9995112561
 40
1.0
 40
1.0
 40
1.0
 40
1.0
 10
5.8249875926
 20
5.1762521587
 30
0.0
 10
5.8460394279
 20
5.1764973674
 30
0.0
 10
5.8875371453
 20
5.1769890129
 30
0.0
 10
5.9487477668
 20
5.1777408186
 30
0.0
 10
6.0077614332
 20
5.1784895789
 30
0.0
 10
6.064206133
 20
5.1792262294
 30
0.0
 10
6.1177270181
 20
5.1799457904
 30
0.0
 10
6.1679866373
 20
5.1806554698
 30
0.0
 10
6.2146708607
 20
5.1813611777
 30
0.0
 10
6.2574877466
 20
5.1820693072
 30
0.0
 10
6.2961691221
 20
5.1827856456
 30
0.0
 10
6.3257070451
 20
5.1834157946
 30
0.0
 10
6.3470907545
 20
5.1839317868
 30
0.0
 10
6.3613860319
 20
5.1843064413
 30
0.0
 10
6.3744854478
 20
5.1846813803
 30
0.0
 10
6.3863668728
 20
5.1850555559
 30
0.0
 10
6.3970114106
 20
5.1854280054
 30
0.0
 10
6.4064034968
 20
5.1857979175
 30
0.0
 10
6.4145296167
 20
5.1861641896
 30
0.0
 10
6.4213763633
 20
5.1865260159
 30
0.0
 10
6.426275643
 20
5.1868385588
 30
0.0
 10
6.4295450992
 20
5.1870936231
 30
0.0
 10
6.4315085367
 20
5.1872710362
 30
0.0
 10
6.4331452335
 20
5.187446518
 30
0.0
 10
6.4344548382
 20
5.1876203516
 30
0.0
 10
6.4353410247
 20
5.1877723846
 30
0.0
 10
6.4358840853
 20
5.1879005667
 30
0.0
 10
6.4361004731
 20
5.1879654574
 30
0.0
 10
6.4361940933
 20
5.1879994679
 30
0.0
  0
SPLINE
  5
453
100
AcDbEntity
  8
0
100
AcDbSpline
 62
7
  6
CONTINUOUS
 70
0
 71
3
 72
14
 73
10
 74
0
 42
0.0000001
 43
0.0000001
 44
0.0000000001
 40
0.0
 40
0.0
 40
0.0
 40
0.0
 40
0.2918251701
 40
0.4322799607
 40
0.5662776877
 40
0.6918582621
 40
0.8071160236
 40
0.9103455836
 40
1.0
 40
1.0
 40
1.0
 40
1.0
 10
5.5980007764
 20
4.6630224594
 30
0.0
 10
5.5277497985
 20
4.6622994677
 30
0.0
 10
5.4236872382
 20
4.6612215774
 30
0.0
 10
5.2873689745
 20
4.6596718084
 30
0.0
 10
5.191070963
 20
4.6585164342
 30
0.0
 10
5.1008392224
 20
4.6573762155
 30
0.0
 10
5.0180145967
 20
4.6562900753
 30
0.0
 10
4.9438394688
 20
4.6552217123
 30
0.0
 10
4.8974107167
 20
4.6544327696
 30
0.0
 10
4.875830995
 20
4.6540225027
 30
0.0
  0
LINE
  5
454
100
AcDbEntity
  8
0
100
AcDbLine
 62
7
  6
CONTINUOUS
 10
4.875830995
 20
4.6540225027
 11
4.861820524
 21
4.6537494235
  0
SPLINE
  5
455
100
AcDbEntity
  8
0
100
AcDbSpline
 62
7
  6
CONTINUOUS
 70
0
 71
3
 72
11
 73
7
 74
0
 42
0.0000001
 43
0.0000001
 44
0.0000000001
 40
0.0
 40
0.0
 40
0.0
 40
0.0
 40
0.3095191395
 40
0.5802195317
 40
0.8108016808
 40
1.0
 40
1.0
 40
1.0
 40
1.0
 10
4.861820524
 20
4.6537494235
 30
0.0
 10
4.8513316678
 20
4.6535396998
 30
0.0
 10
4.8316698763
 20
4.6531234759
 30
0.0
 10
4.8041963686
 20
4.6524536776
 30
0.0
 10
4.7808024683
 20
4.6517844197
 30
0.0
 10
4.7665825632
 20
4.6512939666
 30
0.0
 10
4.7601748342
 20
4.6510401072
 30
0.0
  0
SPLINE
  5
456
100
AcDbEntity
  8
0
100
AcDbSpline
 62
7
  6
CONTINUOUS
 70
0
 71
3
 72
24
 73
20
 74
0
 42
0.0000001
 43
0.0000001
 44
0.0000000001
 40
0.0
 40
0.0
 40
0.0
 40
0.0
 40
0.2319539044
 40
0.4336307995
 40
0.6048144707
 40
0.6789057426
 40
0.745295937
 40
0.8039610541
 40
0.8548790456
 40
0.8980366746
 40
0.9334463147
 40
0.9482549727
 40
0.961140313
 40
0.9721119536
 40
0.9811855982
 40
0.9883893725
 40
0.9937807443
 40
0.9975021132
 40
1.0
 40
1.0
 40
1.0
 40
1.0
 10
4.7601748342
 20
4.6510401072
 30
0.0
 10
4.7575914755
 20
4.6509377605
 30
0.0
 10
4.7527623576
 20
4.6507361065
 30
0.0
 10
4.7460286269
 20
4.6504152096
 30
0.0
 10
4.7410544049
 20
4.6501393388
 30
0.0
 10
4.7375876896
 20
4.6499163769
 30
0.0
 10
4.7353735894
 20
4.6497583228
 30
0.0
 10
4.7334184263
 20
4.6496014233
 30
0.0
 10
4.7317230237
 20
4.6494458987
 30
0.0
 10
4.7302879503
 20
4.6492918694
 30
0.0
 10
4.7292556019
 20
4.6491584097
 30
0.0
 10
4.7285607028
 20
4.6490493278
 30
0.0
 10
4.7281365445
 20
4.6489727616
 30
0.0
 10
4.7277773718
 20
4.648896684
 30
0.0
 10
4.7274831732
 20
4.6488208675
 30
0.0
 10
4.7272530861
 20
4.6487464041
 30
0.0
 10
4.7270869975
 20
4.6486711517
 30
0.0
 10
4.7269783747
 20
4.6485991144
 30
0.0
 10
4.7269422061
 20
4.6485323934
 30
0.0
 10
4.7269422063
 20
4.6485045516
 30
0.0
  0
SPLINE
  5
457
100
AcDbEntity
  8
0
100
AcDbSpline
 62
7
  6
CONTINUOUS
 70
0
 71
3
 72
19
 73
15
 74
0
 42
0.0000001
 43
0.0000001
 44
0.0000000001
 40
0.0
 40
0.0
 40
0.0
 40
0.0
 40
0.1673515302
 40
0.330411033
 40
0.4847849492
 40
0.6265390171
 40
0.6914959785
 40
0.7519397925
 40
0.8074671231
 40
0.8577211521
 40
0.9023774856
 40
0.9411317205
 40
0.9737462417
 40
1.0
 40
1.0
 40
1.0
 40
1.0
 10
5.5980007764
 20
5.5340854515
 30
0.0
 10
5.5512606602
 20
5.5336044231
 30
0.0
 10
5.458979179
 20
5.5326527239
 30
0.0
 10
5.3235831348
 20
5.5311625603
 30
0.0
 10
5.1953375208
 20
5.5296382778
 30
0.0
 10
5.0944917654
 20
5.5283597434
 30
0.0
 10
5.0198798999
 20
5.5273691872
 30
0.0
 10
4.9693503018
 20
5.5266549338
 30
0.0
 10
4.9229279111
 20
5.5259324378
 30
0.0
 10
4.8809158803
 20
5.5251975404
 30
0.0
 10
4.8435896849
 20
5.5244534523
 30
0.0
 10
4.8111916014
 20
5.5237016383
 30
0.0
 10
4.7839351746
 20
5.5229493438
 30
0.0
 10
4.7675019663
 20
5.5223933834
 30
0.0
 10
4.7601748342
 20
5.5221030994
 30
0.0
  0
SPLINE
  5
458
100
AcDbEntity
  8
0
100
AcDbSpline
 62
7
  6
CONTINUOUS
 70
0
 71
3
 72
24
 73
20
 74
0
 42
0.0000001
 43
0.0000001
 44
0.0000000001
 40
0.0
 40
0.0
 40
0.0
 40
0.0
 40
0.2319539033
 40
0.4336307975
 40
0.6048144679
 40
0.6789057395
 40
0.7452959337
 40
0.8039610506
 40
0.8548790421
 40
0.8980366712
 40
0.9334463115
 40
0.9482549697
 40
0.9611403102
 40
0.972111951
 40
0.9811855959
 40
0.9883893706
 40
0.9937807429
 40
0.9975021125
 40
1.0
 40
1.0
 40
1.0
 40
1.0
 10
4.7601748342
 20
5.5221030994
 30
0.0
 10
4.7575914755
 20
5.5220007527
 30
0.0
 10
4.7527623576
 20
5.5217990988
 30
0.0
 10
4.7460286269
 20
5.5214782018
 30
0.0
 10
4.7410544049
 20
5.5212023311
 30
0.0
 10
4.7375876896
 20
5.5209793692
 30
0.0
 10
4.7353735894
 20
5.520821315
 30
0.0
 10
4.7334184263
 20
5.5206644155
 30
0.0
 10
4.7317230237
 20
5.5205088908
 30
0.0
 10
4.7302879503
 20
5.5203548614
 30
0.0
 10
4.7292556019
 20
5.5202214016
 30
0.0
 10
4.7285607028
 20
5.5201123197
 30
0.0
 10
4.7281365445
 20
5.5200357534
 30
0.0
 10
4.7277773718
 20
5.5199596758
 30
0.0
 10
4.7274831732
 20
5.5198838593
 30
0.0
 10
4.7272530861
 20
5.5198093958
 30
0.0
 10
4.7270869975
 20
5.5197341433
 30
0.0
 10
4.7269783747
 20
5.5196621061
 30
0.0
 10
4.7269422061
 20
5.519595385
 30
0.0
 10
4.7269422063
 20
5.5195675433
 30
0.0
  0
SPLINE
  5
459
100
AcDbEntity
  8
0
100
AcDbSpline
 62
7
  6
CONTINUOUS
 70
0
 71
3
 72
69
 73
65
 74
0
 42
0.0000001
 43
0.0000001
 44
0.0000000001
 40
0.0
 40
0.0
 40
0.0
 40
0.0
 40
0.0000746787
 40
0.000131106
 40
0.0002034193
 40
0.0003991169
 40
0.000665585
 40
0.0010041142
 40
0.0014153088
 40
0.0018994941
 40
0.0024568613
 40
0.0037915577
 40
0.0054197076
 40
0.007340219
 40
0.0095515841
 40
0.0120522233
 40
0.0148405154
 40
0.0179148134
 40
0.0212734535
 40
0.028837045
 40
0.0375155508
 40
0.0472858922
 40
0.0581235004
 40
0.0700037846
 40
0.0829017049
 40
0.0967864652
 40
0.1116231938
 40
0.127376922
 40
0.14401265
 40
0.1797729768
 40
0.2185590631
 40
0.2600098735
 40
0.3037278975
 40
0.3493024213
 40
0.3963013624
 40
0.4442806233
 40
0.4927880162
 40
0.5413638435
 40
0.5895501951
 40
0.6368923618
 40
0.6829423988
 40
0.7272691953
 40
0.7694500094
 40
0.8090893168
 40
0.8458042331
 40
0.8792511226
 40
0.909109179
 40
0.9226035135
 40
0.9351010842
 40
0.9465719698
 40
0.9569870117
 40
0.9663233163
 40
0.974561127
 40
0.9816807545
 40
0.9876626602
 40
0.9902218827
 40
0.9924918493
 40
0.9944716805
 40
0.9961605625
 40
0.9975578023
 40
0.9986629571
 40
0.9994761958
 40
0.9997739411
 40
1.0
 40
1.0
 40
1.0
 40
1.0
 10
4.7594379824
 20
5.2172992283
 30
0.0
 10
4.7594379848
 20
5.2173409804
 30
0.0
 10
4.7594900144
 20
5.2174077582
 30
0.0
 10
4.7595834992
 20
5.217468529
 30
0.0
 10
4.7597476293
 20
5.2175491027
 30
0.0
 10
4.7600320762
 20
5.2176414915
 30
0.0
 10
4.7604672753
 20
5.2177478258
 30
0.0
 10
4.7610254446
 20
5.2178544804
 30
0.0
 10
4.7617069151
 20
5.21796232
 30
0.0
 10
4.7625119226
 20
5.2180706799
 30
0.0
 10
4.7638314743
 20
5.21822534
 30
0.0
 10
4.7657906467
 20
5.2184145516
 30
0.0
 10
4.7685121798
 20
5.2186331138
 30
0.0
 10
4.7717250418
 20
5.2188537771
 30
0.0
 10
4.7754265591
 20
5.2190763506
 30
0.0
 10
4.7796139284
 20
5.2193004868
 30
0.0
 10
4.7842842998
 20
5.2195260041
 30
0.0
 10
4.7894348197
 20
5.2197527523
 30
0.0
 10
4.7972537483
 20
5.2200692081
 30
0.0
 10
4.8082053313
 20
5.2204620836
 30
0.0
 10
4.8227414265
 20
5.2209204441
 30
0.0
 10
4.8391087598
 20
5.2213800807
 30
0.0
 10
4.8572668255
 20
5.2218388216
 30
0.0
 10
4.8771740648
 20
5.2222944992
 30
0.0
 10
4.8987854612
 20
5.222744557
 30
0.0
 10
4.9220502097
 20
5.223189149
 30
0.0
 10
4.9469119532
 20
5.2236297121
 30
0.0
 10
4.9733120094
 20
5.2240673266
 30
0.0
 10
5.0114092103
 20
5.224662709
 30
0.0
 10
5.062382906
 20
5.2253994864
 30
0.0
 10
5.127229833
 20
5.2262772409
 30
0.0
 10
5.1965258593
 20
5.2271821215
 30
0.0
 10
5.2696173564
 20
5.2281016438
 30
0.0
 10
5.3458109898
 20
5.229021375
 30
0.0
 10
5.4243873232
 20
5.2299310376
 30
0.0
 10
5.5046037588
 20
5.2308176718
 30
0.0
 10
5.5857020754
 20
5.2316849241
 30
0.0
 10
5.6669161711
 20
5.2325530836
 30
0.0
 10
5.7474786228
 20
5.2334342898
 30
0.0
 10
5.8266286472
 20
5.234333282
 30
0.0
 10
5.9036204446
 20
5.2352531536
 30
0.0
 10
5.9777263397
 20
5.2361751669
 30
0.0
 10
6.0482479707
 20
5.2370817264
 30
0.0
 10
6.1145137432
 20
5.2379706399
 30
0.0
 10
6.175896293
 20
5.2388389725
 30
0.0
 10
6.2318097877
 20
5.2396987417
 30
0.0
 10
6.2747409873
 20
5.2404487551
 30
0.0
 10
6.3059600069
 20
5.2410678461
 30
0.0
 10
6.3269001977
 20
5.2415202396
 30
0.0
 10
6.3461182764
 20
5.2419759129
 30
0.0
 10
6.363568307
 20
5.2424344793
 30
0.0
 10
6.379210039
 20
5.242894023
 30
0.0
 10
6.3930085085
 20
5.2433519304
 30
0.0
 10
6.4049305249
 20
5.2438059722
 30
0.0
 10
6.4136777177
 20
5.244195896
 30
0.0
 10
6.4197139098
 20
5.2445108692
 30
0.0
 10
6.4235143057
 20
5.244732967
 30
0.0
 10
6.4268273066
 20
5.2449532474
 30
0.0
 10
6.4296512188
 20
5.2451717792
 30
0.0
 10
6.4319847975
 20
5.2453875991
 30
0.0
 10
6.4338261432
 20
5.2456012666
 30
0.0
 10
6.4350520515
 20
5.2457877081
 30
0.0
 10
6.435782579
 20
5.2459467958
 30
0.0
 10
6.4360646994
 20
5.2460273872
 30
0.0
 10
6.4361835003
 20
5.2460705159
 30
0.0
  0
SPLINE
  5
45A
100
AcDbEntity
  8
0
100
AcDbSpline
 62
7
  6
CONTINUOUS
 70
0
 71
3
 72
19
 73
15
 74
0
 42
0.0000001
 43
0.0000001
 44
0.0000000001
 40
0.0
 40
0.0
 40
0.0
 40
0.0
 40
0.1673515302
 40
0.330411033
 40
0.4847849492
 40
0.6265390171
 40
0.6914959785
 40
0.7519397925
 40
0.8074671231
 40
0.8577211521
 40
0.9023774856
 40
0.9411317205
 40
0.9737462417
 40
1.0
 40
1.0
 40
1.0
 40
1.0
 10
5.5980007764
 20
5.4760145854
 30
0.0
 10
5.5512606602
 20
5.475533557
 30
0.0
 10
5.458979179
 20
5.4745818578
 30
0.0
 10
5.3235831348
 20
5.4730916941
 30
0.0
 10
5.1953375208
 20
5.4715674117
 30
0.0
 10
5.0944917654
 20
5.4702888773
 30
0.0
 10
5.0198798999
 20
5.4692983211
 30
0.0
 10
4.9693503018
 20
5.4685840676
 30
0.0
 10
4.9229279111
 20
5.4678615717
 30
0.0
 10
4.8809158803
 20
5.4671266743
 30
0.0
 10
4.8435896849
 20
5.4663825862
 30
0.0
 10
4.8111916014
 20
5.4656307722
 30
0.0
 10
4.7839351746
 20
5.4648784776
 30
0.0
 10
4.7675019663
 20
5.4643225172
 30
0.0
 10
4.7601748342
 20
5.4640322333
 30
0.0
  0
SPLINE
  5
45B
100
AcDbEntity
  8
0
100
AcDbSpline
 62
7
  6
CONTINUOUS
 70
0
 71
3
 72
24
 73
20
 74
0
 42
0.0000001
 43
0.0000001
 44
0.0000000001
 40
0.0
 40
0.0
 40
0.0
 40
0.0
 40
0.2319539033
 40
0.4336307975
 40
0.6048144679
 40
0.6789057395
 40
0.7452959337
 40
0.8039610506
 40
0.8548790421
 40
0.8980366712
 40
0.9334463115
 40
0.9482549697
 40
0.9611403102
 40
0.972111951
 40
0.9811855959
 40
0.9883893706
 40
0.9937807429
 40
0.9975021125
 40
1.0
 40
1.0
 40
1.0
 40
1.0
 10
4.7601748342
 20
5.4640322333
 30
0.0
 10
4.7575914755
 20
5.4639298866
 30
0.0
 10
4.7527623576
 20
5.4637282326
 30
0.0
 10
4.7460286269
 20
5.4634073357
 30
0.0
 10
4.7410544049
 20
5.463131465
 30
0.0
 10
4.7375876896
 20
5.4629085031
 30
0.0
 10
4.7353735894
 20
5.4627504489
 30
0.0
 10
4.7334184263
 20
5.4625935494
 30
0.0
 10
4.7317230237
 20
5.4624380247
 30
0.0
 10
4.7302879503
 20
5.4622839953
 30
0.0
 10
4.7292556019
 20
5.4621505355
 30
0.0
 10
4.7285607028
 20
5.4620414535
 30
0.0
 10
4.7281365445
 20
5.4619648873
 30
0.0
 10
4.7277773718
 20
5.4618888097
 30
0.0
 10
4.7274831732
 20
5.4618129932
 30
0.0
 10
4.7272530861
 20
5.4617385297
 30
0.0
 10
4.7270869975
 20
5.4616632772
 30
0.0
 10
4.7269783747
 20
5.4615912399
 30
0.0
 10
4.7269422061
 20
5.4615245189
 30
0.0
 10
4.7269422063
 20
5.4614966771
 30
0.0
  0
SPLINE
  5
45C
100
AcDbEntity
  8
0
100
AcDbSpline
 62
7
  6
CONTINUOUS
 70
0
 71
3
 72
60
 73
56
 74
0
 42
0.0000001
 43
0.0000001
 44
0.0000000001
 40
0.0
 40
0.0
 40
0.0
 40
0.0
 40
0.0000722739
 40
0.000126209
 40
0.0001950835
 40
0.0003810616
 40
0.0006340269
 40
0.0009551824
 40
0.0013450271
 40
0.0018037803
 40
0.0023315273
 40
0.0035939942
 40
0.0051321434
 40
0.0069453527
 40
0.0090328602
 40
0.0113938296
 40
0.0140273817
 40
0.0169325647
 40
0.0201077042
 40
0.0272588687
 40
0.0354627935
 40
0.0447013088
 40
0.0549561878
 40
0.066206261
 40
0.0784244344
 40
0.0915828872
 40
0.1056537884
 40
0.1206087828
 40
0.1364140286
 40
0.1704266159
 40
0.2073918571
 40
0.2469781987
 40
0.2888292358
 40
0.3325743309
 40
0.3778221588
 40
0.4241746632
 40
0.4712175631
 40
0.5657009515
 40
0.6123010242
 40
0.6579206986
 40
0.7021541195
 40
0.7446071687
 40
0.7849039894
 40
0.8226804441
 40
0.8576060617
 40
0.8893635949
 40
0.9176783559
 40
0.9422959419
 40
0.9630016031
 40
0.9718306505
 40
0.9796141145
 40
0.986335152
 40
0.9919812319
 40
0.9965401204
 40
1.0
 40
1.0
 40
1.0
 40
1.0
 10
4.7594525067
 20
5.2753695635
 30
0.0
 10
4.7594524413
 20
5.2754098269
 30
0.0
 10
4.7595007888
 20
5.27547458
 30
0.0
 10
4.7595894108
 20
5.2755340821
 30
0.0
 10
4.7597440667
 20
5.2756123536
 30
0.0
 10
4.7600126447
 20
5.2757023108
 30
0.0
 10
4.7604235832
 20
5.275805713
 30
0.0
 10
4.7609506277
 20
5.2759094611
 30
0.0
 10
4.7615938806
 20
5.2760143104
 30
0.0
 10
4.7623534214
 20
5.2761196218
 30
0.0
 10
4.7635973258
 20
5.2762697691
 30
0.0
 10
4.7654426146
 20
5.2764532187
 30
0.0
 10
4.7680042946
 20
5.2766647077
 30
0.0
 10
4.7710268057
 20
5.2768778792
 30
0.0
 10
4.7745085621
 20
5.2770927312
 30
0.0
 10
4.778448004
 20
5.2773091215
 30
0.0
 10
4.7828434992
 20
5.2775270589
 30
0.0
 10
4.787692993
 20
5.2777465932
 30
0.0
 10
4.7950577952
 20
5.2780535363
 30
0.0
 10
4.8053738763
 20
5.278435109
 30
0.0
 10
4.8190676309
 20
5.2788801049
 30
0.0
 10
4.8344912236
 20
5.2793261211
 30
0.0
 10
4.8516124693
 20
5.2797709572
 30
0.0
 10
4.8703942416
 20
5.280212811
 30
0.0
 10
4.8907940543
 20
5.2806514824
 30
0.0
 10
4.9127657433
 20
5.2810863876
 30
0.0
 10
4.9362624534
 20
5.2815171239
 30
0.0
 10
4.9612339925
 20
5.2819429107
 30
0.0
 10
4.9973139371
 20
5.282520254
 30
0.0
 10
5.0456550349
 20
5.2832330063
 30
0.0
 10
5.107243808
 20
5.2840836776
 30
0.0
 10
5.1731994758
 20
5.2849533802
 30
0.0
 10
5.2429322646
 20
5.2858393112
 30
0.0
 10
5.3158191563
 20
5.2867351808
 30
0.0
 10
5.3912140619
 20
5.2876235781
 30
0.0
 10
5.4684465258
 20
5.2884902124
 30
0.0
 10
5.573106508
 20
5.2896276573
 30
0.0
 10
5.677904756
 20
5.2907336585
 30
0.0
 10
5.7819095378
 20
5.2918904334
 30
0.0
 10
5.8579216469
 20
5.2927748798
 30
0.0
 10
5.9316232092
 20
5.2936678632
 30
0.0
 10
6.0023592302
 20
5.2945595928
 30
0.0
 10
6.0694979993
 20
5.2954370832
 30
0.0
 10
6.1324432501
 20
5.2962891206
 30
0.0
 10
6.1906310426
 20
5.2971280947
 30
0.0
 10
6.2435471796
 20
5.2979676824
 30
0.0
 10
6.2907198591
 20
5.2988148981
 30
0.0
 10
6.3317341015
 20
5.2996804637
 30
0.0
 10
6.3618924504
 20
5.3004468232
 30
0.0
 10
6.3826727359
 20
5.3010747171
 30
0.0
 10
6.3956642174
 20
5.3015176148
 30
0.0
 10
6.4068814545
 20
5.3019563351
 30
0.0
 10
6.4163010505
 20
5.3023890074
 30
0.0
 10
6.4239018073
 20
5.3028145509
 30
0.0
 10
6.4283582127
 20
5.3031322218
 30
0.0
 10
6.4302781547
 20
5.3033025032
 30
0.0
  0
SPLINE
  5
45D
100
AcDbEntity
  8
0
100
AcDbSpline
 62
7
  6
CONTINUOUS
 70
0
 71
3
 72
12
 73
8
 74
0
 42
0.0000001
 43
0.0000001
 44
0.0000000001
 40
0.0
 40
0.0
 40
0.0
 40
0.0
 40
0.362370148
 40
0.6495375018
 40
0.8617871177
 40
0.9400475557
 40
1.0
 40
1.0
 40
1.0
 40
1.0
 10
6.4302781547
 20
5.3033025032
 30
0.0
 10
6.4309988604
 20
5.3033664232
 30
0.0
 10
6.4322900597
 20
5.3034897657
 30
0.0
 10
6.433998573
 20
5.3036940467
 30
0.0
 10
6.4351390754
 20
5.3038722557
 30
0.0
 10
6.4358223453
 20
5.3040238647
 30
0.0
 10
6.4360879205
 20
5.3041006534
 30
0.0
 10
6.4362004297
 20
5.3041415321
 30
0.0
  0
SPLINE
  5
45E
100
AcDbEntity
  8
0
100
AcDbSpline
 62
7
  6
CONTINUOUS
 70
0
 71
3
 72
19
 73
15
 74
0
 42
0.0000001
 43
0.0000001
 44
0.0000000001
 40
0.0
 40
0.0
 40
0.0
 40
0.0
 40
0.1673515302
 40
0.330411033
 40
0.4847849492
 40
0.6265390171
 40
0.6914959785
 40
0.7519397925
 40
0.8074671231
 40
0.8577211521
 40
0.9023774856
 40
0.9411317205
 40
0.9737462417
 40
1.0
 40
1.0
 40
1.0
 40
1.0
 10
5.5980007764
 20
5.4179437192
 30
0.0
 10
5.5512606602
 20
5.4174626908
 30
0.0
 10
5.458979179
 20
5.4165109917
 30
0.0
 10
5.3235831348
 20
5.415020828
 30
0.0
 10
5.1953375208
 20
5.4134965456
 30
0.0
 10
5.0944917654
 20
5.4122180112
 30
0.0
 10
5.0198798999
 20
5.4112274549
 30
0.0
 10
4.9693503018
 20
5.4105132015
 30
0.0
 10
4.9229279111
 20
5.4097907056
 30
0.0
 10
4.8809158803
 20
5.4090558082
 30
0.0
 10
4.8435896849
 20
5.40831172
 30
0.0
 10
4.8111916014
 20
5.4075599061
 30
0.0
 10
4.7839351746
 20
5.4068076115
 30
0.0
 10
4.7675019663
 20
5.4062516511
 30
0.0
 10
4.7601748342
 20
5.4059613671
 30
0.0
  0
SPLINE
  5
45F
100
AcDbEntity
  8
0
100
AcDbSpline
 62
7
  6
CONTINUOUS
 70
0
 71
3
 72
24
 73
20
 74
0
 42
0.0000001
 43
0.0000001
 44
0.0000000001
 40
0.0
 40
0.0
 40
0.0
 40
0.0
 40
0.2319539033
 40
0.4336307975
 40
0.6048144679
 40
0.6789057395
 40
0.7452959337
 40
0.8039610506
 40
0.8548790421
 40
0.8980366712
 40
0.9334463115
 40
0.9482549697
 40
0.9611403102
 40
0.972111951
 40
0.9811855959
 40
0.9883893706
 40
0.9937807429
 40
0.9975021125
 40
1.0
 40
1.0
 40
1.0
 40
1.0
 10
4.7601748342
 20
5.4059613671
 30
0.0
 10
4.7575914755
 20
5.4058590204
 30
0.0
 10
4.7527623576
 20
5.4056573665
 30
0.0
 10
4.7460286269
 20
5.4053364695
 30
0.0
 10
4.7410544049
 20
5.4050605988
 30
0.0
 10
4.7375876896
 20
5.4048376369
 30
0.0
 10
4.7353735894
 20
5.4046795827
 30
0.0
 10
4.7334184263
 20
5.4045226832
 30
0.0
 10
4.7317230237
 20
5.4043671585
 30
0.0
 10
4.7302879503
 20
5.4042131292
 30
0.0
 10
4.7292556019
 20
5.4040796694
 30
0.0
 10
4.7285607028
 20
5.4039705874
 30
0.0
 10
4.7281365445
 20
5.4038940211
 30
0.0
 10
4.7277773718
 20
5.4038179435
 30
0.0
 10
4.7274831732
 20
5.403742127
 30
0.0
 10
4.7272530861
 20
5.4036676635
 30
0.0
 10
4.7270869975
 20
5.4035924111
 30
0.0
 10
4.7269783747
 20
5.4035203738
 30
0.0
 10
4.7269422061
 20
5.4034536527
 30
0.0
 10
4.7269422063
 20
5.403425811
 30
0.0
  0
SPLINE
  5
460
100
AcDbEntity
  8
0
100
AcDbSpline
 62
7
  6
CONTINUOUS
 70
0
 71
3
 72
19
 73
15
 74
0
 42
0.0000001
 43
0.0000001
 44
0.0000000001
 40
0.0
 40
0.0
 40
0.0
 40
0.0
 40
0.1673515302
 40
0.330411033
 40
0.4847849492
 40
0.6265390171
 40
0.6914959785
 40
0.7519397925
 40
0.8074671231
 40
0.8577211521
 40
0.9023774856
 40
0.9411317205
 40
0.9737462417
 40
1.0
 40
1.0
 40
1.0
 40
1.0
 10
5.5980007764
 20
5.301801987
 30
0.0
 10
5.5512606602
 20
5.3013209586
 30
0.0
 10
5.458979179
 20
5.3003692594
 30
0.0
 10
5.3235831348
 20
5.2988790957
 30
0.0
 10
5.1953375208
 20
5.2973548133
 30
0.0
 10
5.0944917654
 20
5.2960762789
 30
0.0
 10
5.0198798999
 20
5.2950857226
 30
0.0
 10
4.9693503018
 20
5.2943714692
 30
0.0
 10
4.9229279111
 20
5.2936489733
 30
0.0
 10
4.8809158803
 20
5.2929140759
 30
0.0
 10
4.8435896849
 20
5.2921699878
 30
0.0
 10
4.8111916014
 20
5.2914181738
 30
0.0
 10
4.7839351746
 20
5.2906658792
 30
0.0
 10
4.7675019663
 20
5.2901099188
 30
0.0
 10
4.7601748342
 20
5.2898196348
 30
0.0
  0
SPLINE
  5
461
100
AcDbEntity
  8
0
100
AcDbSpline
 62
7
  6
CONTINUOUS
 70
0
 71
3
 72
24
 73
20
 74
0
 42
0.0000001
 43
0.0000001
 44
0.0000000001
 40
0.0
 40
0.0
 40
0.0
 40
0.0
 40
0.2319539033
 40
0.4336307975
 40
0.6048144679
 40
0.6789057395
 40
0.7452959337
 40
0.8039610506
 40
0.8548790421
 40
0.8980366712
 40
0.9334463115
 40
0.9482549697
 40
0.9611403102
 40
0.972111951
 40
0.9811855959
 40
0.9883893706
 40
0.9937807429
 40
0.9975021125
 40
1.0
 40
1.0
 40
1.0
 40
1.0
 10
4.7601748342
 20
5.2898196348
 30
0.0
 10
4.7575914755
 20
5.2897172882
 30
0.0
 10
4.7527623576
 20
5.2895156342
 30
0.0
 10
4.7460286269
 20
5.2891947373
 30
0.0
 10
4.7410544049
 20
5.2889188665
 30
0.0
 10
4.7375876896
 20
5.2886959046
 30
0.0
 10
4.7353735894
 20
5.2885378504
 30
0.0
 10
4.7334184263
 20
5.2883809509
 30
0.0
 10
4.7317230237
 20
5.2882254263
 30
0.0
 10
4.7302879503
 20
5.2880713969
 30
0.0
 10
4.7292556019
 20
5.2879379371
 30
0.0
 10
4.7285607028
 20
5.2878288551
 30
0.0
 10
4.7281365445
 20
5.2877522889
 30
0.0
 10
4.7277773718
 20
5.2876762113
 30
0.0
 10
4.7274831732
 20
5.2876003947
 30
0.0
 10
4.7272530861
 20
5.2875259313
 30
0.0
 10
4.7270869975
 20
5.2874506788
 30
0.0
 10
4.7269783747
 20
5.2873786415
 30
0.0
 10
4.7269422061
 20
5.2873119204
 30
0.0
 10
4.7269422063
 20
5.2872840787
 30
0.0
  0
SPLINE
  5
462
100
AcDbEntity
  8
0
100
AcDbSpline
 62
7
  6
CONTINUOUS
 70
0
 71
3
 72
19
 73
15
 74
0
 42
0.0000001
 43
0.0000001
 44
0.0000000001
 40
0.0
 40
0.0
 40
0.0
 40
0.0
 40
0.1673515302
 40
0.330411033
 40
0.4847849492
 40
0.6265390171
 40
0.6914959785
 40
0.7519397925
 40
0.8074671231
 40
0.8577211521
 40
0.9023774856
 40
0.9411317205
 40
0.9737462417
 40
1.0
 40
1.0
 40
1.0
 40
1.0
 10
5.5980007764
 20
5.2437311208
 30
0.0
 10
5.5512606602
 20
5.2432500924
 30
0.0
 10
5.458979179
 20
5.2422983932
 30
0.0
 10
5.3235831348
 20
5.2408082296
 30
0.0
 10
5.1953375208
 20
5.2392839471
 30
0.0
 10
5.0944917654
 20
5.2380054127
 30
0.0
 10
5.0198798999
 20
5.2370148565
 30
0.0
 10
4.9693503018
 20
5.2363006031
 30
0.0
 10
4.9229279111
 20
5.2355781071
 30
0.0
 10
4.8809158803
 20
5.2348432097
 30
0.0
 10
4.8435896849
 20
5.2340991216
 30
0.0
 10
4.8111916014
 20
5.2333473076
 30
0.0
 10
4.7839351746
 20
5.2325950131
 30
0.0
 10
4.7675019663
 20
5.2320390527
 30
0.0
 10
4.7601748342
 20
5.2317487687
 30
0.0
  0
SPLINE
  5
463
100
AcDbEntity
  8
0
100
AcDbSpline
 62
7
  6
CONTINUOUS
 70
0
 71
3
 72
24
 73
20
 74
0
 42
0.0000001
 43
0.0000001
 44
0.0000000001
 40
0.0
 40
0.0
 40
0.0
 40
0.0
 40
0.2319539033
 40
0.4336307975
 40
0.6048144679
 40
0.6789057395
 40
0.7452959337
 40
0.8039610506
 40
0.8548790421
 40
0.8980366712
 40
0.9334463115
 40
0.9482549697
 40
0.9611403102
 40
0.972111951
 40
0.9811855959
 40
0.9883893706
 40
0.9937807429
 40
0.9975021125
 40
1.0
 40
1.0
 40
1.0
 40
1.0
 10
4.7601748342
 20
5.2317487687
 30
0.0
 10
4.7575914755
 20
5.231646422
 30
0.0
 10
4.7527623576
 20
5.231444768
 30
0.0
 10
4.7460286269
 20
5.2311238711
 30
0.0
 10
4.7410544049
 20
5.2308480004
 30
0.0
 10
4.7375876896
 20
5.2306250385
 30
0.0
 10
4.7353735894
 20
5.2304669843
 30
0.0
 10
4.7334184263
 20
5.2303100848
 30
0.0
 10
4.7317230237
 20
5.2301545601
 30
0.0
 10
4.7302879503
 20
5.2300005307
 30
0.0
 10
4.7292556019
 20
5.2298670709
 30
0.0
 10
4.7285607028
 20
5.229757989
 30
0.0
 10
4.7281365445
 20
5.2296814227
 30
0.0
 10
4.7277773718
 20
5.2296053451
 30
0.0
 10
4.7274831732
 20
5.2295295286
 30
0.0
 10
4.7272530861
 20
5.2294550651
 30
0.0
 10
4.7270869975
 20
5.2293798126
 30
0.0
 10
4.7269783747
 20
5.2293077754
 30
0.0
 10
4.7269422061
 20
5.2292410543
 30
0.0
 10
4.7269422063
 20
5.2292132126
 30
0.0
  0
SPLINE
  5
464
100
AcDbEntity
  8
0
100
AcDbSpline
 62
7
  6
CONTINUOUS
 70
0
 71
3
 72
71
 73
67
 74
0
 42
0.0000001
 43
0.0000001
 44
0.0000000001
 40
0.0
 40
0.0
 40
0.0
 40
0.0
 40
0.0000747173
 40
0.0001311846
 40
0.0002035619
 40
0.0002928515
 40
0.0003995826
 40
0.0006664531
 40
0.0010056116
 40
0.0014177122
 40
0.0019030624
 40
0.002461713
 40
0.0037987165
 40
0.0054280582
 40
0.0073487376
 40
0.0095596158
 40
0.0120594801
 40
0.0148470754
 40
0.0179211204
 40
0.0212803044
 40
0.0288458037
 40
0.0375228382
 40
0.0472895884
 40
0.0581242
 40
0.0700041077
 40
0.08290051
 40
0.0967812906
 40
0.1116142906
 40
0.1273672707
 40
0.1440041954
 40
0.1797628379
 40
0.2185525492
 40
0.260005612
 40
0.3037245798
 40
0.3492984643
 40
0.3962956366
 40
0.4442765763
 40
0.4927849973
 40
0.5413619108
 40
0.5895496504
 40
0.6368922035
 40
0.6829451234
 40
0.7272711936
 40
0.7694518134
 40
0.8090866661
 40
0.8457970394
 40
0.8792391684
 40
0.8946316296
 40
0.9090919706
 40
0.9225875047
 40
0.935085556
 40
0.9465549412
 40
0.9569710544
 40
0.966311127
 40
0.9745524164
 40
0.9816725892
 40
0.9876552151
 40
0.9902163178
 40
0.9924887338
 40
0.9944711001
 40
0.9961621187
 40
0.9975606114
 40
0.998665661
 40
0.9994776007
 40
0.9997745846
 40
1.0
 40
1.0
 40
1.0
 40
1.0
 10
4.7594422171
 20
5.3915112941
 30
0.0
 10
4.7594422084
 20
5.3915530681
 30
0.0
 10
4.7594942552
 20
5.3916199107
 30
0.0
 10
4.7595878006
 20
5.3916806924
 30
0.0
 10
4.759698141
 20
5.3917350832
 30
0.0
 10
4.75983821
 20
5.3917884818
 30
0.0
 10
4.760085239
 20
5.3918664179
 30
0.0
 10
4.7604728542
 20
5.3919601345
 30
0.0
 10
4.7610319992
 20
5.3920674135
 30
0.0
 10
4.761714998
 20
5.3921753468
 30
0.0
 10
4.7625218585
 20
5.3922840108
 30
0.0
 10
4.7638440641
 20
5.3924389716
 30
0.0
 10
4.7658059101
 20
5.3926284564
 30
0.0
 10
4.7685295226
 20
5.3928470067
 30
0.0
 10
4.7717429184
 20
5.3930673653
 30
0.0
 10
4.7754438802
 20
5.3932894434
 30
0.0
 10
4.7796302136
 20
5.3935130176
 30
0.0
 10
4.7842996782
 20
5.3937380268
 30
0.0
 10
4.7894500235
 20
5.3939644357
 30
0.0
 10
4.7972702415
 20
5.3942808394
 30
0.0
 10
4.8082224308
 20
5.3946743222
 30
0.0
 10
4.8227568512
 20
5.3951332448
 30
0.0
 10
4.8391197931
 20
5.3955930368
 30
0.0
 10
4.8572741078
 20
5.3960513912
 30
0.0
 10
4.8771787914
 20
5.3965056072
 30
0.0
 10
4.8987870649
 20
5.3969554458
 30
0.0
 10
4.9220468021
 20
5.3974012116
 30
0.0
 10
4.946903977
 20
5.3978430573
 30
0.0
 10
4.9733023884
 20
5.3982809759
 30
0.0
 10
5.0113991966
 20
5.3988751972
 30
0.0
 10
5.0623750418
 20
5.3996104264
 30
0.0
 10
5.1272247417
 20
5.4004916765
 30
0.0
 10
5.1965251017
 20
5.4013957861
 30
0.0
 10
5.2696185894
 20
5.4023133308
 30
0.0
 10
5.3458119366
 20
5.4032352579
 30
0.0
 10
5.4243884456
 20
5.4041444217
 30
0.0
 10
5.5046060288
 20
5.4050279121
 30
0.0
 10
5.5857070266
 20
5.4058984105
 30
0.0
 10
5.6669236773
 20
5.4067664883
 30
0.0
 10
5.7474883605
 20
5.4076440121
 30
0.0
 10
5.82664153
 20
5.4085465541
 30
0.0
 10
5.9036353143
 20
5.4094663559
 30
0.0
 10
5.9777428749
 20
5.4103864507
 30
0.0
 10
6.0482619805
 20
5.4112959326
 30
0.0
 10
6.1145231016
 20
5.4121847036
 30
0.0
 10
6.1758984435
 20
5.4130504186
 30
0.0
 10
6.2237204614
 20
5.4137873205
 30
0.0
 10
6.2591031479
 20
5.4143899352
 30
0.0
 10
6.2833348968
 20
5.4148329339
 30
0.0
 10
6.3059480318
 20
5.4152799793
 30
0.0
 10
6.3268884979
 20
5.415731444
 30
0.0
 10
6.3461067273
 20
5.4161879645
 30
0.0
 10
6.3635587335
 20
5.4166472701
 30
0.0
 10
6.3792052286
 20
5.4171069373
 30
0.0
 10
6.3930081695
 20
5.4175644773
 30
0.0
 10
6.4049329679
 20
5.4180174353
 30
0.0
 10
6.4136820151
 20
5.4184067571
 30
0.0
 10
6.4197210601
 20
5.4187221032
 30
0.0
 10
6.4235252975
 20
5.4189447375
 30
0.0
 10
6.4268422709
 20
5.4191656568
 30
0.0
 10
6.4296694799
 20
5.4193847861
 30
0.0
 10
6.4320048818
 20
5.4196010197
 30
0.0
 10
6.4338461411
 20
5.4198148026
 30
0.0
 10
6.435070849
 20
5.420001154
 30
0.0
 10
6.4357998759
 20
5.4201600577
 30
0.0
 10
6.4360812189
 20
5.4202405159
 30
0.0
 10
6.4361996691
 20
5.4202835588
 30
0.0
  0
SPLINE
  5
465
100
AcDbEntity
  8
0
100
AcDbSpline
 62
7
  6
CONTINUOUS
 70
0
 71
3
 72
19
 73
15
 74
0
 42
0.0000001
 43
0.0000001
 44
0.0000000001
 40
0.0
 40
0.0
 40
0.0
 40
0.0
 40
0.1673515302
 40
0.330411033
 40
0.4847849492
 40
0.6265390171
 40
0.6914959785
 40
0.7519397925
 40
0.8074671231
 40
0.8577211521
 40
0.9023774856
 40
0.9411317205
 40
0.9737462417
 40
1.0
 40
1.0
 40
1.0
 40
1.0
 10
5.5980007764
 20
5.1856602547
 30
0.0
 10
5.5512606602
 20
5.1851792263
 30
0.0
 10
5.458979179
 20
5.1842275271
 30
0.0
 10
5.3235831348
 20
5.1827373634
 30
0.0
 10
5.1953375208
 20
5.181213081
 30
0.0
 10
5.0944917654
 20
5.1799345466
 30
0.0
 10
5.0198798999
 20
5.1789439903
 30
0.0
 10
4.9693503018
 20
5.1782297369
 30
0.0
 10
4.9229279111
 20
5.177507241
 30
0.0
 10
4.8809158803
 20
5.1767723436
 30
0.0
 10
4.8435896849
 20
5.1760282555
 30
0.0
 10
4.8111916014
 20
5.1752764415
 30
0.0
 10
4.7839351746
 20
5.1745241469
 30
0.0
 10
4.7675019663
 20
5.1739681865
 30
0.0
 10
4.7601748342
 20
5.1736779026
 30
0.0
  0
SPLINE
  5
466
100
AcDbEntity
  8
0
100
AcDbSpline
 62
7
  6
CONTINUOUS
 70
0
 71
3
 72
24
 73
20
 74
0
 42
0.0000001
 43
0.0000001
 44
0.0000000001
 40
0.0
 40
0.0
 40
0.0
 40
0.0
 40
0.2319539033
 40
0.4336307975
 40
0.6048144679
 40
0.6789057395
 40
0.7452959337
 40
0.8039610506
 40
0.8548790421
 40
0.8980366712
 40
0.9334463115
 40
0.9482549697
 40
0.9611403102
 40
0.972111951
 40
0.9811855959
 40
0.9883893706
 40
0.9937807429
 40
0.9975021125
 40
1.0
 40
1.0
 40
1.0
 40
1.0
 10
4.7601748342
 20
5.1736779026
 30
0.0
 10
4.7575914755
 20
5.1735755559
 30
0.0
 10
4.7527623576
 20
5.1733739019
 30
0.0
 10
4.7460286269
 20
5.173053005
 30
0.0
 10
4.7410544049
 20
5.1727771343
 30
0.0
 10
4.7375876896
 20
5.1725541724
 30
0.0
 10
4.7353735894
 20
5.1723961182
 30
0.0
 10
4.7334184263
 20
5.1722392187
 30
0.0
 10
4.7317230237
 20
5.172083694
 30
0.0
 10
4.7302879503
 20
5.1719296646
 30
0.0
 10
4.7292556019
 20
5.1717962048
 30
0.0
 10
4.7285607028
 20
5.1716871228
 30
0.0
 10
4.7281365445
 20
5.1716105566
 30
0.0
 10
4.7277773718
 20
5.171534479
 30
0.0
 10
4.7274831732
 20
5.1714586625
 30
0.0
 10
4.7272530861
 20
5.171384199
 30
0.0
 10
4.7270869975
 20
5.1713089465
 30
0.0
 10
4.7269783747
 20
5.1712369092
 30
0.0
 10
4.7269422061
 20
5.1711701882
 30
0.0
 10
4.7269422063
 20
5.1711423464
 30
0.0
  0
SPLINE
  5
467
100
AcDbEntity
  8
0
100
AcDbSpline
 62
7
  6
CONTINUOUS
 70
0
 71
3
 72
19
 73
15
 74
0
 42
0.0000001
 43
0.0000001
 44
0.0000000001
 40
0.0
 40
0.0
 40
0.0
 40
0.0
 40
0.1656707719
 40
0.3272011627
 40
0.4804359039
 40
0.5527486111
 40
0.6215636443
 40
0.7470006651
 40
0.8028285254
 40
0.8535880745
 40
0.8989487412
 40
0.9386349714
 40
0.9723883771
 40
1.0
 40
1.0
 40
1.0
 40
1.0
 10
5.5980007764
 20
6.1147941129
 30
0.0
 10
5.5520219375
 20
6.1143209193
 30
0.0
 10
5.4612133357
 20
6.1133869519
 30
0.0
 10
5.3278783205
 20
6.1119169322
 30
0.0
 10
5.2204538796
 20
6.1106468283
 30
0.0
 10
5.1387609988
 20
6.1096341756
 30
0.0
 10
5.0647830369
 20
6.1086888118
 30
0.0
 10
4.9953806482
 20
6.1077496895
 30
0.0
 10
4.9309906923
 20
6.1067645981
 30
0.0
 10
4.8888241405
 20
6.1060490322
 30
0.0
 10
4.8511385994
 20
6.105320217
 30
0.0
 10
4.8181741958
 20
6.1045835667
 30
0.0
 10
4.7901375012
 20
6.1038437817
 30
0.0
 10
4.7731143956
 20
6.1032994211
 30
0.0
 10
4.7654560914
 20
6.1030173322
 30
0.0
  0
SPLINE
  5
468
100
AcDbEntity
  8
0
100
AcDbSpline
 62
7
  6
CONTINUOUS
 70
0
 71
3
 72
25
 73
21
 74
0
 42
0.0000001
 43
0.0000001
 44
0.0000000001
 40
0.0
 40
0.0
 40
0.0
 40
0.0
 40
0.231970285
 40
0.4336913092
 40
0.604867662
 40
0.678950562
 40
0.7453395089
 40
0.8040180822
 40
0.8549716605
 40
0.8981887211
 40
0.9336635643
 40
0.948499572
 40
0.9614045361
 40
0.9723844894
 40
0.9814511738
 40
0.9886296745
 40
0.9939730864
 40
0.9959955281
 40
0.997625944
 40
1.0
 40
1.0
 40
1.0
 40
1.0
 10
4.7654560914
 20
6.1030173322
 30
0.0
 10
4.7624633691
 20
6.1029070971
 30
0.0
 10
4.7568685705
 20
6.1026899622
 30
0.0
 10
4.7490672839
 20
6.1023447503
 30
0.0
 10
4.7433042817
 20
6.1020480453
 30
0.0
 10
4.7392880343
 20
6.1018078827
 30
0.0
 10
4.7367226253
 20
6.1016373692
 30
0.0
 10
4.7344564909
 20
6.1014677336
 30
0.0
 10
4.7324903554
 20
6.1012991268
 30
0.0
 10
4.7308249676
 20
6.1011316153
 30
0.0
 10
4.7296261386
 20
6.1009861499
 30
0.0
 10
4.7288187106
 20
6.1008670524
 30
0.0
 10
4.7283258018
 20
6.1007834631
 30
0.0
 10
4.7279085515
 20
6.1007002432
 30
0.0
 10
4.7275667104
 20
6.1006177351
 30
0.0
 10
4.7273002087
 20
6.1005356184
 30
0.0
 10
4.7271261171
 20
6.1004636232
 30
0.0
 10
4.7270268803
 20
6.1004020018
 30
0.0
 10
4.7269676495
 20
6.1003525383
 30
0.0
 10
4.7269391539
 20
6.1003024553
 30
0.0
 10
4.7269393197
 20
6.1002718065
 30
0.0
  0
SPLINE
  5
469
100
AcDbEntity
  8
0
100
AcDbSpline
 62
7
  6
CONTINUOUS
 70
0
 71
3
 72
70
 73
66
 74
0
 42
0.0000001
 43
0.0000001
 44
0.0000000001
 40
0.0
 40
0.0
 40
0.0
 40
0.0
 40
0.0000748895
 40
0.0001314806
 40
0.0002039864
 40
0.0004001219
 40
0.0006670451
 40
0.0010059821
 40
0.0014174728
 40
0.0019017778
 40
0.002459024
 40
0.003792497
 40
0.0054179388
 40
0.0073350587
 40
0.0095434258
 40
0.012042184
 40
0.0148294551
 40
0.0179031656
 40
0.0212612266
 40
0.0288219872
 40
0.0374948701
 40
0.0472623848
 40
0.0581007331
 40
0.0699820883
 40
0.0828785418
 40
0.0967621392
 40
0.1116015463
 40
0.1273592772
 40
0.1439971838
 40
0.1797598786
 40
0.2185528675
 40
0.2600041843
 40
0.3037247338
 40
0.3492970455
 40
0.3962947545
 40
0.4442721214
 40
0.4927780901
 40
0.5413542723
 40
0.589540374
 40
0.6368832424
 40
0.6829344662
 40
0.7272605999
 40
0.7694425944
 40
0.8090789413
 40
0.8457971024
 40
0.8792430843
 40
0.8946422953
 40
0.9091091059
 40
0.92260712
 40
0.9351064074
 40
0.9465796096
 40
0.9569993873
 40
0.9663385781
 40
0.9745749298
 40
0.9816919322
 40
0.9876734831
 40
0.9902334845
 40
0.992503675
 40
0.9944824617
 40
0.9961693095
 40
0.9975639891
 40
0.9986665221
 40
0.9994775432
 40
0.9997744771
 40
1.0
 40
1.0
 40
1.0
 40
1.0
 10
4.7594553116
 20
5.4495827469
 30
0.0
 10
4.7594553747
 20
5.4496246164
 30
0.0
 10
4.7595076498
 20
5.4496914957
 30
0.0
 10
4.7596014217
 20
5.4497523829
 30
0.0
 10
4.7597659864
 20
5.4498330859
 30
0.0
 10
4.760051018
 20
5.4499256161
 30
0.0
 10
4.7604869316
 20
5.450032082
 30
0.0
 10
4.7610457372
 20
5.4501388271
 30
0.0
 10
4.761727662
 20
5.4502467046
 30
0.0
 10
4.7625328313
 20
5.4503550417
 30
0.0
 10
4.7638517017
 20
5.4505095306
 30
0.0
 10
4.7658086197
 20
5.4506983359
 30
0.0
 10
4.7685260795
 20
5.4509161682
 30
0.0
 10
4.7717338688
 20
5.4511360247
 30
0.0
 10
4.7754307546
 20
5.4513580126
 30
0.0
 10
4.779614789
 20
5.4515820139
 30
0.0
 10
4.7842831543
 20
5.4518077417
 30
0.0
 10
4.7894323836
 20
5.4520349308
 30
0.0
 10
4.7972489747
 20
5.4523521212
 30
0.0
 10
4.808195377
 20
5.4527458014
 30
0.0
 10
4.8227250287
 20
5.4532042622
 30
0.0
 10
4.8390879219
 20
5.4536631941
 30
0.0
 10
4.8572452746
 20
5.4541211472
 30
0.0
 10
4.8771525286
 20
5.4545766673
 30
0.0
 10
4.8987628233
 20
5.4550283266
 30
0.0
 10
4.92202736
 20
5.4554744376
 30
0.0
 10
4.9468919742
 20
5.4559144512
 30
0.0
 10
4.9732967641
 20
5.4563509173
 30
0.0
 10
5.0113984214
 20
5.4569449221
 30
0.0
 10
5.0623780338
 20
5.4576831827
 30
0.0
 10
5.127229805
 20
5.4585636046
 30
0.0
 10
5.1965308146
 20
5.4594641481
 30
0.0
 10
5.2696220915
 20
5.4603848847
 30
0.0
 10
5.345814504
 20
5.4613060822
 30
0.0
 10
5.424387186
 20
5.4622118003
 30
0.0
 10
5.5046003233
 20
5.4631008145
 30
0.0
 10
5.5856962309
 20
5.4639697179
 30
0.0
 10
5.6669088873
 20
5.4648346619
 30
0.0
 10
5.7474710461
 20
5.4657171872
 30
0.0
 10
5.8266212394
 20
5.4666187656
 30
0.0
 10
5.9036130578
 20
5.4675358037
 30
0.0
 10
5.9777192246
 20
5.4684586809
 30
0.0
 10
6.0482388181
 20
5.4693676731
 30
0.0
 10
6.1145048662
 20
5.4702523722
 30
0.0
 10
6.17588649
 20
5.4711220966
 30
0.0
 10
6.2237179997
 20
5.4718592499
 30
0.0
 10
6.2591096924
 20
5.4724594588
 30
0.0
 10
6.2833498455
 20
5.4729012436
 30
0.0
 10
6.3059682842
 20
5.4733494179
 30
0.0
 10
6.3269125764
 20
5.4738028535
 30
0.0
 10
6.3461353553
 20
5.4742597588
 30
0.0
 10
6.3635907812
 20
5.4747184703
 30
0.0
 10
6.3792358362
 20
5.4751773958
 30
0.0
 10
6.3930335298
 20
5.47563473
 30
0.0
 10
6.4049529624
 20
5.4760885961
 30
0.0
 10
6.4136988143
 20
5.4764792515
 30
0.0
 10
6.41973526
 20
5.4767952715
 30
0.0
 10
6.4235355633
 20
5.4770179543
 30
0.0
 10
6.4268469223
 20
5.4772384066
 30
0.0
 10
6.4296676588
 20
5.4774567734
 30
0.0
 10
6.4319972003
 20
5.4776721992
 30
0.0
 10
6.4338344232
 20
5.4778853575
 30
0.0
 10
6.4350571917
 20
5.4780713537
 30
0.0
 10
6.435785747
 20
5.4782301043
 30
0.0
 10
6.4360671228
 20
5.4783105448
 30
0.0
 10
6.4361856342
 20
5.4783535892
 30
0.0
  0
SPLINE
  5
46A
100
AcDbEntity
  8
0
100
AcDbSpline
 62
7
  6
CONTINUOUS
 70
0
 71
3
 72
19
 73
15
 74
0
 42
0.0000001
 43
0.0000001
 44
0.0000000001
 40
0.0
 40
0.0
 40
0.0
 40
0.0
 40
0.1673515302
 40
0.330411033
 40
0.4847849492
 40
0.6265390171
 40
0.6914959785
 40
0.7519397925
 40
0.8074671231
 40
0.8577211521
 40
0.9023774856
 40
0.9411317205
 40
0.9737462417
 40
1.0
 40
1.0
 40
1.0
 40
1.0
 10
5.5980007764
 20
6.1728649791
 30
0.0
 10
5.5512606602
 20
6.1723839507
 30
0.0
 10
5.458979179
 20
6.1714322515
 30
0.0
 10
5.3235831348
 20
6.1699420878
 30
0.0
 10
5.1953375208
 20
6.1684178054
 30
0.0
 10
5.0944917654
 20
6.167139271
 30
0.0
 10
5.0198798999
 20
6.1661487148
 30
0.0
 10
4.9693503018
 20
6.1654344613
 30
0.0
 10
4.9229279111
 20
6.1647119654
 30
0.0
 10
4.8809158803
 20
6.163977068
 30
0.0
 10
4.8435896849
 20
6.1632329799
 30
0.0
 10
4.8111916014
 20
6.1624811659
 30
0.0
 10
4.7839351746
 20
6.1617288713
 30
0.0
 10
4.7675019663
 20
6.1611729109
 30
0.0
 10
4.7601748342
 20
6.160882627
 30
0.0
  0
SPLINE
  5
46B
100
AcDbEntity
  8
0
100
AcDbSpline
 62
7
  6
CONTINUOUS
 70
0
 71
3
 72
24
 73
20
 74
0
 42
0.0000001
 43
0.0000001
 44
0.0000000001
 40
0.0
 40
0.0
 40
0.0
 40
0.0
 40
0.2319539033
 40
0.4336307975
 40
0.6048144679
 40
0.6789057395
 40
0.7452959337
 40
0.8039610506
 40
0.8548790421
 40
0.8980366712
 40
0.9334463115
 40
0.9482549697
 40
0.9611403102
 40
0.972111951
 40
0.9811855959
 40
0.9883893706
 40
0.9937807429
 40
0.9975021125
 40
1.0
 40
1.0
 40
1.0
 40
1.0
 10
4.7601748342
 20
6.160882627
 30
0.0
 10
4.7575914755
 20
6.1607802803
 30
0.0
 10
4.7527623576
 20
6.1605786263
 30
0.0
 10
4.7460286269
 20
6.1602577294
 30
0.0
 10
4.7410544049
 20
6.1599818587
 30
0.0
 10
4.7375876896
 20
6.1597588968
 30
0.0
 10
4.7353735894
 20
6.1596008426
 30
0.0
 10
4.7334184263
 20
6.1594439431
 30
0.0
 10
4.7317230237
 20
6.1592884184
 30
0.0
 10
4.7302879503
 20
6.159134389
 30
0.0
 10
4.7292556019
 20
6.1590009292
 30
0.0
 10
4.7285607028
 20
6.1588918472
 30
0.0
 10
4.7281365445
 20
6.158815281
 30
0.0
 10
4.7277773718
 20
6.1587392034
 30
0.0
 10
4.7274831732
 20
6.1586633869
 30
0.0
 10
4.7272530861
 20
6.1585889234
 30
0.0
 10
4.7270869975
 20
6.1585136709
 30
0.0
 10
4.7269783747
 20
6.1584416336
 30
0.0
 10
4.7269422061
 20
6.1583749126
 30
0.0
 10
4.7269422063
 20
6.1583470708
 30
0.0
  0
SPLINE
  5
46C
100
AcDbEntity
  8
0
100
AcDbSpline
 62
7
  6
CONTINUOUS
 70
0
 71
3
 72
61
 73
57
 74
0
 42
0.0000001
 43
0.0000001
 44
0.0000000001
 40
0.0
 40
0.0
 40
0.0
 40
0.0
 40
0.0000724962
 40
0.000126674
 40
0.000195872
 40
0.0003827062
 40
0.0006368043
 40
0.000959479
 40
0.00135136
 40
0.0018127982
 40
0.0023440109
 40
0.0036160325
 40
0.0051669419
 40
0.006995662
 40
0.0091009773
 40
0.0114815995
 40
0.0141361977
 40
0.0170634149
 40
0.0202618771
 40
0.0274667741
 40
0.0357347155
 40
0.0450445987
 40
0.0553750704
 40
0.0667047557
 40
0.0790108801
 40
0.0922643227
 40
0.1064341415
 40
0.121489384
 40
0.1373989622
 40
0.1716358715
 40
0.2088295203
 40
0.2486509575
 40
0.290738077
 40
0.3347173364
 40
0.3801928359
 40
0.4267567361
 40
0.4739927593
 40
0.5214758386
 40
0.5687811191
 40
0.6154851561
 40
0.661167406
 40
0.7478486161
 40
0.7880675553
 40
0.825715499
 40
0.8604496238
 40
0.8919638628
 40
0.9199700816
 40
0.944229729
 40
0.9645217907
 40
0.9731244777
 40
0.9806729716
 40
0.9871483906
 40
0.9925338921
 40
0.9968201082
 40
0.9985487477
 40
1.0
 40
1.0
 40
1.0
 40
1.0
 10
4.7594377966
 20
5.5076532472
 30
0.0
 10
4.7594377972
 20
5.5076936637
 30
0.0
 10
4.7594866136
 20
5.5077585485
 30
0.0
 10
4.7595757634
 20
5.5078181328
 30
0.0
 10
4.7597313835
 20
5.5078965628
 30
0.0
 10
4.7600014631
 20
5.507986698
 30
0.0
 10
4.7604146813
 20
5.5080903351
 30
0.0
 10
4.7609447365
 20
5.5081943261
 30
0.0
 10
4.7615919476
 20
5.5082994594
 30
0.0
 10
4.76235661
 20
5.508405113
 30
0.0
 10
4.7636101706
 20
5.508555909
 30
0.0
 10
4.7654711558
 20
5.5087403445
 30
0.0
 10
4.7680557529
 20
5.5089531973
 30
0.0
 10
4.7711061128
 20
5.509167884
 30
0.0
 10
4.774619897
 20
5.509384272
 30
0.0
 10
4.7785947934
 20
5.5096020846
 30
0.0
 10
4.7830284425
 20
5.5098212062
 30
0.0
 10
4.7879184815
 20
5.5100415539
 30
0.0
 10
4.7953438942
 20
5.5103492215
 30
0.0
 10
4.8057461368
 20
5.5107316238
 30
0.0
 10
4.8195552703
 20
5.5111781581
 30
0.0
 10
4.8351076689
 20
5.5116261568
 30
0.0
 10
4.8523676305
 20
5.5120735193
 30
0.0
 10
4.8712985667
 20
5.5125180228
 30
0.0
 10
4.8918595721
 20
5.5129574635
 30
0.0
 10
4.9140043657
 20
5.5133924996
 30
0.0
 10
4.9376821322
 20
5.5138236884
 30
0.0
 10
4.9628409736
 20
5.5142516589
 30
0.0
 10
4.9991861747
 20
5.5148327616
 30
0.0
 10
5.0478728821
 20
5.5155491472
 30
0.0
 10
5.1098898241
 20
5.5164001304
 30
0.0
 10
5.176283301
 20
5.5172762268
 30
0.0
 10
5.246459857
 20
5.5181679977
 30
0.0
 10
5.3197887137
 20
5.5190656567
 30
0.0
 10
5.3956136129
 20
5.5199578843
 30
0.0
 10
5.4732545105
 20
5.5208293436
 30
0.0
 10
5.5520149276
 20
5.5216797175
 30
0.0
 10
5.6311887414
 20
5.5225248735
 30
0.0
 10
5.710065889
 20
5.5233763979
 30
0.0
 10
5.787938869
 20
5.5242417174
 30
0.0
 10
5.8877618582
 20
5.525407387
 30
0.0
 10
5.9839688392
 20
5.5266003355
 30
0.0
 10
6.0756962521
 20
5.5277996971
 30
0.0
 10
6.1384652351
 20
5.5286581818
 30
0.0
 10
6.1963811439
 20
5.5294985789
 30
0.0
 10
6.2489212052
 20
5.5303389588
 30
0.0
 10
6.2956206514
 20
5.5311961297
 30
0.0
 10
6.3360622811
 20
5.5320659294
 30
0.0
 10
6.3656859556
 20
5.532834822
 30
0.0
 10
6.3859932102
 20
5.5334668065
 30
0.0
 10
6.3985996898
 20
5.5339116606
 30
0.0
 10
6.40941156
 20
5.534351127
 30
0.0
 10
6.4184032398
 20
5.5347833454
 30
0.0
 10
6.4247482228
 20
5.5351569678
 30
0.0
 10
6.4288992756
 20
5.5354642302
 30
0.0
 10
6.4306654127
 20
5.5356187629
 30
0.0
 10
6.4314705949
 20
5.5356979877
 30
0.0
  0
SPLINE
  5
46D
100
AcDbEntity
  8
0
100
AcDbSpline
 62
7
  6
CONTINUOUS
 70
0
 71
3
 72
12
 73
8
 74
0
 42
0.0000001
 43
0.0000001
 44
0.0000000001
 40
0.0
 40
0.0
 40
0.0
 40
0.0
 40
0.3553456448
 40
0.6402906695
 40
0.8549476338
 40
0.9360896855
 40
1.0
 40
1.0
 40
1.0
 40
1.0
 10
6.4314705949
 20
5.5356979877
 30
0.0
 10
6.4320339691
 20
5.5357534202
 30
0.0
 10
6.4330484625
 20
5.5358608439
 30
0.0
 10
6.4343988988
 20
5.5360381771
 30
0.0
 10
6.4353116944
 20
5.5361932234
 30
0.0
 10
6.4358697415
 20
5.536324042
 30
0.0
 10
6.4360914713
 20
5.5363902677
 30
0.0
 10
6.4361871691
 20
5.5364250254
 30
0.0
  0
SPLINE
  5
46E
100
AcDbEntity
  8
0
100
AcDbSpline
 62
7
  6
CONTINUOUS
 70
0
 71
3
 72
19
 73
15
 74
0
 42
0.0000001
 43
0.0000001
 44
0.0000000001
 40
0.0
 40
0.0
 40
0.0
 40
0.0
 40
0.1673515302
 40
0.330411033
 40
0.4847849492
 40
0.6265390171
 40
0.6914959785
 40
0.7519397925
 40
0.8074671231
 40
0.8577211521
 40
0.9023774856
 40
0.9411317205
 40
0.9737462417
 40
1.0
 40
1.0
 40
1.0
 40
1.0
 10
5.5980007764
 20
6.2309358452
 30
0.0
 10
5.5512606602
 20
6.2304548168
 30
0.0
 10
5.458979179
 20
6.2295031176
 30
0.0
 10
5.3235831348
 20
6.228012954
 30
0.0
 10
5.1953375208
 20
6.2264886715
 30
0.0
 10
5.0944917654
 20
6.2252101371
 30
0.0
 10
5.0198798999
 20
6.2242195809
 30
0.0
 10
4.9693503018
 20
6.2235053275
 30
0.0
 10
4.9229279111
 20
6.2227828315
 30
0.0
 10
4.8809158803
 20
6.2220479341
 30
0.0
 10
4.8435896849
 20
6.221303846
 30
0.0
 10
4.8111916014
 20
6.220552032
 30
0.0
 10
4.7839351746
 20
6.2197997375
 30
0.0
 10
4.7675019663
 20
6.2192437771
 30
0.0
 10
4.7601748342
 20
6.2189534931
 30
0.0
  0
SPLINE
  5
46F
100
AcDbEntity
  8
0
100
AcDbSpline
 62
7
  6
CONTINUOUS
 70
0
 71
3
 72
24
 73
20
 74
0
 42
0.0000001
 43
0.0000001
 44
0.0000000001
 40
0.0
 40
0.0
 40
0.0
 40
0.0
 40
0.2319539033
 40
0.4336307975
 40
0.6048144679
 40
0.6789057395
 40
0.7452959337
 40
0.8039610506
 40
0.8548790421
 40
0.8980366712
 40
0.9334463115
 40
0.9482549697
 40
0.9611403102
 40
0.972111951
 40
0.9811855959
 40
0.9883893706
 40
0.9937807429
 40
0.9975021125
 40
1.0
 40
1.0
 40
1.0
 40
1.0
 10
4.7601748342
 20
6.2189534931
 30
0.0
 10
4.7575914755
 20
6.2188511464
 30
0.0
 10
4.7527623576
 20
6.2186494925
 30
0.0
 10
4.7460286269
 20
6.2183285955
 30
0.0
 10
4.7410544049
 20
6.2180527248
 30
0.0
 10
4.7375876896
 20
6.2178297629
 30
0.0
 10
4.7353735894
 20
6.2176717087
 30
0.0
 10
4.7334184263
 20
6.2175148092
 30
0.0
 10
4.7317230237
 20
6.2173592845
 30
0.0
 10
4.7302879503
 20
6.2172052551
 30
0.0
 10
4.7292556019
 20
6.2170717953
 30
0.0
 10
4.7285607028
 20
6.2169627134
 30
0.0
 10
4.7281365445
 20
6.2168861471
 30
0.0
 10
4.7277773718
 20
6.2168100695
 30
0.0
 10
4.7274831732
 20
6.216734253
 30
0.0
 10
4.7272530861
 20
6.2166597895
 30
0.0
 10
4.7270869975
 20
6.216584537
 30
0.0
 10
4.7269783747
 20
6.2165124998
 30
0.0
 10
4.7269422061
 20
6.2164457787
 30
0.0
 10
4.7269422063
 20
6.216417937
 30
0.0
  0
SPLINE
  5
470
100
AcDbEntity
  8
0
100
AcDbSpline
 62
7
  6
CONTINUOUS
 70
0
 71
3
 72
32
 73
28
 74
0
 42
0.0000001
 43
0.0000001
 44
0.0000000001
 40
0.0
 40
0.0
 40
0.0
 40
0.0
 40
0.0005908662
 40
0.001004701
 40
0.0015217812
 40
0.0028955728
 40
0.0047467236
 40
0.0070869566
 40
0.0099215482
 40
0.0132531099
 40
0.017082962
 40
0.0262394238
 40
0.0373921072
 40
0.0505388851
 40
0.065676261
 40
0.0828000096
 40
0.1019054823
 40
0.1460416491
 40
0.1980265488
 40
0.2577556242
 40
0.3251164968
 40
0.3999964243
 40
0.4822824433
 40
0.5718564398
 40
0.6685718515
 40
0.7722720632
 40
1.0
 40
1.0
 40
1.0
 40
1.0
 10
4.7594543607
 20
5.5657239658
 30
0.0
 10
4.7594543086
 20
5.5657574164
 30
0.0
 10
4.7594875635
 20
5.5658118821
 30
0.0
 10
4.7595544653
 20
5.5658647584
 30
0.0
 10
4.7596675351
 20
5.5659314506
 30
0.0
 10
4.7598653
 20
5.5660090505
 30
0.0
 10
4.7601678223
 20
5.5660976913
 30
0.0
 10
4.7605556761
 20
5.5661867156
 30
0.0
 10
4.7610288649
 20
5.5662765276
 30
0.0
 10
4.7615875942
 20
5.5663667142
 30
0.0
 10
4.7625024657
 20
5.5664951932
 30
0.0
 10
4.7638601847
 20
5.5666520999
 30
0.0
 10
4.7657456433
 20
5.5668328239
 30
0.0
 10
4.7679709109
 20
5.5670148055
 30
0.0
 10
4.7705350814
 20
5.5671980239
 30
0.0
 10
4.7734372735
 20
5.5673823676
 30
0.0
 10
4.7779795892
 20
5.5676423046
 30
0.0
 10
4.784495048
 20
5.5679642402
 30
0.0
 10
4.7933102255
 20
5.5683399958
 30
0.0
 10
4.8034411182
 20
5.5687195176
 30
0.0
 10
4.8148688769
 20
5.5691015021
 30
0.0
 10
4.8275742587
 20
5.5694844769
 30
0.0
 10
4.8415377157
 20
5.5698671331
 30
0.0
 10
4.856737811
 20
5.5702480791
 30
0.0
 10
4.8731506252
 20
5.5706269753
 30
0.0
 10
4.8973835755
 20
5.5711453111
 30
0.0
 10
4.9161433065
 20
5.571504297
 30
0.0
 10
4.9290335588
 20
5.5717373107
 30
0.0
  0
LINE
  5
471
100
AcDbEntity
  8
0
100
AcDbLine
 62
7
  6
CONTINUOUS
 10
4.9290335588
 20
5.5717373107
 11
4.9379589893
 21
5.571896469
  0
SPLINE
  5
472
100
AcDbEntity
  8
0
100
AcDbSpline
 62
7
  6
CONTINUOUS
 70
0
 71
3
 72
19
 73
15
 74
0
 42
0.0000001
 43
0.0000001
 44
0.0000000001
 40
0.0
 40
0.0
 40
0.0
 40
0.0
 40
0.1673515302
 40
0.330411033
 40
0.4847849491
 40
0.6265390171
 40
0.6914959785
 40
0.7519397925
 40
0.807467123
 40
0.8577211521
 40
0.9023774856
 40
0.9411317205
 40
0.9737462417
 40
1.0
 40
1.0
 40
1.0
 40
1.0
 10
5.5980007764
 20
6.2890067114
 30
0.0
 10
5.5512606602
 20
6.288525683
 30
0.0
 10
5.458979179
 20
6.2875739838
 30
0.0
 10
5.3235831348
 20
6.2860838201
 30
0.0
 10
5.1953375208
 20
6.2845595377
 30
0.0
 10
5.0944917654
 20
6.2832810033
 30
0.0
 10
5.0198799
 20
6.282290447
 30
0.0
 10
4.9693503018
 20
6.2815761936
 30
0.0
 10
4.9229279112
 20
6.2808536977
 30
0.0
 10
4.8809158803
 20
6.2801188003
 30
0.0
 10
4.843589685
 20
6.2793747122
 30
0.0
 10
4.8111916014
 20
6.2786228982
 30
0.0
 10
4.7839351746
 20
6.2778706036
 30
0.0
 10
4.7675019663
 20
6.2773146432
 30
0.0
 10
4.7601748342
 20
6.2770243592
 30
0.0
  0
SPLINE
  5
473
100
AcDbEntity
  8
0
100
AcDbSpline
 62
7
  6
CONTINUOUS
 70
0
 71
3
 72
24
 73
20
 74
0
 42
0.0000001
 43
0.0000001
 44
0.0000000001
 40
0.0
 40
0.0
 40
0.0
 40
0.0
 40
0.2319539033
 40
0.4336307975
 40
0.6048144679
 40
0.6789057395
 40
0.7452959337
 40
0.8039610506
 40
0.8548790421
 40
0.8980366712
 40
0.9334463115
 40
0.9482549697
 40
0.9611403102
 40
0.972111951
 40
0.9811855959
 40
0.9883893706
 40
0.9937807429
 40
0.9975021125
 40
1.0
 40
1.0
 40
1.0
 40
1.0
 10
4.7601748342
 20
6.2770243592
 30
0.0
 10
4.7575914755
 20
6.2769220126
 30
0.0
 10
4.7527623576
 20
6.2767203586
 30
0.0
 10
4.7460286269
 20
6.2763994617
 30
0.0
 10
4.7410544049
 20
6.2761235909
 30
0.0
 10
4.7375876896
 20
6.275900629
 30
0.0
 10
4.7353735894
 20
6.2757425749
 30
0.0
 10
4.7334184263
 20
6.2755856753
 30
0.0
 10
4.7317230237
 20
6.2754301507
 30
0.0
 10
4.7302879503
 20
6.2752761213
 30
0.0
 10
4.7292556019
 20
6.2751426615
 30
0.0
 10
4.7285607028
 20
6.2750335795
 30
0.0
 10
4.7281365445
 20
6.2749570133
 30
0.0
 10
4.7277773718
 20
6.2748809357
 30
0.0
 10
4.7274831732
 20
6.2748051191
 30
0.0
 10
4.7272530861
 20
6.2747306557
 30
0.0
 10
4.7270869975
 20
6.2746554032
 30
0.0
 10
4.7269783747
 20
6.2745833659
 30
0.0
 10
4.7269422061
 20
6.2745166449
 30
0.0
 10
4.7269422063
 20
6.2744888031
 30
0.0
  0
SPLINE
  5
474
100
AcDbEntity
  8
0
100
AcDbSpline
 62
7
  6
CONTINUOUS
 70
0
 71
3
 72
40
 73
36
 74
0
 42
0.0000001
 43
0.0000001
 44
0.0000000001
 40
0.0
 40
0.0
 40
0.0
 40
0.0
 40
0.000169027
 40
0.0002854124
 40
0.0004297627
 40
0.0008108783
 40
0.001322439
 40
0.0019681341
 40
0.0027496307
 40
0.0036677149
 40
0.0047227872
 40
0.0072444867
 40
0.0103151346
 40
0.0139341509
 40
0.0181005456
 40
0.0228131112
 40
0.0280705132
 40
0.0402140937
 40
0.0545191452
 40
0.0709647508
 40
0.0895214199
 40
0.1101591833
 40
0.1328480052
 40
0.1575578072
 40
0.1842558803
 40
0.2128993329
 40
0.2758407745
 40
0.3460185102
 40
0.4230298396
 40
0.5063964495
 40
0.5956292889
 40
0.6901933555
 40
0.7895072545
 40
0.8929837489
 40
1.0
 40
1.0
 40
1.0
 40
1.0
 10
4.7594470374
 20
6.0883616933
 30
0.0
 10
4.7594472711
 20
6.0883934978
 30
0.0
 10
4.7594775249
 20
6.0884450809
 30
0.0
 10
4.7595393934
 20
6.0884960757
 30
0.0
 10
4.7596429083
 20
6.0885596398
 30
0.0
 10
4.7598240211
 20
6.0886339203
 30
0.0
 10
4.7601009894
 20
6.0887186436
 30
0.0
 10
4.760455916
 20
6.0888037566
 30
0.0
 10
4.7608888554
 20
6.0888895956
 30
0.0
 10
4.761400029
 20
6.0889758058
 30
0.0
 10
4.7622368956
 20
6.0890986089
 30
0.0
 10
4.7634788698
 20
6.0892486085
 30
0.0
 10
4.7652035745
 20
6.0894213705
 30
0.0
 10
4.7672389688
 20
6.0895952996
 30
0.0
 10
4.7695841835
 20
6.0897703509
 30
0.0
 10
4.7722383742
 20
6.0899463937
 30
0.0
 10
4.7763920371
 20
6.0901944675
 30
0.0
 10
4.7823502613
 20
6.0905013411
 30
0.0
 10
4.7904136481
 20
6.09085918
 30
0.0
 10
4.7996846404
 20
6.0912210346
 30
0.0
 10
4.8101479354
 20
6.0915856454
 30
0.0
 10
4.8217865878
 20
6.0919517431
 30
0.0
 10
4.8345835649
 20
6.0923181445
 30
0.0
 10
4.8485213421
 20
6.0926836711
 30
0.0
 10
4.8635799877
 20
6.0930471864
 30
0.0
 10
4.8858313939
 20
6.0935447281
 30
0.0
 10
4.91626374
 20
6.0941538292
 30
0.0
 10
4.9557972299
 20
6.0948526428
 30
0.0
 10
4.9991747719
 20
6.0955408721
 30
0.0
 10
5.0461382634
 20
6.0962290781
 30
0.0
 10
5.0964047996
 20
6.0969267312
 30
0.0
 10
5.1496721861
 20
6.0976376821
 30
0.0
 10
5.2056198493
 20
6.0983593122
 30
0.0
 10
5.2639106645
 20
6.0990910164
 30
0.0
 10
5.3035155256
 20
6.0995737541
 30
0.0
 10
5.3236510137
 20
6.0998150329
 30
0.0
  0
LINE
  5
475
100
AcDbEntity
  8
0
100
AcDbLine
 62
7
  6
CONTINUOUS
 10
5.3236510137
 20
6.0998150329
 11
5.3310006022
 21
6.0999029174
  0
LINE
  5
476
100
AcDbEntity
  8
0
100
AcDbLine
 62
7
  6
CONTINUOUS
 10
5.3310006022
 20
6.0999029174
 11
5.871990825
 21
6.1059407218
  0
SPLINE
  5
477
100
AcDbEntity
  8
0
100
AcDbSpline
 62
7
  6
CONTINUOUS
 70
0
 71
3
 72
22
 73
18
 74
0
 42
0.0000001
 43
0.0000001
 44
0.0000000001
 40
0.0
 40
0.0
 40
0.0
 40
0.0
 40
0.1938528637
 40
0.3742079436
 40
0.5374700309
 40
0.6116720788
 40
0.6804127047
 40
0.7433709218
 40
0.8002344228
 40
0.850712978
 40
0.8945771416
 40
0.9316080943
 40
0.9616067426
 40
0.9739269551
 40
0.9844418045
 40
0.9931372499
 40
1.0
 40
1.0
 40
1.0
 40
1.0
 10
5.871990825
 20
6.1059407218
 30
0.0
 10
5.908136744
 20
6.1063731807
 30
0.0
 10
5.9779114839
 20
6.1072328603
 30
0.0
 10
6.078127138
 20
6.1085379558
 30
0.0
 10
6.1560322073
 20
6.10960796
 30
0.0
 10
6.2131248839
 20
6.1104722346
 30
0.0
 10
6.2515148627
 20
6.1111031546
 30
0.0
 10
6.2866710783
 20
6.1117399476
 30
0.0
 10
6.3184211131
 20
6.1123855863
 30
0.0
 10
6.346609522
 20
6.1130425942
 30
0.0
 10
6.3710984667
 20
6.1137029858
 30
0.0
 10
6.3917668883
 20
6.1143601462
 30
0.0
 10
6.4065528888
 20
6.114928178
 30
0.0
 10
6.4163941239
 20
6.1153921641
 30
0.0
 10
6.4222650594
 20
6.1157133282
 30
0.0
 10
6.4271167316
 20
6.1160302387
 30
0.0
 10
6.4300087508
 20
6.1162644147
 30
0.0
 10
6.4312825545
 20
6.116387368
 30
0.0
  0
SPLINE
  5
478
100
AcDbEntity
  8
0
100
AcDbSpline
 62
7
  6
CONTINUOUS
 70
0
 71
3
 72
12
 73
8
 74
0
 42
0.0000001
 43
0.0000001
 44
0.0000000001
 40
0.0
 40
0.0
 40
0.0
 40
0.0
 40
0.3569895605
 40
0.6423435421
 40
0.8563828651
 40
0.9368973541
 40
1.0
 40
1.0
 40
1.0
 40
1.0
 10
6.4312825545
 20
6.116387368
 30
0.0
 10
6.4318726862
 20
6.1164443302
 30
0.0
 10
6.432933891
 20
6.1165545602
 30
0.0
 10
6.4343444642
 20
6.1167365721
 30
0.0
 10
6.4352950767
 20
6.1168955963
 30
0.0
 10
6.4358737964
 20
6.1170299591
 30
0.0
 10
6.4361027742
 20
6.1170979794
 30
0.0
 10
6.4362012724
 20
6.1171337678
 30
0.0
  0
LINE
  5
479
100
AcDbEntity
  8
0
100
AcDbLine
 62
7
  6
CONTINUOUS
 10
5.5980007764
 20
6.3470775775
 11
5.2501953499
 21
6.3432779405
  0
LINE
  5
47A
100
AcDbEntity
  8
0
100
AcDbLine
 62
7
  6
CONTINUOUS
 10
5.2501953499
 20
6.3432779405
 11
5.243654766
 21
6.3431998633
  0
SPLINE
  5
47B
100
AcDbEntity
  8
0
100
AcDbSpline
 62
7
  6
CONTINUOUS
 70
0
 71
3
 72
40
 73
36
 74
0
 42
0.0000001
 43
0.0000001
 44
0.0000000001
 40
0.0
 40
0.0
 40
0.0
 40
0.0
 40
0.1089296527
 40
0.2137596723
 40
0.3139364623
 40
0.408925404
 40
0.4982498464
 40
0.5814443138
 40
0.6580691554
 40
0.7277452673
 40
0.7901027147
 40
0.8184293459
 40
0.8448095569
 40
0.8692114438
 40
0.8916031284
 40
0.911952769
 40
0.9302295736
 40
0.9464122223
 40
0.9604846808
 40
0.972431185
 40
0.9776024046
 40
0.982236438
 40
0.9863315102
 40
0.9898859726
 40
0.9928985833
 40
0.995369845
 40
0.9964030741
 40
0.9973018522
 40
0.9980668038
 40
0.9986989499
 40
0.9992001233
 40
0.999574088
 40
0.9997161336
 40
0.999831108
 40
1.0
 40
1.0
 40
1.0
 40
1.0
 10
5.243654766
 20
6.3431998633
 30
0.0
 10
5.2248840846
 20
6.3429753747
 30
0.0
 10
5.1880492515
 20
6.3425278001
 30
0.0
 10
5.1339523061
 20
6.3418508264
 30
0.0
 10
5.0822578177
 20
6.3411866226
 30
0.0
 10
5.0332354182
 20
6.3405406764
 30
0.0
 10
4.9871397629
 20
6.3399028809
 30
0.0
 10
4.9442091695
 20
6.3392631951
 30
0.0
 10
4.9046651774
 20
6.3386129276
 30
0.0
 10
4.8687127482
 20
6.3379541539
 30
0.0
 10
4.8410834971
 20
6.3373821192
 30
0.0
 10
4.8209149997
 20
6.3369157853
 30
0.0
 10
4.8072862849
 20
6.33657623
 30
0.0
 10
4.7946807056
 20
6.3362361041
 30
0.0
 10
4.7831147946
 20
6.3358959503
 30
0.0
 10
4.7726049077
 20
6.3355563709
 30
0.0
 10
4.7631656124
 20
6.3352178565
 30
0.0
 10
4.7548087701
 20
6.3348812153
 30
0.0
 10
4.7475437289
 20
6.3345472337
 30
0.0
 10
4.7421762612
 20
6.3342600795
 30
0.0
 10
4.7384349147
 20
6.3340280014
 30
0.0
 10
4.7360450816
 20
6.3338634841
 30
0.0
 10
4.7339345133
 20
6.3337001808
 30
0.0
 10
4.7321041752
 20
6.3335383263
 30
0.0
 10
4.730554794
 20
6.333378069
 30
0.0
 10
4.7294401343
 20
6.3332392808
 30
0.0
 10
4.7286897957
 20
6.3331258444
 30
0.0
 10
4.7282318283
 20
6.333046289
 30
0.0
 10
4.7278441181
 20
6.3329671196
 30
0.0
 10
4.7275263625
 20
6.3328886312
 30
0.0
 10
4.7272784744
 20
6.3328105347
 30
0.0
 10
4.7271164666
 20
6.3327420105
 30
0.0
 10
4.7270241025
 20
6.3326834774
 30
0.0
 10
4.7269686751
 20
6.3326362005
 30
0.0
 10
4.7269422061
 20
6.3325887745
 30
0.0
 10
4.7269422063
 20
6.3325596691
 30
0.0
  0
SPLINE
  5
47C
100
AcDbEntity
  8
0
100
AcDbSpline
 62
7
  6
CONTINUOUS
 70
0
 71
3
 72
69
 73
65
 74
0
 42
0.0000001
 43
0.0000001
 44
0.0000000001
 40
0.0
 40
0.0
 40
0.0
 40
0.0
 40
0.0000747128
 40
0.000131159
 40
0.0002034902
 40
0.0003992121
 40
0.0006656745
 40
0.0010041499
 40
0.0014152238
 40
0.0018992029
 40
0.0024562596
 40
0.0037899467
 40
0.0054166983
 40
0.0073361911
 40
0.0095469505
 40
0.0120472712
 40
0.0148354068
 40
0.0179095858
 40
0.02126802
 40
0.0288304425
 40
0.0375076404
 40
0.0472781525
 40
0.0581164909
 40
0.0699970835
 40
0.0828943033
 40
0.0967790984
 40
0.1116164268
 40
0.127370631
 40
0.1440060445
 40
0.1797665488
 40
0.2185534602
 40
0.2600048797
 40
0.3037244129
 40
0.3492991688
 40
0.3962985294
 40
0.4442774685
 40
0.4927846266
 40
0.5413604651
 40
0.5895467978
 40
0.6368897116
 40
0.6829405228
 40
0.7272681906
 40
0.7694495642
 40
0.8090884885
 40
0.8458034308
 40
0.879249376
 40
0.9091089058
 40
0.9226040128
 40
0.9351024016
 40
0.9465743675
 40
0.9569905293
 40
0.9663269345
 40
0.9745642791
 40
0.9816834525
 40
0.9876654292
 40
0.9902245501
 40
0.9924941856
 40
0.994473536
 40
0.9961618672
 40
0.9975585661
 40
0.99866327
 40
0.9994762279
 40
0.9997739214
 40
1.0
 40
1.0
 40
1.0
 40
1.0
 10
4.759441981
 20
6.1464332447
 30
0.0
 10
4.7594419908
 20
6.1464750157
 30
0.0
 10
4.7594940435
 20
6.1465418141
 30
0.0
 10
4.7595875612
 20
6.1466026062
 30
0.0
 10
4.7597517215
 20
6.1466831941
 30
0.0
 10
4.7600361863
 20
6.1467755911
 30
0.0
 10
4.7604713649
 20
6.1468819197
 30
0.0
 10
4.761029434
 20
6.1469885511
 30
0.0
 10
4.7617106934
 20
6.1470963475
 30
0.0
 10
4.7625153469
 20
6.1472046431
 30
0.0
 10
4.7638340506
 20
6.1473591684
 30
0.0
 10
4.7657917102
 20
6.1475481632
 30
0.0
 10
4.7685113341
 20
6.1477664444
 30
0.0
 10
4.7717224993
 20
6.1479869736
 30
0.0
 10
4.7754229146
 20
6.1482095508
 30
0.0
 10
4.7796096576
 20
6.1484337993
 30
0.0
 10
4.7842796709
 20
6.1486594945
 30
0.0
 10
4.7894298939
 20
6.1488864456
 30
0.0
 10
4.7972479482
 20
6.1492031533
 30
0.0
 10
4.8081979857
 20
6.149596185
 30
0.0
 10
4.8227327447
 20
6.1500543525
 30
0.0
 10
4.839099797
 20
6.15051378
 30
0.0
 10
4.8572584755
 20
6.1509724316
 30
0.0
 10
4.8771658282
 20
6.1514282588
 30
0.0
 10
4.8987769329
 20
6.1518789759
 30
0.0
 10
4.9220415621
 20
6.152323512
 30
0.0
 10
4.9469038426
 20
6.1527637451
 30
0.0
 10
4.9733042357
 20
6.153200959
 30
0.0
 10
5.0114014914
 20
6.1537961529
 30
0.0
 10
5.0623753784
 20
6.1545335621
 30
0.0
 10
5.1272229731
 20
6.1554112865
 30
0.0
 10
5.1965204046
 20
6.1563154121
 30
0.0
 10
5.2696129439
 20
6.157235571
 30
0.0
 10
5.3458075119
 20
6.1581551892
 30
0.0
 10
5.4243837549
 20
6.1590640582
 30
0.0
 10
5.5045998111
 20
6.159951854
 30
0.0
 10
5.585697532
 20
6.160818922
 30
0.0
 10
5.6669112065
 20
6.1616863606
 30
0.0
 10
5.7474737712
 20
6.162568436
 30
0.0
 10
5.8266243499
 20
6.1634674068
 30
0.0
 10
5.9036172131
 20
6.1643867665
 30
0.0
 10
5.9777240676
 20
6.1653092604
 30
0.0
 10
6.048246029
 20
6.1662158537
 30
0.0
 10
6.114511686
 20
6.1671039738
 30
0.0
 10
6.1758932784
 20
6.1679729079
 30
0.0
 10
6.2318068798
 20
6.1688327277
 30
0.0
 10
6.274738663
 20
6.1695821494
 30
0.0
 10
6.3059592786
 20
6.1702014777
 30
0.0
 10
6.3269008825
 20
6.1706541009
 30
0.0
 10
6.3461205761
 20
6.1711099208
 30
0.0
 10
6.3635718344
 20
6.1715683327
 30
0.0
 10
6.3792139344
 20
6.1720277903
 30
0.0
 10
6.3930118962
 20
6.1724856799
 30
0.0
 10
6.404933392
 20
6.1729397974
 30
0.0
 10
6.4136802701
 20
6.1733299892
 30
0.0
 10
6.4197162314
 20
6.1736450819
 30
0.0
 10
6.4235161017
 20
6.1738671813
 30
0.0
 10
6.4268283305
 20
6.1740874083
 30
0.0
 10
6.4296513576
 20
6.1743058499
 30
0.0
 10
6.4319840711
 20
6.1745215653
 30
0.0
 10
6.4338247058
 20
6.1747351329
 30
0.0
 10
6.4350501756
 20
6.1749215093
 30
0.0
 10
6.4357805307
 20
6.1750805559
 30
0.0
 10
6.4360626338
 20
6.1751611347
 30
0.0
 10
6.4361814497
 20
6.175204253
 30
0.0
  0
SPLINE
  5
47D
100
AcDbEntity
  8
0
100
AcDbSpline
 62
7
  6
CONTINUOUS
 70
0
 71
3
 72
71
 73
67
 74
0
 42
0.0000001
 43
0.0000001
 44
0.0000000001
 40
0.0
 40
0.0
 40
0.0
 40
0.0
 40
0.0000747959
 40
0.0001313377
 40
0.0002038239
 40
0.0002932623
 40
0.0004001867
 40
0.0006675679
 40
0.0010072779
 40
0.0014197983
 40
0.0019053304
 40
0.0024639418
 40
0.0038003233
 40
0.005428518
 40
0.0073477641
 40
0.0095571609
 40
0.0120557335
 40
0.0148424643
 40
0.0179162382
 40
0.0212751121
 40
0.0288382588
 40
0.0375120204
 40
0.0472764321
 40
0.0581113442
 40
0.0699919127
 40
0.0828877919
 40
0.0967683077
 40
0.1116027761
 40
0.1273588765
 40
0.1439974654
 40
0.1797583629
 40
0.218552819
 40
0.2600082132
 40
0.3037319406
 40
0.3493096228
 40
0.3963080375
 40
0.4442859309
 40
0.4927900925
 40
0.5413649412
 40
0.5895515669
 40
0.636893363
 40
0.6829459923
 40
0.7272710626
 40
0.7694521559
 40
0.8090852961
 40
0.845796065
 40
0.879237718
 40
0.8946311671
 40
0.9090934443
 40
0.9225907318
 40
0.9350892864
 40
0.9465591648
 40
0.9569763024
 40
0.9663171551
 40
0.9745582053
 40
0.9816773892
 40
0.9876598749
 40
0.9902209817
 40
0.9924932944
 40
0.9944753324
 40
0.9961656795
 40
0.9975630397
 40
0.9986667917
 40
0.9994779522
 40
0.9997747172
 40
1.0
 40
1.0
 40
1.0
 40
1.0
 10
4.7594510583
 20
6.2045033939
 30
0.0
 10
4.759451031
 20
6.2045452116
 30
0.0
 10
4.7595031407
 20
6.2046121457
 30
0.0
 10
4.7595968147
 20
6.204672988
 30
0.0
 10
4.7597073328
 20
6.2047274429
 30
0.0
 10
4.7598476474
 20
6.2047809018
 30
0.0
 10
4.7600951474
 20
6.2048589275
 30
0.0
 10
4.7604834642
 20
6.2049527228
 30
0.0
 10
4.7610434354
 20
6.2050600771
 30
0.0
 10
4.7617270774
 20
6.2051680512
 30
0.0
 10
4.7625342523
 20
6.205276709
 30
0.0
 10
4.7638561948
 20
6.2054315626
 30
0.0
 10
4.7658170375
 20
6.2056208287
 30
0.0
 10
4.7685388685
 20
6.2058390486
 30
0.0
 10
4.7717499981
 20
6.206059052
 30
0.0
 10
4.7754486059
 20
6.2062808221
 30
0.0
 10
4.779632894
 20
6.2065042102
 30
0.0
 10
4.7843009791
 20
6.2067292188
 30
0.0
 10
4.7894504808
 20
6.2069558923
 30
0.0
 10
4.7972690044
 20
6.2072727557
 30
0.0
 10
4.8082178146
 20
6.2076665483
 30
0.0
 10
4.8227477159
 20
6.2081254983
 30
0.0
 10
4.8391076231
 20
6.2085850443
 30
0.0
 10
4.8572611069
 20
6.2090426528
 30
0.0
 10
4.8771659481
 20
6.2094968437
 30
0.0
 10
4.898774039
 20
6.2099474779
 30
0.0
 10
4.92203404
 20
6.210394027
 30
0.0
 10
4.9468935209
 20
6.2108360643
 30
0.0
 10
4.9732953271
 20
6.2112731297
 30
0.0
 10
5.011395912
 20
6.2118668613
 30
0.0
 10
5.0623763733
 20
6.2126024064
 30
0.0
 10
5.1272309836
 20
6.2134853719
 30
0.0
 10
5.1965376819
 20
6.214387655
 30
0.0
 10
5.2696369341
 20
6.2153054436
 30
0.0
 10
5.3458354191
 20
6.2162280408
 30
0.0
 10
5.4244127139
 20
6.2171358846
 30
0.0
 10
5.5046265476
 20
6.2180200662
 30
0.0
 10
5.5857219425
 20
6.2188913463
 30
0.0
 10
5.6669340937
 20
6.2197580061
 30
0.0
 10
5.7474962228
 20
6.2206356152
 30
0.0
 10
5.8266478192
 20
6.2215397019
 30
0.0
 10
5.9036401354
 20
6.2224583073
 30
0.0
 10
5.9777469137
 20
6.2233785107
 30
0.0
 10
6.0482644413
 20
6.2242893022
 30
0.0
 10
6.114524822
 20
6.2251764527
 30
0.0
 10
6.1758988927
 20
6.2260422166
 30
0.0
 10
6.2237211925
 20
6.226780128
 30
0.0
 10
6.2591050981
 20
6.2273824195
 30
0.0
 10
6.2833393646
 20
6.2278249606
 30
0.0
 10
6.3059547533
 20
6.2282716096
 30
0.0
 10
6.3268966591
 20
6.2287233838
 30
0.0
 10
6.3461159255
 20
6.2291802756
 30
0.0
 10
6.3635691385
 20
6.2296396361
 30
0.0
 10
6.3792164428
 20
6.2300992251
 30
0.0
 10
6.3930190791
 20
6.2305565633
 30
0.0
 10
6.404943064
 20
6.2310094239
 30
0.0
 10
6.4136914319
 20
6.2313990143
 30
0.0
 10
6.4197303029
 20
6.2317146204
 30
0.0
 10
6.4235342747
 20
6.2319374157
 30
0.0
 10
6.4268506091
 20
6.2321584275
 30
0.0
 10
6.4296766107
 20
6.232377543
 30
0.0
 10
6.4320102743
 20
6.2325936255
 30
0.0
 10
6.4338497444
 20
6.2328071918
 30
0.0
 10
6.4350731768
 20
6.2329933496
 30
0.0
 10
6.4358015837
 20
6.2331521144
 30
0.0
 10
6.4360827365
 20
6.2332325164
 30
0.0
 10
6.4362011171
 20
6.2332755322
 30
0.0
  0
SPLINE
  5
47E
100
AcDbEntity
  8
0
100
AcDbSpline
 62
7
  6
CONTINUOUS
 70
0
 71
3
 72
44
 73
40
 74
0
 42
0.0000001
 43
0.0000001
 44
0.0000000001
 40
0.0
 40
0.0
 40
0.0
 40
0.0
 40
0.0001459865
 40
0.0002661995
 40
0.0004238983
 40
0.000620748
 40
0.000857579
 40
0.0014527947
 40
0.0022115842
 40
0.0031347495
 40
0.0054754179
 40
0.0084759001
 40
0.0121358892
 40
0.016452649
 40
0.021421148
 40
0.0270361497
 40
0.0332923569
 40
0.0401844353
 40
0.0477070264
 40
0.0558547417
 40
0.0646209127
 40
0.0839725513
 40
0.1056885843
 40
0.1296953475
 40
0.1559138803
 40
0.184246515
 40
0.2145914065
 40
0.2468462685
 40
0.2808976411
 40
0.3166199111
 40
0.3538868457
 40
0.3925701334
 40
0.47362439
 40
0.5586371291
 40
0.6464066647
 40
0.7356923674
 40
0.8252284114
 40
0.9137461599
 40
1.0
 40
1.0
 40
1.0
 40
1.0
 10
4.7594483789
 20
6.2625750103
 30
0.0
 10
4.7594483979
 20
6.2626291806
 30
0.0
 10
4.759533163
 20
6.2627118426
 30
0.0
 10
4.7596675183
 20
6.262782704
 30
0.0
 10
4.7598329612
 20
6.2628493777
 30
0.0
 10
4.7600419637
 20
6.2629143661
 30
0.0
 10
4.760412062
 20
6.2630098374
 30
0.0
 10
4.7609913416
 20
6.2631242652
 30
0.0
 10
4.7618262444
 20
6.263255405
 30
0.0
 10
4.7633066906
 20
6.2634467596
 30
0.0
 10
4.765620064
 20
6.2636774022
 30
0.0
 10
4.7689496016
 20
6.2639424292
 30
0.0
 10
4.7730140886
 20
6.2642110954
 30
0.0
 10
4.7778099172
 20
6.2644833704
 30
0.0
 10
4.7833320579
 20
6.2647583174
 30
0.0
 10
4.789574533
 20
6.2650354901
 30
0.0
 10
4.7965313348
 20
6.2653144085
 30
0.0
 10
4.8041964355
 20
6.2655946851
 30
0.0
 10
4.8125638
 20
6.2658759474
 30
0.0
 10
4.8216269129
 20
6.2661578439
 30
0.0
 10
4.8350781103
 20
6.2665469951
 30
0.0
 10
4.853563418
 20
6.267028026
 30
0.0
 10
4.8777037758
 20
6.2675849454
 30
0.0
 10
4.9043929343
 20
6.2681353359
 30
0.0
 10
4.9335379225
 20
6.2686761596
 30
0.0
 10
4.9650352297
 20
6.2692110295
 30
0.0
 10
4.9987727435
 20
6.2697429665
 30
0.0
 10
5.0346325145
 20
6.270275168
 30
0.0
 10
5.0724878003
 20
6.2708103115
 30
0.0
 10
5.112202991
 20
6.2713505492
 30
0.0
 10
5.153636974
 20
6.2718979977
 30
0.0
 10
5.2118907394
 20
6.2726523913
 30
0.0
 10
5.2878601549
 20
6.2736048242
 30
0.0
 10
5.3820430179
 20
6.2747235751
 30
0.0
 10
5.4792807328
 20
6.2758200767
 30
0.0
 10
5.5781973579
 20
6.2768821545
 30
0.0
 10
5.6773916974
 20
6.2779381113
 30
0.0
 10
5.7754606677
 20
6.279021057
 30
0.0
 10
5.8403076848
 20
6.2797735391
 30
0.0
 10
5.8723110533
 20
6.2801566709
 30
0.0
  0
SPLINE
  5
47F
100
AcDbEntity
  8
0
100
AcDbSpline
 62
7
  6
CONTINUOUS
 70
0
 71
3
 72
22
 73
18
 74
0
 42
0.0000001
 43
0.0000001
 44
0.0000000001
 40
0.0
 40
0.0
 40
0.0
 40
0.0
 40
0.1908777723
 40
0.3688084186
 40
0.5304119728
 40
0.604103059
 40
0.6725916048
 40
0.73554642
 40
0.7926628733
 40
0.843689036
 40
0.8883793735
 40
0.9265111458
 40
0.9579223998
 40
0.9710605955
 40
0.9824621257
 40
0.9921109622
 40
1.0
 40
1.0
 40
1.0
 40
1.0
 10
5.8723110533
 20
6.2801566709
 30
0.0
 10
5.9077300756
 20
6.2805806936
 30
0.0
 10
5.9761653504
 20
6.2814266934
 30
0.0
 10
6.0745867085
 20
6.2826994092
 30
0.0
 10
6.1512624891
 20
6.283754826
 30
0.0
 10
6.2076298049
 20
6.284599658
 30
0.0
 10
6.2456920478
 20
6.2852146578
 30
0.0
 10
6.2806779464
 20
6.2858370007
 30
0.0
 10
6.3124225257
 20
6.286471281
 30
0.0
 10
6.3407768132
 20
6.2871129377
 30
0.0
 10
6.3656069847
 20
6.287758176
 30
0.0
 10
6.386795731
 20
6.2884037158
 30
0.0
 10
6.4021290232
 20
6.288963213
 30
0.0
 10
6.4125020274
 20
6.2894181758
 30
0.0
 10
6.4188386048
 20
6.2897351179
 30
0.0
 10
6.4241999062
 20
6.2900475595
 30
0.0
 10
6.4274466415
 20
6.2902750903
 30
0.0
 10
6.4289058945
 20
6.2903926922
 30
0.0
  0
SPLINE
  5
480
100
AcDbEntity
  8
0
100
AcDbSpline
 62
7
  6
CONTINUOUS
 70
0
 71
3
 72
13
 73
9
 74
0
 42
0.0000001
 43
0.0000001
 44
0.0000000001
 40
0.0
 40
0.0
 40
0.0
 40
0.0
 40
0.3676265581
 40
0.6566804328
 40
0.7717618667
 40
0.8672572195
 40
0.9432622005
 40
1.0
 40
1.0
 40
1.0
 40
1.0
 10
6.4289058945
 20
6.2903926922
 30
0.0
 10
6.4298032715
 20
6.2904650122
 30
0.0
 10
6.4314053812
 20
6.2906047876
 30
0.0
 10
6.4332846361
 20
6.2908092555
 30
0.0
 10
6.434496452
 20
6.2909788491
 30
0.0
 10
6.4351887348
 20
6.2910953076
 30
0.0
 10
6.4357356766
 20
6.291210711
 30
0.0
 10
6.4360494342
 20
6.2912983441
 30
0.0
 10
6.4361800404
 20
6.2913457575
 30
0.0
  0
SPLINE
  5
481
100
AcDbEntity
  8
0
100
AcDbSpline
 62
7
  6
CONTINUOUS
 70
0
 71
3
 72
39
 73
35
 74
0
 42
0.0000001
 43
0.0000001
 44
0.0000000001
 40
0.0
 40
0.0
 40
0.0
 40
0.0
 40
0.0001766044
 40
0.0004379817
 40
0.0008156484
 40
0.0013198065
 40
0.0019546231
 40
0.0027221688
 40
0.0036236246
 40
0.0046597155
 40
0.0071367796
 40
0.0101539858
 40
0.013710735
 40
0.0178059573
 40
0.0224383332
 40
0.0276063976
 40
0.0395432786
 40
0.0536036096
 40
0.0697738214
 40
0.088035373
 40
0.1083604446
 40
0.1307200921
 40
0.1550853225
 40
0.1814271096
 40
0.2097163719
 40
0.2719948905
 40
0.3415886564
 40
0.4181524571
 40
0.5013151296
 40
0.5906358372
 40
0.6856619639
 40
0.7859180932
 40
0.8908760228
 40
1.0
 40
1.0
 40
1.0
 40
1.0
 10
4.7594436223
 20
6.3206451293
 30
0.0
 10
4.7594436063
 20
6.3206740422
 30
0.0
 10
4.7594803963
 20
6.3207432518
 30
0.0
 10
4.7595919558
 20
6.3208185231
 30
0.0
 10
4.7597624672
 20
6.3208968432
 30
0.0
 10
4.759998697
 20
6.3209744
 30
0.0
 10
4.7603007848
 20
6.3210532978
 30
0.0
 10
4.7606696577
 20
6.3211324541
 30
0.0
 10
4.7611053524
 20
6.3212120799
 30
0.0
 10
4.761819199
 20
6.3213254506
 30
0.0
 10
4.7628794835
 20
6.3214639709
 30
0.0
 10
4.76435273
 20
6.321623497
 30
0.0
 10
4.7660921052
 20
6.3217840916
 30
0.0
 10
4.7680967781
 20
6.3219456789
 30
0.0
 10
4.7703659377
 20
6.3221081124
 30
0.0
 10
4.7739173466
 20
6.3223368675
 30
0.0
 10
4.7790118566
 20
6.3226194937
 30
0.0
 10
4.78590754
 20
6.3229483354
 30
0.0
 10
4.7938395469
 20
6.3232806216
 30
0.0
 10
4.8027978562
 20
6.323616079
 30
0.0
 10
4.8127700385
 20
6.323953607
 30
0.0
 10
4.8237419708
 20
6.3242922713
 30
0.0
 10
4.8356993584
 20
6.3246311028
 30
0.0
 10
4.8486278958
 20
6.3249692158
 30
0.0
 10
4.8677622509
 20
6.325432696
 30
0.0
 10
4.8939771611
 20
6.3259995666
 30
0.0
 10
4.9280952518
 20
6.3266520894
 30
0.0
 10
4.9656331217
 20
6.3272961308
 30
0.0
 10
5.0064011541
 20
6.327932568
 30
0.0
 10
5.0501920961
 20
6.3285692938
 30
0.0
 10
5.09678168
 20
6.329213595
 30
0.0
 10
5.1459313843
 20
6.3298709554
 30
0.0
 10
5.1973892035
 20
6.3305380037
 30
0.0
 10
5.2324350362
 20
6.3309798121
 30
0.0
 10
5.250298985
 20
6.3312021578
 30
0.0
  0
LINE
  5
482
100
AcDbEntity
  8
0
100
AcDbLine
 62
7
  6
CONTINUOUS
 10
5.250298985
 20
6.3312021578
 11
5.3236412803
 21
6.3320981409
  0
LINE
  5
483
100
AcDbEntity
  8
0
100
AcDbLine
 62
7
  6
CONTINUOUS
 10
5.3236412803
 20
6.3320981409
 11
5.4676689503
 21
6.3337534555
  0
LINE
  5
484
100
AcDbEntity
  8
0
100
AcDbLine
 62
7
  6
CONTINUOUS
 10
5.9454418028
 20
6.3391212496
 11
6.0908820838
 21
6.3410066461
  0
SPLINE
  5
485
100
AcDbEntity
  8
0
100
AcDbSpline
 62
7
  6
CONTINUOUS
 70
0
 71
3
 72
10
 73
6
 74
0
 42
0.0000001
 43
0.0000001
 44
0.0000000001
 40
0.0
 40
0.0
 40
0.0
 40
0.0
 40
0.4825932612
 40
0.7370824359
 40
1.0
 40
1.0
 40
1.0
 40
1.0
 10
5.4238635206
 20
6.5236016233
 30
0.0
 10
5.4277919654
 20
6.5154371672
 30
0.0
 10
5.4341002832
 20
6.503113489
 30
0.0
 10
5.4431678371
 20
6.4866733508
 30
0.0
 10
5.4480334732
 20
6.4782644942
 30
0.0
 10
5.4505580195
 20
6.4740227965
 30
0.0
  0
SPLINE
  5
486
100
AcDbEntity
  8
0
100
AcDbSpline
 62
7
  6
CONTINUOUS
 70
0
 71
3
 72
9
 73
5
 74
0
 42
0.0000001
 43
0.0000001
 44
0.0000000001
 40
0.0
 40
0.0
 40
0.0
 40
0.0
 40
0.501289657
 40
1.0
 40
1.0
 40
1.0
 40
1.0
 10
5.4485683313
 20
6.459282367
 30
0.0
 10
5.4480753194
 20
6.4617536648
 30
0.0
 10
5.4479101344
 20
6.46688158
 30
0.0
 10
5.4494256822
 20
6.4717860569
 30
0.0
 10
5.4505580195
 20
6.4740227965
 30
0.0
  0
SPLINE
  5
487
100
AcDbEntity
  8
0
100
AcDbSpline
 62
7
  6
CONTINUOUS
 70
0
 71
3
 72
11
 73
7
 74
0
 42
0.0000001
 43
0.0000001
 44
0.0000000001
 40
0.0
 40
0.0
 40
0.0
 40
0.0
 40
0.2494488019
 40
0.4989057078
 40
0.7487877667
 40
1.0
 40
1.0
 40
1.0
 40
1.0
 10
5.4646762153
 20
6.4850742
 30
0.0
 10
5.465716225
 20
6.4852913467
 30
0.0
 10
5.4678360397
 20
6.4855549946
 30
0.0
 10
5.471036506
 20
6.4854259808
 30
0.0
 10
5.4741800105
 20
6.4847727184
 30
0.0
 10
5.476181246
 20
6.4840000602
 30
0.0
 10
5.47714548
 20
6.4835363348
 30
0.0
  0
SPLINE
  5
488
100
AcDbEntity
  8
0
100
AcDbSpline
 62
9
  6
CONTINUOUS
 70
0
 71
3
 72
17
 73
13
 74
0
 42
0.0000001
 43
0.0000001
 44
0.0000000001
 40
0.0
 40
0.0
 40
0.0
 40
0.0
 40
0.1210701617
 40
0.2435816803
 40
0.3052738517
 40
0.3671420835
 40
0.4914619666
 40
0.6170825389
 40
0.6805347332
 40
0.7443638689
 40
0.8724345336
 40
1.0
 40
1.0
 40
1.0
 40
1.0
 10
6.6626432181
 20
4.8506087843
 30
0.0
 10
6.6640756664
 20
4.8506087843
 30
0.0
 10
6.6669648571
 20
4.8509205684
 30
0.0
 10
6.6704287908
 20
4.8520278882
 30
0.0
 10
6.673042481
 20
4.8533206049
 30
0.0
 10
6.6755278455
 20
4.8548863521
 30
0.0
 10
6.6783335787
 20
4.8573216072
 30
0.0
 10
6.6806236409
 20
4.8602692039
 30
0.0
 10
6.6820989184
 20
4.8628772188
 30
0.0
 10
6.683326789
 20
4.8656422149
 30
0.0
 10
6.6843725966
 20
4.8692970647
 30
0.0
 10
6.6846654863
 20
4.8723278329
 30
0.0
 10
6.6846654863
 20
4.8738371308
 30
0.0
  0
LINE
  5
489
100
AcDbEntity
  8
0
100
AcDbLine
 62
9
  6
CONTINUOUS
 10
4.5101300094
 20
4.8738379056
 11
4.5105927199
 21
4.8738312263
  0
ENDSEC
  0
SECTION
  2
OBJECTS
  0
DICTIONARY
  5
C
100
AcDbDictionary
280
0
281
1
  3
ACAD_GROUP
350
D
  3
ACAD_MLINESTYLE
350
17
  3
ACAD_LAYOUT
350
1A
  3
ACAD_PLOTSETTINGS
350
19
  3
ACAD_PLOTSTYLENAME
350
E
  0
DICTIONARY
  5
D
102
{ACAD_REACTORS
330
C
102
}
100
AcDbDictionary
280
0
281
1
  0
ACDBDICTIONARYWDFLT
  5
E
102
{ACAD_REACTORS
330
C
102
}
100
AcDbDictionary
281
1
  3
Normal
350
F
100
AcDbDictionaryWithDefault
340
F
  0
DICTIONARY
  5
17
102
{ACAD_REACTORS
330
C
102
}
100
AcDbDictionary
280
0
281
1
  3
Standard
350
18
  0
DICTIONARY
  5
19
102
{ACAD_REACTORS
330
C
102
}
100
AcDbDictionary
281
1
  0
DICTIONARY
  5
1A
102
{ACAD_REACTORS
330
C
102
}
100
AcDbDictionary
281
1
  3
Model
350
48A
  3
Layout1
350
48B
  0
ACDBPLACEHOLDER
  5
F
102
{ACAD_REACTORS
330
E
102
}
  0
MLINESTYLE
  5
18
102
{ACAD_REACTORS
330
17
102
}
100
AcDbMlineStyle
  2
STANDARD
 70
0
  3

 62
256
 51
90.0
 52
90.0
 71
2
 49
0.5
 62
256
  6
BYLAYER
 49
-0.5
 62
256
  6
BYLAYER
  0
LAYOUT
  5
48A
102
{ACAD_REACTORS
330
1A
102
}
100
AcDbPlotSettings
  1

  2
none_device
  4
ANSI_A_(11.00_x_8.50_Inches)
  6

 40
0.0
 41
0.0
 42
0.0
 43
0.0
 44
279.4
 45
215.9
 46
0.0
 47
0.0
 48
0.0
 49
0.0
140
0.0
141
0.0
142
1.0
143
1.0
 70
1024
 72
0
 73
0
 74
0
  7

 75
0
147
1.0
148
0.0
149
0.0
100
AcDbLayout
  1
Model
 70
0
 71
0
 10
0.0
 20
0.0
 11
11.0
 21
8.5
 12
0.0
 22
0.0
 32
0.0
 14
0.0
 24
0.0
 34
0.0
 15
0.0
 25
0.0
 35
0.0
146
0.0
 13
0.0
 23
0.0
 33
0.0
 16
1.0
 26
0.0
 36
0.0
 17
0.0
 27
1.0
 37
0.0
 76
0
330
22B
345
0
346
0
  0
LAYOUT
  5
48B
102
{ACAD_REACTORS
330
1A
102
}
100
AcDbPlotSettings
  1

  2
none_device
  4
ANSI_A_(11.00_x_8.50_Inches)
  6

 40
0.0
 41
0.0
 42
0.0
 43
0.0
 44
279.4
 45
215.9
 46
0.0
 47
0.0
 48
0.0
 49
0.0
140
0.0
141
0.0
142
1.0
143
1.0
 70
0
 72
0
 73
0
 74
0
  7

 75
0
147
1.0
148
0.0
149
0.0
100
AcDbLayout
  1
Layout1
 70
0
 71
1
 10
0.0
 20
0.0
 11
11.0
 21
8.5
 12
0.0
 22
0.0
 32
0.0
 14
0.0
 24
0.0
 34
0.0
 15
0.0
 25
0.0
 35
0.0
146
0.0
 13
0.0
 23
0.0
 33
0.0
 16
1.0
 26
0.0
 36
0.0
 17
0.0
 27
1.0
 37
0.0
 76
0
330
22C
345
0
346
0
  0
ENDSEC
  0
EOF
