999
DXF file: C:\Prowork\plots\3303_front.dxf
999
Pro/ENGINEER 2018500 by Parametric Technology Corporation
  0
SECTION
  2
HEADER
  9
$ACADVER
  1
AC1032
  9
$DWGCODEPAGE
  3
ANSI_1252
  9
$EXTMAX
 10
11.0
 20
8.5
 30
0.0
  9
$EXTMIN
 10
0.0
 20
0.0
 30
0.0
  9
$LIMMIN
 10
0.0
 20
0.0
  9
$LIMMAX
 10
11.0
 20
8.5
  9
$VIEWCTR
 10
5.5
 20
4.25
  9
$VIEWSIZE
 40
8.5
  9
$CLAYER
  8
0
  9
$LTSCALE
 40
0.605
  9
$CELTYPE
  6
BYLAYER
  9
$DIMSCALE
 40
1.0
  9
$DIMASZ
 40
0.1
  9
$DIMEXO
 40
0.0625
  9
$DIMDLI
 40
0.418
  9
$DIMEXE
 40
0.125
  9
$DIMCEN
 40
0.099
  9
$DIMLFAC
 40
1.0
  9
$DIMBLK
  1
_FILLED
  9
$DIMALT
 70
1
  9
$DIMALTD
 70
2
  9
$DIMALTTD
 70
2
  9
$DIMALTF
 40
25.4
  9
$DIMTXT
 40
0.08
  9
$DIMTOL
 70
1
  9
$DIMLIM
 70
0
  9
$DIMTFAC
 40
1.0
  9
$DIMTP
 40
0.001
  9
$DIMTM
 40
0.001
  9
$DIMGAP
 40
0.09
  9
$DIMDSEP
 70
46
  9
$AUNITS
 70
0
  9
$PDMODE
 70
3
  9
$PDSIZE
 40
0.06
  9
$HANDSEED
  5
454
  9
$TILEMODE
 70
1
  9
$MEASUREMENT
 70
0
  9
$INSUNITS
 70
1
  0
ENDSEC
  0
SECTION
  2
CLASSES
  0
CLASS
  1
ACDBDICTIONARYWDFLT
  2
AcDbDictionaryWithDefault
  3
AutoCAD 2000
 90
0
 91
1
280
0
281
0
  0
CLASS
  1
ACDBPLACEHOLDER
  2
AcDbPlaceHolder
  3
AutoCAD 2000
 90
0
 91
1
280
0
281
0
  0
CLASS
  1
LAYOUT
  2
AcDbLayout
  3
AutoCAD 2000
 90
0
 91
0
280
0
281
0
  0
ENDSEC
  0
SECTION
  2
TABLES
  0
TABLE
  2
VPORT
  5
8
100
AcDbSymbolTable
 70
2
  0
VPORT
  5
1F4
100
AcDbSymbolTableRecord
100
AcDbViewportTableRecord
  2
*ACTIVE
 70
0
 10
0.0
 20
0.0
 11
1.0
 21
1.0
 12
5.5
 22
4.25
 13
0.0
 23
0.0
 14
1.0
 24
1.0
 15
0.0
 25
0.0
 16
0.0
 26
0.0
 36
1.0
 17
0.0
 27
0.0
 37
0.0
 40
8.5
 41
1.2941176471
 42
50.0
 43
0.0
 44
0.0
 50
0.0
 51
0.0
 71
0
 72
100
 73
1
 74
1
 75
0
 76
0
 77
0
 78
0
  0
ENDTAB
  0
TABLE
  2
LTYPE
  5
5
100
AcDbSymbolTable
 70
6
  0
LTYPE
  5
14
100
AcDbSymbolTableRecord
100
AcDbLinetypeTableRecord
  2
BYBLOCK
 70
0
  3

 72
65
 73
0
 40
0.0
  0
LTYPE
  5
15
100
AcDbSymbolTableRecord
100
AcDbLinetypeTableRecord
  2
BYLAYER
 70
0
  3

 72
65
 73
0
 40
0.0
  0
LTYPE
  5
16
100
AcDbSymbolTableRecord
100
AcDbLinetypeTableRecord
  2
CONTINUOUS
 70
64
  3
Solid line
 72
65
 73
0
 40
0.0
  0
LTYPE
  5
1F5
100
AcDbSymbolTableRecord
100
AcDbLinetypeTableRecord
  2
CENTER
 70
64
  3
____ _ ____ _ ____ _ ____ _ ____ _ ____ _ ____
 72
65
 73
4
 40
0.6
 49
0.375
 74
0
 49
-0.075
 74
0
 49
0.075
 74
0
 49
-0.075
 74
0
  0
LTYPE
  5
1F6
100
AcDbSymbolTableRecord
100
AcDbLinetypeTableRecord
  2
HIDDEN
 70
64
  3
- - - - - - - - - - - - - - - - - - - -
 72
65
 73
2
 40
0.2
 49
0.1
 74
0
 49
-0.1
 74
0
  0
LTYPE
  5
1F7
100
AcDbSymbolTableRecord
100
AcDbLinetypeTableRecord
  2
PHANTOM
 70
64
  3
_____ _ _ _____ _ _ _____ _ _ _____
 72
65
 73
6
 40
0.8
 49
0.45
 74
0
 49
-0.05
 74
0
 49
0.1
 74
0
 49
-0.05
 74
0
 49
0.1
 74
0
 49
-0.05
 74
0
  0
LTYPE
  5
1F8
100
AcDbSymbolTableRecord
100
AcDbLinetypeTableRecord
  2
DOT
 70
64
  3
. . . . . . . . . . . . . . . . . . . .
 72
65
 73
2
 40
0.2
 49
0.1
 74
0
 49
-0.1
 74
0
  0
LTYPE
  5
1F9
100
AcDbSymbolTableRecord
100
AcDbLinetypeTableRecord
  2
DASHED
 70
64
  3
- - - - - - - - - - - - - - - - - - - -
 72
65
 73
2
 40
0.2
 49
0.1
 74
0
 49
-0.1
 74
0
  0
ENDTAB
  0
TABLE
  2
LAYER
  5
2
100
AcDbSymbolTable
 70
36
  0
LAYER
  5
10
100
AcDbSymbolTableRecord
100
AcDbLayerTableRecord
  2
0
 70
0
 62
7
  6
CONTINUOUS
370
-3
390
F
  0
LAYER
  5
1FA
100
AcDbSymbolTableRecord
100
AcDbLayerTableRecord
  2
DEFAULT_1
 70
0
 62
7
  6
CENTER
370
-3
390
F
  0
LAYER
  5
1FB
100
AcDbSymbolTableRecord
100
AcDbLayerTableRecord
  2
DEFAULT_2
 70
0
 62
8
  6
HIDDEN
370
-3
390
F
  0
LAYER
  5
1FC
100
AcDbSymbolTableRecord
100
AcDbLayerTableRecord
  2
DEFAULT_3
 70
0
 62
7
  6
PHANTOM
370
-3
390
F
  0
LAYER
  5
1FD
100
AcDbSymbolTableRecord
100
AcDbLayerTableRecord
  2
1-708
 70
0
 62
7
  6
CONTINUOUS
370
-3
390
F
  0
LAYER
  5
1FE
100
AcDbSymbolTableRecord
100
AcDbLayerTableRecord
  2
12587
 70
0
 62
7
  6
CONTINUOUS
370
-3
390
F
  0
LAYER
  5
1FF
100
AcDbSymbolTableRecord
100
AcDbLayerTableRecord
  2
12588
 70
0
 62
7
  6
CONTINUOUS
370
-3
390
F
  0
LAYER
  5
200
100
AcDbSymbolTableRecord
100
AcDbLayerTableRecord
  2
12592
 70
0
 62
7
  6
CONTINUOUS
370
-3
390
F
  0
LAYER
  5
201
100
AcDbSymbolTableRecord
100
AcDbLayerTableRecord
  2
20-285
 70
0
 62
7
  6
CONTINUOUS
370
-3
390
F
  0
LAYER
  5
202
100
AcDbSymbolTableRecord
100
AcDbLayerTableRecord
  2
91641
 70
0
 62
7
  6
CONTINUOUS
370
-3
390
F
  0
LAYER
  5
203
100
AcDbSymbolTableRecord
100
AcDbLayerTableRecord
  2
91696
 70
0
 62
7
  6
CONTINUOUS
370
-3
390
F
  0
LAYER
  5
204
100
AcDbSymbolTableRecord
100
AcDbLayerTableRecord
  2
91698
 70
0
 62
7
  6
CONTINUOUS
370
-3
390
F
  0
LAYER
  5
205
100
AcDbSymbolTableRecord
100
AcDbLayerTableRecord
  2
91699
 70
0
 62
7
  6
CONTINUOUS
370
-3
390
F
  0
LAYER
  5
206
100
AcDbSymbolTableRecord
100
AcDbLayerTableRecord
  2
91705
 70
0
 62
7
  6
CONTINUOUS
370
-3
390
F
  0
LAYER
  5
207
100
AcDbSymbolTableRecord
100
AcDbLayerTableRecord
  2
92858
 70
0
 62
7
  6
CONTINUOUS
370
-3
390
F
  0
LAYER
  5
208
100
AcDbSymbolTableRecord
100
AcDbLayerTableRecord
  2
DEFAULT_COORDINATE_SYSTEM
 70
0
 62
7
  6
CONTINUOUS
370
-3
390
F
  0
LAYER
  5
209
100
AcDbSymbolTableRecord
100
AcDbLayerTableRecord
  2
DEFAULT_DATUM_AXES
 70
0
 62
7
  6
CONTINUOUS
370
-3
390
F
  0
LAYER
  5
20A
100
AcDbSymbolTableRecord
100
AcDbLayerTableRecord
  2
DEFAULT_DATUM_PLANES
 70
0
 62
7
  6
CONTINUOUS
370
-3
390
F
  0
LAYER
  5
20B
100
AcDbSymbolTableRecord
100
AcDbLayerTableRecord
  2
INTF_11
 70
0
 62
7
  6
CONTINUOUS
370
-3
390
F
  0
LAYER
  5
20C
100
AcDbSymbolTableRecord
100
AcDbLayerTableRecord
  2
INTF_12587
 70
0
 62
7
  6
CONTINUOUS
370
-3
390
F
  0
LAYER
  5
20D
100
AcDbSymbolTableRecord
100
AcDbLayerTableRecord
  2
INTF_12588
 70
0
 62
7
  6
CONTINUOUS
370
-3
390
F
  0
LAYER
  5
20E
100
AcDbSymbolTableRecord
100
AcDbLayerTableRecord
  2
INTF_12592
 70
0
 62
7
  6
CONTINUOUS
370
-3
390
F
  0
LAYER
  5
20F
100
AcDbSymbolTableRecord
100
AcDbLayerTableRecord
  2
INTF_91641
 70
0
 62
7
  6
CONTINUOUS
370
-3
390
F
  0
LAYER
  5
210
100
AcDbSymbolTableRecord
100
AcDbLayerTableRecord
  2
INTF_91696
 70
0
 62
7
  6
CONTINUOUS
370
-3
390
F
  0
LAYER
  5
211
100
AcDbSymbolTableRecord
100
AcDbLayerTableRecord
  2
INTF_91698
 70
0
 62
7
  6
CONTINUOUS
370
-3
390
F
  0
LAYER
  5
212
100
AcDbSymbolTableRecord
100
AcDbLayerTableRecord
  2
INTF_91699
 70
0
 62
7
  6
CONTINUOUS
370
-3
390
F
  0
LAYER
  5
213
100
AcDbSymbolTableRecord
100
AcDbLayerTableRecord
  2
INTF_91705
 70
0
 62
7
  6
CONTINUOUS
370
-3
390
F
  0
LAYER
  5
214
100
AcDbSymbolTableRecord
100
AcDbLayerTableRecord
  2
INTF_92858
 70
0
 62
7
  6
CONTINUOUS
370
-3
390
F
  0
LAYER
  5
215
100
AcDbSymbolTableRecord
100
AcDbLayerTableRecord
  2
NONE
 70
0
 62
7
  6
CONTINUOUS
370
-3
390
F
  0
LAYER
  5
216
100
AcDbSymbolTableRecord
100
AcDbLayerTableRecord
  2
NONE_1
 70
0
 62
7
  6
CONTINUOUS
370
-3
390
F
  0
LAYER
  5
217
100
AcDbSymbolTableRecord
100
AcDbLayerTableRecord
  2
NONE_10
 70
0
 62
7
  6
CONTINUOUS
370
-3
390
F
  0
LAYER
  5
218
100
AcDbSymbolTableRecord
100
AcDbLayerTableRecord
  2
NONE_11
 70
0
 62
7
  6
CONTINUOUS
370
-3
390
F
  0
LAYER
  5
219
100
AcDbSymbolTableRecord
100
AcDbLayerTableRecord
  2
NONE_12
 70
0
 62
7
  6
CONTINUOUS
370
-3
390
F
  0
LAYER
  5
21A
100
AcDbSymbolTableRecord
100
AcDbLayerTableRecord
  2
NONE_13
 70
0
 62
7
  6
CONTINUOUS
370
-3
390
F
  0
LAYER
  5
21B
100
AcDbSymbolTableRecord
100
AcDbLayerTableRecord
  2
NONE_2
 70
0
 62
7
  6
CONTINUOUS
370
-3
390
F
  0
LAYER
  5
21C
100
AcDbSymbolTableRecord
100
AcDbLayerTableRecord
  2
NONE_3
 70
0
 62
7
  6
CONTINUOUS
370
-3
390
F
  0
LAYER
  5
21D
100
AcDbSymbolTableRecord
100
AcDbLayerTableRecord
  2
NONE_4
 70
0
 62
7
  6
CONTINUOUS
370
-3
390
F
  0
LAYER
  5
21E
100
AcDbSymbolTableRecord
100
AcDbLayerTableRecord
  2
NONE_5
 70
0
 62
7
  6
CONTINUOUS
370
-3
390
F
  0
LAYER
  5
21F
100
AcDbSymbolTableRecord
100
AcDbLayerTableRecord
  2
NONE_6
 70
0
 62
7
  6
CONTINUOUS
370
-3
390
F
  0
LAYER
  5
220
100
AcDbSymbolTableRecord
100
AcDbLayerTableRecord
  2
NONE_7
 70
0
 62
7
  6
CONTINUOUS
370
-3
390
F
  0
LAYER
  5
221
100
AcDbSymbolTableRecord
100
AcDbLayerTableRecord
  2
NONE_8
 70
0
 62
7
  6
CONTINUOUS
370
-3
390
F
  0
LAYER
  5
222
100
AcDbSymbolTableRecord
100
AcDbLayerTableRecord
  2
NONE_9
 70
0
 62
7
  6
CONTINUOUS
370
-3
390
F
  0
LAYER
  5
223
100
AcDbSymbolTableRecord
100
AcDbLayerTableRecord
  2
PRODUCT_27206
 70
0
 62
7
  6
CONTINUOUS
370
-3
390
F
  0
LAYER
  5
224
100
AcDbSymbolTableRecord
100
AcDbLayerTableRecord
  2
PRODUCT_27223
 70
0
 62
7
  6
CONTINUOUS
370
-3
390
F
  0
LAYER
  5
225
100
AcDbSymbolTableRecord
100
AcDbLayerTableRecord
  2
PRODUCT_27240
 70
0
 62
7
  6
CONTINUOUS
370
-3
390
F
  0
LAYER
  5
226
100
AcDbSymbolTableRecord
100
AcDbLayerTableRecord
  2
PRODUCT_27257
 70
0
 62
7
  6
CONTINUOUS
370
-3
390
F
  0
LAYER
  5
227
100
AcDbSymbolTableRecord
100
AcDbLayerTableRecord
  2
PRODUCT_27274
 70
0
 62
7
  6
CONTINUOUS
370
-3
390
F
  0
LAYER
  5
228
100
AcDbSymbolTableRecord
100
AcDbLayerTableRecord
  2
PRODUCT_27291
 70
0
 62
7
  6
CONTINUOUS
370
-3
390
F
  0
ENDTAB
  0
TABLE
  2
STYLE
  5
3
100
AcDbSymbolTable
 70
1
  0
STYLE
  5
11
100
AcDbSymbolTableRecord
100
AcDbTextStyleTableRecord
  2
STANDARD
 70
0
 40
0.0
 41
0.8
 50
0.0
 71
0
 42
0.2
  3
txt
  4

  0
STYLE
  5
229
100
AcDbSymbolTableRecord
100
AcDbTextStyleTableRecord
  2
TEXTSTYLE_1
 70
0
 40
0.0
 41
0.8
 50
0.0
 71
0
 42
0.2
  3
gdt
  4

  0
ENDTAB
  0
TABLE
  2
VIEW
  5
6
100
AcDbSymbolTable
 70
0
  0
ENDTAB
  0
TABLE
  2
UCS
  5
7
100
AcDbSymbolTable
 70
0
  0
ENDTAB
  0
TABLE
  2
APPID
  5
9
100
AcDbSymbolTable
 70
1
  0
APPID
  5
22A
100
AcDbSymbolTableRecord
100
AcDbRegAppTableRecord
  2
ACAD
 70
0
  0
ENDTAB
  0
TABLE
  2
BLOCK_RECORD
  5
1
100
AcDbSymbolTable
 70
0
  0
BLOCK_RECORD
  5
22B
100
AcDbSymbolTableRecord
100
AcDbBlockTableRecord
  2
*Model_Space
  0
BLOCK_RECORD
  5
22C
100
AcDbSymbolTableRecord
100
AcDbBlockTableRecord
  2
*Paper_Space
  0
BLOCK_RECORD
  5
22D
100
AcDbSymbolTableRecord
100
AcDbBlockTableRecord
  2
_FILLED
  0
ENDTAB
  0
TABLE
  2
DIMSTYLE
  5
A
100
AcDbSymbolTable
 70
1
100
AcDbDimStyleTable
 71
0
  0
DIMSTYLE
105
22E
100
AcDbSymbolTableRecord
100
AcDbDimStyleTableRecord
  2
STANDARD
 70
0
  3

  4

 40
1.0
 41
0.1
 42
0.0625
 43
0.38
 44
0.125
 45
0.0
 46
0.0
 47
0.001
 48
0.001
140
0.08
141
0.09
142
0.0
143
25.4
144
1.0
145
0.0
146
1.0
147
0.09
 71
1.0
 72
0.0
 73
1
 74
1
 75
0
 76
0
 77
0
 78
4
 79
1
170
1
171
2
172
0
173
0
174
0
175
0
176
0
177
0
178
0
270
2
179
3
271
3
272
3
273
2
274
2
275
0
280
0
281
0
282
0
283
1
284
4
285
0
286
0
287
3
288
0
340
11
278
46
341
22D
342
22D
343
22D
344
22D
  0
ENDTAB
  0
ENDSEC
  0
SECTION
  2
BLOCKS
  0
BLOCK
  5
20
100
AcDbEntity
  8
0
100
AcDbBlockBegin
  2
*Model_Space
 70
0
 10
0.0
 20
0.0
 30
0.0
  3
*Model_Space
  1

  0
ENDBLK
  5
21
100
AcDbEntity
  8
0
100
AcDbBlockEnd
  0
BLOCK
  5
1C
100
AcDbEntity
  8
0
100
AcDbBlockBegin
  2
*Paper_Space
 70
0
 10
0.0
 20
0.0
 30
0.0
  3
*Paper_Space
  1

  0
ENDBLK
  5
1D
100
AcDbEntity
  8
0
100
AcDbBlockEnd
  0
BLOCK
  5
22F
100
AcDbEntity
  8
0
100
AcDbBlockBegin
  2
_FILLED
 70
64
 10
0.0
 20
0.0
  3
_FILLED
  1

  0
SOLID
  5
230
100
AcDbEntity
  8
0
  6
BYBLOCK
 62
0
100
AcDbTrace
 10
0.0
 20
0.0
 11
-1.0
 21
0.2
 12
-1.0
 22
-0.2
 13
-1.0
 23
-0.2
  0
ENDBLK
  5
231
100
AcDbEntity
  8
0
  6
BYBLOCK
 62
0
100
AcDbBlockEnd
  0
ENDSEC
  0
SECTION
  2
ENTITIES
  0
MTEXT
  5
232
100
AcDbEntity
  8
0
100
AcDbMText
 62
7
  6
CONTINUOUS
  7
STANDARD
 71
1
 72
1
 10
9.5324437112
 20
0.332498059
 30
0.0
 11
1.0
 21
0.0
 31
0.0
 73
2
 44
0.9
  1
SCALE: 1.18
 40
0.08
 41
0.704
  0
LINE
  5
233
100
AcDbEntity
  8
0
100
AcDbLine
 62
7
  6
CONTINUOUS
 10
0.0
 20
0.0
 11
0.0
 21
8.5
  0
LINE
  5
234
100
AcDbEntity
  8
0
100
AcDbLine
 62
7
  6
CONTINUOUS
 10
0.0
 20
0.0
 11
11.0
 21
0.0
  0
LINE
  5
235
100
AcDbEntity
  8
0
100
AcDbLine
 62
7
  6
CONTINUOUS
 10
0.0
 20
8.5
 11
11.0
 21
8.5
  0
LINE
  5
236
100
AcDbEntity
  8
0
100
AcDbLine
 62
7
  6
CONTINUOUS
 10
11.0
 20
0.0
 11
11.0
 21
8.5
  0
LINE
  5
237
100
AcDbEntity
  8
0
100
AcDbLine
 62
7
  6
CONTINUOUS
 10
6.1839572005
 20
0.0613168346
 11
4.7122772715
 21
0.0613168346
  0
LINE
  5
238
100
AcDbEntity
  8
0
100
AcDbLine
 62
7
  6
CONTINUOUS
 10
4.7284020298
 20
8.0999898808
 11
4.7271181274
 21
8.0979885036
  0
LINE
  5
239
100
AcDbEntity
  8
0
100
AcDbLine
 62
7
  6
CONTINUOUS
 10
4.5770542439
 20
6.2399177986
 11
4.5774810638
 21
6.2401949295
  0
LINE
  5
23A
100
AcDbEntity
  8
0
100
AcDbLine
 62
7
  6
CONTINUOUS
 10
4.5770542439
 20
6.1818469325
 11
4.5774810626
 21
6.1821240629
  0
LINE
  5
23B
100
AcDbEntity
  8
0
100
AcDbLine
 62
7
  6
CONTINUOUS
 10
4.5770542439
 20
6.1237760663
 11
4.5774810626
 21
6.1240531968
  0
LINE
  5
23C
100
AcDbEntity
  8
0
100
AcDbLine
 62
7
  6
CONTINUOUS
 10
4.6100131532
 20
6.250990339
 11
4.5774810623
 21
6.2401996534
  0
LINE
  5
23D
100
AcDbEntity
  8
0
100
AcDbLine
 62
7
  6
CONTINUOUS
 10
4.6100131532
 20
6.1929194725
 11
4.5774810611
 21
6.1821287865
  0
LINE
  5
23E
100
AcDbEntity
  8
0
100
AcDbLine
 62
7
  6
CONTINUOUS
 10
4.6100131532
 20
6.1348486063
 11
4.5774810611
 21
6.1240579203
  0
LINE
  5
23F
100
AcDbEntity
  8
0
100
AcDbLine
 62
7
  6
CONTINUOUS
 10
4.6100131532
 20
6.0767777402
 11
4.5774810611
 21
6.0659870542
  0
LINE
  5
240
100
AcDbEntity
  8
0
100
AcDbLine
 62
7
  6
CONTINUOUS
 10
4.5424440077
 20
6.0387113335
 11
4.209117236
 21
5.6345381051
  0
LINE
  5
241
100
AcDbEntity
  8
0
100
AcDbLine
 62
7
  6
CONTINUOUS
 10
4.5770542439
 20
5.4849965388
 11
4.5774810626
 21
5.4852736692
  0
LINE
  5
242
100
AcDbEntity
  8
0
100
AcDbLine
 62
7
  6
CONTINUOUS
 10
4.5770542439
 20
5.4269256726
 11
4.5774810626
 21
5.4272028031
  0
LINE
  5
243
100
AcDbEntity
  8
0
100
AcDbLine
 62
7
  6
CONTINUOUS
 10
4.5770542439
 20
5.3688548065
 11
4.5774810626
 21
5.3691319369
  0
LINE
  5
244
100
AcDbEntity
  8
0
100
AcDbLine
 62
7
  6
CONTINUOUS
 10
5.9601130909
 20
6.3068029997
 11
5.940998579
 21
6.2948886342
  0
LINE
  5
245
100
AcDbEntity
  8
0
100
AcDbLine
 62
7
  6
CONTINUOUS
 10
6.2863007857
 20
6.2452281389
 11
6.3188305448
 21
6.2571511199
  0
LINE
  5
246
100
AcDbEntity
  8
0
100
AcDbLine
 62
7
  6
CONTINUOUS
 10
6.2863007857
 20
6.1871572727
 11
6.3188305448
 21
6.1990802537
  0
LINE
  5
247
100
AcDbEntity
  8
0
100
AcDbLine
 62
7
  6
CONTINUOUS
 10
6.2863007857
 20
6.1290864066
 11
6.3188305448
 21
6.1410093876
  0
LINE
  5
248
100
AcDbEntity
  8
0
100
AcDbLine
 62
7
  6
CONTINUOUS
 10
6.2863007857
 20
6.0710155404
 11
6.3188305448
 21
6.0829385214
  0
LINE
  5
249
100
AcDbEntity
  8
0
100
AcDbLine
 62
7
  6
CONTINUOUS
 10
4.6100131532
 20
5.4960690788
 11
4.5774810611
 21
5.4852783928
  0
LINE
  5
24A
100
AcDbEntity
  8
0
100
AcDbLine
 62
7
  6
CONTINUOUS
 10
4.6100131532
 20
5.4379982126
 11
4.5774810611
 21
5.4272075266
  0
LINE
  5
24B
100
AcDbEntity
  8
0
100
AcDbLine
 62
7
  6
CONTINUOUS
 10
4.0544164486
 20
7.6832633477
 11
4.0544164486
 21
7.6736568851
  0
LINE
  5
24C
100
AcDbEntity
  8
0
100
AcDbLine
 62
7
  6
CONTINUOUS
 10
4.1937865274
 20
7.2034175689
 11
4.1937865274
 21
7.1105041831
  0
LINE
  5
24D
100
AcDbEntity
  8
0
100
AcDbLine
 62
7
  6
CONTINUOUS
 10
4.209117236
 20
5.6345381051
 11
4.209117236
 21
5.5276877114
  0
LINE
  5
24E
100
AcDbEntity
  8
0
100
AcDbLine
 62
7
  6
CONTINUOUS
 10
4.2332747163
 20
5.3414049935
 11
4.2332747163
 21
5.285656962
  0
LINE
  5
24F
100
AcDbEntity
  8
0
100
AcDbLine
 62
7
  6
CONTINUOUS
 10
4.2518573935
 20
5.0600025829
 11
4.2518573935
 21
5.092522268
  0
LINE
  5
250
100
AcDbEntity
  8
0
100
AcDbLine
 62
7
  6
CONTINUOUS
 10
6.3191802282
 20
6.2574062388
 11
6.3188305435
 21
6.2571554406
  0
LINE
  5
251
100
AcDbEntity
  8
0
100
AcDbLine
 62
7
  6
CONTINUOUS
 10
4.5770542439
 20
5.2527130742
 11
4.5774810626
 21
5.2529902047
  0
LINE
  5
252
100
AcDbEntity
  8
0
100
AcDbLine
 62
7
  6
CONTINUOUS
 10
4.5770542439
 20
5.1946422081
 11
4.5774810626
 21
5.1949193385
  0
LINE
  5
253
100
AcDbEntity
  8
0
100
AcDbLine
 62
7
  6
CONTINUOUS
 10
4.5770542439
 20
5.1365713419
 11
4.5774810626
 21
5.1368484724
  0
LINE
  5
254
100
AcDbEntity
  8
0
100
AcDbLine
 62
7
  6
CONTINUOUS
 10
4.6100131532
 20
5.3799273465
 11
4.5774810611
 21
5.3691366605
  0
LINE
  5
255
100
AcDbEntity
  8
0
100
AcDbLine
 62
7
  6
CONTINUOUS
 10
4.6100131532
 20
5.2637856142
 11
4.5774810611
 21
5.2529949282
  0
LINE
  5
256
100
AcDbEntity
  8
0
100
AcDbLine
 62
7
  6
CONTINUOUS
 10
4.6100131532
 20
5.205714748
 11
4.5774810611
 21
5.1949240621
  0
LINE
  5
257
100
AcDbEntity
  8
0
100
AcDbLine
 62
7
  6
CONTINUOUS
 10
4.6100131532
 20
5.1476438819
 11
4.5774810611
 21
5.1368531959
  0
LINE
  5
258
100
AcDbEntity
  8
0
100
AcDbLine
 62
7
  6
CONTINUOUS
 10
4.360246448
 20
4.8277191183
 11
4.360246448
 21
5.0089002207
  0
LINE
  5
259
100
AcDbEntity
  8
0
100
AcDbLine
 62
9
  6
CONTINUOUS
 10
4.3660658612
 20
5.0089002207
 11
4.3660658612
 21
4.8277191184
  0
LINE
  5
25A
100
AcDbEntity
  8
0
100
AcDbLine
 62
7
  6
CONTINUOUS
 10
4.5770542439
 20
4.602386731
 11
4.5770542439
 21
4.6139333693
  0
LINE
  5
25B
100
AcDbEntity
  8
0
100
AcDbLine
 62
7
  6
CONTINUOUS
 10
4.5770542439
 20
4.6604575971
 11
4.5770542439
 21
4.6720042354
  0
LINE
  5
25C
100
AcDbEntity
  8
0
100
AcDbLine
 62
7
  6
CONTINUOUS
 10
4.5770542439
 20
4.7185284632
 11
4.5770542439
 21
4.7300751016
  0
LINE
  5
25D
100
AcDbEntity
  8
0
100
AcDbLine
 62
7
  6
CONTINUOUS
 10
4.5770542439
 20
4.7765993294
 11
4.5770542439
 21
4.7881459677
  0
LINE
  5
25E
100
AcDbEntity
  8
0
100
AcDbLine
 62
7
  6
CONTINUOUS
 10
4.5770542439
 20
5.1250245262
 11
4.5770542439
 21
5.1365711646
  0
LINE
  5
25F
100
AcDbEntity
  8
0
100
AcDbLine
 62
7
  6
CONTINUOUS
 10
4.5770542439
 20
5.1830953924
 11
4.5770542439
 21
5.1946420307
  0
LINE
  5
260
100
AcDbEntity
  8
0
100
AcDbLine
 62
7
  6
CONTINUOUS
 10
4.5770542439
 20
5.2411662585
 11
4.5770542439
 21
5.2527128968
  0
LINE
  5
261
100
AcDbEntity
  8
0
100
AcDbLine
 62
7
  6
CONTINUOUS
 10
4.5770542439
 20
5.3573079908
 11
4.5770542439
 21
5.3688546291
  0
LINE
  5
262
100
AcDbEntity
  8
0
100
AcDbLine
 62
7
  6
CONTINUOUS
 10
4.5770542439
 20
5.4153788569
 11
4.5770542439
 21
5.4269254953
  0
LINE
  5
263
100
AcDbEntity
  8
0
100
AcDbLine
 62
7
  6
CONTINUOUS
 10
4.5770542439
 20
5.4734497231
 11
4.5770542439
 21
5.4849963614
  0
LINE
  5
264
100
AcDbEntity
  8
0
100
AcDbLine
 62
7
  6
CONTINUOUS
 10
4.5770542439
 20
6.0541583845
 11
4.5770542439
 21
6.0657050228
  0
LINE
  5
265
100
AcDbEntity
  8
0
100
AcDbLine
 62
7
  6
CONTINUOUS
 10
4.5770542439
 20
6.1122292506
 11
4.5770542439
 21
6.123775889
  0
LINE
  5
266
100
AcDbEntity
  8
0
100
AcDbLine
 62
7
  6
CONTINUOUS
 10
4.5770542439
 20
6.1703001168
 11
4.5770542439
 21
6.1818467551
  0
LINE
  5
267
100
AcDbEntity
  8
0
100
AcDbLine
 62
7
  6
CONTINUOUS
 10
4.5770542439
 20
6.2283709829
 11
4.5770542439
 21
6.2399176213
  0
LINE
  5
268
100
AcDbEntity
  8
0
100
AcDbLine
 62
7
  6
CONTINUOUS
 10
4.5770542439
 20
6.2864418491
 11
4.5770542439
 21
7.1105041831
  0
LINE
  5
269
100
AcDbEntity
  8
0
100
AcDbLine
 62
7
  6
CONTINUOUS
 10
4.5770542439
 20
7.2034175689
 11
4.5770542439
 21
7.4288968275
  0
LINE
  5
26A
100
AcDbEntity
  8
0
100
AcDbLine
 62
7
  6
CONTINUOUS
 10
4.6095739289
 20
6.2745274842
 11
4.6095739289
 21
6.2506987531
  0
LINE
  5
26B
100
AcDbEntity
  8
0
100
AcDbLine
 62
7
  6
CONTINUOUS
 10
4.6095739289
 20
6.2164566177
 11
4.6095739289
 21
6.1926278867
  0
LINE
  5
26C
100
AcDbEntity
  8
0
100
AcDbLine
 62
7
  6
CONTINUOUS
 10
4.6095739289
 20
6.1583857516
 11
4.6095739289
 21
6.1345570205
  0
LINE
  5
26D
100
AcDbEntity
  8
0
100
AcDbLine
 62
7
  6
CONTINUOUS
 10
4.6095739289
 20
6.1003148854
 11
4.6095739289
 21
6.0764861544
  0
LINE
  5
26E
100
AcDbEntity
  8
0
100
AcDbLine
 62
7
  6
CONTINUOUS
 10
4.6095739289
 20
6.0422440193
 11
4.6095739289
 21
6.0387113335
  0
LINE
  5
26F
100
AcDbEntity
  8
0
100
AcDbLine
 62
7
  6
CONTINUOUS
 10
4.6095739289
 20
5.519606224
 11
4.6095739289
 21
5.495777493
  0
LINE
  5
270
100
AcDbEntity
  8
0
100
AcDbLine
 62
7
  6
CONTINUOUS
 10
4.6095739289
 20
5.4615353579
 11
4.6095739289
 21
5.4377066268
  0
LINE
  5
271
100
AcDbEntity
  8
0
100
AcDbLine
 62
7
  6
CONTINUOUS
 10
4.6095739289
 20
5.4034644917
 11
4.6095739289
 21
5.3796357607
  0
LINE
  5
272
100
AcDbEntity
  8
0
100
AcDbLine
 62
7
  6
CONTINUOUS
 10
4.6095739289
 20
5.3453936256
 11
4.6095739289
 21
5.3414049935
  0
LINE
  5
273
100
AcDbEntity
  8
0
100
AcDbLine
 62
7
  6
CONTINUOUS
 10
4.6095739289
 20
5.285656962
 11
4.6095739289
 21
5.2634940284
  0
LINE
  5
274
100
AcDbEntity
  8
0
100
AcDbLine
 62
7
  6
CONTINUOUS
 10
4.6095739289
 20
5.2292518933
 11
4.6095739289
 21
5.2054231623
  0
LINE
  5
275
100
AcDbEntity
  8
0
100
AcDbLine
 62
7
  6
CONTINUOUS
 10
4.6095739289
 20
5.1711810271
 11
4.6095739289
 21
5.1473522961
  0
LINE
  5
276
100
AcDbEntity
  8
0
100
AcDbLine
 62
7
  6
CONTINUOUS
 10
4.6095739289
 20
4.8044907719
 11
4.6095739289
 21
4.7989270993
  0
LINE
  5
277
100
AcDbEntity
  8
0
100
AcDbLine
 62
7
  6
CONTINUOUS
 10
4.6095739289
 20
4.7646849642
 11
4.6095739289
 21
4.7408562331
  0
LINE
  5
278
100
AcDbEntity
  8
0
100
AcDbLine
 62
7
  6
CONTINUOUS
 10
4.6095739289
 20
4.706614098
 11
4.6095739289
 21
4.682785367
  0
LINE
  5
279
100
AcDbEntity
  8
0
100
AcDbLine
 62
7
  6
CONTINUOUS
 10
4.6095739289
 20
4.6485432319
 11
4.6095739289
 21
4.6247145008
  0
LINE
  5
27A
100
AcDbEntity
  8
0
100
AcDbLine
 62
7
  6
CONTINUOUS
 10
4.6095739289
 20
4.590472363
 11
4.6095739289
 21
4.5666436319
  0
LINE
  5
27B
100
AcDbEntity
  8
0
100
AcDbLine
 62
7
  6
CONTINUOUS
 10
4.5988576159
 20
4.5630945649
 11
4.599074157
 21
4.5633099374
  0
LINE
  5
27C
100
AcDbEntity
  8
0
100
AcDbLine
 62
7
  6
CONTINUOUS
 10
6.3191802282
 20
6.1993353727
 11
6.3188305435
 21
6.1990845744
  0
LINE
  5
27D
100
AcDbEntity
  8
0
100
AcDbLine
 62
7
  6
CONTINUOUS
 10
6.3191802282
 20
6.1412645065
 11
6.3188305435
 21
6.1410137083
  0
LINE
  5
27E
100
AcDbEntity
  8
0
100
AcDbLine
 62
7
  6
CONTINUOUS
 10
6.3191802282
 20
6.0831936404
 11
6.3188305435
 21
6.0829428422
  0
LINE
  5
27F
100
AcDbEntity
  8
0
100
AcDbLine
 62
7
  6
CONTINUOUS
 10
4.5770542439
 20
4.7881461451
 11
4.5774810626
 21
4.7884232755
  0
LINE
  5
280
100
AcDbEntity
  8
0
100
AcDbLine
 62
7
  6
CONTINUOUS
 10
4.5770542439
 20
4.7300752789
 11
4.5774810626
 21
4.7303524094
  0
LINE
  5
281
100
AcDbEntity
  8
0
100
AcDbLine
 62
7
  6
CONTINUOUS
 10
4.5770542439
 20
4.6720044128
 11
4.5774810626
 21
4.6722815432
  0
LINE
  5
282
100
AcDbEntity
  8
0
100
AcDbLine
 62
7
  6
CONTINUOUS
 10
6.2863007857
 20
5.490306879
 11
6.3188305448
 21
5.50222986
  0
LINE
  5
283
100
AcDbEntity
  8
0
100
AcDbLine
 62
7
  6
CONTINUOUS
 10
6.2863007857
 20
5.4322360129
 11
6.3188305448
 21
5.4441589939
  0
LINE
  5
284
100
AcDbEntity
  8
0
100
AcDbLine
 62
7
  6
CONTINUOUS
 10
4.6100131532
 20
4.7992186851
 11
4.5774810611
 21
4.7884279991
  0
LINE
  5
285
100
AcDbEntity
  8
0
100
AcDbLine
 62
7
  6
CONTINUOUS
 10
4.63512511
 20
7.9260987398
 11
4.63512511
 21
7.9725554328
  0
LINE
  5
286
100
AcDbEntity
  8
0
100
AcDbLine
 62
7
  6
CONTINUOUS
 10
4.6362840351
 20
8.167673543
 11
4.6362840351
 21
8.2025160627
  0
LINE
  5
287
100
AcDbEntity
  8
0
100
AcDbLine
 62
7
  6
CONTINUOUS
 10
4.7122432203
 20
0.0613168346
 11
4.7122432203
 21
4.5616695905
  0
LINE
  5
288
100
AcDbEntity
  8
0
100
AcDbLine
 62
7
  6
CONTINUOUS
 10
4.7284020298
 20
7.9725554328
 11
4.7284020298
 21
8.0628092485
  0
LINE
  5
289
100
AcDbEntity
  8
0
100
AcDbLine
 62
7
  6
CONTINUOUS
 10
4.7284020298
 20
8.0999898808
 11
4.7284020298
 21
8.167673543
  0
LINE
  5
28A
100
AcDbEntity
  8
0
100
AcDbLine
 62
7
  6
CONTINUOUS
 10
6.1678324423
 20
8.0628092485
 11
6.1706232079
 21
8.0701144879
  0
LINE
  5
28B
100
AcDbEntity
  8
0
100
AcDbLine
 62
7
  6
CONTINUOUS
 10
4.5770542439
 20
4.613937666
 11
4.5774810604
 21
4.6142174112
  0
LINE
  5
28C
100
AcDbEntity
  8
0
100
AcDbLine
 62
7
  6
CONTINUOUS
 10
6.2863007857
 20
5.3741651467
 11
6.3188305448
 21
5.3860881277
  0
LINE
  5
28D
100
AcDbEntity
  8
0
100
AcDbLine
 62
7
  6
CONTINUOUS
 10
6.2863007857
 20
5.2580234145
 11
6.3188305448
 21
5.2699463955
  0
LINE
  5
28E
100
AcDbEntity
  8
0
100
AcDbLine
 62
7
  6
CONTINUOUS
 10
6.2863007857
 20
5.1999525483
 11
6.3188305448
 21
5.2118755293
  0
LINE
  5
28F
100
AcDbEntity
  8
0
100
AcDbLine
 62
7
  6
CONTINUOUS
 10
6.2863007857
 20
5.1418816822
 11
6.3188305448
 21
5.1538046632
  0
LINE
  5
290
100
AcDbEntity
  8
0
100
AcDbLine
 62
7
  6
CONTINUOUS
 10
4.6100131532
 20
4.7411478189
 11
4.5774810611
 21
4.7303571329
  0
LINE
  5
291
100
AcDbEntity
  8
0
100
AcDbLine
 62
7
  6
CONTINUOUS
 10
4.6100131532
 20
4.6830769528
 11
4.5774810611
 21
4.6722862668
  0
LINE
  5
292
100
AcDbEntity
  8
0
100
AcDbLine
 62
7
  6
CONTINUOUS
 10
4.6100131532
 20
4.6250060866
 11
4.5774810611
 21
4.6142154007
  0
LINE
  5
293
100
AcDbEntity
  8
0
100
AcDbLine
 62
7
  6
CONTINUOUS
 10
4.6100075185
 20
4.5669312233
 11
4.59907812
 21
4.5633059744
  0
LINE
  5
294
100
AcDbEntity
  8
0
100
AcDbLine
 62
7
  6
CONTINUOUS
 10
5.0392983384
 20
7.7064916942
 11
5.0392983384
 21
7.9260987398
  0
LINE
  5
295
100
AcDbEntity
  8
0
100
AcDbLine
 62
9
  6
CONTINUOUS
 10
5.0852271539
 20
4.8277191184
 11
5.0852271539
 21
5.0089002207
  0
LINE
  5
296
100
AcDbEntity
  8
0
100
AcDbLine
 62
9
  6
CONTINUOUS
 10
5.1072494222
 20
5.0089002207
 11
5.1072494222
 21
4.8277191183
  0
LINE
  5
297
100
AcDbEntity
  8
0
100
AcDbLine
 62
7
  6
CONTINUOUS
 10
6.3191802282
 20
5.4444141128
 11
6.3188305435
 21
5.4441633146
  0
LINE
  5
298
100
AcDbEntity
  8
0
100
AcDbLine
 62
7
  6
CONTINUOUS
 10
6.3191802282
 20
5.3863432467
 11
6.3188305435
 21
5.3860924485
  0
LINE
  5
299
100
AcDbEntity
  8
0
100
AcDbLine
 62
7
  6
CONTINUOUS
 10
6.3191802282
 20
5.2702015144
 11
6.3188305435
 21
5.2699507162
  0
LINE
  5
29A
100
AcDbEntity
  8
0
100
AcDbLine
 62
7
  6
CONTINUOUS
 10
6.3191802282
 20
5.2121306482
 11
6.3188305435
 21
5.21187985
  0
LINE
  5
29B
100
AcDbEntity
  8
0
100
AcDbLine
 62
7
  6
CONTINUOUS
 10
6.3191802282
 20
5.1540597821
 11
6.3188305435
 21
5.1538089839
  0
LINE
  5
29C
100
AcDbEntity
  8
0
100
AcDbLine
 62
7
  6
CONTINUOUS
 10
6.2863007857
 20
4.7934564853
 11
6.3164058677
 21
4.8044907719
  0
LINE
  5
29D
100
AcDbEntity
  8
0
100
AcDbLine
 62
7
  6
CONTINUOUS
 10
4.6002825904
 20
4.5616695905
 11
4.5988603725
 21
4.5630918084
  0
LINE
  5
29E
100
AcDbEntity
  8
0
100
AcDbLine
 62
7
  6
CONTINUOUS
 10
6.2863007857
 20
4.7353856192
 11
6.3188305448
 21
4.7473086002
  0
LINE
  5
29F
100
AcDbEntity
  8
0
100
AcDbLine
 62
7
  6
CONTINUOUS
 10
6.2863007857
 20
4.677314753
 11
6.3188305448
 21
4.689237734
  0
LINE
  5
2A0
100
AcDbEntity
  8
0
100
AcDbLine
 62
7
  6
CONTINUOUS
 10
6.2863007857
 20
4.6192438869
 11
6.3188305448
 21
4.6311668679
  0
LINE
  5
2A1
100
AcDbEntity
  8
0
100
AcDbLine
 62
7
  6
CONTINUOUS
 10
4.5770542439
 20
4.6023865538
 11
4.5774039375
 21
4.6021357523
  0
LINE
  5
2A2
100
AcDbEntity
  8
0
100
AcDbLine
 62
7
  6
CONTINUOUS
 10
4.5770542439
 20
4.6604574199
 11
4.5774039285
 21
4.6602066217
  0
LINE
  5
2A3
100
AcDbEntity
  8
0
100
AcDbLine
 62
7
  6
CONTINUOUS
 10
4.5770542439
 20
4.718528286
 11
4.5774039285
 21
4.7182774878
  0
LINE
  5
2A4
100
AcDbEntity
  8
0
100
AcDbLine
 62
7
  6
CONTINUOUS
 10
4.5770542439
 20
4.7765991522
 11
4.5774039285
 21
4.776348354
  0
LINE
  5
2A5
100
AcDbEntity
  8
0
100
AcDbLine
 62
7
  6
CONTINUOUS
 10
6.3191802282
 20
4.7475637191
 11
6.3188305435
 21
4.7473129209
  0
LINE
  5
2A6
100
AcDbEntity
  8
0
100
AcDbLine
 62
7
  6
CONTINUOUS
 10
6.3191802282
 20
4.689492853
 11
6.3188305435
 21
4.6892420548
  0
LINE
  5
2A7
100
AcDbEntity
  8
0
100
AcDbLine
 62
7
  6
CONTINUOUS
 10
6.3191802282
 20
4.6314219868
 11
6.3188305435
 21
4.6311711886
  0
LINE
  5
2A8
100
AcDbEntity
  8
0
100
AcDbLine
 62
7
  6
CONTINUOUS
 10
4.5774039362
 20
4.6021314286
 11
4.6099336865
 21
4.5902084509
  0
LINE
  5
2A9
100
AcDbEntity
  8
0
100
AcDbLine
 62
7
  6
CONTINUOUS
 10
4.5774039273
 20
4.660202301
 11
4.6099336864
 21
4.64827932
  0
LINE
  5
2AA
100
AcDbEntity
  8
0
100
AcDbLine
 62
7
  6
CONTINUOUS
 10
4.5774039273
 20
4.7182731671
 11
4.6099336864
 21
4.7063501861
  0
LINE
  5
2AB
100
AcDbEntity
  8
0
100
AcDbLine
 62
7
  6
CONTINUOUS
 10
4.5774039273
 20
4.7763440333
 11
4.6099336864
 21
4.7644210523
  0
LINE
  5
2AC
100
AcDbEntity
  8
0
100
AcDbLine
 62
7
  6
CONTINUOUS
 10
4.5770542439
 20
5.125024349
 11
4.5774039285
 21
5.1247735508
  0
LINE
  5
2AD
100
AcDbEntity
  8
0
100
AcDbLine
 62
7
  6
CONTINUOUS
 10
4.5770542439
 20
5.1830952152
 11
4.5774039285
 21
5.182844417
  0
LINE
  5
2AE
100
AcDbEntity
  8
0
100
AcDbLine
 62
7
  6
CONTINUOUS
 10
5.8569361337
 20
7.7064916942
 11
5.8569361337
 21
7.9260987398
  0
LINE
  5
2AF
100
AcDbEntity
  8
0
100
AcDbLine
 62
7
  6
CONTINUOUS
 10
5.940998579
 20
6.2948886342
 11
5.9409985474
 21
6.2710599028
  0
LINE
  5
2B0
100
AcDbEntity
  8
0
100
AcDbLine
 62
7
  6
CONTINUOUS
 10
5.9601130292
 20
6.2602787716
 11
5.9601130909
 21
6.3068029997
  0
LINE
  5
2B1
100
AcDbEntity
  8
0
100
AcDbLine
 62
7
  6
CONTINUOUS
 10
6.2959518817
 20
4.5616695905
 11
6.3191802276
 21
4.5848979364
  0
LINE
  5
2B2
100
AcDbEntity
  8
0
100
AcDbLine
 62
7
  6
CONTINUOUS
 10
4.6093073976
 20
4.5642136113
 11
4.6096209451
 21
4.564229728
  0
LINE
  5
2B3
100
AcDbEntity
  8
0
100
AcDbLine
 62
7
  6
CONTINUOUS
 10
4.6093073976
 20
4.5642136113
 11
4.6096795567
 21
4.5642298974
  0
LINE
  5
2B4
100
AcDbEntity
  8
0
100
AcDbLine
 62
7
  6
CONTINUOUS
 10
6.1417553589
 20
4.6139653678
 11
6.1427555124
 21
4.6139779931
  0
LINE
  5
2B5
100
AcDbEntity
  8
0
100
AcDbLine
 62
7
  6
CONTINUOUS
 10
4.7616779309
 20
4.6666139432
 11
4.7604913393
 21
4.6665926425
  0
LINE
  5
2B6
100
AcDbEntity
  8
0
100
AcDbLine
 62
7
  6
CONTINUOUS
 10
4.8022386681
 20
4.6672731264
 11
4.8007555479
 21
4.6672502768
  0
LINE
  5
2B7
100
AcDbEntity
  8
0
100
AcDbLine
 62
7
  6
CONTINUOUS
 10
6.2959339504
 20
4.5616695905
 11
4.6002860727
 21
4.5616695905
  0
LINE
  5
2B8
100
AcDbEntity
  8
0
100
AcDbLine
 62
7
  6
CONTINUOUS
 10
6.5127596776
 20
4.8044907719
 11
4.3834747944
 21
4.8044907719
  0
LINE
  5
2B9
100
AcDbEntity
  8
0
100
AcDbLine
 62
7
  6
CONTINUOUS
 10
4.5774039273
 20
5.1247692301
 11
4.5893348587
 21
5.1203962837
  0
LINE
  5
2BA
100
AcDbEntity
  8
0
100
AcDbLine
 62
7
  6
CONTINUOUS
 10
4.5770542439
 20
5.2411660813
 11
4.5774039285
 21
5.2409152831
  0
LINE
  5
2BB
100
AcDbEntity
  8
0
100
AcDbLine
 62
7
  6
CONTINUOUS
 10
4.5770542439
 20
5.3573078136
 11
4.5774039285
 21
5.3570570154
  0
LINE
  5
2BC
100
AcDbEntity
  8
0
100
AcDbLine
 62
7
  6
CONTINUOUS
 10
4.5770542439
 20
5.4153786797
 11
4.5774039285
 21
5.4151278815
  0
LINE
  5
2BD
100
AcDbEntity
  8
0
100
AcDbLine
 62
7
  6
CONTINUOUS
 10
4.5770542439
 20
5.4734495459
 11
4.5774039285
 21
5.4731987477
  0
LINE
  5
2BE
100
AcDbEntity
  8
0
100
AcDbLine
 62
7
  6
CONTINUOUS
 10
6.1678324423
 20
7.9725554328
 11
6.1678324423
 21
8.0628092485
  0
LINE
  5
2BF
100
AcDbEntity
  8
0
100
AcDbLine
 62
7
  6
CONTINUOUS
 10
6.1678324423
 20
8.0999898808
 11
6.1678324423
 21
8.167673543
  0
LINE
  5
2C0
100
AcDbEntity
  8
0
100
AcDbLine
 62
9
  6
CONTINUOUS
 10
6.1718918638
 20
4.8277191183
 11
6.1718918638
 21
5.0089002207
  0
LINE
  5
2C1
100
AcDbEntity
  8
0
100
AcDbLine
 62
7
  6
CONTINUOUS
 10
6.1839912518
 20
0.0613168346
 11
6.1839912518
 21
4.5616695905
  0
LINE
  5
2C2
100
AcDbEntity
  8
0
100
AcDbLine
 62
9
  6
CONTINUOUS
 10
6.189300797
 20
5.0089002207
 11
6.189300797
 21
4.8277191184
  0
LINE
  5
2C3
100
AcDbEntity
  8
0
100
AcDbLine
 62
7
  6
CONTINUOUS
 10
6.259950437
 20
8.167673543
 11
6.259950437
 21
8.2025160627
  0
LINE
  5
2C4
100
AcDbEntity
  8
0
100
AcDbLine
 62
7
  6
CONTINUOUS
 10
6.261109362
 20
7.9260987398
 11
6.261109362
 21
7.9725554328
  0
LINE
  5
2C5
100
AcDbEntity
  8
0
100
AcDbLine
 62
7
  6
CONTINUOUS
 10
6.2866605431
 20
4.5956790678
 11
6.2866605431
 21
4.6195077988
  0
LINE
  5
2C6
100
AcDbEntity
  8
0
100
AcDbLine
 62
7
  6
CONTINUOUS
 10
6.2866605431
 20
4.6537499339
 11
6.2866605431
 21
4.6775786649
  0
LINE
  5
2C7
100
AcDbEntity
  8
0
100
AcDbLine
 62
7
  6
CONTINUOUS
 10
6.2866605431
 20
4.7118208001
 11
6.2866605431
 21
4.7356495311
  0
LINE
  5
2C8
100
AcDbEntity
  8
0
100
AcDbLine
 62
7
  6
CONTINUOUS
 10
6.2866605431
 20
4.7698916662
 11
6.2866605431
 21
4.7937203972
  0
LINE
  5
2C9
100
AcDbEntity
  8
0
100
AcDbLine
 62
7
  6
CONTINUOUS
 10
6.2866605431
 20
5.1203962837
 11
6.2866605431
 21
5.1421455941
  0
LINE
  5
2CA
100
AcDbEntity
  8
0
100
AcDbLine
 62
7
  6
CONTINUOUS
 10
6.2866605431
 20
5.1763877292
 11
6.2866605431
 21
5.2002164602
  0
LINE
  5
2CB
100
AcDbEntity
  8
0
100
AcDbLine
 62
7
  6
CONTINUOUS
 10
6.2866605431
 20
5.2344585953
 11
6.2866605431
 21
5.2582873264
  0
LINE
  5
2CC
100
AcDbEntity
  8
0
100
AcDbLine
 62
7
  6
CONTINUOUS
 10
6.2866605431
 20
5.3506003276
 11
6.2866605431
 21
5.3744290586
  0
LINE
  5
2CD
100
AcDbEntity
  8
0
100
AcDbLine
 62
7
  6
CONTINUOUS
 10
6.2866605431
 20
5.4086711938
 11
6.2866605431
 21
5.4324999248
  0
LINE
  5
2CE
100
AcDbEntity
  8
0
100
AcDbLine
 62
7
  6
CONTINUOUS
 10
6.2866605431
 20
5.4667420599
 11
6.2866605431
 21
5.4905707909
  0
LINE
  5
2CF
100
AcDbEntity
  8
0
100
AcDbLine
 62
7
  6
CONTINUOUS
 10
6.2866605431
 20
5.524812926
 11
6.2866605431
 21
5.5276877114
  0
LINE
  5
2D0
100
AcDbEntity
  8
0
100
AcDbLine
 62
7
  6
CONTINUOUS
 10
6.2866605431
 20
6.0474507213
 11
6.2866605431
 21
6.0712794523
  0
LINE
  5
2D1
100
AcDbEntity
  8
0
100
AcDbLine
 62
7
  6
CONTINUOUS
 10
6.2866605431
 20
6.1055215875
 11
6.2866605431
 21
6.1293503185
  0
LINE
  5
2D2
100
AcDbEntity
  8
0
100
AcDbLine
 62
7
  6
CONTINUOUS
 10
6.2866605431
 20
6.1635924536
 11
6.2866605431
 21
6.1874211846
  0
LINE
  5
2D3
100
AcDbEntity
  8
0
100
AcDbLine
 62
7
  6
CONTINUOUS
 10
6.2866605431
 20
6.2216633197
 11
6.2866605431
 21
6.2454920508
  0
LINE
  5
2D4
100
AcDbEntity
  8
0
100
AcDbLine
 62
7
  6
CONTINUOUS
 10
6.3191802282
 20
4.631422164
 11
6.3191802282
 21
4.6429688024
  0
LINE
  5
2D5
100
AcDbEntity
  8
0
100
AcDbLine
 62
7
  6
CONTINUOUS
 10
6.3191802282
 20
4.6894930302
 11
6.3191802282
 21
4.7010396685
  0
LINE
  5
2D6
100
AcDbEntity
  8
0
100
AcDbLine
 62
7
  6
CONTINUOUS
 10
6.3191802282
 20
4.7475638963
 11
6.3191802282
 21
4.7591105346
  0
LINE
  5
2D7
100
AcDbEntity
  8
0
100
AcDbLine
 62
7
  6
CONTINUOUS
 10
6.3191802282
 20
5.1540599593
 11
6.3191802282
 21
5.1656065976
  0
LINE
  5
2D8
100
AcDbEntity
  8
0
100
AcDbLine
 62
7
  6
CONTINUOUS
 10
6.3191802282
 20
5.2121308254
 11
6.3191802282
 21
5.2236774638
  0
LINE
  5
2D9
100
AcDbEntity
  8
0
100
AcDbLine
 62
7
  6
CONTINUOUS
 10
6.3191802282
 20
5.2702016916
 11
6.3191802282
 21
5.2817483299
  0
LINE
  5
2DA
100
AcDbEntity
  8
0
100
AcDbLine
 62
7
  6
CONTINUOUS
 10
6.3191802282
 20
5.3863434239
 11
6.3191802282
 21
5.3978900622
  0
LINE
  5
2DB
100
AcDbEntity
  8
0
100
AcDbLine
 62
7
  6
CONTINUOUS
 10
6.3191802282
 20
5.44441429
 11
6.3191802282
 21
5.4559609283
  0
LINE
  5
2DC
100
AcDbEntity
  8
0
100
AcDbLine
 62
7
  6
CONTINUOUS
 10
6.3191802282
 20
5.5024851562
 11
6.3191802282
 21
5.5140317945
  0
LINE
  5
2DD
100
AcDbEntity
  8
0
100
AcDbLine
 62
7
  6
CONTINUOUS
 10
6.3191802282
 20
6.0831938176
 11
6.3191802282
 21
6.0947404559
  0
LINE
  5
2DE
100
AcDbEntity
  8
0
100
AcDbLine
 62
7
  6
CONTINUOUS
 10
6.3191802282
 20
6.1412646837
 11
6.3191802282
 21
6.152811322
  0
LINE
  5
2DF
100
AcDbEntity
  8
0
100
AcDbLine
 62
7
  6
CONTINUOUS
 10
6.3191802282
 20
6.1993355499
 11
6.3191802282
 21
6.2108821882
  0
LINE
  5
2E0
100
AcDbEntity
  8
0
100
AcDbLine
 62
7
  6
CONTINUOUS
 10
6.3191802282
 20
6.257406416
 11
6.3191802282
 21
7.1105041831
  0
LINE
  5
2E1
100
AcDbEntity
  8
0
100
AcDbLine
 62
7
  6
CONTINUOUS
 10
6.3191802282
 20
7.2034175689
 11
6.3191802282
 21
7.4288968275
  0
LINE
  5
2E2
100
AcDbEntity
  8
0
100
AcDbLine
 62
9
  6
CONTINUOUS
 10
4.3660658612
 20
4.8277191184
 11
5.0852271539
 21
4.8277191184
  0
LINE
  5
2E3
100
AcDbEntity
  8
0
100
AcDbLine
 62
9
  6
CONTINUOUS
 10
5.1072494222
 20
4.8277191183
 11
6.1718918638
 21
4.8277191183
  0
LINE
  5
2E4
100
AcDbEntity
  8
0
100
AcDbLine
 62
9
  6
CONTINUOUS
 10
6.189300797
 20
4.8277191184
 11
6.5359880241
 21
4.8277191182
  0
LINE
  5
2E5
100
AcDbEntity
  8
0
100
AcDbLine
 62
9
  6
CONTINUOUS
 10
4.360246448
 20
5.0089002207
 11
6.5359880241
 21
5.0089002207
  0
LINE
  5
2E6
100
AcDbEntity
  8
0
100
AcDbLine
 62
7
  6
CONTINUOUS
 10
4.2797327341
 20
5.0321285672
 11
6.6165017379
 21
5.0321285672
  0
LINE
  5
2E7
100
AcDbEntity
  8
0
100
AcDbLine
 62
9
  6
CONTINUOUS
 10
4.2518573935
 20
5.0600025829
 11
6.6443770785
 21
5.0600025829
  0
LINE
  5
2E8
100
AcDbEntity
  8
0
100
AcDbLine
 62
9
  6
CONTINUOUS
 10
6.6443770785
 20
5.092522268
 11
4.2518573935
 21
5.092522268
  0
LINE
  5
2E9
100
AcDbEntity
  8
0
100
AcDbLine
 62
7
  6
CONTINUOUS
 10
6.318753411
 20
4.5851799676
 11
6.2862213189
 21
4.5959706536
  0
LINE
  5
2EA
100
AcDbEntity
  8
0
100
AcDbLine
 62
7
  6
CONTINUOUS
 10
6.318753411
 20
4.6432508337
 11
6.2862213189
 21
4.6540415197
  0
LINE
  5
2EB
100
AcDbEntity
  8
0
100
AcDbLine
 62
7
  6
CONTINUOUS
 10
6.318753411
 20
4.7013216999
 11
6.2862213189
 21
4.7121123858
  0
LINE
  5
2EC
100
AcDbEntity
  8
0
100
AcDbLine
 62
7
  6
CONTINUOUS
 10
6.318753411
 20
4.759392566
 11
6.2862213189
 21
4.770183252
  0
LINE
  5
2ED
100
AcDbEntity
  8
0
100
AcDbLine
 62
7
  6
CONTINUOUS
 10
4.5774039273
 20
5.1828400962
 11
4.6099336864
 21
5.1709171152
  0
LINE
  5
2EE
100
AcDbEntity
  8
0
100
AcDbLine
 62
7
  6
CONTINUOUS
 10
4.5774039273
 20
5.2409109624
 11
4.6099336864
 21
5.2289879814
  0
LINE
  5
2EF
100
AcDbEntity
  8
0
100
AcDbLine
 62
7
  6
CONTINUOUS
 10
4.5774039273
 20
5.3570526947
 11
4.6099336864
 21
5.3451297137
  0
LINE
  5
2F0
100
AcDbEntity
  8
0
100
AcDbLine
 62
7
  6
CONTINUOUS
 10
4.5774039273
 20
5.4151235608
 11
4.6099336864
 21
5.4032005798
  0
LINE
  5
2F1
100
AcDbEntity
  8
0
100
AcDbLine
 62
7
  6
CONTINUOUS
 10
4.5774039273
 20
5.473194427
 11
4.6099336864
 21
5.461271446
  0
LINE
  5
2F2
100
AcDbEntity
  8
0
100
AcDbLine
 62
7
  6
CONTINUOUS
 10
6.3191802282
 20
4.6429689797
 11
6.3187534095
 21
4.6432461102
  0
LINE
  5
2F3
100
AcDbEntity
  8
0
100
AcDbLine
 62
7
  6
CONTINUOUS
 10
6.3191802282
 20
4.7010398458
 11
6.3187534095
 21
4.7013169763
  0
LINE
  5
2F4
100
AcDbEntity
  8
0
100
AcDbLine
 62
7
  6
CONTINUOUS
 10
4.7284020298
 20
8.0628092485
 11
4.7256112642
 21
8.0701144879
  0
LINE
  5
2F5
100
AcDbEntity
  8
0
100
AcDbLine
 62
9
  6
CONTINUOUS
 10
6.5347819459
 20
4.8277191184
 11
6.5347819459
 21
5.0089002207
  0
LINE
  5
2F6
100
AcDbEntity
  8
0
100
AcDbLine
 62
7
  6
CONTINUOUS
 10
6.5359880241
 20
4.8277191183
 11
6.5359880241
 21
5.0089002207
  0
LINE
  5
2F7
100
AcDbEntity
  8
0
100
AcDbLine
 62
7
  6
CONTINUOUS
 10
6.6443770785
 20
5.0600025829
 11
6.6443770785
 21
5.092522268
  0
LINE
  5
2F8
100
AcDbEntity
  8
0
100
AcDbLine
 62
7
  6
CONTINUOUS
 10
5.4973848827
 20
5.2785391138
 11
5.386743287
 21
5.2773540301
  0
LINE
  5
2F9
100
AcDbEntity
  8
0
100
AcDbLine
 62
7
  6
CONTINUOUS
 10
4.2797586193
 20
5.1203962837
 11
6.6164758528
 21
5.1203962837
  0
LINE
  5
2FA
100
AcDbEntity
  8
0
100
AcDbLine
 62
7
  6
CONTINUOUS
 10
6.6629446341
 20
5.285656962
 11
4.2332898379
 21
5.285656962
  0
LINE
  5
2FB
100
AcDbEntity
  8
0
100
AcDbLine
 62
7
  6
CONTINUOUS
 10
6.6629446407
 20
5.3414049935
 11
4.2332898314
 21
5.3414049935
  0
LINE
  5
2FC
100
AcDbEntity
  8
0
100
AcDbLine
 62
7
  6
CONTINUOUS
 10
6.318753411
 20
5.165888629
 11
6.2862213189
 21
5.176679315
  0
LINE
  5
2FD
100
AcDbEntity
  8
0
100
AcDbLine
 62
7
  6
CONTINUOUS
 10
4.5871648368
 20
5.5276877114
 11
4.6099336864
 21
5.5193423121
  0
LINE
  5
2FE
100
AcDbEntity
  8
0
100
AcDbLine
 62
7
  6
CONTINUOUS
 10
6.3191802282
 20
4.759110712
 11
6.3187534095
 21
4.7593878425
  0
LINE
  5
2FF
100
AcDbEntity
  8
0
100
AcDbLine
 62
7
  6
CONTINUOUS
 10
4.5770542439
 20
6.1122290734
 11
4.5774039285
 21
6.1119782752
  0
LINE
  5
300
100
AcDbEntity
  8
0
100
AcDbLine
 62
7
  6
CONTINUOUS
 10
4.5770542439
 20
6.1702999396
 11
4.5774039285
 21
6.1700491414
  0
LINE
  5
301
100
AcDbEntity
  8
0
100
AcDbLine
 62
7
  6
CONTINUOUS
 10
4.5770542439
 20
6.2283708057
 11
4.5774039285
 21
6.2281200075
  0
LINE
  5
302
100
AcDbEntity
  8
0
100
AcDbLine
 62
7
  6
CONTINUOUS
 10
4.5770542439
 20
6.2864416719
 11
4.577403928
 21
6.2861908738
  0
LINE
  5
303
100
AcDbEntity
  8
0
100
AcDbLine
 62
7
  6
CONTINUOUS
 10
6.6629597557
 20
5.3414049935
 11
6.6629597557
 21
5.285656962
  0
LINE
  5
304
100
AcDbEntity
  8
0
100
AcDbLine
 62
7
  6
CONTINUOUS
 10
6.687117236
 20
5.6345381051
 11
6.687117236
 21
5.5276877114
  0
LINE
  5
305
100
AcDbEntity
  8
0
100
AcDbLine
 62
7
  6
CONTINUOUS
 10
6.7024479447
 20
7.2034175689
 11
6.7024479447
 21
7.1105041831
  0
LINE
  5
306
100
AcDbEntity
  8
0
100
AcDbLine
 62
7
  6
CONTINUOUS
 10
6.8418180234
 20
7.6832633477
 11
6.8418180234
 21
7.6736568851
  0
LINE
  5
307
100
AcDbEntity
  8
0
100
AcDbLine
 62
7
  6
CONTINUOUS
 10
6.6870827409
 20
5.5276877114
 11
4.2091517312
 21
5.5276877114
  0
LINE
  5
308
100
AcDbEntity
  8
0
100
AcDbLine
 62
7
  6
CONTINUOUS
 10
6.687117236
 20
5.6345381051
 11
4.209117236
 21
5.6345381051
  0
LINE
  5
309
100
AcDbEntity
  8
0
100
AcDbLine
 62
7
  6
CONTINUOUS
 10
6.318753411
 20
5.2239594951
 11
6.2862213189
 21
5.2347501811
  0
LINE
  5
30A
100
AcDbEntity
  8
0
100
AcDbLine
 62
7
  6
CONTINUOUS
 10
6.318753411
 20
5.2820303613
 11
6.3078196918
 21
5.285656962
  0
LINE
  5
30B
100
AcDbEntity
  8
0
100
AcDbLine
 62
7
  6
CONTINUOUS
 10
6.3148227188
 20
5.3414049935
 11
6.2862213189
 21
5.3508919134
  0
LINE
  5
30C
100
AcDbEntity
  8
0
100
AcDbLine
 62
7
  6
CONTINUOUS
 10
6.318753411
 20
5.3981720936
 11
6.2862213189
 21
5.4089627795
  0
LINE
  5
30D
100
AcDbEntity
  8
0
100
AcDbLine
 62
7
  6
CONTINUOUS
 10
6.318753411
 20
5.4562429597
 11
6.2862213189
 21
5.4670336457
  0
LINE
  5
30E
100
AcDbEntity
  8
0
100
AcDbLine
 62
7
  6
CONTINUOUS
 10
4.5774039273
 20
6.0539030884
 11
4.6099336864
 21
6.0419801074
  0
LINE
  5
30F
100
AcDbEntity
  8
0
100
AcDbLine
 62
7
  6
CONTINUOUS
 10
6.3191802282
 20
5.165606775
 11
6.3187534095
 21
5.1658839055
  0
LINE
  5
310
100
AcDbEntity
  8
0
100
AcDbLine
 62
7
  6
CONTINUOUS
 10
6.3191802282
 20
5.2236776411
 11
6.3187534095
 21
5.2239547716
  0
LINE
  5
311
100
AcDbEntity
  8
0
100
AcDbLine
 62
7
  6
CONTINUOUS
 10
6.3191802282
 20
5.2817485073
 11
6.3187534095
 21
5.2820256377
  0
LINE
  5
312
100
AcDbEntity
  8
0
100
AcDbLine
 62
7
  6
CONTINUOUS
 10
6.3191802282
 20
5.3978902395
 11
6.3187534095
 21
5.39816737
  0
LINE
  5
313
100
AcDbEntity
  8
0
100
AcDbLine
 62
7
  6
CONTINUOUS
 10
6.318753411
 20
5.5143138259
 11
6.2862213189
 21
5.5251045118
  0
LINE
  5
314
100
AcDbEntity
  8
0
100
AcDbLine
 62
7
  6
CONTINUOUS
 10
4.5774039273
 20
6.1119739545
 11
4.6099336864
 21
6.1000509735
  0
LINE
  5
315
100
AcDbEntity
  8
0
100
AcDbLine
 62
7
  6
CONTINUOUS
 10
4.5774039273
 20
6.1700448207
 11
4.6099336864
 21
6.1581218397
  0
LINE
  5
316
100
AcDbEntity
  8
0
100
AcDbLine
 62
7
  6
CONTINUOUS
 10
4.5774039273
 20
6.2281156868
 11
4.6099336864
 21
6.2161927058
  0
LINE
  5
317
100
AcDbEntity
  8
0
100
AcDbLine
 62
7
  6
CONTINUOUS
 10
4.5774039268
 20
6.2861865534
 11
4.6099336865
 21
6.2742635721
  0
LINE
  5
318
100
AcDbEntity
  8
0
100
AcDbLine
 62
7
  6
CONTINUOUS
 10
6.3191802282
 20
5.4559611057
 11
6.3187534095
 21
5.4562382362
  0
LINE
  5
319
100
AcDbEntity
  8
0
100
AcDbLine
 62
7
  6
CONTINUOUS
 10
6.3191802282
 20
5.5140338724
 11
6.3187534112
 21
5.5143145943
  0
LINE
  5
31A
100
AcDbEntity
  8
0
100
AcDbLine
 62
7
  6
CONTINUOUS
 10
4.5424855392
 20
6.0387113335
 11
6.3537489328
 21
6.0387113335
  0
LINE
  5
31B
100
AcDbEntity
  8
0
100
AcDbLine
 62
7
  6
CONTINUOUS
 10
6.313448092
 20
6.0387113335
 11
6.2862213189
 21
6.0477423071
  0
LINE
  5
31C
100
AcDbEntity
  8
0
100
AcDbLine
 62
7
  6
CONTINUOUS
 10
6.318753411
 20
6.0950224873
 11
6.2862213189
 21
6.1058131732
  0
LINE
  5
31D
100
AcDbEntity
  8
0
100
AcDbLine
 62
7
  6
CONTINUOUS
 10
5.9409985474
 20
6.2710599028
 11
5.9601130292
 21
6.2602787716
  0
LINE
  5
31E
100
AcDbEntity
  8
0
100
AcDbLine
 62
7
  6
CONTINUOUS
 10
6.3191802282
 20
6.0947406332
 11
6.3187534095
 21
6.0950177637
  0
LINE
  5
31F
100
AcDbEntity
  8
0
100
AcDbLine
 62
7
  6
CONTINUOUS
 10
6.3537904644
 20
6.0387113335
 11
6.687117236
 21
5.6345381051
  0
LINE
  5
320
100
AcDbEntity
  8
0
100
AcDbLine
 62
7
  6
CONTINUOUS
 10
6.318753411
 20
6.1530933534
 11
6.2862213189
 21
6.1638840394
  0
LINE
  5
321
100
AcDbEntity
  8
0
100
AcDbLine
 62
7
  6
CONTINUOUS
 10
6.318753411
 20
6.2111642196
 11
6.2862213189
 21
6.2219549055
  0
LINE
  5
322
100
AcDbEntity
  8
0
100
AcDbLine
 62
7
  6
CONTINUOUS
 10
6.3191802282
 20
6.1528114994
 11
6.3187534095
 21
6.1530886299
  0
LINE
  5
323
100
AcDbEntity
  8
0
100
AcDbLine
 62
7
  6
CONTINUOUS
 10
6.3191802282
 20
6.2108823655
 11
6.3187534095
 21
6.211159496
  0
LINE
  5
324
100
AcDbEntity
  8
0
100
AcDbLine
 62
7
  6
CONTINUOUS
 10
4.193821693
 20
7.1105041831
 11
6.702412779
 21
7.1105041831
  0
LINE
  5
325
100
AcDbEntity
  8
0
100
AcDbLine
 62
7
  6
CONTINUOUS
 10
6.1678324423
 20
8.0999898808
 11
6.1691163446
 21
8.0979885036
  0
LINE
  5
326
100
AcDbEntity
  8
0
100
AcDbLine
 62
7
  6
CONTINUOUS
 10
6.4058186176
 20
7.541228723
 11
6.8244903455
 21
7.651190506
  0
LINE
  5
327
100
AcDbEntity
  8
0
100
AcDbLine
 62
7
  6
CONTINUOUS
 10
4.193821693
 20
7.2034175689
 11
6.702412779
 21
7.2034175689
  0
LINE
  5
328
100
AcDbEntity
  8
0
100
AcDbLine
 62
9
  6
CONTINUOUS
 10
4.5770542439
 20
7.4288968275
 11
6.3191802282
 21
7.4288968275
  0
LINE
  5
329
100
AcDbEntity
  8
0
100
AcDbLine
 62
7
  6
CONTINUOUS
 10
4.4904158544
 20
7.541228723
 11
4.0717441265
 21
7.651190506
  0
LINE
  5
32A
100
AcDbEntity
  8
0
100
AcDbLine
 62
9
  6
CONTINUOUS
 10
6.4058186176
 20
7.541228723
 11
4.4904158544
 21
7.541228723
  0
LINE
  5
32B
100
AcDbEntity
  8
0
100
AcDbLine
 62
9
  6
CONTINUOUS
 10
6.8244903455
 20
7.651190506
 11
4.0717441265
 21
7.651190506
  0
LINE
  5
32C
100
AcDbEntity
  8
0
100
AcDbLine
 62
9
  6
CONTINUOUS
 10
4.0544164486
 20
7.6736568851
 11
6.8418180234
 21
7.6736568851
  0
LINE
  5
32D
100
AcDbEntity
  8
0
100
AcDbLine
 62
9
  6
CONTINUOUS
 10
6.8418180234
 20
7.6832633477
 11
4.0544164486
 21
7.6832633477
  0
LINE
  5
32E
100
AcDbEntity
  8
0
100
AcDbLine
 62
7
  6
CONTINUOUS
 10
4.0776447951
 20
7.7064916942
 11
6.818589677
 21
7.7064916942
  0
LINE
  5
32F
100
AcDbEntity
  8
0
100
AcDbLine
 62
7
  6
CONTINUOUS
 10
6.2610885258
 20
7.9260987398
 11
4.6351459463
 21
7.9260987398
  0
LINE
  5
330
100
AcDbEntity
  8
0
100
AcDbLine
 62
7
  6
CONTINUOUS
 10
4.6351459236
 20
7.9725554328
 11
6.2610885485
 21
7.9725554328
  0
LINE
  5
331
100
AcDbEntity
  8
0
100
AcDbLine
 62
7
  6
CONTINUOUS
 10
4.7284020298
 20
8.0628092485
 11
6.1678324423
 21
8.0628092485
  0
LINE
  5
332
100
AcDbEntity
  8
0
100
AcDbLine
 62
7
  6
CONTINUOUS
 10
4.6331745742
 20
8.0701144879
 11
6.2630598978
 21
8.0701144879
  0
LINE
  5
333
100
AcDbEntity
  8
0
100
AcDbLine
 62
7
  6
CONTINUOUS
 10
4.6331745742
 20
8.0979885036
 11
6.2630598978
 21
8.0979885036
  0
LINE
  5
334
100
AcDbEntity
  8
0
100
AcDbLine
 62
7
  6
CONTINUOUS
 10
4.7284020298
 20
8.0999898808
 11
6.1678324423
 21
8.0999898808
  0
LINE
  5
335
100
AcDbEntity
  8
0
100
AcDbLine
 62
7
  6
CONTINUOUS
 10
6.2599296304
 20
8.167673543
 11
4.6363048417
 21
8.167673543
  0
LINE
  5
336
100
AcDbEntity
  8
0
100
AcDbLine
 62
7
  6
CONTINUOUS
 10
6.259950437
 20
8.2025160627
 11
4.6362840355
 21
8.2025160627
  0
ARC
  5
337
100
AcDbEntity
  8
0
100
AcDbCircle
 62
7
  6
CONTINUOUS
 10
4.9868548045
 20
-7.2647263938
 40
11.897259388
100
AcDbArc
 50
91.1479860316
 51
91.2684457766
  0
ARC
  5
338
100
AcDbEntity
  8
0
100
AcDbCircle
 62
7
  6
CONTINUOUS
 10
4.9544305936
 20
-5.7558633476
 40
10.3538163464
100
AcDbArc
 50
91.1114861083
 51
91.3404447282
  0
ARC
  5
339
100
AcDbEntity
  8
0
100
AcDbCircle
 62
7
  6
CONTINUOUS
 10
4.9099129312
 20
-3.7195126626
 40
8.2931607362
100
AcDbArc
 50
91.0758590118
 51
91.6273334106
  0
ARC
  5
33A
100
AcDbEntity
  8
0
100
AcDbCircle
 62
7
  6
CONTINUOUS
 10
4.4609125116
 20
7.4288968275
 40
0.1161417323
100
AcDbArc
 50
0.0
 51
75.2839564378
  0
ARC
  5
33B
100
AcDbEntity
  8
0
100
AcDbCircle
 62
7
  6
CONTINUOUS
 10
4.2797314093
 20
5.0600025829
 40
0.0278740157
100
AcDbArc
 50
180.0
 51
270.0000399618
  0
ARC
  5
33C
100
AcDbEntity
  8
0
100
AcDbCircle
 62
7
  6
CONTINUOUS
 10
4.2797314093
 20
5.092522268
 40
0.0278740157
100
AcDbArc
 50
90.0
 51
180.0
  0
ARC
  5
33D
100
AcDbEntity
  8
0
100
AcDbCircle
 62
7
  6
CONTINUOUS
 10
4.0776447951
 20
7.6736568851
 40
0.0232283465
100
AcDbArc
 50
180.0
 51
255.2839564378
  0
ARC
  5
33E
100
AcDbEntity
  8
0
100
AcDbCircle
 62
7
  6
CONTINUOUS
 10
4.0776447951
 20
7.6832633477
 40
0.0232283465
100
AcDbArc
 50
90.0
 51
180.0
  0
ARC
  5
33F
100
AcDbEntity
  8
0
100
AcDbCircle
 62
7
  6
CONTINUOUS
 10
4.3370181015
 20
5.0089002207
 40
0.0232283465
100
AcDbArc
 50
0.0
 51
82.4999999602
  0
ARC
  5
340
100
AcDbEntity
  8
0
100
AcDbCircle
 62
7
  6
CONTINUOUS
 10
4.3834747944
 20
4.8277191183
 40
0.0232283465
100
AcDbArc
 50
180.0
 51
269.9999996543
  0
ARC
  5
341
100
AcDbEntity
  8
0
100
AcDbCircle
 62
7
  6
CONTINUOUS
 10
4.6328022754
 20
8.0840514957
 40
0.0139370079
100
AcDbArc
 50
90.0
 51
270.0
  0
ARC
  5
342
100
AcDbEntity
  8
0
100
AcDbCircle
 62
7
  6
CONTINUOUS
 10
3.7156470321
 20
180.7586756897
 40
174.512835284
100
AcDbArc
 50
270.5688112194
 51
270.7369198966
  0
ARC
  5
343
100
AcDbEntity
  8
0
100
AcDbCircle
 62
7
  6
CONTINUOUS
 10
3.7377587212
 20
178.7661298538
 40
172.4736462638
100
AcDbArc
 50
270.5681907353
 51
270.7382869935
  0
ARC
  5
344
100
AcDbEntity
  8
0
100
AcDbCircle
 62
7
  6
CONTINUOUS
 10
4.1413818838
 20
137.0333592354
 40
131.7617818235
100
AcDbArc
 50
270.5931711478
 51
270.8369479423
  0
ARC
  5
345
100
AcDbEntity
  8
0
100
AcDbCircle
 62
7
  6
CONTINUOUS
 10
6.8104716857
 20
-137.293487369
 40
141.9749779494
100
AcDbArc
 50
90.5498035466
 51
90.8104746777
  0
ARC
  5
346
100
AcDbEntity
  8
0
100
AcDbCircle
 62
7
  6
CONTINUOUS
 10
6.6380567128
 20
-118.2423167039
 40
123.3755752179
100
AcDbArc
 50
90.6617220721
 51
90.8271704489
  0
ARC
  5
347
100
AcDbEntity
  8
0
100
AcDbCircle
 62
7
  6
CONTINUOUS
 10
5.395732504
 20
-29.856088974
 40
35.3870850731
100
AcDbArc
 50
90.7834780122
 51
90.9839153418
  0
ARC
  5
348
100
AcDbEntity
  8
0
100
AcDbCircle
 62
7
  6
CONTINUOUS
 10
5.917793247
 20
16.2011352074
 40
11.4970445902
100
AcDbArc
 50
271.1348391564
 51
271.2699126967
  0
ARC
  5
349
100
AcDbEntity
  8
0
100
AcDbCircle
 62
7
  6
CONTINUOUS
 10
5.9260529001
 20
15.7097641009
 40
11.0979011828
100
AcDbArc
 50
271.1623906805
 51
271.3213350974
  0
ARC
  5
34A
100
AcDbEntity
  8
0
100
AcDbCircle
 62
7
  6
CONTINUOUS
 10
5.9766889671
 20
13.6385375816
 40
8.8518915494
100
AcDbArc
 50
271.2718440288
 51
271.3950945362
  0
ARC
  5
34B
100
AcDbEntity
  8
0
100
AcDbCircle
 62
7
  6
CONTINUOUS
 10
5.448117236
 20
5.7797995272
 40
2.5551181102
100
AcDbArc
 50
71.4744055465
 51
108.5255944535
  0
ARC
  5
34C
100
AcDbEntity
  8
0
100
AcDbCircle
 62
7
  6
CONTINUOUS
 10
6.2316514945
 20
6.8866636379
 40
1.3762372465
100
AcDbArc
 50
272.2439078807
 51
272.7914656622
  0
ARC
  5
34D
100
AcDbEntity
  8
0
100
AcDbCircle
 62
7
  6
CONTINUOUS
 10
6.4353219604
 20
7.4288968275
 40
0.1161417323
100
AcDbArc
 50
104.7160435621
 51
180.0
  0
ARC
  5
34E
100
AcDbEntity
  8
0
100
AcDbCircle
 62
7
  6
CONTINUOUS
 10
6.6165030628
 20
5.0600025829
 40
0.0278740157
100
AcDbArc
 50
269.9999556359
 51
360.0
  0
ARC
  5
34F
100
AcDbEntity
  8
0
100
AcDbCircle
 62
7
  6
CONTINUOUS
 10
6.6165030628
 20
5.092522268
 40
0.0278740157
100
AcDbArc
 50
0.0
 51
90.0
  0
ARC
  5
350
100
AcDbEntity
  8
0
100
AcDbCircle
 62
7
  6
CONTINUOUS
 10
6.818589677
 20
7.6736568851
 40
0.0232283465
100
AcDbArc
 50
284.7160435622
 51
360.0
  0
ARC
  5
351
100
AcDbEntity
  8
0
100
AcDbCircle
 62
7
  6
CONTINUOUS
 10
6.818589677
 20
7.6832633477
 40
0.0232283465
100
AcDbArc
 50
0.0
 51
90.0
  0
ARC
  5
352
100
AcDbEntity
  8
0
100
AcDbCircle
 62
7
  6
CONTINUOUS
 10
6.5127596776
 20
4.8277191183
 40
0.0232283465
100
AcDbArc
 50
270.0000003496
 51
360.0
  0
ARC
  5
353
100
AcDbEntity
  8
0
100
AcDbCircle
 62
7
  6
CONTINUOUS
 10
6.5592163705
 20
5.0089002207
 40
0.0232283465
100
AcDbArc
 50
95.9414031786
 51
180.0
  0
ARC
  5
354
100
AcDbEntity
  8
0
100
AcDbCircle
 62
9
  6
CONTINUOUS
 10
6.5579471028
 20
5.009504148
 40
0.023018708
100
AcDbArc
 50
141.5018828985
 51
151.4244411939
  0
ARC
  5
355
100
AcDbEntity
  8
0
100
AcDbCircle
 62
7
  6
CONTINUOUS
 10
6.2634321967
 20
8.0840514957
 40
0.0139370079
100
AcDbArc
 50
270.0
 51
90.0
  0
ARC
  5
356
100
AcDbEntity
  8
0
100
AcDbCircle
 62
7
  6
CONTINUOUS
 10
5.2720881301
 20
55.3392743964
 40
50.0018409921
100
AcDbArc
 50
270.7219967436
 51
270.9599715901
  0
LINE
  5
357
100
AcDbEntity
  8
0
100
AcDbLine
 62
7
  6
CONTINUOUS
 10
4.5770568334
 20
6.0657128176
 11
4.5774824954
 21
6.0659924685
  0
LINE
  5
358
100
AcDbEntity
  8
0
100
AcDbLine
 62
7
  6
CONTINUOUS
 10
4.5770557793
 20
6.0541537941
 11
4.5774066238
 21
6.0538988598
  0
LINE
  5
359
100
AcDbEntity
  8
0
100
AcDbLine
 62
7
  6
CONTINUOUS
 10
6.3191776261
 20
5.5024764734
 11
6.3188289438
 21
5.5022234153
  0
SPLINE
  5
35A
100
AcDbEntity
  8
0
100
AcDbSpline
 62
7
  6
CONTINUOUS
 70
0
 71
3
 72
28
 73
24
 74
0
 42
0.0000001
 43
0.0000001
 44
0.0000000001
 40
0.0
 40
0.0
 40
0.0
 40
0.0
 40
0.0016851362
 40
0.0031020084
 40
0.0049700871
 40
0.0073078294
 40
0.0101243879
 40
0.0134248604
 40
0.0172123271
 40
0.0262551637
 40
0.0372625775
 40
0.0651855928
 40
0.1009955137
 40
0.1446710225
 40
0.1961561492
 40
0.255390468
 40
0.3223124015
 40
0.3968597086
 40
0.4789697385
 40
0.5685780668
 40
0.6655953149
 40
0.7699117116
 40
1.0
 40
1.0
 40
1.0
 40
1.0
 10
4.609559134
 20
4.5904727338
 30
0.0
 10
4.6095591387
 20
4.5905305371
 30
0.0
 10
4.60965437
 20
4.5906172608
 30
0.0
 10
4.6098008572
 20
4.5906908286
 30
0.0
 10
4.6099833939
 20
4.5907608638
 30
0.0
 10
4.6102136707
 20
4.5908290044
 30
0.0
 10
4.6104956554
 20
4.5908983754
 30
0.0
 10
4.6108281963
 20
4.59096772
 30
0.0
 10
4.6113727113
 20
4.5910665097
 30
0.0
 10
4.6121815917
 20
4.5911871351
 30
0.0
 10
4.6138149006
 20
4.591388519
 30
0.0
 10
4.6163675289
 20
4.5916310378
 30
0.0
 10
4.6200413083
 20
4.591910271
 30
0.0
 10
4.62452502
 20
4.5921933834
 30
0.0
 10
4.629813327
 20
4.5924800901
 30
0.0
 10
4.6358999185
 20
4.5927694378
 30
0.0
 10
4.6427782683
 20
4.5930609911
 30
0.0
 10
4.6504418578
 20
4.593354299
 30
0.0
 10
4.6588840968
 20
4.5936489976
 30
0.0
 10
4.6680974906
 20
4.5939447228
 30
0.0
 10
4.6780729467
 20
4.5942410488
 30
0.0
 10
4.6928658806
 20
4.594649736
 30
0.0
 10
4.7043330751
 20
4.5949344042
 30
0.0
 10
4.7122233553
 20
4.5951196293
 30
0.0
  0
SPLINE
  5
35B
100
AcDbEntity
  8
0
100
AcDbSpline
 62
7
  6
CONTINUOUS
 70
0
 71
3
 72
23
 73
19
 74
0
 42
0.0000001
 43
0.0000001
 44
0.0000000001
 40
0.0
 40
0.0
 40
0.0
 40
0.0
 40
0.0448723717
 40
0.0965023932
 40
0.1541283809
 40
0.216894659
 40
0.2838646081
 40
0.3540463855
 40
0.4263949523
 40
0.4998401917
 40
0.5732901215
 40
0.6456557388
 40
0.7158592271
 40
0.7828660946
 40
0.8456812188
 40
0.9033710978
 40
0.9550645352
 40
1.0
 40
1.0
 40
1.0
 40
1.0
 10
4.7535885534
 20
4.5960048611
 30
0.0
 10
4.7743551041
 20
4.5964121824
 30
0.0
 10
4.8190174787
 20
4.5971913352
 30
0.0
 10
4.8903524073
 20
4.5982672774
 30
0.0
 10
4.9699707339
 20
4.5993563869
 30
0.0
 10
5.0566896868
 20
4.6004863292
 30
0.0
 10
5.1492206467
 20
4.6016397751
 30
0.0
 10
5.2461875001
 20
4.6027839294
 30
0.0
 10
5.346152138
 20
4.6039018029
 30
0.0
 10
5.44763002
 20
4.6049835182
 30
0.0
 10
5.5491157296
 20
4.6060712456
 30
0.0
 10
5.6491005322
 20
4.6071845307
 30
0.0
 10
5.7461024153
 20
4.6083290962
 30
0.0
 10
5.838683109
 20
4.6094838864
 30
0.0
 10
5.9254713993
 20
4.6106094573
 30
0.0
 10
6.0051711773
 20
4.6117053341
 30
0.0
 10
6.0765943162
 20
4.6127765816
 30
0.0
 10
6.1213152488
 20
4.6135566152
 30
0.0
 10
6.1421109827
 20
4.6139653113
 30
0.0
  0
LINE
  5
35C
100
AcDbEntity
  8
0
100
AcDbLine
 62
7
  6
CONTINUOUS
 10
6.1427555124
 20
4.6139779931
 11
6.1511866206
 21
4.6141467016
  0
LINE
  5
35D
100
AcDbEntity
  8
0
100
AcDbLine
 62
7
  6
CONTINUOUS
 10
6.1819661048
 20
4.614813939
 11
6.1841183065
 21
4.6148641285
  0
SPLINE
  5
35E
100
AcDbEntity
  8
0
100
AcDbSpline
 62
7
  6
CONTINUOUS
 70
0
 71
3
 72
14
 73
10
 74
0
 42
0.0000001
 43
0.0000001
 44
0.0000000001
 40
0.0
 40
0.0
 40
0.0
 40
0.0
 40
0.3482266262
 40
0.498422307
 40
0.6323135874
 40
0.7496519186
 40
0.8501897278
 40
0.9336877211
 40
1.0
 40
1.0
 40
1.0
 40
1.0
 10
6.1841183065
 20
4.6148641285
 30
0.0
 10
6.1949910412
 20
4.6151190178
 30
0.0
 10
6.210552773
 20
4.6155115616
 30
0.0
 10
6.230292323
 20
4.6160986893
 30
0.0
 10
6.2428226255
 20
4.6165158141
 30
0.0
 10
6.2538011612
 20
4.616930009
 30
0.0
 10
6.263204785
 20
4.6173392597
 30
0.0
 10
6.2710132972
 20
4.6177415592
 30
0.0
 10
6.2756830551
 20
4.6180369897
 30
0.0
 10
6.2777483304
 20
4.6181915083
 30
0.0
  0
SPLINE
  5
35F
100
AcDbEntity
  8
0
100
AcDbSpline
 62
7
  6
CONTINUOUS
 70
0
 71
3
 72
13
 73
9
 74
0
 42
0.0000001
 43
0.0000001
 44
0.0000000001
 40
0.0
 40
0.0
 40
0.0
 40
0.0
 40
0.3718145658
 40
0.6623134804
 40
0.7770653779
 40
0.8715167742
 40
0.9457541735
 40
1.0
 40
1.0
 40
1.0
 40
1.0
 10
6.2777483304
 20
4.6181915083
 30
0.0
 10
6.2788142037
 20
4.6182712543
 30
0.0
 10
6.2807119581
 20
4.6184251288
 30
0.0
 10
6.2829347706
 20
4.6186507632
 30
0.0
 10
6.2843590348
 20
4.6188382924
 30
0.0
 10
6.2851639373
 20
4.6189665114
 30
0.0
 10
6.2857921127
 20
4.6190934441
 30
0.0
 10
6.2861494562
 20
4.6191903541
 30
0.0
 10
6.2862960445
 20
4.6192435439
 30
0.0
  0
SPLINE
  5
360
100
AcDbEntity
  8
0
100
AcDbSpline
 62
7
  6
CONTINUOUS
 70
0
 71
3
 72
38
 73
34
 74
0
 42
0.0000001
 43
0.0000001
 44
0.0000000001
 40
0.0
 40
0.0
 40
0.0
 40
0.0
 40
0.0721860952
 40
0.1498703672
 40
0.231537853
 40
0.3157528226
 40
0.4009740536
 40
0.4856287679
 40
0.568172872
 40
0.6471025417
 40
0.7209662906
 40
0.7555714592
 40
0.7884059763
 40
0.8193240274
 40
0.8481836513
 40
0.8748473493
 40
0.8991999248
 40
0.9211331972
 40
0.940541859
 40
0.9573425364
 40
0.9647420565
 40
0.971462216
 40
0.9774939468
 40
0.9828297838
 40
0.9874650632
 40
0.9913954929
 40
0.9946169608
 40
0.9959606645
 40
0.997125795
 40
0.9981120543
 40
0.9989193269
 40
0.9995480162
 40
1.0
 40
1.0
 40
1.0
 40
1.0
 10
5.9409985434
 20
6.2710599027
 30
0.0
 10
5.9089692402
 20
6.2706247679
 30
0.0
 10
5.8424706248
 20
6.2697538636
 30
0.0
 10
5.739734643
 20
6.2684784852
 30
0.0
 10
5.631660482
 20
6.2672049891
 30
0.0
 10
5.520241016
 20
6.2659843251
 30
0.0
 10
5.4074956799
 20
6.2647852453
 30
0.0
 10
5.2954919692
 20
6.2635722479
 30
0.0
 10
5.1862807819
 20
6.2623141489
 30
0.0
 10
5.0818586446
 20
6.2610337879
 30
0.0
 10
4.9987082355
 20
6.2599634696
 30
0.0
 10
4.9360111636
 20
6.2591179776
 30
0.0
 10
4.8923695975
 20
6.2585092795
 30
0.0
 10
4.8512777724
 20
6.2579059723
 30
0.0
 10
4.8129245406
 20
6.257302114
 30
0.0
 10
4.7774852175
 20
6.2566910229
 30
0.0
 10
4.7451200722
 20
6.256072298
 30
0.0
 10
4.7159751047
 20
6.2554465651
 30
0.0
 10
4.6901823186
 20
6.2548128025
 30
0.0
 10
4.6708388483
 20
6.2542618431
 30
0.0
 10
4.6571253267
 20
6.2538153308
 30
0.0
 10
4.6481889047
 20
6.2534962657
 30
0.0
 10
4.6401687826
 20
6.2531795618
 30
0.0
 10
4.6330744943
 20
6.2528658102
 30
0.0
 10
4.6269135056
 20
6.2525552816
 30
0.0
 10
4.6216919708
 20
6.2522480434
 30
0.0
 10
4.6179312866
 20
6.2519822229
 30
0.0
 10
4.6153977408
 20
6.2517650357
 30
0.0
 10
4.6138542
 20
6.251613065
 30
0.0
 10
4.6125499757
 20
6.2514621448
 30
0.0
 10
4.6114852374
 20
6.2513129646
 30
0.0
 10
4.6106606061
 20
6.2511654589
 30
0.0
 10
4.6101934181
 20
6.2510526546
 30
0.0
 10
4.6100028988
 20
6.2509899724
 30
0.0
  0
SPLINE
  5
361
100
AcDbEntity
  8
0
100
AcDbSpline
 62
7
  6
CONTINUOUS
 70
0
 71
3
 72
32
 73
28
 74
0
 42
0.0000001
 43
0.0000001
 44
0.0000000001
 40
0.0
 40
0.0
 40
0.0
 40
0.0
 40
0.0006295498
 40
0.0010560348
 40
0.0015819907
 40
0.0029649133
 40
0.0048171972
 40
0.0071533421
 40
0.009980401
 40
0.0133016574
 40
0.0171187098
 40
0.0262426296
 40
0.0373539752
 40
0.0504506958
 40
0.0655291366
 40
0.0825847891
 40
0.101612649
 40
0.145563425
 40
0.1973370838
 40
0.2568765098
 40
0.3240845926
 40
0.3988549885
 40
0.4810810933
 40
0.5706561359
 40
0.6674731
 40
0.7714080713
 40
1.0
 40
1.0
 40
1.0
 40
1.0
 10
6.2866691671
 20
4.5956794657
 30
0.0
 10
6.2866692064
 20
4.5956491773
 30
0.0
 10
6.2866421553
 20
4.595599781
 30
0.0
 10
6.286585003
 20
4.5955503251
 30
0.0
 10
6.2864899373
 20
4.5954892758
 30
0.0
 10
6.2863230106
 20
4.5954177426
 30
0.0
 10
6.2860674912
 20
4.5953362646
 30
0.0
 10
6.2857398569
 20
4.595254396
 30
0.0
 10
6.2853400269
 20
4.5951718644
 30
0.0
 10
6.2848677425
 20
4.5950889753
 30
0.0
 10
6.2840942628
 20
4.5949709065
 30
0.0
 10
6.282945923
 20
4.5948267016
 30
0.0
 10
6.2813508435
 20
4.5946606419
 30
0.0
 10
6.2794680708
 20
4.5944934914
 30
0.0
 10
6.2772984431
 20
4.5943253023
 30
0.0
 10
6.2748427737
 20
4.5941562093
 30
0.0
 10
6.2709995852
 20
4.593918011
 30
0.0
 10
6.2654864906
 20
4.5936235319
 30
0.0
 10
6.2580244108
 20
4.5932804935
 30
0.0
 10
6.2494425329
 20
4.5929334648
 30
0.0
 10
6.2397535746
 20
4.5925834773
 30
0.0
 10
6.2289725577
 20
4.5922316967
 30
0.0
 10
6.217114946
 20
4.5918791998
 30
0.0
 10
6.2041962127
 20
4.5915270273
 30
0.0
 10
6.1902326485
 20
4.5911762627
 30
0.0
 10
6.1695819996
 20
4.5906961961
 30
0.0
 10
6.1535871829
 20
4.5903636039
 30
0.0
 10
6.1425914925
 20
4.5901473609
 30
0.0
  0
LINE
  5
362
100
AcDbEntity
  8
0
100
AcDbLine
 62
7
  6
CONTINUOUS
 10
6.1425914925
 20
4.5901473609
 11
6.1317893081
 21
4.5899388747
  0
SPLINE
  5
363
100
AcDbEntity
  8
0
100
AcDbSpline
 62
7
  6
CONTINUOUS
 70
0
 71
3
 72
21
 73
17
 74
0
 42
0.0000001
 43
0.0000001
 44
0.0000000001
 40
0.0
 40
0.0
 40
0.0
 40
0.0
 40
0.0458280563
 40
0.098139824
 40
0.1561846333
 40
0.2191256837
 40
0.2860610221
 40
0.3560300028
 40
0.5010530719
 40
0.5740325407
 40
0.6459333324
 40
0.7824233126
 40
0.8450604299
 40
0.9027364979
 40
0.9546323271
 40
1.0
 40
1.0
 40
1.0
 40
1.0
 10
6.1317893081
 20
4.5899388747
 30
0.0
 10
6.1108443803
 20
4.5895420202
 30
0.0
 10
6.0659895992
 20
4.5887796955
 30
0.0
 10
5.9946030047
 20
4.587728007
 30
0.0
 10
5.9153934272
 20
4.5866481985
 30
0.0
 10
5.8294990264
 20
4.5855373778
 30
0.0
 10
5.7381537429
 20
4.5844052106
 30
0.0
 10
5.6092894572
 20
4.582887671
 30
0.0
 10
5.4776609377
 20
4.5814759441
 30
0.0
 10
5.3451493646
 20
4.580060873
 30
0.0
 10
5.2165388329
 20
4.5786261068
 30
0.0
 10
5.0926569938
 20
4.5771256591
 30
0.0
 10
4.9752783925
 20
4.5755970599
 30
0.0
 10
4.8965663644
 20
4.5745258053
 30
0.0
 10
4.8257490128
 20
4.5734707826
 30
0.0
 10
4.7812949125
 20
4.5727060488
 30
0.0
 10
4.7605604709
 20
4.5723091941
 30
0.0
  0
LINE
  5
364
100
AcDbEntity
  8
0
100
AcDbLine
 62
7
  6
CONTINUOUS
 10
4.7605604709
 20
4.5723091941
 11
4.7541990639
 21
4.5721860891
  0
SPLINE
  5
365
100
AcDbEntity
  8
0
100
AcDbSpline
 62
7
  6
CONTINUOUS
 70
0
 71
3
 72
20
 73
16
 74
0
 42
0.0000001
 43
0.0000001
 44
0.0000000001
 40
0.0
 40
0.0
 40
0.0
 40
0.0
 40
0.2152647104
 40
0.4053631827
 40
0.5698936363
 40
0.7085750441
 40
0.7681380965
 40
0.8211384525
 40
0.8675439994
 40
0.9073240808
 40
0.9404508748
 40
0.9669149833
 40
0.9867410388
 40
0.9941837591
 40
1.0
 40
1.0
 40
1.0
 40
1.0
 10
4.6743995435
 20
4.5703032848
 30
0.0
 10
4.6697710911
 20
4.5701671472
 30
0.0
 10
4.6610556635
 20
4.569897786
 30
0.0
 10
4.6488043478
 20
4.5694710293
 30
0.0
 10
4.6382013914
 20
4.5690476322
 30
0.0
 10
4.6304063278
 20
4.5686830977
 30
0.0
 10
4.6250099601
 20
4.5683879313
 30
0.0
 10
4.6215967995
 20
4.5681793229
 30
0.0
 10
4.6186099448
 20
4.5679724044
 30
0.0
 10
4.6160516386
 20
4.5677673537
 30
0.0
 10
4.6139235276
 20
4.5675650713
 30
0.0
 10
4.6122269252
 20
4.5673653111
 30
0.0
 10
4.6110835631
 20
4.5671911121
 30
0.0
 10
4.6103871295
 20
4.5670439936
 30
0.0
 10
4.6101114352
 20
4.566969556
 30
0.0
 10
4.6099926386
 20
4.5669303137
 30
0.0
  0
SPLINE
  5
366
100
AcDbEntity
  8
0
100
AcDbSpline
 62
7
  6
CONTINUOUS
 70
0
 71
3
 72
32
 73
28
 74
0
 42
0.0000001
 43
0.0000001
 44
0.0000000001
 40
0.0
 40
0.0
 40
0.0
 40
0.0
 40
0.0006180466
 40
0.0010406046
 40
0.0015636273
 40
0.0029428347
 40
0.0047933237
 40
0.0071290203
 40
0.0099568263
 40
0.0132802718
 40
0.0171008409
 40
0.0262353004
 40
0.037361193
 40
0.0504758095
 40
0.0655749086
 40
0.0826534339
 40
0.1017058559
 40
0.1457087934
 40
0.1975353399
 40
0.2571260821
 40
0.3243805235
 40
0.3991868158
 40
0.4814328632
 40
0.5710064117
 40
0.6677948321
 40
0.7716662014
 40
1.0
 40
1.0
 40
1.0
 40
1.0
 10
4.6095630768
 20
4.6485428143
 30
0.0
 10
4.6095630529
 20
4.648573948
 30
0.0
 10
4.6095917337
 20
4.648624697
 30
0.0
 10
4.6096514735
 20
4.6486750818
 30
0.0
 10
4.6097512593
 20
4.6487376427
 30
0.0
 10
4.6099262605
 20
4.6488108142
 30
0.0
 10
4.6101940832
 20
4.6488942266
 30
0.0
 10
4.6105375138
 20
4.6489780375
 30
0.0
 10
4.6109566652
 20
4.6490625553
 30
0.0
 10
4.6114518238
 20
4.6491474443
 30
0.0
 10
4.6122629186
 20
4.6492683951
 30
0.0
 10
4.6134671258
 20
4.6494161396
 30
0.0
 10
4.6151397964
 20
4.6495863109
 30
0.0
 10
4.617114146
 20
4.6497576332
 30
0.0
 10
4.6193892232
 20
4.6499300458
 30
0.0
 10
4.6219641017
 20
4.6501034032
 30
0.0
 10
4.6259934273
 20
4.6503476153
 30
0.0
 10
4.6317727444
 20
4.6506495396
 30
0.0
 10
4.6395940836
 20
4.651001217
 30
0.0
 10
4.6485875693
 20
4.651356933
 30
0.0
 10
4.6587393302
 20
4.6517156199
 30
0.0
 10
4.6700329195
 20
4.6520760176
 30
0.0
 10
4.6824513207
 20
4.6524369661
 30
0.0
 10
4.6959775004
 20
4.6527973443
 30
0.0
 10
4.7105934423
 20
4.653155958
 30
0.0
 10
4.732198183
 20
4.6536462999
 30
0.0
 10
4.7489294031
 20
4.6539858637
 30
0.0
 10
4.7604294626
 20
4.6542066433
 30
0.0
  0
LINE
  5
367
100
AcDbEntity
  8
0
100
AcDbLine
 62
7
  6
CONTINUOUS
 10
4.7604294626
 20
4.6542066433
 11
4.7685816937
 21
4.6543610366
  0
LINE
  5
368
100
AcDbEntity
  8
0
100
AcDbLine
 62
7
  6
CONTINUOUS
 10
4.7685816937
 20
4.6543610366
 11
4.8024040067
 21
4.6549618335
  0
LINE
  5
369
100
AcDbEntity
  8
0
100
AcDbLine
 62
7
  6
CONTINUOUS
 10
4.8024040067
 20
4.6549618335
 11
4.8050257857
 21
4.6550060568
  0
SPLINE
  5
36A
100
AcDbEntity
  8
0
100
AcDbSpline
 62
7
  6
CONTINUOUS
 70
0
 71
3
 72
18
 73
14
 74
0
 42
0.0000001
 43
0.0000001
 44
0.0000000001
 40
0.0
 40
0.0
 40
0.0
 40
0.0
 40
0.0486528139
 40
0.1027087989
 40
0.2243844523
 40
0.3591836633
 40
0.500659499
 40
0.6420479397
 40
0.7765934095
 40
0.8392652532
 40
0.8978519812
 40
0.9516451713
 40
1.0
 40
1.0
 40
1.0
 40
1.0
 10
4.8050257857
 20
4.6550060568
 30
0.0
 10
4.825931964
 20
4.6553574788
 30
0.0
 10
4.8700670573
 20
4.6560404753
 30
0.0
 10
4.9664894737
 20
4.6573946035
 30
0.0
 10
5.099932711
 20
4.6591206837
 30
0.0
 10
5.2709446238
 20
4.6611655007
 30
0.0
 10
5.4504302775
 20
4.6630854227
 30
0.0
 10
5.6298068522
 20
4.6650072332
 30
0.0
 10
5.7753163569
 20
4.6667497948
 30
0.0
 10
5.8852422479
 20
4.6681544226
 30
0.0
 10
5.9604661673
 20
4.6691573544
 30
0.0
 10
6.0295370179
 20
4.6701299411
 30
0.0
 10
6.0734310445
 20
4.6708153407
 30
0.0
 10
6.0942091296
 20
4.6711674882
 30
0.0
  0
LINE
  5
36B
100
AcDbEntity
  8
0
100
AcDbLine
 62
7
  6
CONTINUOUS
 10
6.0942091296
 20
4.6711674882
 11
6.1085238557
 21
4.6714147291
  0
LINE
  5
36C
100
AcDbEntity
  8
0
100
AcDbLine
 62
7
  6
CONTINUOUS
 10
6.1085238557
 20
4.6714147291
 11
6.1359108639
 21
4.6719173219
  0
LINE
  5
36D
100
AcDbEntity
  8
0
100
AcDbLine
 62
7
  6
CONTINUOUS
 10
6.1359108639
 20
4.6719173219
 11
6.1434747567
 21
4.67206421
  0
SPLINE
  5
36E
100
AcDbEntity
  8
0
100
AcDbSpline
 62
7
  6
CONTINUOUS
 70
0
 71
3
 72
23
 73
19
 74
0
 42
0.0000001
 43
0.0000001
 44
0.0000000001
 40
0.0
 40
0.0
 40
0.0
 40
0.0
 40
0.2186290513
 40
0.4120420164
 40
0.5793541203
 40
0.6529659232
 40
0.7197449289
 40
0.7795938808
 40
0.8324475035
 40
0.8782534771
 40
0.9169604529
 40
0.9485188957
 40
0.9616031205
 40
0.9728838045
 40
0.9823573032
 40
0.9900258948
 40
0.9958993661
 40
1.0
 40
1.0
 40
1.0
 40
1.0
 10
6.1434747567
 20
4.67206421
 30
0.0
 10
6.1538935712
 20
4.6722692644
 30
0.0
 10
6.1735291214
 20
4.6726769884
 30
0.0
 10
6.2011359074
 20
4.6733354842
 30
0.0
 10
6.2218304814
 20
4.6739085196
 30
0.0
 10
6.2364896205
 20
4.6743733563
 30
0.0
 10
6.2460281768
 20
4.6747054255
 30
0.0
 10
6.2545767396
 20
4.6750350529
 30
0.0
 10
6.2621249201
 20
4.6753619081
 30
0.0
 10
6.2686644855
 20
4.6756854989
 30
0.0
 10
6.2741877561
 20
4.6760055953
 30
0.0
 10
6.2781511043
 20
4.6762825933
 30
0.0
 10
6.2808070619
 20
4.676509077
 30
0.0
 10
6.2824122895
 20
4.6766670252
 30
0.0
 10
6.2837579629
 20
4.6768237234
 30
0.0
 10
6.2848444569
 20
4.6769782546
 30
0.0
 10
6.2856712052
 20
4.6771309643
 30
0.0
 10
6.2861334629
 20
4.6772483651
 30
0.0
 10
6.2863171689
 20
4.6773151075
 30
0.0
  0
SPLINE
  5
36F
100
AcDbEntity
  8
0
100
AcDbSpline
 62
7
  6
CONTINUOUS
 70
0
 71
3
 72
29
 73
25
 74
0
 42
0.0000001
 43
0.0000001
 44
0.0000000001
 40
0.0
 40
0.0
 40
0.0
 40
0.0
 40
0.001630857
 40
0.0030340849
 40
0.0048938815
 40
0.0072272164
 40
0.0100424346
 40
0.0133441658
 40
0.0171352025
 40
0.0261914674
 40
0.0372200115
 40
0.0502247924
 40
0.0652077549
 40
0.1011051098
 40
0.1448705833
 40
0.1964430444
 40
0.255759354
 40
0.3227553354
 40
0.3973662132
 40
0.4795264972
 40
0.5691513888
 40
0.6661272906
 40
0.7703381397
 40
1.0
 40
1.0
 40
1.0
 40
1.0
 10
6.2866774646
 20
4.6537495961
 30
0.0
 10
6.286677466
 20
4.6536873158
 30
0.0
 10
6.286568955
 20
4.6535959462
 30
0.0
 10
6.2864075261
 20
4.6535191282
 30
0.0
 10
6.2862035945
 20
4.6534451109
 30
0.0
 10
6.2859467888
 20
4.6533731967
 30
0.0
 10
6.2856320482
 20
4.6532998972
 30
0.0
 10
6.285260913
 20
4.6532266301
 30
0.0
 10
6.2846530074
 20
4.653122196
 30
0.0
 10
6.2837500352
 20
4.6529947067
 30
0.0
 10
6.2824948702
 20
4.65284789
 30
0.0
 10
6.2810121853
 20
4.6527000615
 30
0.0
 10
6.2785816244
 20
4.6524886841
 30
0.0
 10
6.2749763656
 20
4.6522293907
 30
0.0
 10
6.2699736017
 20
4.6519291647
 30
0.0
 10
6.2640753045
 20
4.6516256074
 30
0.0
 10
6.2572890011
 20
4.651319165
 30
0.0
 10
6.249622193
 20
4.6510104891
 30
0.0
 10
6.2410824421
 20
4.6506999982
 30
0.0
 10
6.2316780541
 20
4.6503881088
 30
0.0
 10
6.2214191756
 20
4.6500752972
 30
0.0
 10
6.2103178631
 20
4.6497621845
 30
0.0
 10
6.1938699562
 20
4.6493310499
 30
0.0
 10
6.1811232859
 20
4.6490313187
 30
0.0
 10
6.1723549591
 20
4.6488366273
 30
0.0
  0
LINE
  5
370
100
AcDbEntity
  8
0
100
AcDbLine
 62
7
  6
CONTINUOUS
 10
6.1723549591
 20
4.6488366273
 11
6.1553961274
 21
4.6484738923
  0
SPLINE
  5
371
100
AcDbEntity
  8
0
100
AcDbSpline
 62
7
  6
CONTINUOUS
 70
0
 71
3
 72
23
 73
19
 74
0
 42
0.0000001
 43
0.0000001
 44
0.0000000001
 40
0.0
 40
0.0
 40
0.0
 40
0.0
 40
0.043513252
 40
0.0940692765
 40
0.1509051187
 40
0.2131472616
 40
0.2798428247
 40
0.3499731946
 40
0.4224642985
 40
0.4962114804
 40
0.5700851614
 40
0.6429581535
 40
0.7137164192
 40
0.7812847252
 40
0.8446269528
 40
0.9027760201
 40
0.9548319638
 40
1.0
 40
1.0
 40
1.0
 40
1.0
 10
6.1553961274
 20
4.6484738923
 30
0.0
 10
6.1350685127
 20
4.6480547423
 30
0.0
 10
6.0911209533
 20
4.6472576069
 30
0.0
 10
6.0206176723
 20
4.6461664813
 30
0.0
 10
5.9413623488
 20
4.6450669799
 30
0.0
 10
5.8545655506
 20
4.6439283932
 30
0.0
 10
5.7615566446
 20
4.6427594471
 30
0.0
 10
5.6637583973
 20
4.6415961587
 30
0.0
 10
5.5626647195
 20
4.6404571483
 30
0.0
 10
5.459821414
 20
4.6393576408
 30
0.0
 10
5.3567996787
 20
4.6382563609
 30
0.0
 10
5.2551748897
 20
4.6371300435
 30
0.0
 10
5.1564969052
 20
4.6359707683
 30
0.0
 10
5.0622727329
 20
4.6347988253
 30
0.0
 10
4.9739404304
 20
4.6336552958
 30
0.0
 10
4.8928566304
 20
4.6325427754
 30
0.0
 10
4.8202653593
 20
4.6314568093
 30
0.0
 10
4.7748434344
 20
4.6306645012
 30
0.0
 10
4.7537423722
 20
4.6302492627
 30
0.0
  0
LINE
  5
372
100
AcDbEntity
  8
0
100
AcDbLine
 62
7
  6
CONTINUOUS
 10
4.7537423722
 20
4.6302492627
 11
4.748495646
 21
4.6301450161
  0
LINE
  5
373
100
AcDbEntity
  8
0
100
AcDbLine
 62
7
  6
CONTINUOUS
 10
4.7234881856
 20
4.629617597
 11
4.7176912387
 21
4.6294870813
  0
SPLINE
  5
374
100
AcDbEntity
  8
0
100
AcDbSpline
 62
7
  6
CONTINUOUS
 70
0
 71
3
 72
22
 73
18
 74
0
 42
0.0000001
 43
0.0000001
 44
0.0000000001
 40
0.0
 40
0.0
 40
0.0
 40
0.0
 40
0.2172776558
 40
0.409287413
 40
0.5753872656
 40
0.6485461978
 40
0.7150181472
 40
0.7747336711
 40
0.8276245423
 40
0.8736438598
 40
0.9127670183
 40
0.9449724356
 40
0.9702428791
 40
0.9802752615
 40
0.9885736726
 40
0.9951435938
 40
1.0
 40
1.0
 40
1.0
 40
1.0
 10
4.7176912387
 20
4.6294870813
 30
0.0
 10
4.7098848596
 20
4.6293089602
 30
0.0
 10
4.6951803261
 20
4.6289553965
 30
0.0
 10
4.6745100576
 20
4.6283897242
 30
0.0
 10
4.659018996
 20
4.6279007436
 30
0.0
 10
4.6480388999
 20
4.6275054715
 30
0.0
 10
4.6408804372
 20
4.627223239
 30
0.0
 10
4.6344508927
 20
4.6269430837
 30
0.0
 10
4.6287570051
 20
4.6266656406
 30
0.0
 10
4.6238039958
 20
4.6263911646
 30
0.0
 10
4.6195954322
 20
4.6261199667
 30
0.0
 10
4.6161342137
 20
4.6258518414
 30
0.0
 10
4.6137190066
 20
4.6256184525
 30
0.0
 10
4.6121640278
 20
4.6254248243
 30
0.0
 10
4.6112788331
 20
4.6252921403
 30
0.0
 10
4.6105822284
 20
4.6251607593
 30
0.0
 10
4.6101831473
 20
4.6250608244
 30
0.0
 10
4.6100173432
 20
4.6250063389
 30
0.0
  0
SPLINE
  5
375
100
AcDbEntity
  8
0
100
AcDbSpline
 62
7
  6
CONTINUOUS
 70
0
 71
3
 72
29
 73
25
 74
0
 42
0.0000001
 43
0.0000001
 44
0.0000000001
 40
0.0
 40
0.0
 40
0.0
 40
0.0
 40
0.0016366035
 40
0.0030434277
 40
0.0049070755
 40
0.0072443656
 40
0.010063485
 40
0.0133688991
 40
0.0171632327
 40
0.0262242501
 40
0.0372539423
 40
0.0502548758
 40
0.0652275977
 40
0.1010853799
 40
0.14481537
 40
0.1963717204
 40
0.2556836993
 40
0.3226789405
 40
0.3972844993
 40
0.4794270749
 40
0.5690330994
 40
0.6660155725
 40
0.770254388
 40
1.0
 40
1.0
 40
1.0
 40
1.0
 10
4.6095687109
 20
4.7066144595
 30
0.0
 10
4.6095688479
 20
4.7066767633
 30
0.0
 10
4.6096773072
 20
4.7067680158
 30
0.0
 10
4.6098386661
 20
4.7068448778
 30
0.0
 10
4.6100423458
 20
4.7069188526
 30
0.0
 10
4.6102987577
 20
4.7069907376
 30
0.0
 10
4.6106129208
 20
4.7070639861
 30
0.0
 10
4.6109832827
 20
4.7071371921
 30
0.0
 10
4.6115897017
 20
4.707241503
 30
0.0
 10
4.6124901695
 20
4.7073688014
 30
0.0
 10
4.6137414607
 20
4.7075153315
 30
0.0
 10
4.6152189971
 20
4.7076627797
 30
0.0
 10
4.6176398973
 20
4.7078734412
 30
0.0
 10
4.6212306258
 20
4.7081316354
 30
0.0
 10
4.6262142396
 20
4.7084308759
 30
0.0
 10
4.6320919
 20
4.7087339523
 30
0.0
 10
4.6388560981
 20
4.7090402203
 30
0.0
 10
4.6464984514
 20
4.7093488707
 30
0.0
 10
4.6550105078
 20
4.709659297
 30
0.0
 10
4.6643838116
 20
4.7099709189
 30
0.0
 10
4.6746093922
 20
4.7102831738
 30
0.0
 10
4.6856765136
 20
4.7105955219
 30
0.0
 10
4.7020773843
 20
4.7110255897
 30
0.0
 10
4.714788363
 20
4.7113247303
 30
0.0
 10
4.7235323964
 20
4.7115192692
 30
0.0
  0
LINE
  5
376
100
AcDbEntity
  8
0
100
AcDbLine
 62
7
  6
CONTINUOUS
 10
4.7235323964
 20
4.7115192692
 11
4.7264561763
 21
4.7115838935
  0
LINE
  5
377
100
AcDbEntity
  8
0
100
AcDbLine
 62
7
  6
CONTINUOUS
 10
4.7264561763
 20
4.7115838935
 11
4.7361581602
 21
4.7117925309
  0
LINE
  5
378
100
AcDbEntity
  8
0
100
AcDbLine
 62
7
  6
CONTINUOUS
 10
4.7361581602
 20
4.7117925309
 11
4.7536674465
 21
4.7121486908
  0
LINE
  5
379
100
AcDbEntity
  8
0
100
AcDbLine
 62
7
  6
CONTINUOUS
 10
4.7536674465
 20
4.7121486908
 11
4.7589107491
 21
4.7122507488
  0
SPLINE
  5
37A
100
AcDbEntity
  8
0
100
AcDbSpline
 62
7
  6
CONTINUOUS
 70
0
 71
3
 72
23
 73
19
 74
0
 42
0.0000001
 43
0.0000001
 44
0.0000000001
 40
0.0
 40
0.0
 40
0.0
 40
0.0
 40
0.045263177
 40
0.0971011609
 40
0.1547747633
 40
0.2174437887
 40
0.2842044236
 40
0.3540924494
 40
0.4261000131
 40
0.4991895364
 40
0.5723056937
 40
0.6443926845
 40
0.7144133924
 40
0.7813587724
 40
0.8442627464
 40
0.9022174499
 40
0.9543780492
 40
1.0
 40
1.0
 40
1.0
 40
1.0
 10
4.7589107491
 20
4.7122507488
 30
0.0
 10
4.7796604437
 20
4.7126507149
 30
0.0
 10
4.8241756742
 20
4.7134150198
 30
0.0
 10
4.8951333005
 20
4.7144757527
 30
0.0
 10
4.9740722122
 20
4.7155543643
 30
0.0
 10
5.0598534255
 20
4.7166670109
 30
0.0
 10
5.151235172
 20
4.7178063604
 30
0.0
 10
5.2468991893
 20
4.7189327958
 30
0.0
 10
5.3454655263
 20
4.7200346753
 30
0.0
 10
5.4455124258
 20
4.7211042889
 30
0.0
 10
5.5455957589
 20
4.722172624
 30
0.0
 10
5.6442715869
 20
4.723272834
 30
0.0
 10
5.7401175914
 20
4.7243981173
 30
0.0
 10
5.8317526235
 20
4.7255377218
 30
0.0
 10
5.9178551614
 20
4.726652114
 30
0.0
 10
5.9971786194
 20
4.7277324677
 30
0.0
 10
6.0685776005
 20
4.7287933845
 30
0.0
 10
6.1134053199
 20
4.7295562831
 30
0.0
 10
6.1343195641
 20
4.7299552796
 30
0.0
  0
LINE
  5
37B
100
AcDbEntity
  8
0
100
AcDbLine
 62
7
  6
CONTINUOUS
 10
6.1343195641
 20
4.7299552796
 11
6.1427242568
 21
4.7301181084
  0
LINE
  5
37C
100
AcDbEntity
  8
0
100
AcDbLine
 62
7
  6
CONTINUOUS
 10
6.1427242568
 20
4.7301181084
 11
6.1601758203
 21
4.7304733691
  0
LINE
  5
37D
100
AcDbEntity
  8
0
100
AcDbLine
 62
7
  6
CONTINUOUS
 10
6.1601758203
 20
4.7304733691
 11
6.1669759983
 21
4.7306187584
  0
SPLINE
  5
37E
100
AcDbEntity
  8
0
100
AcDbSpline
 62
7
  6
CONTINUOUS
 70
0
 71
3
 72
15
 73
11
 74
0
 42
0.0000001
 43
0.0000001
 44
0.0000000001
 40
0.0
 40
0.0
 40
0.0
 40
0.0
 40
0.368552572
 40
0.5242082971
 40
0.6601324205
 40
0.7759866277
 40
0.8714459428
 40
0.9461905819
 40
0.9757171846
 40
1.0
 40
1.0
 40
1.0
 40
1.0
 10
6.1669759983
 20
4.7306187584
 30
0.0
 10
6.1810673615
 20
4.7309244223
 30
0.0
 10
6.2011094113
 20
4.7313961315
 30
0.0
 10
6.226344908
 20
4.732114327
 30
0.0
 10
6.2419183564
 20
4.732620752
 30
0.0
 10
6.2551885201
 20
4.733122172
 30
0.0
 10
6.2661172299
 20
4.7336164879
 30
0.0
 10
6.2737440352
 20
4.734043301
 30
0.0
 10
6.2786478786
 20
4.7343947067
 30
0.0
 10
6.2806982848
 20
4.7345713053
 30
0.0
 10
6.2816224588
 20
4.7346624312
 30
0.0
  0
SPLINE
  5
37F
100
AcDbEntity
  8
0
100
AcDbSpline
 62
7
  6
CONTINUOUS
 70
0
 71
3
 72
12
 73
8
 74
0
 42
0.0000001
 43
0.0000001
 44
0.0000000001
 40
0.0
 40
0.0
 40
0.0
 40
0.0
 40
0.355203347
 40
0.6400272791
 40
0.8546964576
 40
0.9359297244
 40
1.0
 40
1.0
 40
1.0
 40
1.0
 10
6.2816224588
 20
4.7346624312
 30
0.0
 10
6.2821811305
 20
4.7347175177
 30
0.0
 10
6.2831871424
 20
4.7348242621
 30
0.0
 10
6.2845264317
 20
4.7350004919
 30
0.0
 10
6.2854319052
 20
4.7351546387
 30
0.0
 10
6.2859858829
 20
4.7352847299
 30
0.0
 10
6.2862062154
 20
4.735350603
 30
0.0
 10
6.2863013925
 20
4.7353851699
 30
0.0
  0
SPLINE
  5
380
100
AcDbEntity
  8
0
100
AcDbSpline
 62
7
  6
CONTINUOUS
 70
0
 71
3
 72
28
 73
24
 74
0
 42
0.0000001
 43
0.0000001
 44
0.0000000001
 40
0.0
 40
0.0
 40
0.0
 40
0.0
 40
0.0016544991
 40
0.003067371
 40
0.0049371715
 40
0.0072811009
 40
0.0101074213
 40
0.0134205438
 40
0.0172229735
 40
0.026300694
 40
0.0373465501
 40
0.0653437912
 40
0.1012035384
 40
0.1449011617
 40
0.1964074638
 40
0.2556867351
 40
0.3226695003
 40
0.3972709245
 40
0.4794057476
 40
0.5689884829
 40
0.6659334906
 40
0.7701549513
 40
1.0
 40
1.0
 40
1.0
 40
1.0
 10
6.2866627533
 20
4.7118210354
 30
0.0
 10
6.286662801
 20
4.7117603724
 30
0.0
 10
6.2865591658
 20
4.711670534
 30
0.0
 10
6.2864030685
 20
4.7115948396
 30
0.0
 10
6.2862067733
 20
4.7115221668
 30
0.0
 10
6.2859594095
 20
4.7114515214
 30
0.0
 10
6.285656367
 20
4.7113795359
 30
0.0
 10
6.285299082
 20
4.7113075816
 30
0.0
 10
6.284714168
 20
4.7112050652
 30
0.0
 10
6.2838457377
 20
4.7110799126
 30
0.0
 10
6.2820936578
 20
4.7108710846
 30
0.0
 10
6.2793584333
 20
4.710619835
 30
0.0
 10
6.2754254095
 20
4.7103310465
 30
0.0
 10
6.2706286869
 20
4.7100387271
 30
0.0
 10
6.2649721926
 20
4.7097425881
 30
0.0
 10
6.2584610813
 20
4.7094430341
 30
0.0
 10
6.2511025145
 20
4.7091406143
 30
0.0
 10
6.2429053842
 20
4.7088361186
 30
0.0
 10
6.2338791475
 20
4.7085302296
 30
0.0
 10
6.2240332663
 20
4.7082236263
 30
0.0
 10
6.2133772092
 20
4.7079169344
 30
0.0
 10
6.1975795903
 20
4.7074949122
 30
0.0
 10
6.1853343557
 20
4.7072019153
 30
0.0
 10
6.1769091341
 20
4.7070111784
 30
0.0
  0
LINE
  5
381
100
AcDbEntity
  8
0
100
AcDbLine
 62
7
  6
CONTINUOUS
 10
6.1769091341
 20
4.7070111784
 11
6.1725946941
 21
4.7069144625
  0
LINE
  5
382
100
AcDbEntity
  8
0
100
AcDbLine
 62
7
  6
CONTINUOUS
 10
6.1454966385
 20
4.706345715
 11
6.1423095294
 21
4.7062826763
  0
SPLINE
  5
383
100
AcDbEntity
  8
0
100
AcDbSpline
 62
7
  6
CONTINUOUS
 70
0
 71
3
 72
23
 73
19
 74
0
 42
0.0000001
 43
0.0000001
 44
0.0000000001
 40
0.0
 40
0.0
 40
0.0
 40
0.0
 40
0.0452544671
 40
0.0974228266
 40
0.1557031294
 40
0.2191892033
 40
0.2869049562
 40
0.3578011962
 40
0.4307929036
 40
0.5047597071
 40
0.5785671632
 40
0.6510765839
 40
0.7211793894
 40
0.7877973329
 40
0.8499023233
 40
0.9065341742
 40
0.9568209353
 40
1.0
 40
1.0
 40
1.0
 40
1.0
 10
6.1423095294
 20
4.7062826763
 30
0.0
 10
6.1211266159
 20
4.7058661133
 30
0.0
 10
6.0755225116
 20
4.7050709284
 30
0.0
 10
6.0026343138
 20
4.7039820783
 30
0.0
 10
5.9212100652
 20
4.7028654442
 30
0.0
 10
5.8325066962
 20
4.7017175764
 30
0.0
 10
5.7378967294
 20
4.7005425962
 30
0.0
 10
5.638835998
 20
4.6993789345
 30
0.0
 10
5.5368480823
 20
4.6982514218
 30
0.0
 10
5.4334968873
 20
4.6971465511
 30
0.0
 10
5.3303714804
 20
4.6960432677
 30
0.0
 10
5.2290556433
 20
4.6949000554
 30
0.0
 10
5.1311062725
 20
4.6937319077
 30
0.0
 10
5.0380284009
 20
4.692560513
 30
0.0
 10
4.9512574305
 20
4.6914193997
 30
0.0
 10
4.8721324473
 20
4.69031832
 30
0.0
 10
4.8018689649
 20
4.6892237704
 30
0.0
 10
4.7581178194
 20
4.688422156
 30
0.0
 10
4.7379068609
 20
4.688000451
 30
0.0
  0
SPLINE
  5
384
100
AcDbEntity
  8
0
100
AcDbSpline
 62
7
  6
CONTINUOUS
 70
0
 71
3
 72
14
 73
10
 74
0
 42
0.0000001
 43
0.0000001
 44
0.0000000001
 40
0.0
 40
0.0
 40
0.0
 40
0.0
 40
0.3588079522
 40
0.5120194053
 40
0.6471602591
 40
0.7638041244
 40
0.8616589577
 40
0.9404728587
 40
1.0
 40
1.0
 40
1.0
 40
1.0
 10
4.7379068609
 20
4.688000451
 30
0.0
 10
4.7234584615
 20
4.6876989828
 30
0.0
 10
4.7028412716
 20
4.6872314716
 30
0.0
 10
4.6767854697
 20
4.6865236469
 30
0.0
 10
4.6604812773
 20
4.6860223644
 30
0.0
 10
4.6464077448
 20
4.6855250286
 30
0.0
 10
4.6346041556
 20
4.6850345016
 30
0.0
 10
4.6251031767
 20
4.684552387
 30
0.0
 10
4.619542375
 20
4.6841924405
 30
0.0
 10
4.6171526377
 20
4.6839990764
 30
0.0
  0
SPLINE
  5
385
100
AcDbEntity
  8
0
100
AcDbSpline
 62
7
  6
CONTINUOUS
 70
0
 71
3
 72
12
 73
8
 74
0
 42
0.0000001
 43
0.0000001
 44
0.0000000001
 40
0.0
 40
0.0
 40
0.0
 40
0.0
 40
0.3624189107
 40
0.6496762025
 40
0.8619716868
 40
0.9401878698
 40
1.0
 40
1.0
 40
1.0
 40
1.0
 10
4.6171526377
 20
4.6839990764
 30
0.0
 10
4.6162832468
 20
4.6839287302
 30
0.0
 10
4.6147254085
 20
4.6837930451
 30
0.0
 10
4.6126631202
 20
4.6835685045
 30
0.0
 10
4.6112855287
 20
4.6833727987
 30
0.0
 10
4.6104588852
 20
4.6832062835
 30
0.0
 10
4.6101370633
 20
4.6831219653
 30
0.0
 10
4.6100003215
 20
4.6830769857
 30
0.0
  0
SPLINE
  5
386
100
AcDbEntity
  8
0
100
AcDbSpline
 62
7
  6
CONTINUOUS
 70
0
 71
3
 72
28
 73
24
 74
0
 42
0.0000001
 43
0.0000001
 44
0.0000000001
 40
0.0
 40
0.0
 40
0.0
 40
0.0
 40
0.0016427495
 40
0.003049059
 40
0.0049110775
 40
0.0072463016
 40
0.0100634553
 40
0.0133674732
 40
0.0171614133
 40
0.0262262879
 40
0.0372686366
 40
0.0652905005
 40
0.1012007428
 40
0.1449542385
 40
0.1965014287
 40
0.2557906864
 40
0.3227692907
 40
0.3973820364
 40
0.4795462071
 40
0.5691582666
 40
0.6661140174
 40
0.7703091597
 40
1.0
 40
1.0
 40
1.0
 40
1.0
 10
4.6095542429
 20
4.76468482
 30
0.0
 10
4.6095542534
 20
4.7647460126
 30
0.0
 10
4.6096595316
 20
4.7648362763
 30
0.0
 10
4.6098173713
 20
4.7649123308
 30
0.0
 10
4.6100161763
 20
4.7649854305
 30
0.0
 10
4.6102666788
 20
4.7650564926
 30
0.0
 10
4.6105736909
 20
4.7651289215
 30
0.0
 10
4.6109357914
 20
4.7652013375
 30
0.0
 10
4.6115290397
 20
4.76530458
 30
0.0
 10
4.612410527
 20
4.7654307002
 30
0.0
 10
4.6141910241
 20
4.7656414168
 30
0.0
 10
4.6169726604
 20
4.7658952895
 30
0.0
 10
4.620973384
 20
4.7661873833
 30
0.0
 10
4.6258521692
 20
4.7664829961
 30
0.0
 10
4.6316029342
 20
4.7667820493
 30
0.0
 10
4.6382197288
 20
4.7670837652
 30
0.0
 10
4.6456963943
 20
4.7673879286
 30
0.0
 10
4.6540256997
 20
4.7676943069
 30
0.0
 10
4.66319856
 20
4.7680024019
 30
0.0
 10
4.6732040975
 20
4.7683114755
 30
0.0
 10
4.6840306431
 20
4.768620848
 30
0.0
 10
4.7000739061
 20
4.7690467899
 30
0.0
 10
4.7125077101
 20
4.7693426726
 30
0.0
 10
4.7210615672
 20
4.7695347048
 30
0.0
  0
SPLINE
  5
387
100
AcDbEntity
  8
0
100
AcDbSpline
 62
7
  6
CONTINUOUS
 70
0
 71
3
 72
22
 73
18
 74
0
 42
0.0000001
 43
0.0000001
 44
0.0000000001
 40
0.0
 40
0.0
 40
0.0
 40
0.0
 40
0.0415152301
 40
0.0907229741
 40
0.1468184367
 40
0.20886765
 40
0.2758368364
 40
0.3466192841
 40
0.4200325575
 40
0.4948603509
 40
0.6437942911
 40
0.7154338853
 40
0.7835928688
 40
0.847138215
 40
0.9050103393
 40
0.9562507795
 40
1.0
 40
1.0
 40
1.0
 40
1.0
 10
4.7210615672
 20
4.7695347048
 30
0.0
 10
4.7409651127
 20
4.769981535
 30
0.0
 10
4.784463124
 20
4.7708272017
 30
0.0
 10
4.854860518
 20
4.7719649785
 30
0.0
 10
4.9351060972
 20
4.773100389
 30
0.0
 10
5.0238693148
 20
4.7742796543
 30
0.0
 10
5.1196758384
 20
4.7754906055
 30
0.0
 10
5.2209323165
 20
4.7767076682
 30
0.0
 10
5.3259579916
 20
4.7778941735
 30
0.0
 10
5.4684595963
 20
4.7794211007
 30
0.0
 10
5.6101107768
 20
4.7809327993
 30
0.0
 10
5.7485622944
 20
4.7825719574
 30
0.0
 10
5.8460679721
 20
4.7837872423
 30
0.0
 10
5.9369712685
 20
4.7849770418
 30
0.0
 10
6.019761152
 20
4.7861245642
 30
0.0
 10
6.093057105
 20
4.7872542633
 30
0.0
 10
6.1386016489
 20
4.7880937106
 30
0.0
 10
6.1595769046
 20
4.7885335576
 30
0.0
  0
LINE
  5
388
100
AcDbEntity
  8
0
100
AcDbLine
 62
7
  6
CONTINUOUS
 10
6.1595769046
 20
4.7885335576
 11
6.1623061158
 21
4.7885911081
  0
LINE
  5
389
100
AcDbEntity
  8
0
100
AcDbLine
 62
7
  6
CONTINUOUS
 10
6.1623061158
 20
4.7885911081
 11
6.173165932
 21
4.7888268064
  0
SPLINE
  5
38A
100
AcDbEntity
  8
0
100
AcDbSpline
 62
7
  6
CONTINUOUS
 70
0
 71
3
 72
14
 73
10
 74
0
 42
0.0000001
 43
0.0000001
 44
0.0000000001
 40
0.0
 40
0.0
 40
0.0
 40
0.0
 40
0.3583555117
 40
0.5111648912
 40
0.6459786439
 40
0.7624853967
 40
0.8604205575
 40
0.9396339768
 40
1.0
 40
1.0
 40
1.0
 40
1.0
 10
6.1922023159
 20
4.7892699283
 30
0.0
 10
6.2027817355
 20
4.7895284139
 30
0.0
 10
6.2178717546
 20
4.7899272579
 30
0.0
 10
6.2369387199
 20
4.7905269293
 30
0.0
 10
6.2488656072
 20
4.7909498576
 30
0.0
 10
6.2591710111
 20
4.7913681862
 30
0.0
 10
6.267833312
 20
4.7917795058
 30
0.0
 10
6.2748357351
 20
4.7921838269
 30
0.0
 10
6.2789470591
 20
4.792485775
 30
0.0
 10
6.2807223696
 20
4.7926475449
 30
0.0
  0
SPLINE
  5
38B
100
AcDbEntity
  8
0
100
AcDbSpline
 62
7
  6
CONTINUOUS
 70
0
 71
3
 72
12
 73
8
 74
0
 42
0.0000001
 43
0.0000001
 44
0.0000000001
 40
0.0
 40
0.0
 40
0.0
 40
0.0
 40
0.3603501956
 40
0.6469988436
 40
0.8599909151
 40
0.9390226224
 40
1.0
 40
1.0
 40
1.0
 40
1.0
 10
6.2807223696
 20
4.7926475449
 30
0.0
 10
6.2813982908
 20
4.7927091362
 30
0.0
 10
6.2826112413
 20
4.7928281962
 30
0.0
 10
6.2842189933
 20
4.793025303
 30
0.0
 10
6.2852961126
 20
4.7931974039
 30
0.0
 10
6.2859448752
 20
4.7933435105
 30
0.0
 10
6.2861984496
 20
4.793417501
 30
0.0
 10
6.2863063951
 20
4.7934567256
 30
0.0
  0
SPLINE
  5
38C
100
AcDbEntity
  8
0
100
AcDbSpline
 62
7
  6
CONTINUOUS
 70
0
 71
3
 72
28
 73
24
 74
0
 42
0.0000001
 43
0.0000001
 44
0.0000000001
 40
0.0
 40
0.0
 40
0.0
 40
0.0
 40
0.0016852764
 40
0.0031017637
 40
0.004969326
 40
0.0073065537
 40
0.0101227253
 40
0.0134230601
 40
0.0172107566
 40
0.0262556237
 40
0.0372679362
 40
0.0652129704
 40
0.1010522955
 40
0.1447426298
 40
0.1962309678
 40
0.2554620787
 40
0.3223795573
 40
0.3969263197
 40
0.4790445703
 40
0.568658828
 40
0.6656665299
 40
0.7699626926
 40
1.0
 40
1.0
 40
1.0
 40
1.0
 10
6.2866798936
 20
4.7698915436
 30
0.0
 10
6.2866798895
 20
4.7698338586
 30
0.0
 10
6.2865849641
 20
4.769747268
 30
0.0
 10
6.2864388322
 20
4.7696737879
 30
0.0
 10
6.2862567643
 20
4.7696038445
 30
0.0
 10
6.2860270452
 20
4.7695357819
 30
0.0
 10
6.2857457166
 20
4.7694664827
 30
0.0
 10
6.2854139111
 20
4.7693971998
 30
0.0
 10
6.2848705069
 20
4.769298478
 30
0.0
 10
6.2840631297
 20
4.7691779068
 30
0.0
 10
6.2824323494
 20
4.7689765338
 30
0.0
 10
6.2798832722
 20
4.7687339355
 30
0.0
 10
6.2762150856
 20
4.768454633
 30
0.0
 10
6.271739308
 20
4.7681717884
 30
0.0
 10
6.2664617516
 20
4.7678855842
 30
0.0
 10
6.2603882628
 20
4.7675968887
 30
0.0
 10
6.2535248286
 20
4.7673060157
 30
0.0
 10
6.2458774375
 20
4.767013311
 30
0.0
 10
6.237452705
 20
4.7667190266
 30
0.0
 10
6.2282587721
 20
4.7664235329
 30
0.0
 10
6.2183053731
 20
4.7661274013
 30
0.0
 10
6.2035466996
 20
4.7657190015
 30
0.0
 10
6.1921063528
 20
4.7654346214
 30
0.0
 10
6.1842346109
 20
4.7652496795
 30
0.0
  0
LINE
  5
38D
100
AcDbEntity
  8
0
100
AcDbLine
 62
7
  6
CONTINUOUS
 10
6.1842346109
 20
4.7652496795
 11
6.1778797334
 21
4.7651027001
  0
LINE
  5
38E
100
AcDbEntity
  8
0
100
AcDbLine
 62
7
  6
CONTINUOUS
 10
6.1778797334
 20
4.7651027001
 11
6.1638939749
 21
4.7647943888
  0
LINE
  5
38F
100
AcDbEntity
  8
0
100
AcDbLine
 62
7
  6
CONTINUOUS
 10
6.1638939749
 20
4.7647943888
 11
6.1601007033
 21
4.7647140578
  0
SPLINE
  5
390
100
AcDbEntity
  8
0
100
AcDbSpline
 62
7
  6
CONTINUOUS
 70
0
 71
3
 72
21
 73
17
 74
0
 42
0.0000001
 43
0.0000001
 44
0.0000000001
 40
0.0
 40
0.0
 40
0.0
 40
0.0
 40
0.0429099395
 40
0.0929375367
 40
0.1493249471
 40
0.2112031617
 40
0.3475668392
 40
0.4199625638
 40
0.4937017113
 40
0.6406806291
 40
0.7116730182
 40
0.7795463238
 40
0.8432544559
 40
0.9018200794
 40
0.9543366863
 40
1.0
 40
1.0
 40
1.0
 40
1.0
 10
6.1601007033
 20
4.7647140578
 30
0.0
 10
6.1400415726
 20
4.7642927235
 30
0.0
 10
6.0965937027
 20
4.7634908821
 30
0.0
 10
6.0267818226
 20
4.7623977261
 30
0.0
 10
5.9480999857
 20
4.7613000749
 30
0.0
 10
5.8290523874
 20
4.7597306465
 30
0.0
 10
5.7025188714
 20
4.7581774544
 30
0.0
 10
5.5704384402
 20
4.7566839807
 30
0.0
 10
5.4333940329
 20
4.7552156949
 30
0.0
 10
5.2970056689
 20
4.7537605053
 30
0.0
 10
5.1633614262
 20
4.752195064
 30
0.0
 10
5.0686505088
 20
4.7510221285
 30
0.0
 10
4.9797501717
 20
4.7498738858
 30
0.0
 10
4.8980304236
 20
4.748757516
 30
0.0
 10
4.8247483828
 20
4.7476706221
 30
0.0
 10
4.7788487842
 20
4.7468780719
 30
0.0
 10
4.7575018452
 20
4.7464636983
 30
0.0
  0
LINE
  5
391
100
AcDbEntity
  8
0
100
AcDbLine
 62
7
  6
CONTINUOUS
 10
4.7575018452
 20
4.7464636983
 11
4.7537550401
 21
4.7463904849
  0
LINE
  5
392
100
AcDbEntity
  8
0
100
AcDbLine
 62
7
  6
CONTINUOUS
 10
4.7537550401
 20
4.7463904849
 11
4.736193499
 21
4.7460334723
  0
LINE
  5
393
100
AcDbEntity
  8
0
100
AcDbLine
 62
7
  6
CONTINUOUS
 10
4.736193499
 20
4.7460334723
 11
4.7251315902
 21
4.7457953864
  0
LINE
  5
394
100
AcDbEntity
  8
0
100
AcDbLine
 62
7
  6
CONTINUOUS
 10
4.7251315902
 20
4.7457953864
 11
4.7116147363
 21
4.7454880491
  0
SPLINE
  5
395
100
AcDbEntity
  8
0
100
AcDbSpline
 62
7
  6
CONTINUOUS
 70
0
 71
3
 72
22
 73
18
 74
0
 42
0.0000001
 43
0.0000001
 44
0.0000000001
 40
0.0
 40
0.0
 40
0.0
 40
0.0
 40
0.2170974122
 40
0.4089082456
 40
0.5748560396
 40
0.6479564723
 40
0.7143815313
 40
0.7740617599
 40
0.8269391017
 40
0.8729831496
 40
0.912168695
 40
0.9444726597
 40
0.9698764348
 40
0.9799881635
 40
0.9883742027
 40
0.9950399121
 40
1.0
 40
1.0
 40
1.0
 40
1.0
 10
4.7116147363
 20
4.7454880491
 30
0.0
 10
4.7042544828
 20
4.745315223
 30
0.0
 10
4.6903916668
 20
4.7449720249
 30
0.0
 10
4.6709046397
 20
4.7444231534
 30
0.0
 10
4.6563008057
 20
4.7439495199
 30
0.0
 10
4.6459485373
 20
4.7435670307
 30
0.0
 10
4.6391985043
 20
4.7432940717
 30
0.0
 10
4.6331348061
 20
4.7430232849
 30
0.0
 10
4.627762908
 20
4.7427551212
 30
0.0
 10
4.6230868759
 20
4.7424895306
 30
0.0
 10
4.6191095976
 20
4.7422268848
 30
0.0
 10
4.6158339437
 20
4.7419670476
 30
0.0
 10
4.6135448098
 20
4.7417408284
 30
0.0
 10
4.6120677945
 20
4.7415532814
 30
0.0
 10
4.6112239988
 20
4.7414245974
 30
0.0
 10
4.6105573819
 20
4.7412971586
 30
0.0
 10
4.610174451
 20
4.741200407
 30
0.0
 10
4.6100146493
 20
4.741147896
 30
0.0
  0
LINE
  5
396
100
AcDbEntity
  8
0
100
AcDbLine
 62
7
  6
CONTINUOUS
 10
4.723307372
 20
4.803827642
 11
4.7169427762
 21
4.8036837885
  0
LINE
  5
397
100
AcDbEntity
  8
0
100
AcDbLine
 62
7
  6
CONTINUOUS
 10
4.7169427762
 20
4.8036837885
 11
4.7119882854
 21
4.803568748
  0
SPLINE
  5
398
100
AcDbEntity
  8
0
100
AcDbSpline
 62
7
  6
CONTINUOUS
 70
0
 71
3
 72
22
 73
18
 74
0
 42
0.0000001
 43
0.0000001
 44
0.0000000001
 40
0.0
 40
0.0
 40
0.0
 40
0.0
 40
0.2171566604
 40
0.4090812171
 40
0.5750515521
 40
0.6481331321
 40
0.714540956
 40
0.7742220232
 40
0.8271237223
 40
0.8731940692
 40
0.9123821954
 40
0.9446508435
 40
0.9699952411
 40
0.980073887
 40
0.9884275892
 40
0.995063968
 40
1.0
 40
1.0
 40
1.0
 40
1.0
 10
4.7119882854
 20
4.803568748
 30
0.0
 10
4.7045982849
 20
4.803395066
 30
0.0
 10
4.6906773521
 20
4.8030502077
 30
0.0
 10
4.6711102024
 20
4.8025005847
 30
0.0
 10
4.6564472849
 20
4.8020268852
 30
0.0
 10
4.6460564257
 20
4.8016441268
 30
0.0
 10
4.6392821349
 20
4.8013707132
 30
0.0
 10
4.6331953123
 20
4.8010989834
 30
0.0
 10
4.6278014404
 20
4.8008293283
 30
0.0
 10
4.6231060065
 20
4.8005621515
 30
0.0
 10
4.6191139771
 20
4.800298287
 30
0.0
 10
4.615829094
 20
4.8000378952
 30
0.0
 10
4.6135356335
 20
4.7998115634
 30
0.0
 10
4.6120572401
 20
4.7996240587
 30
0.0
 10
4.6112134377
 20
4.7994954784
 30
0.0
 10
4.6105471687
 20
4.7993681413
 30
0.0
 10
4.6101645661
 20
4.7992714314
 30
0.0
 10
4.610004956
 20
4.7992189299
 30
0.0
  0
SPLINE
  5
399
100
AcDbEntity
  8
0
100
AcDbSpline
 62
9
  6
CONTINUOUS
 70
0
 71
3
 72
9
 73
5
 74
0
 42
0.0000001
 43
0.0000001
 44
0.0000000001
 40
0.0
 40
0.0
 40
0.0
 40
0.0
 40
0.503137354
 40
1.0
 40
1.0
 40
1.0
 40
1.0
 10
4.3660658612
 20
4.8277191184
 30
0.0
 10
4.3660658612
 20
4.8262052353
 30
0.0
 10
4.3662933828
 20
4.8231926986
 30
0.0
 10
4.366958527
 20
4.8202449379
 30
0.0
 10
4.3674025201
 20
4.818817386
 30
0.0
  0
SPLINE
  5
39A
100
AcDbEntity
  8
0
100
AcDbSpline
 62
9
  6
CONTINUOUS
 70
0
 71
3
 72
11
 73
7
 74
0
 42
0.0000001
 43
0.0000001
 44
0.0000000001
 40
0.0
 40
0.0
 40
0.0
 40
0.0
 40
0.269624138
 40
0.5267011602
 40
0.7698150096
 40
1.0
 40
1.0
 40
1.0
 40
1.0
 10
4.3674025201
 20
4.818817386
 30
0.0
 10
4.3678311874
 20
4.8174391104
 30
0.0
 10
4.3688789764
 20
4.8148060883
 30
0.0
 10
4.3710286613
 20
4.8112654127
 30
0.0
 10
4.3736614622
 20
4.8083420988
 30
0.0
 10
4.3757357219
 20
4.8068424093
 30
0.0
 10
4.3768156236
 20
4.8062488675
 30
0.0
  0
SPLINE
  5
39B
100
AcDbEntity
  8
0
100
AcDbSpline
 62
9
  6
CONTINUOUS
 70
0
 71
3
 72
9
 73
5
 74
0
 42
0.0000001
 43
0.0000001
 44
0.0000000001
 40
0.0
 40
0.0
 40
0.0
 40
0.0
 40
0.5079471332
 40
1.0
 40
1.0
 40
1.0
 40
1.0
 10
4.3768156236
 20
4.8062488675
 30
0.0
 10
4.3778456634
 20
4.8056827311
 30
0.0
 10
4.3800139586
 20
4.804803796
 30
0.0
 10
4.3823362041
 20
4.8044907719
 30
0.0
 10
4.3834747944
 20
4.8044907719
 30
0.0
  0
LINE
  5
39C
100
AcDbEntity
  8
0
100
AcDbLine
 62
9
  6
CONTINUOUS
 10
4.3607091795
 20
4.8277132139
 11
4.3660658612
 21
4.8277191184
  0
LINE
  5
39D
100
AcDbEntity
  8
0
100
AcDbLine
 62
7
  6
CONTINUOUS
 10
5.2131956381
 20
5.1250297982
 11
5.2209495737
 21
5.125120225
  0
LINE
  5
39E
100
AcDbEntity
  8
0
100
AcDbLine
 62
7
  6
CONTINUOUS
 10
5.2209495737
 20
5.125120225
 11
5.6751033094
 21
5.1301341376
  0
SPLINE
  5
39F
100
AcDbEntity
  8
0
100
AcDbSpline
 62
7
  6
CONTINUOUS
 70
0
 71
3
 72
33
 73
29
 74
0
 42
0.0000001
 43
0.0000001
 44
0.0000000001
 40
0.0
 40
0.0
 40
0.0
 40
0.0
 40
0.103302936
 40
0.2036328911
 40
0.3003674018
 40
0.392891115
 40
0.480616105
 40
0.5630043613
 40
0.6395267232
 40
0.7097097332
 40
0.7731244753
 40
0.8293587027
 40
0.8546774413
 40
0.8780793415
 40
0.8995259951
 40
0.9189791706
 40
0.9364072603
 40
0.9517878425
 40
0.9650992915
 40
0.9763202055
 40
0.9854296196
 40
0.9891867026
 40
0.9924109967
 40
0.9951027463
 40
0.9972627459
 40
0.9988930575
 40
0.9995112563
 40
1.0
 40
1.0
 40
1.0
 40
1.0
 10
5.6751033094
 20
5.1301341376
 30
0.0
 10
5.696155166
 20
5.1303793465
 30
0.0
 10
5.7376529267
 20
5.1308709923
 30
0.0
 10
5.7988636135
 20
5.1316227986
 30
0.0
 10
5.857877346
 20
5.1323715594
 30
0.0
 10
5.9143221115
 20
5.1331082106
 30
0.0
 10
5.9678430612
 20
5.1338277722
 30
0.0
 10
6.0181027428
 20
5.1345374522
 30
0.0
 10
6.0647870257
 20
5.1352431607
 30
0.0
 10
6.1076039672
 20
5.1359512906
 30
0.0
 10
6.1462853939
 20
5.1366676294
 30
0.0
 10
6.1758233564
 20
5.1372977788
 30
0.0
 10
6.1972070947
 20
5.1378137713
 30
0.0
 10
6.2115023915
 20
5.1381884261
 30
0.0
 10
6.2246018252
 20
5.1385633654
 30
0.0
 10
6.2364832664
 20
5.1389375413
 30
0.0
 10
6.2471278186
 20
5.1393099911
 30
0.0
 10
6.2565199177
 20
5.1396799034
 30
0.0
 10
6.2646460485
 20
5.1400461758
 30
0.0
 10
6.2714928043
 20
5.1404080024
 30
0.0
 10
6.2763920905
 20
5.1407205455
 30
0.0
 10
6.2796615509
 20
5.14097561
 30
0.0
 10
6.281624991
 20
5.1411530233
 30
0.0
 10
6.2832616897
 20
5.1413285052
 30
0.0
 10
6.284571296
 20
5.1415023389
 30
0.0
 10
6.2854574835
 20
5.141654372
 30
0.0
 10
6.2860005447
 20
5.1417825542
 30
0.0
 10
6.2862169326
 20
5.1418474449
 30
0.0
 10
6.286310553
 20
5.1418814555
 30
0.0
  0
SPLINE
  5
3A0
100
AcDbEntity
  8
0
100
AcDbSpline
 62
7
  6
CONTINUOUS
 70
0
 71
3
 72
69
 73
65
 74
0
 42
0.0000001
 43
0.0000001
 44
0.0000000001
 40
0.0
 40
0.0
 40
0.0
 40
0.0
 40
0.0000746787
 40
0.000131106
 40
0.0002034193
 40
0.0003991169
 40
0.000665585
 40
0.0010041142
 40
0.0014153088
 40
0.0018994941
 40
0.0024568613
 40
0.0037915577
 40
0.0054197076
 40
0.007340219
 40
0.0095515841
 40
0.0120522233
 40
0.0148405154
 40
0.0179148134
 40
0.0212734535
 40
0.028837045
 40
0.0375155508
 40
0.0472858922
 40
0.0581235004
 40
0.0700037846
 40
0.0829017049
 40
0.0967864652
 40
0.1116231938
 40
0.127376922
 40
0.14401265
 40
0.1797729768
 40
0.2185590631
 40
0.2600098735
 40
0.3037278975
 40
0.3493024213
 40
0.3963013624
 40
0.4442806233
 40
0.4927880162
 40
0.5413638435
 40
0.5895501951
 40
0.6368923618
 40
0.6829423988
 40
0.7272691953
 40
0.7694500094
 40
0.8090893168
 40
0.8458042331
 40
0.8792511226
 40
0.909109179
 40
0.9226035135
 40
0.9351010842
 40
0.9465719698
 40
0.9569870117
 40
0.9663233163
 40
0.974561127
 40
0.9816807545
 40
0.9876626602
 40
0.9902218827
 40
0.9924918493
 40
0.9944716805
 40
0.9961605625
 40
0.9975578023
 40
0.9986629571
 40
0.9994761958
 40
0.9997739411
 40
1.0
 40
1.0
 40
1.0
 40
1.0
 10
4.609554442
 20
5.1711812159
 30
0.0
 10
4.6095544445
 20
5.171222968
 30
0.0
 10
4.6096064741
 20
5.1712897458
 30
0.0
 10
4.6096999588
 20
5.1713505166
 30
0.0
 10
4.6098640889
 20
5.1714310903
 30
0.0
 10
4.6101485359
 20
5.1715234791
 30
0.0
 10
4.6105837349
 20
5.1716298134
 30
0.0
 10
4.6111419042
 20
5.171736468
 30
0.0
 10
4.6118233748
 20
5.1718443076
 30
0.0
 10
4.6126283822
 20
5.1719526674
 30
0.0
 10
4.6139479339
 20
5.1721073276
 30
0.0
 10
4.6159071064
 20
5.1722965392
 30
0.0
 10
4.6186286395
 20
5.1725151014
 30
0.0
 10
4.6218415015
 20
5.1727357647
 30
0.0
 10
4.6255430187
 20
5.1729583381
 30
0.0
 10
4.6297303881
 20
5.1731824744
 30
0.0
 10
4.6344007594
 20
5.1734079917
 30
0.0
 10
4.6395512793
 20
5.1736347399
 30
0.0
 10
4.6473702079
 20
5.1739511956
 30
0.0
 10
4.6583217909
 20
5.1743440712
 30
0.0
 10
4.6728578861
 20
5.1748024316
 30
0.0
 10
4.6892252194
 20
5.1752620682
 30
0.0
 10
4.7073832851
 20
5.1757208092
 30
0.0
 10
4.7272905244
 20
5.1761764868
 30
0.0
 10
4.7489019208
 20
5.1766265446
 30
0.0
 10
4.7721666694
 20
5.1770711366
 30
0.0
 10
4.7970284128
 20
5.1775116996
 30
0.0
 10
4.823428469
 20
5.1779493142
 30
0.0
 10
4.86152567
 20
5.1785446966
 30
0.0
 10
4.9124993656
 20
5.179281474
 30
0.0
 10
4.9773462926
 20
5.1801592285
 30
0.0
 10
5.0466423189
 20
5.1810641091
 30
0.0
 10
5.119733816
 20
5.1819836314
 30
0.0
 10
5.1959274494
 20
5.1829033626
 30
0.0
 10
5.2745037828
 20
5.1838130252
 30
0.0
 10
5.3547202184
 20
5.1846996594
 30
0.0
 10
5.4358185351
 20
5.1855669117
 30
0.0
 10
5.5170326307
 20
5.1864350712
 30
0.0
 10
5.5975950824
 20
5.1873162774
 30
0.0
 10
5.6767451068
 20
5.1882152696
 30
0.0
 10
5.7537369043
 20
5.1891351412
 30
0.0
 10
5.8278427993
 20
5.1900571544
 30
0.0
 10
5.8983644303
 20
5.190963714
 30
0.0
 10
5.9646302028
 20
5.1918526275
 30
0.0
 10
6.0260127527
 20
5.1927209601
 30
0.0
 10
6.0819262473
 20
5.1935807293
 30
0.0
 10
6.1248574469
 20
5.1943307427
 30
0.0
 10
6.1560764666
 20
5.1949498337
 30
0.0
 10
6.1770166574
 20
5.1954022272
 30
0.0
 10
6.1962347361
 20
5.1958579005
 30
0.0
 10
6.2136847667
 20
5.1963164669
 30
0.0
 10
6.2293264986
 20
5.1967760106
 30
0.0
 10
6.2431249681
 20
5.197233918
 30
0.0
 10
6.2550469845
 20
5.1976879598
 30
0.0
 10
6.2637941773
 20
5.1980778836
 30
0.0
 10
6.2698303695
 20
5.1983928567
 30
0.0
 10
6.2736307653
 20
5.1986149545
 30
0.0
 10
6.2769437663
 20
5.198835235
 30
0.0
 10
6.2797676785
 20
5.1990537668
 30
0.0
 10
6.2821012571
 20
5.1992695866
 30
0.0
 10
6.2839426028
 20
5.1994832542
 30
0.0
 10
6.2851685111
 20
5.1996696956
 30
0.0
 10
6.2858990386
 20
5.1998287834
 30
0.0
 10
6.2861811591
 20
5.1999093747
 30
0.0
 10
6.2862999599
 20
5.1999525035
 30
0.0
  0
SPLINE
  5
3A1
100
AcDbEntity
  8
0
100
AcDbSpline
 62
7
  6
CONTINUOUS
 70
0
 71
3
 72
61
 73
57
 74
0
 42
0.0000001
 43
0.0000001
 44
0.0000000001
 40
0.0
 40
0.0
 40
0.0
 40
0.0
 40
0.0000723249
 40
0.0001262688
 40
0.0001951088
 40
0.0003808131
 40
0.0006331677
 40
0.0009534135
 40
0.0013421084
 40
0.001799531
 40
0.0023258263
 40
0.0035852643
 40
0.0051206129
 40
0.006931724
 40
0.0090182905
 40
0.0113793257
 40
0.0140130782
 40
0.0169177294
 40
0.0200914444
 40
0.0272386699
 40
0.0354399192
 40
0.0446797797
 40
0.0549369779
 40
0.0661864512
 40
0.0784030574
 40
0.0915616407
 40
0.1056348816
 40
0.1205894998
 40
0.136391186
 40
0.1703981336
 40
0.2073573728
 40
0.2469329615
 40
0.2887767421
 40
0.3325116499
 40
0.3777524415
 40
0.4240970319
 40
0.4711353546
 40
0.5184498295
 40
0.5656162494
 40
0.6122147225
 40
0.6578335522
 40
0.7020663622
 40
0.7445239593
 40
0.7848241218
 40
0.822610939
 40
0.857543968
 40
0.8893124879
 40
0.9176368509
 40
0.9422624932
 40
0.9629793018
 40
0.9718096854
 40
0.9795962934
 40
0.9863234635
 40
0.991975618
 40
0.9965375938
 40
1.0
 40
1.0
 40
1.0
 40
1.0
 10
6.2866659185
 20
5.1763873631
 30
0.0
 10
6.2866658737
 20
5.1763470728
 30
0.0
 10
6.2866173991
 20
5.1762824161
 30
0.0
 10
6.2865287446
 20
5.176222945
 30
0.0
 10
6.2863742234
 20
5.1761447964
 30
0.0
 10
6.2861061547
 20
5.1760549782
 30
0.0
 10
6.2856962118
 20
5.1759517716
 30
0.0
 10
6.2851706557
 20
5.175848266
 30
0.0
 10
6.2845292941
 20
5.1757436945
 30
0.0
 10
6.2837719514
 20
5.1756386766
 30
0.0
 10
6.282531304
 20
5.1754889285
 30
0.0
 10
6.280690114
 20
5.1753059167
 30
0.0
 10
6.2781329283
 20
5.1750947746
 30
0.0
 10
6.2751137817
 20
5.1748816691
 30
0.0
 10
6.2716338291
 20
5.1746664864
 30
0.0
 10
6.2676949399
 20
5.17444943
 30
0.0
 10
6.2632997837
 20
5.1742307719
 30
0.0
 10
6.2584514626
 20
5.1740107411
 30
0.0
 10
6.2510902179
 20
5.1737035422
 30
0.0
 10
6.2407789724
 20
5.1733222121
 30
0.0
 10
6.2270886169
 20
5.1728778662
 30
0.0
 10
6.2116649987
 20
5.1724325122
 30
0.0
 10
6.1945426537
 20
5.1719875496
 30
0.0
 10
6.1757614887
 20
5.1715444713
 30
0.0
 10
6.1553635526
 20
5.1711047511
 30
0.0
 10
6.1333921322
 20
5.1706699702
 30
0.0
 10
6.1098950471
 20
5.1702412627
 30
0.0
 10
6.0849252613
 20
5.1698165005
 30
0.0
 10
6.0488519267
 20
5.1692390513
 30
0.0
 10
6.0005210369
 20
5.1685240241
 30
0.0
 10
5.9389468932
 20
5.1676746812
 30
0.0
 10
5.8730068889
 20
5.1668080937
 30
0.0
 10
5.8032923083
 20
5.1659190856
 30
0.0
 10
5.7304216188
 20
5.1650237093
 30
0.0
 10
5.6550433437
 20
5.1641382003
 30
0.0
 10
5.5778245302
 20
5.1632673961
 30
0.0
 10
5.4994502318
 20
5.1624164117
 30
0.0
 10
5.4206179541
 20
5.1615779335
 30
0.0
 10
5.3420307986
 20
5.1607319397
 30
0.0
 10
5.2643885102
 20
5.1598666849
 30
0.0
 10
5.1883807398
 20
5.1589860688
 30
0.0
 10
5.1146800697
 20
5.158091759
 30
0.0
 10
5.0439425023
 20
5.1571990015
 30
0.0
 10
4.97679588
 20
5.1563255491
 30
0.0
 10
4.9138411139
 20
5.1554713168
 30
0.0
 10
4.85563938
 20
5.1546304304
 30
0.0
 10
4.8027094585
 20
5.1537941616
 30
0.0
 10
4.7555224802
 20
5.1529467746
 30
0.0
 10
4.7144937042
 20
5.1520781502
 30
0.0
 10
4.684324914
 20
5.1513142255
 30
0.0
 10
4.6635366444
 20
5.1506865249
 30
0.0
 10
4.6505397282
 20
5.1502429583
 30
0.0
 10
4.6393143695
 20
5.1498031886
 30
0.0
 10
4.6298866093
 20
5.1493698787
 30
0.0
 10
4.6222795633
 20
5.1489450922
 30
0.0
 10
4.6178200939
 20
5.1486287181
 30
0.0
 10
4.6158987502
 20
5.1484590795
 30
0.0
  0
SPLINE
  5
3A2
100
AcDbEntity
  8
0
100
AcDbSpline
 62
7
  6
CONTINUOUS
 70
0
 71
3
 72
12
 73
8
 74
0
 42
0.0000001
 43
0.0000001
 44
0.0000000001
 40
0.0
 40
0.0
 40
0.0
 40
0.0
 40
0.3564331604
 40
0.6417483042
 40
0.8560708847
 40
0.9367631175
 40
1.0
 40
1.0
 40
1.0
 40
1.0
 10
4.6158987502
 20
5.1484590795
 30
0.0
 10
4.6151951025
 20
5.1483969533
 30
0.0
 10
4.6139288417
 20
5.148276671
 30
0.0
 10
4.6122439103
 20
5.1480780692
 30
0.0
 10
4.6111062404
 20
5.1479045126
 30
0.0
 10
4.610411441
 20
5.1477578157
 30
0.0
 10
4.6101356804
 20
5.1476835299
 30
0.0
 10
4.6100166231
 20
5.1476443965
 30
0.0
  0
SPLINE
  5
3A3
100
AcDbEntity
  8
0
100
AcDbSpline
 62
9
  6
CONTINUOUS
 70
0
 71
3
 72
15
 73
11
 74
0
 42
0.0000001
 43
0.0000001
 44
0.0000000001
 40
0.0
 40
0.0
 40
0.0
 40
0.0
 40
0.1279893779
 40
0.255986029
 40
0.3829205912
 40
0.5085887678
 40
0.6330066739
 40
0.7562833075
 40
0.878624821
 40
1.0
 40
1.0
 40
1.0
 40
1.0
 10
6.189300797
 20
4.8277191184
 30
0.0
 10
6.189300797
 20
4.8262051064
 30
0.0
 10
6.189014679
 20
4.8231702273
 30
0.0
 10
6.187768077
 20
4.8187890325
 30
0.0
 10
6.1857199983
 20
4.8147481793
 30
0.0
 10
6.1829668651
 20
4.8112039763
 30
0.0
 10
6.1796048203
 20
4.8082958504
 30
0.0
 10
6.1757686439
 20
4.8061253983
 30
0.0
 10
6.1716052619
 20
4.8047965412
 30
0.0
 10
6.1687143
 20
4.8044907719
 30
0.0
 10
6.1672785287
 20
4.8044907719
 30
0.0
  0
SPLINE
  5
3A4
100
AcDbEntity
  8
0
100
AcDbSpline
 62
7
  6
CONTINUOUS
 70
0
 71
3
 72
60
 73
56
 74
0
 42
0.0000001
 43
0.0000001
 44
0.0000000001
 40
0.0
 40
0.0
 40
0.0
 40
0.0
 40
0.0000722739
 40
0.000126209
 40
0.0001950835
 40
0.0003810616
 40
0.0006340269
 40
0.0009551824
 40
0.0013450271
 40
0.0018037803
 40
0.0023315273
 40
0.0035939942
 40
0.0051321434
 40
0.0069453527
 40
0.0090328602
 40
0.0113938296
 40
0.0140273817
 40
0.0169325647
 40
0.0201077042
 40
0.0272588687
 40
0.0354627935
 40
0.0447013088
 40
0.0549561878
 40
0.066206261
 40
0.0784244344
 40
0.0915828872
 40
0.1056537884
 40
0.1206087828
 40
0.1364140286
 40
0.1704266159
 40
0.2073918571
 40
0.2469781987
 40
0.2888292358
 40
0.3325743309
 40
0.3778221588
 40
0.4241746632
 40
0.4712175631
 40
0.5657009515
 40
0.6123010242
 40
0.6579206986
 40
0.7021541195
 40
0.7446071687
 40
0.7849039894
 40
0.8226804441
 40
0.8576060617
 40
0.8893635949
 40
0.9176783559
 40
0.9422959419
 40
0.9630016031
 40
0.9718306505
 40
0.9796141145
 40
0.986335152
 40
0.9919812319
 40
0.9965401204
 40
1.0
 40
1.0
 40
1.0
 40
1.0
 10
4.6095689664
 20
5.2292515511
 30
0.0
 10
4.6095689009
 20
5.2292918144
 30
0.0
 10
4.6096172484
 20
5.2293565676
 30
0.0
 10
4.6097058704
 20
5.2294160697
 30
0.0
 10
4.6098605264
 20
5.2294943412
 30
0.0
 10
4.6101291044
 20
5.2295842984
 30
0.0
 10
4.6105400428
 20
5.2296877006
 30
0.0
 10
4.6110670873
 20
5.2297914487
 30
0.0
 10
4.6117103402
 20
5.2298962979
 30
0.0
 10
4.612469881
 20
5.2300016094
 30
0.0
 10
4.6137137855
 20
5.2301517566
 30
0.0
 10
4.6155590743
 20
5.2303352063
 30
0.0
 10
4.6181207543
 20
5.2305466952
 30
0.0
 10
4.6211432653
 20
5.2307598668
 30
0.0
 10
4.6246250217
 20
5.2309747188
 30
0.0
 10
4.6285644636
 20
5.2311911091
 30
0.0
 10
4.6329599588
 20
5.2314090465
 30
0.0
 10
4.6378094526
 20
5.2316285808
 30
0.0
 10
4.6451742548
 20
5.2319355239
 30
0.0
 10
4.6554903359
 20
5.2323170966
 30
0.0
 10
4.6691840905
 20
5.2327620924
 30
0.0
 10
4.6846076832
 20
5.2332081087
 30
0.0
 10
4.7017289289
 20
5.2336529448
 30
0.0
 10
4.7205107012
 20
5.2340947985
 30
0.0
 10
4.7409105139
 20
5.23453347
 30
0.0
 10
4.7628822029
 20
5.2349683752
 30
0.0
 10
4.786378913
 20
5.2353991115
 30
0.0
 10
4.8113504521
 20
5.2358248983
 30
0.0
 10
4.8474303967
 20
5.2364022416
 30
0.0
 10
4.8957714945
 20
5.2371149939
 30
0.0
 10
4.9573602677
 20
5.2379656652
 30
0.0
 10
5.0233159354
 20
5.2388353677
 30
0.0
 10
5.0930487242
 20
5.2397212988
 30
0.0
 10
5.1659356159
 20
5.2406171684
 30
0.0
 10
5.2413305216
 20
5.2415055657
 30
0.0
 10
5.3185629854
 20
5.2423722
 30
0.0
 10
5.4232229676
 20
5.2435096449
 30
0.0
 10
5.5280212156
 20
5.244615646
 30
0.0
 10
5.6320259974
 20
5.245772421
 30
0.0
 10
5.7080381065
 20
5.2466568674
 30
0.0
 10
5.7817396688
 20
5.2475498507
 30
0.0
 10
5.8524756899
 20
5.2484415804
 30
0.0
 10
5.919614459
 20
5.2493190707
 30
0.0
 10
5.9825597098
 20
5.2501711081
 30
0.0
 10
6.0407475023
 20
5.2510100822
 30
0.0
 10
6.0936636393
 20
5.2518496699
 30
0.0
 10
6.1408363187
 20
5.2526968857
 30
0.0
 10
6.1818505611
 20
5.2535624513
 30
0.0
 10
6.21200891
 20
5.2543288108
 30
0.0
 10
6.2327891956
 20
5.2549567046
 30
0.0
 10
6.245780677
 20
5.2553996024
 30
0.0
 10
6.2569979142
 20
5.2558383227
 30
0.0
 10
6.2664175101
 20
5.256270995
 30
0.0
 10
6.274018267
 20
5.2566965385
 30
0.0
 10
6.2784746723
 20
5.2570142094
 30
0.0
 10
6.2803946143
 20
5.2571844908
 30
0.0
  0
SPLINE
  5
3A5
100
AcDbEntity
  8
0
100
AcDbSpline
 62
7
  6
CONTINUOUS
 70
0
 71
3
 72
12
 73
8
 74
0
 42
0.0000001
 43
0.0000001
 44
0.0000000001
 40
0.0
 40
0.0
 40
0.0
 40
0.0
 40
0.362370148
 40
0.6495375018
 40
0.8617871177
 40
0.9400475557
 40
1.0
 40
1.0
 40
1.0
 40
1.0
 10
6.2803946143
 20
5.2571844908
 30
0.0
 10
6.28111532
 20
5.2572484108
 30
0.0
 10
6.2824065193
 20
5.2573717533
 30
0.0
 10
6.2841150327
 20
5.2575760343
 30
0.0
 10
6.285255535
 20
5.2577542432
 30
0.0
 10
6.2859388049
 20
5.2579058523
 30
0.0
 10
6.2862043801
 20
5.257982641
 30
0.0
 10
6.2863168893
 20
5.2580235197
 30
0.0
  0
SPLINE
  5
3A6
100
AcDbEntity
  8
0
100
AcDbSpline
 62
9
  6
CONTINUOUS
 70
0
 71
3
 72
20
 73
16
 74
0
 42
0.0000001
 43
0.0000001
 44
0.0000000001
 40
0.0
 40
0.0
 40
0.0
 40
0.0
 40
0.0189849403
 40
0.0298433326
 40
0.0420251637
 40
0.0710742037
 40
0.1070804562
 40
0.1503571175
 40
0.2009513929
 40
0.2586069221
 40
0.3228709143
 40
0.4691695417
 40
0.6354246125
 40
0.8150297357
 40
1.0
 40
1.0
 40
1.0
 40
1.0
 10
6.1672785287
 20
4.8044907719
 30
0.0
 10
6.1674327773
 20
4.8044907719
 30
0.0
 10
6.1676769309
 20
4.8045603274
 30
0.0
 10
6.1679638315
 20
4.8047463788
 30
0.0
 10
6.1682803991
 20
4.8050298399
 30
0.0
 10
6.1686616469
 20
4.8055341225
 30
0.0
 10
6.1690824655
 20
4.8063090636
 30
0.0
 10
6.1694873337
 20
4.8072852024
 30
0.0
 10
6.1698705558
 20
4.8084560293
 30
0.0
 10
6.1702292795
 20
4.8098116211
 30
0.0
 10
6.1706912104
 20
4.8119418829
 30
0.0
 10
6.1711699466
 20
4.8149682066
 30
0.0
 10
6.1715793265
 20
4.8189472788
 30
0.0
 10
6.1718326806
 20
4.823253887
 30
0.0
 10
6.1718918638
 20
4.8262162741
 30
0.0
 10
6.1718918638
 20
4.8277191183
 30
0.0
  0
SPLINE
  5
3A7
100
AcDbEntity
  8
0
100
AcDbSpline
 62
7
  6
CONTINUOUS
 70
0
 71
3
 72
69
 73
65
 74
0
 42
0.0000001
 43
0.0000001
 44
0.0000000001
 40
0.0
 40
0.0
 40
0.0
 40
0.0
 40
0.0000746594
 40
0.0001310631
 40
0.0002033557
 40
0.0003990562
 40
0.0006656445
 40
0.0010044703
 40
0.0014160866
 40
0.0019006836
 40
0.0024583152
 40
0.0037925486
 40
0.0054182531
 40
0.0073345581
 40
0.0095404543
 40
0.0120348586
 40
0.0148166451
 40
0.0178846614
 40
0.021237466
 40
0.028787683
 40
0.0374467402
 40
0.0471938092
 40
0.0580080255
 40
0.0698663023
 40
0.0827386968
 40
0.096593926
 40
0.1114006953
 40
0.1271272169
 40
0.1437359315
 40
0.1794344858
 40
0.2181623631
 40
0.2595509324
 40
0.3032072031
 40
0.3487200286
 40
0.3956574569
 40
0.4435800213
 40
0.492034941
 40
0.5405671774
 40
0.5887196788
 40
0.6360368559
 40
0.6820747332
 40
0.7263955724
 40
0.7685841177
 40
0.8082409704
 40
0.844991558
 40
0.8784883006
 40
0.9084110923
 40
0.921947023
 40
0.9344882525
 40
0.9460039139
 40
0.9564697805
 40
0.9658627723
 40
0.9741598343
 40
0.9813385246
 40
0.9873828518
 40
0.9899759268
 40
0.9922810083
 40
0.9942966899
 40
0.9960216251
 40
0.9974545772
 40
0.9985945804
 40
0.9994420378
 40
0.9997568693
 40
1.0
 40
1.0
 40
1.0
 40
1.0
 10
6.286671356
 20
5.2344589933
 30
0.0
 10
6.2866713808
 20
5.2344172539
 30
0.0
 10
6.28661945
 20
5.2343504475
 30
0.0
 10
6.2865260311
 20
5.234289636
 30
0.0
 10
6.2863619717
 20
5.2342089943
 30
0.0
 10
6.2860775071
 20
5.2341165029
 30
0.0
 10
6.2856421224
 20
5.2340100277
 30
0.0
 10
6.2850835306
 20
5.2339032173
 30
0.0
 10
6.2844014789
 20
5.2337952078
 30
0.0
 10
6.2835959109
 20
5.233686686
 30
0.0
 10
6.2822763147
 20
5.2335318955
 30
0.0
 10
6.2803187128
 20
5.2333427131
 30
0.0
 10
6.2776012609
 20
5.2331245464
 30
0.0
 10
6.2743952866
 20
5.2329046088
 30
0.0
 10
6.2707027933
 20
5.232682941
 30
0.0
 10
6.2665257588
 20
5.2324597306
 30
0.0
 10
6.2618662079
 20
5.2322350008
 30
0.0
 10
6.2567263207
 20
5.2320087476
 30
0.0
 10
6.2489220038
 20
5.2316924163
 30
0.0
 10
6.2379925563
 20
5.2312991517
 30
0.0
 10
6.2234884978
 20
5.2308406314
 30
0.0
 10
6.2071588673
 20
5.2303813843
 30
0.0
 10
6.1890399944
 20
5.2299238108
 30
0.0
 10
6.1691732688
 20
5.2294701728
 30
0.0
 10
6.1476059372
 20
5.22902034
 30
0.0
 10
6.1243897995
 20
5.2285745436
 30
0.0
 10
6.0995776736
 20
5.2281328519
 30
0.0
 10
6.0732258678
 20
5.2276957021
 30
0.0
 10
6.0351952083
 20
5.2271023285
 30
0.0
 10
5.9843059677
 20
5.2263678343
 30
0.0
 10
5.9195638946
 20
5.2254866828
 30
0.0
 10
5.8503728273
 20
5.2245846
 30
0.0
 10
5.7773884118
 20
5.2236680407
 30
0.0
 10
5.7013016497
 20
5.2227465578
 30
0.0
 10
5.6228294238
 20
5.2218387217
 30
0.0
 10
5.5427119961
 20
5.2209555083
 30
0.0
 10
5.4617027769
 20
5.2200851861
 30
0.0
 10
5.3805649584
 20
5.2192188492
 30
0.0
 10
5.3000633527
 20
5.218342636
 30
0.0
 10
5.220956629
 20
5.2174404341
 30
0.0
 10
5.143992383
 20
5.2165224258
 30
0.0
 10
5.0698956025
 20
5.2156030527
 30
0.0
 10
4.9993663926
 20
5.2146931445
 30
0.0
 10
4.9330695097
 20
5.2138059452
 30
0.0
 10
4.8716320516
 20
5.212940911
 30
0.0
 10
4.8156370946
 20
5.2120790325
 30
0.0
 10
4.7726204929
 20
5.2113297505
 30
0.0
 10
4.7413189418
 20
5.2107141846
 30
0.0
 10
4.7203069487
 20
5.2102633308
 30
0.0
 10
4.7010118694
 20
5.2098072425
 30
0.0
 10
4.6834774663
 20
5.2093484017
 30
0.0
 10
4.6677431617
 20
5.2088891376
 30
0.0
 10
4.653847404
 20
5.2084319192
 30
0.0
 10
4.641824765
 20
5.2079791389
 30
0.0
 10
4.6329910081
 20
5.2075899297
 30
0.0
 10
4.626881545
 20
5.2072747852
 30
0.0
 10
4.6230226561
 20
5.207052108
 30
0.0
 10
4.6196498965
 20
5.206831127
 30
0.0
 10
4.6167658161
 20
5.2066119483
 30
0.0
 10
4.6143725776
 20
5.2063955549
 30
0.0
 10
4.6124723446
 20
5.20618165
 30
0.0
 10
4.6111979693
 20
5.2059950945
 30
0.0
 10
4.6104282045
 20
5.2058369153
 30
0.0
 10
4.6101262746
 20
5.2057568506
 30
0.0
 10
4.6099971541
 20
5.2057143806
 30
0.0
  0
LINE
  5
3A8
100
AcDbEntity
  8
0
100
AcDbLine
 62
9
  6
CONTINUOUS
 10
6.1718918638
 20
4.8277191183
 11
6.189300797
 21
4.8277191184
  0
SPLINE
  5
3A9
100
AcDbEntity
  8
0
100
AcDbSpline
 62
9
  6
CONTINUOUS
 70
0
 71
3
 72
15
 73
11
 74
0
 42
0.0000001
 43
0.0000001
 44
0.0000000001
 40
0.0
 40
0.0
 40
0.0
 40
0.0
 40
0.1065306762
 40
0.216485468
 40
0.3320903827
 40
0.4543963636
 40
0.5834802769
 40
0.7186352695
 40
0.8584148205
 40
1.0
 40
1.0
 40
1.0
 40
1.0
 10
5.1026360871
 20
4.8044907719
 30
0.0
 10
5.1014988263
 20
4.8044907719
 30
0.0
 10
5.0991778437
 20
4.8048051417
 30
0.0
 10
5.095866043
 20
4.8061631365
 30
0.0
 10
5.0928311918
 20
4.8083569799
 30
0.0
 10
5.0901804897
 20
4.8112762727
 30
0.0
 10
5.0880194366
 20
4.8148175313
 30
0.0
 10
5.0864176771
 20
4.8188432039
 30
0.0
 10
5.0854481594
 20
4.8231996835
 30
0.0
 10
5.0852271539
 20
4.8262076356
 30
0.0
 10
5.0852271539
 20
4.8277191184
 30
0.0
  0
LINE
  5
3AA
100
AcDbEntity
  8
0
100
AcDbLine
 62
7
  6
CONTINUOUS
 10
5.505459646
 20
5.278625842
 11
5.4973848827
 21
5.2785391138
  0
LINE
  5
3AB
100
AcDbEntity
  8
0
100
AcDbLine
 62
7
  6
CONTINUOUS
 10
5.386743287
 20
5.2773540301
 11
5.3822495776
 21
5.2773055064
  0
SPLINE
  5
3AC
100
AcDbEntity
  8
0
100
AcDbSpline
 62
7
  6
CONTINUOUS
 70
0
 71
3
 72
24
 73
20
 74
0
 42
0.0000001
 43
0.0000001
 44
0.0000000001
 40
0.0
 40
0.0
 40
0.0
 40
0.0
 40
0.1822343326
 40
0.2708175166
 40
0.3568730592
 40
0.4397944709
 40
0.5189856788
 40
0.5938913971
 40
0.6639684755
 40
0.7287175057
 40
0.7876886608
 40
0.840451133
 40
0.8866504034
 40
0.9259558728
 40
0.9580882954
 40
0.9713975675
 40
0.9828340972
 40
0.9923730098
 40
1.0
 40
1.0
 40
1.0
 40
1.0
 10
5.3822495776
 20
5.2773055064
 30
0.0
 10
5.335838644
 20
5.2768040089
 30
0.0
 10
5.2668677498
 20
5.276043493
 30
0.0
 10
5.1759812355
 20
5.2749789292
 30
0.0
 10
5.1103875843
 20
5.274178707
 30
0.0
 10
5.0471861382
 20
5.2733818618
 30
0.0
 10
4.9868245088
 20
5.2725996407
 30
0.0
 10
4.9297343331
 20
5.2718310703
 30
0.0
 10
4.876322631
 20
5.2710756976
 30
0.0
 10
4.8269696539
 20
5.2703279296
 30
0.0
 10
4.7820271727
 20
5.2695762346
 30
0.0
 10
4.741810204
 20
5.2688080637
 30
0.0
 10
4.7066031791
 20
5.2680289186
 30
0.0
 10
4.6766521256
 20
5.2672440074
 30
0.0
 10
4.6550783936
 20
5.2665572915
 30
0.0
 10
4.6406027834
 20
5.2659960223
 30
0.0
 10
4.631879344
 20
5.265606616
 30
0.0
 10
4.6246045397
 20
5.2652236836
 30
0.0
 10
4.6202413062
 20
5.2649429981
 30
0.0
 10
4.6183042941
 20
5.2647966323
 30
0.0
  0
SPLINE
  5
3AD
100
AcDbEntity
  8
0
100
AcDbSpline
 62
7
  6
CONTINUOUS
 70
0
 71
3
 72
12
 73
8
 74
0
 42
0.0000001
 43
0.0000001
 44
0.0000000001
 40
0.0
 40
0.0
 40
0.0
 40
0.0
 40
0.3660531947
 40
0.6546539761
 40
0.8658015061
 40
0.9424472989
 40
1.0
 40
1.0
 40
1.0
 40
1.0
 10
4.6183042941
 20
5.2647966323
 30
0.0
 10
4.6172875237
 20
5.2647198024
 30
0.0
 10
4.6154697602
 20
5.2645717995
 30
0.0
 10
4.613070634
 20
5.2643260566
 30
0.0
 10
4.6114782887
 20
5.264112035
 30
0.0
 10
4.6105338004
 20
5.2639288218
 30
0.0
 10
4.6101710261
 20
5.2638360413
 30
0.0
 10
4.6100187199
 20
5.2637859966
 30
0.0
  0
LINE
  5
3AE
100
AcDbEntity
  8
0
100
AcDbLine
 62
9
  6
CONTINUOUS
 10
5.0852271539
 20
4.8277191183
 11
5.1072494222
 21
4.8277191177
  0
SPLINE
  5
3AF
100
AcDbEntity
  8
0
100
AcDbSpline
 62
9
  6
CONTINUOUS
 70
0
 71
3
 72
20
 73
16
 74
0
 42
0.0000001
 43
0.0000001
 44
0.0000000001
 40
0.0
 40
0.0
 40
0.0
 40
0.0
 40
0.1849702643
 40
0.3645753875
 40
0.5308304583
 40
0.6771290856
 40
0.7413930777
 40
0.7990486068
 40
0.8496428821
 40
0.8929195432
 40
0.9289257954
 40
0.9579748353
 40
0.9701566664
 40
0.9810150588
 40
1.0
 40
1.0
 40
1.0
 40
1.0
 10
5.1072494222
 20
4.8277191183
 30
0.0
 10
5.1072494222
 20
4.8262162741
 30
0.0
 10
5.107190239
 20
4.823253887
 30
0.0
 10
5.1069368849
 20
4.8189472788
 30
0.0
 10
5.106527505
 20
4.8149682066
 30
0.0
 10
5.1060487688
 20
4.8119418829
 30
0.0
 10
5.1055868379
 20
4.8098116211
 30
0.0
 10
5.1052281142
 20
4.8084560293
 30
0.0
 10
5.1048448922
 20
4.8072852024
 30
0.0
 10
5.1044400239
 20
4.8063090636
 30
0.0
 10
5.1040192054
 20
4.8055341225
 30
0.0
 10
5.1036379575
 20
4.8050298399
 30
0.0
 10
5.10332139
 20
4.8047463788
 30
0.0
 10
5.1030344894
 20
4.8045603274
 30
0.0
 10
5.1027903357
 20
4.8044907719
 30
0.0
 10
5.1026360871
 20
4.8044907719
 30
0.0
  0
SPLINE
  5
3B0
100
AcDbEntity
  8
0
100
AcDbSpline
 62
7
  6
CONTINUOUS
 70
0
 71
3
 72
71
 73
67
 74
0
 42
0.0000001
 43
0.0000001
 44
0.0000000001
 40
0.0
 40
0.0
 40
0.0
 40
0.0
 40
0.0000747173
 40
0.0001311846
 40
0.0002035619
 40
0.0002928515
 40
0.0003995826
 40
0.0006664531
 40
0.0010056116
 40
0.0014177122
 40
0.0019030624
 40
0.002461713
 40
0.0037987165
 40
0.0054280582
 40
0.0073487376
 40
0.0095596158
 40
0.0120594801
 40
0.0148470754
 40
0.0179211204
 40
0.0212803044
 40
0.0288458037
 40
0.0375228382
 40
0.0472895884
 40
0.0581242
 40
0.0700041077
 40
0.08290051
 40
0.0967812906
 40
0.1116142906
 40
0.1273672707
 40
0.1440041954
 40
0.1797628379
 40
0.2185525492
 40
0.260005612
 40
0.3037245798
 40
0.3492984643
 40
0.3962956366
 40
0.4442765763
 40
0.4927849973
 40
0.5413619108
 40
0.5895496504
 40
0.6368922035
 40
0.6829451234
 40
0.7272711936
 40
0.7694518134
 40
0.8090866661
 40
0.8457970394
 40
0.8792391684
 40
0.8946316296
 40
0.9090919706
 40
0.9225875047
 40
0.935085556
 40
0.9465549412
 40
0.9569710544
 40
0.966311127
 40
0.9745524164
 40
0.9816725892
 40
0.9876552151
 40
0.9902163178
 40
0.9924887338
 40
0.9944711001
 40
0.9961621187
 40
0.9975606114
 40
0.998665661
 40
0.9994776007
 40
0.9997745846
 40
1.0
 40
1.0
 40
1.0
 40
1.0
 10
4.6095586768
 20
5.3453932817
 30
0.0
 10
4.609558668
 20
5.3454350557
 30
0.0
 10
4.6096107148
 20
5.3455018983
 30
0.0
 10
4.6097042602
 20
5.34556268
 30
0.0
 10
4.6098146007
 20
5.3456170708
 30
0.0
 10
4.6099546697
 20
5.3456704693
 30
0.0
 10
4.6102016986
 20
5.3457484054
 30
0.0
 10
4.6105893138
 20
5.3458421221
 30
0.0
 10
4.6111484588
 20
5.3459494011
 30
0.0
 10
4.6118314576
 20
5.3460573344
 30
0.0
 10
4.6126383182
 20
5.3461659983
 30
0.0
 10
4.6139605238
 20
5.3463209592
 30
0.0
 10
4.6159223697
 20
5.3465104439
 30
0.0
 10
4.6186459823
 20
5.3467289942
 30
0.0
 10
4.621859378
 20
5.3469493528
 30
0.0
 10
4.6255603398
 20
5.347171431
 30
0.0
 10
4.6297466732
 20
5.3473950052
 30
0.0
 10
4.6344161378
 20
5.3476200144
 30
0.0
 10
4.6395664831
 20
5.3478464233
 30
0.0
 10
4.6473867011
 20
5.3481628269
 30
0.0
 10
4.6583388904
 20
5.3485563098
 30
0.0
 10
4.6728733108
 20
5.3490152324
 30
0.0
 10
4.6892362527
 20
5.3494750244
 30
0.0
 10
4.7073905674
 20
5.3499333788
 30
0.0
 10
4.727295251
 20
5.3503875948
 30
0.0
 10
4.7489035245
 20
5.3508374333
 30
0.0
 10
4.7721632618
 20
5.3512831991
 30
0.0
 10
4.7970204367
 20
5.3517250448
 30
0.0
 10
4.823418848
 20
5.3521629635
 30
0.0
 10
4.8615156562
 20
5.3527571848
 30
0.0
 10
4.9124915015
 20
5.353492414
 30
0.0
 10
4.9773412013
 20
5.3543736641
 30
0.0
 10
5.0466415613
 20
5.3552777737
 30
0.0
 10
5.119735049
 20
5.3561953184
 30
0.0
 10
5.1959283962
 20
5.3571172454
 30
0.0
 10
5.2745049053
 20
5.3580264093
 30
0.0
 10
5.3547224884
 20
5.3589098997
 30
0.0
 10
5.4358234862
 20
5.3597803981
 30
0.0
 10
5.5170401369
 20
5.3606484758
 30
0.0
 10
5.5976048201
 20
5.3615259997
 30
0.0
 10
5.6767579897
 20
5.3624285416
 30
0.0
 10
5.7537517739
 20
5.3633483435
 30
0.0
 10
5.8278593346
 20
5.3642684382
 30
0.0
 10
5.8983784401
 20
5.3651779201
 30
0.0
 10
5.9646395612
 20
5.3660666912
 30
0.0
 10
6.0260149031
 20
5.3669324061
 30
0.0
 10
6.0738369211
 20
5.3676693081
 30
0.0
 10
6.1092196075
 20
5.3682719227
 30
0.0
 10
6.1334513565
 20
5.3687149215
 30
0.0
 10
6.1560644914
 20
5.3691619669
 30
0.0
 10
6.1770049575
 20
5.3696134316
 30
0.0
 10
6.1962231869
 20
5.3700699521
 30
0.0
 10
6.2136751931
 20
5.3705292577
 30
0.0
 10
6.2293216882
 20
5.3709889249
 30
0.0
 10
6.2431246291
 20
5.3714464648
 30
0.0
 10
6.2550494275
 20
5.3718994228
 30
0.0
 10
6.2637984747
 20
5.3722887447
 30
0.0
 10
6.2698375198
 20
5.3726040908
 30
0.0
 10
6.2736417571
 20
5.3728267251
 30
0.0
 10
6.2769587305
 20
5.3730476443
 30
0.0
 10
6.2797859395
 20
5.3732667737
 30
0.0
 10
6.2821213414
 20
5.3734830073
 30
0.0
 10
6.2839626007
 20
5.3736967901
 30
0.0
 10
6.2851873086
 20
5.3738831416
 30
0.0
 10
6.2859163356
 20
5.3740420453
 30
0.0
 10
6.2861976785
 20
5.3741225034
 30
0.0
 10
6.2863161287
 20
5.3741655464
 30
0.0
  0
SPLINE
  5
3B1
100
AcDbEntity
  8
0
100
AcDbSpline
 62
7
  6
CONTINUOUS
 70
0
 71
3
 72
32
 73
28
 74
0
 42
0.0000001
 43
0.0000001
 44
0.0000000001
 40
0.0
 40
0.0
 40
0.0
 40
0.0
 40
0.0005905373
 40
0.0010043498
 40
0.0015215295
 40
0.0028956894
 40
0.0047470571
 40
0.0070873205
 40
0.0099217651
 40
0.0132530178
 40
0.0170824162
 40
0.0262376134
 40
0.037388687
 40
0.050533671
 40
0.0656692317
 40
0.0827913074
 40
0.1018954137
 40
0.146030219
 40
0.1980115456
 40
0.2577358787
 40
0.325094911
 40
0.3999799714
 40
0.4822821664
 40
0.5718834197
 40
0.6686254128
 40
0.7723386002
 40
1.0
 40
1.0
 40
1.0
 40
1.0
 10
6.2866623211
 20
5.3506005633
 30
0.0
 10
6.2866623884
 20
5.3505670682
 30
0.0
 10
6.2866290533
 20
5.3505125172
 30
0.0
 10
6.2865620085
 20
5.3504595916
 30
0.0
 10
6.2864486666
 20
5.3503928204
 30
0.0
 10
6.2862504622
 20
5.3503151443
 30
0.0
 10
6.2859473126
 20
5.3502264045
 30
0.0
 10
6.2855587027
 20
5.350137293
 30
0.0
 10
6.2850846291
 20
5.3500473976
 30
0.0
 10
6.2845248825
 20
5.3499571335
 30
0.0
 10
6.2836083808
 20
5.3498285508
 30
0.0
 10
6.2822482689
 20
5.3496715258
 30
0.0
 10
6.2803594974
 20
5.3494906712
 30
0.0
 10
6.2781303093
 20
5.3493085577
 30
0.0
 10
6.2755615845
 20
5.349125199
 30
0.0
 10
6.2726541782
 20
5.3489406991
 30
0.0
 10
6.2681035251
 20
5.3486805108
 30
0.0
 10
6.2615761161
 20
5.348358173
 30
0.0
 10
6.2527448374
 20
5.3479819732
 30
0.0
 10
6.2425953864
 20
5.347602061
 30
0.0
 10
6.2311461277
 20
5.3472197081
 30
0.0
 10
6.2184156486
 20
5.34683636
 30
0.0
 10
6.2044230701
 20
5.3464533136
 30
0.0
 10
6.1891903049
 20
5.3460719141
 30
0.0
 10
6.1727427153
 20
5.3456925059
 30
0.0
 10
6.1484655457
 20
5.3451736141
 30
0.0
 10
6.1296734355
 20
5.3448143477
 30
0.0
 10
6.1167626196
 20
5.3445812934
 30
0.0
  0
LINE
  5
3B2
100
AcDbEntity
  8
0
100
AcDbLine
 62
7
  6
CONTINUOUS
 10
6.1167626196
 20
5.3445812934
 11
6.1098129327
 21
5.3444571826
  0
SPLINE
  5
3B3
100
AcDbEntity
  8
0
100
AcDbSpline
 62
7
  6
CONTINUOUS
 70
0
 71
3
 72
70
 73
66
 74
0
 42
0.0000001
 43
0.0000001
 44
0.0000000001
 40
0.0
 40
0.0
 40
0.0
 40
0.0
 40
0.0000748895
 40
0.0001314806
 40
0.0002039864
 40
0.0004001219
 40
0.0006670451
 40
0.0010059821
 40
0.0014174728
 40
0.0019017778
 40
0.002459024
 40
0.003792497
 40
0.0054179388
 40
0.0073350587
 40
0.0095434258
 40
0.012042184
 40
0.0148294551
 40
0.0179031656
 40
0.0212612266
 40
0.0288219872
 40
0.0374948701
 40
0.0472623848
 40
0.0581007331
 40
0.0699820883
 40
0.0828785418
 40
0.0967621392
 40
0.1116015463
 40
0.1273592772
 40
0.1439971838
 40
0.1797598786
 40
0.2185528675
 40
0.2600041843
 40
0.3037247338
 40
0.3492970455
 40
0.3962947545
 40
0.4442721214
 40
0.4927780901
 40
0.5413542723
 40
0.589540374
 40
0.6368832424
 40
0.6829344662
 40
0.7272605999
 40
0.7694425944
 40
0.8090789413
 40
0.8457971024
 40
0.8792430843
 40
0.8946422953
 40
0.9091091059
 40
0.92260712
 40
0.9351064074
 40
0.9465796096
 40
0.9569993873
 40
0.9663385781
 40
0.9745749298
 40
0.9816919322
 40
0.9876734831
 40
0.9902334845
 40
0.992503675
 40
0.9944824617
 40
0.9961693095
 40
0.9975639891
 40
0.9986665221
 40
0.9994775432
 40
0.9997744771
 40
1.0
 40
1.0
 40
1.0
 40
1.0
 10
4.6095717713
 20
5.4034647345
 30
0.0
 10
4.6095718344
 20
5.403506604
 30
0.0
 10
4.6096241094
 20
5.4035734833
 30
0.0
 10
4.6097178813
 20
5.4036343705
 30
0.0
 10
4.609882446
 20
5.4037150735
 30
0.0
 10
4.6101674776
 20
5.4038076037
 30
0.0
 10
4.6106033912
 20
5.4039140695
 30
0.0
 10
4.6111621968
 20
5.4040208147
 30
0.0
 10
4.6118441216
 20
5.4041286922
 30
0.0
 10
4.6126492909
 20
5.4042370293
 30
0.0
 10
4.6139681614
 20
5.4043915182
 30
0.0
 10
4.6159250793
 20
5.4045803235
 30
0.0
 10
4.6186425392
 20
5.4047981558
 30
0.0
 10
4.6218503285
 20
5.4050180122
 30
0.0
 10
4.6255472142
 20
5.4052400002
 30
0.0
 10
4.6297312486
 20
5.4054640015
 30
0.0
 10
4.6343996139
 20
5.4056897293
 30
0.0
 10
4.6395488432
 20
5.4059169184
 30
0.0
 10
4.6473654343
 20
5.4062341087
 30
0.0
 10
4.6583118366
 20
5.4066277889
 30
0.0
 10
4.6728414883
 20
5.4070862498
 30
0.0
 10
4.6892043816
 20
5.4075451817
 30
0.0
 10
4.7073617343
 20
5.4080031348
 30
0.0
 10
4.7272689882
 20
5.4084586549
 30
0.0
 10
4.7488792829
 20
5.4089103141
 30
0.0
 10
4.7721438197
 20
5.4093564252
 30
0.0
 10
4.7970084339
 20
5.4097964388
 30
0.0
 10
4.8234132237
 20
5.4102329048
 30
0.0
 10
4.861514881
 20
5.4108269096
 30
0.0
 10
4.9124944934
 20
5.4115651703
 30
0.0
 10
4.9773462646
 20
5.4124455922
 30
0.0
 10
5.0466472743
 20
5.4133461356
 30
0.0
 10
5.1197385511
 20
5.4142668723
 30
0.0
 10
5.1959309636
 20
5.4151880698
 30
0.0
 10
5.2745036456
 20
5.4160937879
 30
0.0
 10
5.3547167829
 20
5.416982802
 30
0.0
 10
5.4358126905
 20
5.4178517055
 30
0.0
 10
5.5170253469
 20
5.4187166495
 30
0.0
 10
5.5975875058
 20
5.4195991748
 30
0.0
 10
5.6767376991
 20
5.4205007531
 30
0.0
 10
5.7537295174
 20
5.4214177912
 30
0.0
 10
5.8278356842
 20
5.4223406684
 30
0.0
 10
5.8983552777
 20
5.4232496606
 30
0.0
 10
5.9646213258
 20
5.4241343598
 30
0.0
 10
6.0260029497
 20
5.4250040842
 30
0.0
 10
6.0738344593
 20
5.4257412375
 30
0.0
 10
6.1092261521
 20
5.4263414463
 30
0.0
 10
6.1334663051
 20
5.4267832312
 30
0.0
 10
6.1560847438
 20
5.4272314055
 30
0.0
 10
6.177029036
 20
5.4276848411
 30
0.0
 10
6.1962518149
 20
5.4281417464
 30
0.0
 10
6.2137072409
 20
5.4286004579
 30
0.0
 10
6.2293522959
 20
5.4290593834
 30
0.0
 10
6.2431499894
 20
5.4295167175
 30
0.0
 10
6.255069422
 20
5.4299705837
 30
0.0
 10
6.2638152739
 20
5.4303612391
 30
0.0
 10
6.2698517196
 20
5.4306772591
 30
0.0
 10
6.2736520229
 20
5.4308999418
 30
0.0
 10
6.276963382
 20
5.4311203942
 30
0.0
 10
6.2797841185
 20
5.431338761
 30
0.0
 10
6.2821136599
 20
5.4315541868
 30
0.0
 10
6.2839508828
 20
5.431767345
 30
0.0
 10
6.2851736514
 20
5.4319533413
 30
0.0
 10
6.2859022066
 20
5.4321120919
 30
0.0
 10
6.2861835824
 20
5.4321925324
 30
0.0
 10
6.2863020938
 20
5.4322355767
 30
0.0
  0
SPLINE
  5
3B4
100
AcDbEntity
  8
0
100
AcDbSpline
 62
7
  6
CONTINUOUS
 70
0
 71
3
 72
61
 73
57
 74
0
 42
0.0000001
 43
0.0000001
 44
0.0000000001
 40
0.0
 40
0.0
 40
0.0
 40
0.0
 40
0.000072411
 40
0.0001265048
 40
0.0001955887
 40
0.0003820965
 40
0.0006357236
 40
0.0009577654
 40
0.0013488344
 40
0.0018092641
 40
0.002339254
 40
0.0036083588
 40
0.005156291
 40
0.006981977
 40
0.009084112
 40
0.011461319
 40
0.0141121785
 40
0.0170352453
 40
0.0202290574
 40
0.0274229919
 40
0.0356791937
 40
0.0449765566
 40
0.0552931311
 40
0.0666069455
 40
0.0788953911
 40
0.0921303048
 40
0.1062806052
 40
0.1213151747
 40
0.1372028344
 40
0.1713946308
 40
0.2085434157
 40
0.2483221768
 40
0.2903681553
 40
0.3343063674
 40
0.3797418242
 40
0.4262665286
 40
0.4734656522
 40
0.5209153544
 40
0.568191872
 40
0.6148733714
 40
0.6605410073
 40
0.7472225024
 40
0.7874590527
 40
0.8251349401
 40
0.8599083568
 40
0.8914722368
 40
0.91953813
 40
0.9438672269
 40
0.9642372195
 40
0.9728820134
 40
0.9804747893
 40
0.9869967244
 40
0.992430892
 40
0.9967677178
 40
0.9985223424
 40
1.0
 40
1.0
 40
1.0
 40
1.0
 10
6.286681126
 20
5.4086711218
 30
0.0
 10
6.2866811501
 20
5.408630758
 30
0.0
 10
6.2866324641
 20
5.4085659252
 30
0.0
 10
6.2865434769
 20
5.4085063932
 30
0.0
 10
6.2863881694
 20
5.4084280506
 30
0.0
 10
6.2861186251
 20
5.408338025
 30
0.0
 10
6.2857062521
 20
5.408234527
 30
0.0
 10
6.285177326
 20
5.408130689
 30
0.0
 10
6.2845315593
 20
5.4080257244
 30
0.0
 10
6.2837686851
 20
5.4079202538
 30
0.0
 10
6.2825181465
 20
5.4077697325
 30
0.0
 10
6.2806613603
 20
5.407585611
 30
0.0
 10
6.2780820725
 20
5.4073730207
 30
0.0
 10
6.275037235
 20
5.4071584897
 30
0.0
 10
6.2715292807
 20
5.4069421781
 30
0.0
 10
6.2675606681
 20
5.4067243955
 30
0.0
 10
6.2631339027
 20
5.4065052892
 30
0.0
 10
6.2582514932
 20
5.4062849757
 30
0.0
 10
6.2508380645
 20
5.4059774247
 30
0.0
 10
6.2404524132
 20
5.4055954042
 30
0.0
 10
6.2266646973
 20
5.4051493779
 30
0.0
 10
6.2111355799
 20
5.4047018201
 30
0.0
 10
6.1939014266
 20
5.4042547923
 30
0.0
 10
6.1749993959
 20
5.4038103963
 30
0.0
 10
6.1544700892
 20
5.4033710003
 30
0.0
 10
6.1323592247
 20
5.4029363781
 30
0.0
 10
6.1087172535
 20
5.4025056843
 30
0.0
 10
6.0835962883
 20
5.4020782307
 30
0.0
 10
6.0473046813
 20
5.4014976156
 30
0.0
 10
5.9986866518
 20
5.4007817159
 30
0.0
 10
5.9367516813
 20
5.3999314968
 30
0.0
 10
5.8704385286
 20
5.399056155
 30
0.0
 10
5.800340661
 20
5.398164949
 30
0.0
 10
5.7270894285
 20
5.3972682012
 30
0.0
 10
5.6513413942
 20
5.3963767358
 30
0.0
 10
5.573775298
 20
5.3955048069
 30
0.0
 10
5.4950860985
 20
5.3946550946
 30
0.0
 10
5.4159777349
 20
5.3938110868
 30
0.0
 10
5.3371579952
 20
5.3929604838
 30
0.0
 10
5.2593318345
 20
5.3920959832
 30
0.0
 10
5.1595423104
 20
5.3909314221
 30
0.0
 10
5.0633459421
 20
5.3897397194
 30
0.0
 10
4.9716048545
 20
5.3885402481
 30
0.0
 10
4.9087966918
 20
5.38768236
 30
0.0
 10
4.8508231167
 20
5.3868426192
 30
0.0
 10
4.798207006
 20
5.3860026029
 30
0.0
 10
4.75141393
 20
5.3851462304
 30
0.0
 10
4.7108620708
 20
5.3842775743
 30
0.0
 10
4.6811365552
 20
5.3835094788
 30
0.0
 10
4.6607402751
 20
5.3828780725
 30
0.0
 10
4.6480612948
 20
5.3824333563
 30
0.0
 10
4.6371730246
 20
5.3819938953
 30
0.0
 10
4.6281011541
 20
5.3815616039
 30
0.0
 10
4.6216870626
 20
5.381188022
 30
0.0
 10
4.6174789594
 20
5.3808810826
 30
0.0
 10
4.6156837277
 20
5.3807267532
 30
0.0
 10
4.6148638438
 20
5.3806477163
 30
0.0
  0
LINE
  5
3B5
100
AcDbEntity
  8
0
100
AcDbLine
 62
7
  6
CONTINUOUS
 10
4.6148638438
 20
5.3806477163
 11
4.6100103655
 21
5.3799272187
  0
SPLINE
  5
3B6
100
AcDbEntity
  8
0
100
AcDbSpline
 62
7
  6
CONTINUOUS
 70
0
 71
3
 72
61
 73
57
 74
0
 42
0.0000001
 43
0.0000001
 44
0.0000000001
 40
0.0
 40
0.0
 40
0.0
 40
0.0
 40
0.0000724962
 40
0.000126674
 40
0.000195872
 40
0.0003827062
 40
0.0006368043
 40
0.000959479
 40
0.00135136
 40
0.0018127982
 40
0.0023440109
 40
0.0036160325
 40
0.0051669419
 40
0.006995662
 40
0.0091009773
 40
0.0114815995
 40
0.0141361977
 40
0.0170634149
 40
0.0202618771
 40
0.0274667741
 40
0.0357347155
 40
0.0450445987
 40
0.0553750704
 40
0.0667047557
 40
0.0790108801
 40
0.0922643227
 40
0.1064341415
 40
0.121489384
 40
0.1373989622
 40
0.1716358715
 40
0.2088295203
 40
0.2486509575
 40
0.290738077
 40
0.3347173364
 40
0.3801928359
 40
0.4267567361
 40
0.4739927593
 40
0.5214758386
 40
0.5687811191
 40
0.6154851561
 40
0.661167406
 40
0.7478486161
 40
0.7880675553
 40
0.825715499
 40
0.8604496238
 40
0.8919638628
 40
0.9199700816
 40
0.944229729
 40
0.9645217907
 40
0.9731244777
 40
0.9806729716
 40
0.9871483906
 40
0.9925338921
 40
0.9968201082
 40
0.9985487477
 40
1.0
 40
1.0
 40
1.0
 40
1.0
 10
4.6095542563
 20
5.4615352348
 30
0.0
 10
4.6095542568
 20
5.4615756512
 30
0.0
 10
4.6096030732
 20
5.4616405361
 30
0.0
 10
4.609692223
 20
5.4617001204
 30
0.0
 10
4.6098478431
 20
5.4617785504
 30
0.0
 10
4.6101179227
 20
5.4618686856
 30
0.0
 10
4.6105311409
 20
5.4619723227
 30
0.0
 10
4.6110611961
 20
5.4620763137
 30
0.0
 10
4.6117084073
 20
5.462181447
 30
0.0
 10
4.6124730696
 20
5.4622871006
 30
0.0
 10
4.6137266303
 20
5.4624378966
 30
0.0
 10
4.6155876154
 20
5.4626223321
 30
0.0
 10
4.6181722125
 20
5.4628351849
 30
0.0
 10
4.6212225724
 20
5.4630498716
 30
0.0
 10
4.6247363567
 20
5.4632662596
 30
0.0
 10
4.628711253
 20
5.4634840722
 30
0.0
 10
4.6331449021
 20
5.4637031938
 30
0.0
 10
4.6380349411
 20
5.4639235414
 30
0.0
 10
4.6454603538
 20
5.4642312091
 30
0.0
 10
4.6558625965
 20
5.4646136113
 30
0.0
 10
4.6696717299
 20
5.4650601457
 30
0.0
 10
4.6852241285
 20
5.4655081444
 30
0.0
 10
4.7024840901
 20
5.4659555069
 30
0.0
 10
4.7214150263
 20
5.4664000104
 30
0.0
 10
4.7419760317
 20
5.4668394511
 30
0.0
 10
4.7641208253
 20
5.4672744871
 30
0.0
 10
4.7877985918
 20
5.467705676
 30
0.0
 10
4.8129574332
 20
5.4681336465
 30
0.0
 10
4.8493026343
 20
5.4687147491
 30
0.0
 10
4.8979893417
 20
5.4694311348
 30
0.0
 10
4.9600062837
 20
5.4702821179
 30
0.0
 10
5.0263997606
 20
5.4711582144
 30
0.0
 10
5.0965763167
 20
5.4720499853
 30
0.0
 10
5.1699051733
 20
5.4729476443
 30
0.0
 10
5.2457300725
 20
5.4738398719
 30
0.0
 10
5.3233709702
 20
5.4747113312
 30
0.0
 10
5.4021313872
 20
5.4755617051
 30
0.0
 10
5.4813052011
 20
5.4764068611
 30
0.0
 10
5.5601823486
 20
5.4772583855
 30
0.0
 10
5.6380553286
 20
5.478123705
 30
0.0
 10
5.7378783179
 20
5.4792893746
 30
0.0
 10
5.8340852989
 20
5.4804823231
 30
0.0
 10
5.9258127117
 20
5.4816816847
 30
0.0
 10
5.9885816947
 20
5.4825401693
 30
0.0
 10
6.0464976035
 20
5.4833805665
 30
0.0
 10
6.0990376648
 20
5.4842209464
 30
0.0
 10
6.145737111
 20
5.4850781173
 30
0.0
 10
6.1861787407
 20
5.485947917
 30
0.0
 10
6.2158024153
 20
5.4867168096
 30
0.0
 10
6.2361096698
 20
5.4873487941
 30
0.0
 10
6.2487161494
 20
5.4877936482
 30
0.0
 10
6.2595280196
 20
5.4882331145
 30
0.0
 10
6.2685196994
 20
5.4886653329
 30
0.0
 10
6.2748646824
 20
5.4890389554
 30
0.0
 10
6.2790157352
 20
5.4893462177
 30
0.0
 10
6.2807818723
 20
5.4895007505
 30
0.0
 10
6.2815870545
 20
5.4895799753
 30
0.0
  0
SPLINE
  5
3B7
100
AcDbEntity
  8
0
100
AcDbSpline
 62
7
  6
CONTINUOUS
 70
0
 71
3
 72
12
 73
8
 74
0
 42
0.0000001
 43
0.0000001
 44
0.0000000001
 40
0.0
 40
0.0
 40
0.0
 40
0.0
 40
0.3553456448
 40
0.6402906695
 40
0.8549476338
 40
0.9360896855
 40
1.0
 40
1.0
 40
1.0
 40
1.0
 10
6.2815870545
 20
5.4895799753
 30
0.0
 10
6.2821504288
 20
5.4896354078
 30
0.0
 10
6.2831649221
 20
5.4897428315
 30
0.0
 10
6.2845153585
 20
5.4899201647
 30
0.0
 10
6.285428154
 20
5.4900752109
 30
0.0
 10
6.2859862011
 20
5.4902060296
 30
0.0
 10
6.286207931
 20
5.4902722553
 30
0.0
 10
6.2863036288
 20
5.4903070129
 30
0.0
  0
SPLINE
  5
3B8
100
AcDbEntity
  8
0
100
AcDbSpline
 62
7
  6
CONTINUOUS
 70
0
 71
3
 72
59
 73
55
 74
0
 42
0.0000001
 43
0.0000001
 44
0.0000000001
 40
0.0
 40
0.0
 40
0.0
 40
0.0
 40
0.0000720595
 40
0.0001257666
 40
0.0001943192
 40
0.0003793284
 40
0.0006307978
 40
0.000949921
 40
0.0013372071
 40
0.0017928863
 40
0.0023170551
 40
0.0035708972
 40
0.0050985375
 40
0.0068994423
 40
0.0089729378
 40
0.011318276
 40
0.0139346656
 40
0.0168210927
 40
0.0199756396
 40
0.0270803651
 40
0.0352313456
 40
0.0444110109
 40
0.0546016494
 40
0.0657815749
 40
0.0779240183
 40
0.0910018647
 40
0.1049879897
 40
0.1198543014
 40
0.135566704
 40
0.1693841067
 40
0.2061458003
 40
0.2455229145
 40
0.2871640664
 40
0.3307026813
 40
0.3757529346
 40
0.4219216434
 40
0.4687989264
 40
0.5630237658
 40
0.6551084284
 40
0.6993295162
 40
0.7418111358
 40
0.7821798597
 40
0.8200735271
 40
0.8551631228
 40
0.8871324669
 40
0.915706707
 40
0.940631239
 40
0.9616899065
 40
0.9707121211
 40
0.9786994844
 40
0.9856346533
 40
0.991504777
 40
0.9962973002
 40
1.0
 40
1.0
 40
1.0
 40
1.0
 10
6.2866631625
 20
5.4667423186
 30
0.0
 10
6.2866631913
 20
5.4667022031
 30
0.0
 10
6.2866151594
 20
5.4666377041
 30
0.0
 10
6.2865270059
 20
5.4665783558
 30
0.0
 10
6.2863733037
 20
5.4665003733
 30
0.0
 10
6.2861064617
 20
5.4664107339
 30
0.0
 10
6.2856983264
 20
5.4663076959
 30
0.0
 10
6.2851750466
 20
5.4662043321
 30
0.0
 10
6.2845365193
 20
5.4660998879
 30
0.0
 10
6.2837826453
 20
5.4659949952
 30
0.0
 10
6.2825481273
 20
5.465845461
 30
0.0
 10
6.2807167888
 20
5.4656627719
 30
0.0
 10
6.278174424
 20
5.4654521657
 30
0.0
 10
6.275174554
 20
5.4652398732
 30
0.0
 10
6.2717186169
 20
5.465025878
 30
0.0
 10
6.2678080248
 20
5.4648103047
 30
0.0
 10
6.2634443459
 20
5.464593125
 30
0.0
 10
6.2586297534
 20
5.4643743062
 30
0.0
 10
6.2513179314
 20
5.464068429
 30
0.0
 10
6.2410759515
 20
5.4636882458
 30
0.0
 10
6.2274799861
 20
5.4632449367
 30
0.0
 10
6.2121653173
 20
5.4628006061
 30
0.0
 10
6.1951637747
 20
5.4623574445
 30
0.0
 10
6.1765122859
 20
5.4619169357
 30
0.0
 10
6.1562530152
 20
5.4614794728
 30
0.0
 10
6.1344311236
 20
5.4610457803
 30
0.0
 10
6.1110924971
 20
5.4606164409
 30
0.0
 10
6.0862868934
 20
5.460192293
 30
0.0
 10
6.0504422188
 20
5.4596169647
 30
0.0
 10
6.00240902
 20
5.4589066694
 30
0.0
 10
5.941202313
 20
5.4580593418
 30
0.0
 10
5.8756399733
 20
5.4571940931
 30
0.0
 10
5.8063048306
 20
5.4563118347
 30
0.0
 10
5.7338113376
 20
5.455419072
 30
0.0
 10
5.6587970832
 20
5.4545336023
 30
0.0
 10
5.5819238326
 20
5.453668887
 30
0.0
 10
5.4776764364
 20
5.4525333877
 30
0.0
 10
5.3478686682
 20
5.4511660157
 30
0.0
 10
5.2195405862
 20
5.4497148376
 30
0.0
 10
5.1200170079
 20
5.4485122414
 30
0.0
 10
5.0492819915
 20
5.4476230086
 30
0.0
 10
4.9820695659
 20
5.4467470918
 30
0.0
 10
4.9189723016
 20
5.4458964353
 30
0.0
 10
4.8605512202
 20
5.4450594676
 30
0.0
 10
4.807318818
 20
5.4442235313
 30
0.0
 10
4.7597461696
 20
5.4433808969
 30
0.0
 10
4.7182489383
 20
5.4425198701
 30
0.0
 10
4.6876367953
 20
5.4417573832
 30
0.0
 10
4.6664534
 20
5.4411325672
 30
0.0
 10
4.65313066
 20
5.440690555
 30
0.0
 10
4.6415636573
 20
5.4402522344
 30
0.0
 10
4.6317764058
 20
5.4398193842
 30
0.0
 10
4.6237905173
 20
5.4393933059
 30
0.0
 10
4.619071425
 20
5.4390770225
 30
0.0
 10
4.617016966
 20
5.4389093351
 30
0.0
  0
SPLINE
  5
3B9
100
AcDbEntity
  8
0
100
AcDbSpline
 62
7
  6
CONTINUOUS
 70
0
 71
3
 72
12
 73
8
 74
0
 42
0.0000001
 43
0.0000001
 44
0.0000000001
 40
0.0
 40
0.0
 40
0.0
 40
0.0
 40
0.3618872361
 40
0.6489631353
 40
0.8614342063
 40
0.9398739534
 40
1.0
 40
1.0
 40
1.0
 40
1.0
 10
4.617016966
 20
5.4389093351
 30
0.0
 10
4.6161651927
 20
5.4388398123
 30
0.0
 10
4.6146383708
 20
5.4387056779
 30
0.0
 10
4.6126162334
 20
5.4384837744
 30
0.0
 10
4.6112641818
 20
5.4382903328
 30
0.0
 10
4.6104515496
 20
5.4381258652
 30
0.0
 10
4.6101346053
 20
5.4380425853
 30
0.0
 10
4.6099997255
 20
5.4379982191
 30
0.0
  0
SPLINE
  5
3BA
100
AcDbEntity
  8
0
100
AcDbSpline
 62
7
  6
CONTINUOUS
 70
0
 71
3
 72
32
 73
28
 74
0
 42
0.0000001
 43
0.0000001
 44
0.0000000001
 40
0.0
 40
0.0
 40
0.0
 40
0.0
 40
0.0005908662
 40
0.001004701
 40
0.0015217812
 40
0.0028955728
 40
0.0047467236
 40
0.0070869566
 40
0.0099215482
 40
0.0132531099
 40
0.017082962
 40
0.0262394238
 40
0.0373921072
 40
0.0505388851
 40
0.065676261
 40
0.0828000096
 40
0.1019054823
 40
0.1460416491
 40
0.1980265488
 40
0.2577556242
 40
0.3251164968
 40
0.3999964243
 40
0.4822824433
 40
0.5718564398
 40
0.6685718515
 40
0.7722720632
 40
1.0
 40
1.0
 40
1.0
 40
1.0
 10
4.6095708203
 20
5.5196059533
 30
0.0
 10
4.6095707682
 20
5.519639404
 30
0.0
 10
4.6096040232
 20
5.5196938697
 30
0.0
 10
4.609670925
 20
5.519746746
 30
0.0
 10
4.6097839947
 20
5.5198134382
 30
0.0
 10
4.6099817597
 20
5.5198910381
 30
0.0
 10
4.6102842819
 20
5.5199796789
 30
0.0
 10
4.6106721357
 20
5.5200687032
 30
0.0
 10
4.6111453245
 20
5.5201585152
 30
0.0
 10
4.6117040538
 20
5.5202487018
 30
0.0
 10
4.6126189254
 20
5.5203771808
 30
0.0
 10
4.6139766443
 20
5.5205340875
 30
0.0
 10
4.6158621029
 20
5.5207148115
 30
0.0
 10
4.6180873705
 20
5.5208967931
 30
0.0
 10
4.620651541
 20
5.5210800114
 30
0.0
 10
4.6235537332
 20
5.5212643552
 30
0.0
 10
4.6280960488
 20
5.5215242922
 30
0.0
 10
4.6346115076
 20
5.5218462278
 30
0.0
 10
4.6434266851
 20
5.5222219834
 30
0.0
 10
4.6535575778
 20
5.5226015052
 30
0.0
 10
4.6649853366
 20
5.5229834896
 30
0.0
 10
4.6776907183
 20
5.5233664645
 30
0.0
 10
4.6916541753
 20
5.5237491207
 30
0.0
 10
4.7068542706
 20
5.5241300667
 30
0.0
 10
4.7232670848
 20
5.5245089629
 30
0.0
 10
4.7475000351
 20
5.5250272987
 30
0.0
 10
4.7662597662
 20
5.5253862846
 30
0.0
 10
4.7791500184
 20
5.5256192982
 30
0.0
  0
LINE
  5
3BB
100
AcDbEntity
  8
0
100
AcDbLine
 62
7
  6
CONTINUOUS
 10
4.7791500184
 20
5.5256192982
 11
4.7880754489
 21
5.5257784565
  0
SPLINE
  5
3BC
100
AcDbEntity
  8
0
100
AcDbSpline
 62
7
  6
CONTINUOUS
 70
0
 71
3
 72
32
 73
28
 74
0
 42
0.0000001
 43
0.0000001
 44
0.0000000001
 40
0.0
 40
0.0
 40
0.0
 40
0.0
 40
0.0005906573
 40
0.0010044042
 40
0.0015211705
 40
0.0028931978
 40
0.0047409351
 40
0.0070765221
 40
0.0099057249
 40
0.0132316574
 40
0.0170561458
 40
0.0262047098
 40
0.0373566352
 40
0.050511396
 40
0.0656623342
 40
0.0828015272
 40
0.10192064
 40
0.1460639987
 40
0.1980221395
 40
0.2577232675
 40
0.3250892296
 40
0.4000001084
 40
0.4823173708
 40
0.5719022564
 40
0.6686159091
 40
0.7723185758
 40
1.0
 40
1.0
 40
1.0
 40
1.0
 10
6.2866884769
 20
5.524812927
 30
0.0
 10
6.2866884251
 20
5.5247795341
 30
0.0
 10
6.2866550782
 20
5.5247252747
 30
0.0
 10
6.2865882427
 20
5.5246725685
 30
0.0
 10
6.2864753856
 20
5.5246061138
 30
0.0
 10
6.2862781762
 20
5.5245287698
 30
0.0
 10
6.2859765968
 20
5.524440421
 30
0.0
 10
6.2855900182
 20
5.5243516917
 30
0.0
 10
6.2851183501
 20
5.5242621666
 30
0.0
 10
6.2845613048
 20
5.5241722439
 30
0.0
 10
6.2836487522
 20
5.5240440648
 30
0.0
 10
6.2822936969
 20
5.5238873885
 30
0.0
 10
6.280410891
 20
5.5237066875
 30
0.0
 10
6.2781875466
 20
5.5235244353
 30
0.0
 10
6.2756248561
 20
5.5233407532
 30
0.0
 10
6.2727242883
 20
5.5231558706
 30
0.0
 10
6.2681862203
 20
5.5228952904
 30
0.0
 10
6.2616800876
 20
5.5225730749
 30
0.0
 10
6.2528797004
 20
5.5221982123
 30
0.0
 10
6.2427655128
 20
5.5218200205
 30
0.0
 10
6.2313529917
 20
5.5214390455
 30
0.0
 10
6.2186612755
 20
5.5210564963
 30
0.0
 10
6.2047129021
 20
5.5206736629
 30
0.0
 10
6.1895314564
 20
5.5202918421
 30
0.0
 10
6.1731405799
 20
5.519912223
 30
0.0
 10
6.1489435322
 20
5.5193947385
 30
0.0
 10
6.1302120472
 20
5.5190381276
 30
0.0
 10
6.1173421367
 20
5.5188059913
 30
0.0
  0
SPLINE
  5
3BD
100
AcDbEntity
  8
0
100
AcDbSpline
 62
7
  6
CONTINUOUS
 70
0
 71
3
 72
39
 73
35
 74
0
 42
0.0000001
 43
0.0000001
 44
0.0000000001
 40
0.0
 40
0.0
 40
0.0
 40
0.0
 40
0.0566208525
 40
0.1224037427
 40
0.1957897621
 40
0.2750380463
 40
0.3582768429
 40
0.443540334
 40
0.5288110829
 40
0.6120764838
 40
0.6913733887
 40
0.7289427098
 40
0.7648279811
 40
0.7988144487
 40
0.8306951484
 40
0.8602867277
 40
0.8874106346
 40
0.9119053928
 40
0.933635225
 40
0.9434215579
 40
0.9524681259
 40
0.960763355
 40
0.9682961861
 40
0.9750555773
 40
0.9810305135
 40
0.9862102947
 40
0.9905878312
 40
0.9941586762
 40
0.9956403284
 40
0.9969188659
 40
0.9979939557
 40
0.9988654564
 40
0.9995336516
 40
1.0
 40
1.0
 40
1.0
 40
1.0
 10
6.1173421367
 20
5.5188059913
 30
0.0
 10
6.0888930498
 20
5.5182928513
 30
0.0
 10
6.0273890298
 20
5.5173172302
 30
0.0
 10
5.9290080131
 20
5.5159611681
 30
0.0
 10
5.819255927
 20
5.5145351675
 30
0.0
 10
5.7007313168
 20
5.5130854663
 30
0.0
 10
5.5762371678
 20
5.5116631275
 30
0.0
 10
5.4487156825
 20
5.5103033493
 30
0.0
 10
5.3211809172
 20
5.5089353734
 30
0.0
 10
5.1966452183
 20
5.5075215837
 30
0.0
 10
5.0960804997
 20
5.5062874851
 30
0.0
 10
5.0193244433
 20
5.5053075494
 30
0.0
 10
4.9653366974
 20
5.5045964564
 30
0.0
 10
4.9142077568
 20
5.503897158
 30
0.0
 10
4.8662417254
 20
5.5032100836
 30
0.0
 10
4.8217246648
 20
5.5025263479
 30
0.0
 10
4.7809198387
 20
5.5018361835
 30
0.0
 10
4.7440666379
 20
5.5011334607
 30
0.0
 10
4.7159260372
 20
5.5005212329
 30
0.0
 10
4.6955481536
 20
5.5000207034
 30
0.0
 10
4.681920285
 20
5.4996566971
 30
0.0
 10
4.6694253248
 20
5.4992921091
 30
0.0
 10
4.6580802596
 20
5.4989280342
 30
0.0
 10
4.6479018121
 20
5.4985656878
 30
0.0
 10
4.638906571
 20
5.4982062269
 30
0.0
 10
4.6311091522
 20
5.4978512045
 30
0.0
 10
4.6245210942
 20
5.4975009466
 30
0.0
 10
4.6197916889
 20
5.4971982771
 30
0.0
 10
4.6166197427
 20
5.4969508753
 30
0.0
 10
4.6147000555
 20
5.4967782181
 30
0.0
 10
4.6130884109
 20
5.4966068047
 30
0.0
 10
4.6117849189
 20
5.4964377102
 30
0.0
 10
4.6107909831
 20
5.4962705415
 30
0.0
 10
4.6102339181
 20
5.4961421842
 30
0.0
 10
4.6100112841
 20
5.4960689987
 30
0.0
  0
SPLINE
  5
3BE
100
AcDbEntity
  8
0
100
AcDbSpline
 62
7
  6
CONTINUOUS
 70
0
 71
3
 72
37
 73
33
 74
0
 42
0.0000001
 43
0.0000001
 44
0.0000000001
 40
0.0
 40
0.0
 40
0.0
 40
0.0
 40
0.0004352536
 40
0.0008140373
 40
0.0013171729
 40
0.0019490986
 40
0.002711989
 40
0.0036069216
 40
0.0046344735
 40
0.0070884916
 40
0.0100751932
 40
0.0135944982
 40
0.0176458142
 40
0.027340787
 40
0.0391517153
 40
0.0530689358
 40
0.0690817506
 40
0.0871712708
 40
0.1073122335
 40
0.1294791221
 40
0.1536463651
 40
0.1797883545
 40
0.2078793724
 40
0.2697786815
 40
0.3390449683
 40
0.4153687599
 40
0.4984212005
 40
0.5878033919
 40
0.6831004619
 40
0.7838876915
 40
0.8896865272
 40
1.0
 40
1.0
 40
1.0
 40
1.0
 10
4.609563497
 20
6.0422436809
 30
0.0
 10
4.6095639748
 20
6.0423087116
 30
0.0
 10
4.6096806999
 20
6.0424022096
 30
0.0
 10
4.609851135
 20
6.0424810361
 30
0.0
 10
4.610067887
 20
6.0425572634
 30
0.0
 10
4.610340485
 20
6.0426313661
 30
0.0
 10
4.6106746737
 20
6.042706923
 30
0.0
 10
4.6110686341
 20
6.0427824683
 30
0.0
 10
4.6117137201
 20
6.0428901575
 30
0.0
 10
4.6126713172
 20
6.0430216198
 30
0.0
 10
4.6140015522
 20
6.0431729825
 30
0.0
 10
4.6155716368
 20
6.043325287
 30
0.0
 10
4.6181422032
 20
6.0435427534
 30
0.0
 10
4.6219516583
 20
6.0438090275
 30
0.0
 10
4.6272354206
 20
6.0441169874
 30
0.0
 10
4.6334643316
 20
6.0444284858
 30
0.0
 10
4.640632176
 20
6.0447436439
 30
0.0
 10
4.6487306009
 20
6.0450617759
 30
0.0
 10
4.6577490792
 20
6.0453820041
 30
0.0
 10
4.6676761225
 20
6.0457035109
 30
0.0
 10
4.6785002106
 20
6.0460254904
 30
0.0
 10
4.6902098075
 20
6.0463472013
 30
0.0
 10
4.7075558528
 20
6.0467890706
 30
0.0
 10
4.7313447064
 20
6.0473312089
 30
0.0
 10
4.7623400191
 20
6.0479560521
 30
0.0
 10
4.7964966124
 20
6.0485725742
 30
0.0
 10
4.8336593778
 20
6.0491796388
 30
0.0
 10
4.8736573813
 20
6.0497840036
 30
0.0
 10
4.9163054234
 20
6.0503916916
 30
0.0
 10
4.9614064251
 20
6.0510091202
 30
0.0
 10
5.008751148
 20
6.0516358759
 30
0.0
 10
5.0410384383
 20
6.0520511847
 30
0.0
 10
5.0575193597
 20
6.0522606748
 30
0.0
  0
SPLINE
  5
3BF
100
AcDbEntity
  8
0
100
AcDbSpline
 62
7
  6
CONTINUOUS
 70
0
 71
3
 72
29
 73
25
 74
0
 42
0.0000001
 43
0.0000001
 44
0.0000000001
 40
0.0
 40
0.0
 40
0.0
 40
0.0
 40
0.1551694217
 40
0.2369559366
 40
0.3199512633
 40
0.4029364918
 40
0.4846865225
 40
0.5640021823
 40
0.6397134245
 40
0.7107083054
 40
0.7759281467
 40
0.8344171917
 40
0.8608609711
 40
0.8853114226
 40
0.9076767784
 40
0.927871292
 40
0.9458272283
 40
0.9614802659
 40
0.9747669171
 40
0.9856385623
 40
0.9901578749
 40
0.9940605614
 40
0.9973425497
 40
1.0
 40
1.0
 40
1.0
 40
1.0
 10
5.0575193597
 20
6.0522606748
 30
0.0
 10
5.1208261055
 20
6.0530653712
 30
0.0
 10
5.2175011987
 20
6.0542404988
 30
0.0
 10
5.3480389166
 20
6.0556897428
 30
0.0
 10
5.4491264369
 20
6.0567738706
 30
0.0
 10
5.5501991349
 20
6.0578519763
 30
0.0
 10
5.6497700179
 20
6.0589632894
 30
0.0
 10
5.7463724395
 20
6.0601051743
 30
0.0
 10
5.838586185
 20
6.0612521347
 30
0.0
 10
5.9250483625
 20
6.0623801513
 30
0.0
 10
6.004483528
 20
6.0634651607
 30
0.0
 10
6.065741598
 20
6.0643852864
 30
0.0
 10
6.1103655366
 20
6.0651399473
 30
0.0
 10
6.1402516593
 20
6.0656918346
 30
0.0
 10
6.1675873621
 20
6.0662507154
 30
0.0
 10
6.1922723847
 20
6.0668183753
 30
0.0
 10
6.2142177488
 20
6.0673900874
 30
0.0
 10
6.233343536
 20
6.0679611094
 30
0.0
 10
6.2495774652
 20
6.0685270071
 30
0.0
 10
6.2612684321
 20
6.0690153918
 30
0.0
 10
6.2691305636
 20
6.0694133261
 30
0.0
 10
6.2738980193
 20
6.0696904574
 30
0.0
 10
6.2779044824
 20
6.0699644766
 30
0.0
 10
6.2803197437
 20
6.0701651795
 30
0.0
 10
6.2813990142
 20
6.0702693556
 30
0.0
  0
SPLINE
  5
3C0
100
AcDbEntity
  8
0
100
AcDbSpline
 62
7
  6
CONTINUOUS
 70
0
 71
3
 72
12
 73
8
 74
0
 42
0.0000001
 43
0.0000001
 44
0.0000000001
 40
0.0
 40
0.0
 40
0.0
 40
0.0
 40
0.3569895605
 40
0.6423435421
 40
0.8563828651
 40
0.9368973541
 40
1.0
 40
1.0
 40
1.0
 40
1.0
 10
6.2813990142
 20
6.0702693556
 30
0.0
 10
6.2819891459
 20
6.0703263177
 30
0.0
 10
6.2830503506
 20
6.0704365477
 30
0.0
 10
6.2844609238
 20
6.0706185597
 30
0.0
 10
6.2854115363
 20
6.0707775839
 30
0.0
 10
6.285990256
 20
6.0709119467
 30
0.0
 10
6.2862192338
 20
6.070979967
 30
0.0
 10
6.286317732
 20
6.0710157554
 30
0.0
  0
SPLINE
  5
3C1
100
AcDbEntity
  8
0
100
AcDbSpline
 62
7
  6
CONTINUOUS
 70
0
 71
3
 72
35
 73
31
 74
0
 42
0.0000001
 43
0.0000001
 44
0.0000000001
 40
0.0
 40
0.0
 40
0.0
 40
0.0
 40
0.0004612736
 40
0.0008407821
 40
0.001338615
 40
0.0019601121
 40
0.0027079727
 40
0.004588154
 40
0.0069861603
 40
0.0099050721
 40
0.0173107574
 40
0.0268039058
 40
0.0383743494
 40
0.0520104566
 40
0.0676999371
 40
0.0854301527
 40
0.1051882638
 40
0.1269609541
 40
0.1507283875
 40
0.1764650416
 40
0.2041451709
 40
0.2652327371
 40
0.3337847319
 40
0.4095778386
 40
0.4923464872
 40
0.5818184665
 40
0.677715995
 40
0.7796721091
 40
0.8872473217
 40
1.0
 40
1.0
 40
1.0
 40
1.0
 10
6.2866805523
 20
6.0474507961
 30
0.0
 10
6.2866805396
 20
6.0473968884
 30
0.0
 10
6.2865964293
 20
6.0473145347
 30
0.0
 10
6.2864628571
 20
6.0472438808
 30
0.0
 10
6.286298432
 20
6.0471774241
 30
0.0
 10
6.2860906467
 20
6.0471126248
 30
0.0
 10
6.2857225778
 20
6.047017398
 30
0.0
 10
6.2851462281
 20
6.046903208
 30
0.0
 10
6.2843152142
 20
6.0467722707
 30
0.0
 10
6.2828405972
 20
6.0465810393
 30
0.0
 10
6.2805356876
 20
6.0463503816
 30
0.0
 10
6.2772190693
 20
6.0460853323
 30
0.0
 10
6.2731725932
 20
6.0458171148
 30
0.0
 10
6.2684008577
 20
6.0455459146
 30
0.0
 10
6.2629083579
 20
6.0452724128
 30
0.0
 10
6.2566997212
 20
6.0449968156
 30
0.0
 10
6.2497796101
 20
6.0447193475
 30
0.0
 10
6.2421535014
 20
6.044440142
 30
0.0
 10
6.2338283187
 20
6.0441595592
 30
0.0
 10
6.224812418
 20
6.0438781296
 30
0.0
 10
6.2114362776
 20
6.0434895749
 30
0.0
 10
6.1930570363
 20
6.0430094007
 30
0.0
 10
6.1690551229
 20
6.0424549283
 30
0.0
 10
6.1425186363
 20
6.0419084129
 30
0.0
 10
6.1135367159
 20
6.041367922
 30
0.0
 10
6.0822047939
 20
6.0408323709
 30
0.0
 10
6.0486301248
 20
6.0403008604
 30
0.0
 10
6.0129395173
 20
6.0397708387
 30
0.0
 10
5.9752789247
 20
6.0392387704
 30
0.0
 10
5.9495322592
 20
6.0388884018
 30
0.0
 10
5.9363563873
 20
6.0387113335
 30
0.0
  0
SPLINE
  5
3C2
100
AcDbEntity
  8
0
100
AcDbSpline
 62
7
  6
CONTINUOUS
 70
0
 71
3
 72
69
 73
65
 74
0
 42
0.0000001
 43
0.0000001
 44
0.0000000001
 40
0.0
 40
0.0
 40
0.0
 40
0.0
 40
0.0000747128
 40
0.000131159
 40
0.0002034902
 40
0.0003992121
 40
0.0006656745
 40
0.0010041499
 40
0.0014152238
 40
0.0018992029
 40
0.0024562596
 40
0.0037899467
 40
0.0054166983
 40
0.0073361911
 40
0.0095469505
 40
0.0120472712
 40
0.0148354068
 40
0.0179095858
 40
0.02126802
 40
0.0288304425
 40
0.0375076404
 40
0.0472781525
 40
0.0581164909
 40
0.0699970835
 40
0.0828943033
 40
0.0967790984
 40
0.1116164268
 40
0.127370631
 40
0.1440060445
 40
0.1797665488
 40
0.2185534602
 40
0.2600048797
 40
0.3037244129
 40
0.3492991688
 40
0.3962985294
 40
0.4442774685
 40
0.4927846266
 40
0.5413604651
 40
0.5895467978
 40
0.6368897116
 40
0.6829405228
 40
0.7272681906
 40
0.7694495642
 40
0.8090884885
 40
0.8458034308
 40
0.879249376
 40
0.9091089058
 40
0.9226040128
 40
0.9351024016
 40
0.9465743675
 40
0.9569905293
 40
0.9663269345
 40
0.9745642791
 40
0.9816834525
 40
0.9876654292
 40
0.9902245501
 40
0.9924941856
 40
0.994473536
 40
0.9961618672
 40
0.9975585661
 40
0.99866327
 40
0.9994762279
 40
0.9997739214
 40
1.0
 40
1.0
 40
1.0
 40
1.0
 10
4.6095584407
 20
6.1003152323
 30
0.0
 10
4.6095584505
 20
6.1003570033
 30
0.0
 10
4.6096105032
 20
6.1004238016
 30
0.0
 10
4.6097040208
 20
6.1004845938
 30
0.0
 10
4.6098681811
 20
6.1005651817
 30
0.0
 10
4.610152646
 20
6.1006575787
 30
0.0
 10
4.6105878245
 20
6.1007639073
 30
0.0
 10
4.6111458937
 20
6.1008705387
 30
0.0
 10
4.611827153
 20
6.1009783351
 30
0.0
 10
4.6126318065
 20
6.1010866307
 30
0.0
 10
4.6139505103
 20
6.101241156
 30
0.0
 10
4.6159081699
 20
6.1014301508
 30
0.0
 10
4.6186277938
 20
6.101648432
 30
0.0
 10
4.6218389589
 20
6.1018689612
 30
0.0
 10
4.6255393742
 20
6.1020915384
 30
0.0
 10
4.6297261172
 20
6.1023157869
 30
0.0
 10
4.6343961305
 20
6.1025414821
 30
0.0
 10
4.6395463535
 20
6.1027684332
 30
0.0
 10
4.6473644078
 20
6.1030851408
 30
0.0
 10
4.6583144453
 20
6.1034781725
 30
0.0
 10
4.6728492043
 20
6.1039363401
 30
0.0
 10
4.6892162566
 20
6.1043957676
 30
0.0
 10
4.7073749351
 20
6.1048544192
 30
0.0
 10
4.7272822878
 20
6.1053102464
 30
0.0
 10
4.7488933926
 20
6.1057609635
 30
0.0
 10
4.7721580217
 20
6.1062054996
 30
0.0
 10
4.7970203022
 20
6.1066457327
 30
0.0
 10
4.8234206954
 20
6.1070829465
 30
0.0
 10
4.8615179511
 20
6.1076781404
 30
0.0
 10
4.912491838
 20
6.1084155497
 30
0.0
 10
4.9773394328
 20
6.1092932741
 30
0.0
 10
5.0466368643
 20
6.1101973996
 30
0.0
 10
5.1197294035
 20
6.1111175586
 30
0.0
 10
5.1959239715
 20
6.1120371768
 30
0.0
 10
5.2745002145
 20
6.1129460458
 30
0.0
 10
5.3547162707
 20
6.1138338415
 30
0.0
 10
5.4358139916
 20
6.1147009096
 30
0.0
 10
5.5170276662
 20
6.1155683481
 30
0.0
 10
5.5975902308
 20
6.1164504236
 30
0.0
 10
5.6767408095
 20
6.1173493944
 30
0.0
 10
5.7537336728
 20
6.1182687541
 30
0.0
 10
5.8278405272
 20
6.1191912479
 30
0.0
 10
5.8983624886
 20
6.1200978413
 30
0.0
 10
5.9646281456
 20
6.1209859613
 30
0.0
 10
6.026009738
 20
6.1218548955
 30
0.0
 10
6.0819233395
 20
6.1227147153
 30
0.0
 10
6.1248551226
 20
6.123464137
 30
0.0
 10
6.1560757383
 20
6.1240834652
 30
0.0
 10
6.1770173422
 20
6.1245360885
 30
0.0
 10
6.1962370357
 20
6.1249919084
 30
0.0
 10
6.213688294
 20
6.1254503203
 30
0.0
 10
6.2293303941
 20
6.1259097779
 30
0.0
 10
6.2431283558
 20
6.1263676675
 30
0.0
 10
6.2550498517
 20
6.126821785
 30
0.0
 10
6.2637967297
 20
6.1272119767
 30
0.0
 10
6.2698326911
 20
6.1275270695
 30
0.0
 10
6.2736325613
 20
6.1277491688
 30
0.0
 10
6.2769447901
 20
6.1279693958
 30
0.0
 10
6.2797678173
 20
6.1281878375
 30
0.0
 10
6.2821005307
 20
6.1284035529
 30
0.0
 10
6.2839411654
 20
6.1286171205
 30
0.0
 10
6.2851666352
 20
6.1288034969
 30
0.0
 10
6.2858969904
 20
6.1289625435
 30
0.0
 10
6.2861790935
 20
6.1290431222
 30
0.0
 10
6.2862979093
 20
6.1290862406
 30
0.0
  0
SPLINE
  5
3C3
100
AcDbEntity
  8
0
100
AcDbSpline
 62
9
  6
CONTINUOUS
 70
0
 71
3
 72
9
 73
5
 74
0
 42
0.0000001
 43
0.0000001
 44
0.0000000001
 40
0.0
 40
0.0
 40
0.0
 40
0.0
 40
0.492477496
 40
1.0
 40
1.0
 40
1.0
 40
1.0
 10
4.3486569277
 20
5.0321285672
 30
0.0
 10
4.3496673842
 20
5.0321285672
 30
0.0
 10
4.3517251759
 20
5.0318762003
 30
0.0
 10
4.3536709193
 20
5.0311711661
 30
0.0
 10
4.3546085252
 20
5.0307181162
 30
0.0
  0
SPLINE
  5
3C4
100
AcDbEntity
  8
0
100
AcDbSpline
 62
9
  6
CONTINUOUS
 70
0
 71
3
 72
15
 73
11
 74
0
 42
0.0000001
 43
0.0000001
 44
0.0000000001
 40
0.0
 40
0.0
 40
0.0
 40
0.0
 40
0.1094417209
 40
0.2233951032
 40
0.3424129997
 40
0.4665802102
 40
0.5956618027
 40
0.7287824789
 40
0.8642070748
 40
1.0
 40
1.0
 40
1.0
 40
1.0
 10
4.3546085252
 20
5.0307181162
 30
0.0
 10
4.3554587916
 20
5.0303072686
 30
0.0
 10
4.3571196496
 20
5.0293045531
 30
0.0
 10
4.3593510584
 20
5.0273479205
 30
0.0
 10
4.3613257149
 20
5.0249668709
 30
0.0
 10
4.3630065164
 20
5.0222175004
 30
0.0
 10
4.3643495413
 20
5.0191557569
 30
0.0
 10
4.3653262298
 20
5.0158581038
 30
0.0
 10
4.3659271088
 20
5.0124142247
 30
0.0
 10
4.3660658609
 20
5.0100719182
 30
0.0
 10
4.3660658609
 20
5.0089002207
 30
0.0
  0
SPLINE
  5
3C5
100
AcDbEntity
  8
0
100
AcDbSpline
 62
7
  6
CONTINUOUS
 70
0
 71
3
 72
71
 73
67
 74
0
 42
0.0000001
 43
0.0000001
 44
0.0000000001
 40
0.0
 40
0.0
 40
0.0
 40
0.0
 40
0.0000747796
 40
0.0001313093
 40
0.000203759
 40
0.0002931149
 40
0.0003998887
 40
0.0006667029
 40
0.0010054978
 40
0.0014167861
 40
0.0019008019
 40
0.0024576449
 40
0.0037898634
 40
0.0054132753
 40
0.007327377
 40
0.0095315251
 40
0.0120250019
 40
0.0148068759
 40
0.0178752106
 40
0.021227706
 40
0.0287759221
 40
0.0374329711
 40
0.0471802253
 40
0.0579972855
 40
0.0698566639
 40
0.0827290561
 40
0.0965851447
 40
0.1113952626
 40
0.1271244168
 40
0.1437333963
 40
0.1794334574
 40
0.2181645707
 40
0.2595527109
 40
0.3032103579
 40
0.3487211667
 40
0.3956587925
 40
0.4435809401
 40
0.4920368061
 40
0.540570785
 40
0.5887234755
 40
0.6360413818
 40
0.682078908
 40
0.7264002656
 40
0.7685905498
 40
0.8082461986
 40
0.8449984734
 40
0.8784940634
 40
0.8939229635
 40
0.9084242733
 40
0.9219618233
 40
0.9345029839
 40
0.9460210723
 40
0.9564899868
 40
0.9658836431
 40
0.9741772898
 40
0.9813534356
 40
0.9873971514
 40
0.9899897344
 40
0.9922936998
 40
0.9943072651
 40
0.9960289902
 40
0.9974585675
 40
0.9985961461
 40
0.9994424152
 40
0.9997569844
 40
1.0
 40
1.0
 40
1.0
 40
1.0
 10
6.2866609858
 20
6.1055216998
 30
0.0
 10
6.2866610209
 20
6.1054798936
 30
0.0
 10
6.2866089112
 20
6.105412977
 30
0.0
 10
6.2865152639
 20
6.1053521769
 30
0.0
 10
6.286404818
 20
6.1052977591
 30
0.0
 10
6.2862646569
 20
6.1052443462
 30
0.0
 10
6.2860176115
 20
6.1051664197
 30
0.0
 10
6.2856302296
 20
6.1050727476
 30
0.0
 10
6.285071804
 20
6.1049655674
 30
0.0
 10
6.2843902441
 20
6.1048578035
 30
0.0
 10
6.2835856334
 20
6.1047493847
 30
0.0
 10
6.28226792
 20
6.1045948946
 30
0.0
 10
6.2803131676
 20
6.1044060903
 30
0.0
 10
6.2775993608
 20
6.104188381
 30
0.0
 10
6.2743968973
 20
6.1039688058
 30
0.0
 10
6.2707071676
 20
6.1037473175
 30
0.0
 10
6.2665316346
 20
6.1035240107
 30
0.0
 10
6.2618724497
 20
6.1032988352
 30
0.0
 10
6.2567325901
 20
6.1030720338
 30
0.0
 10
6.2489294955
 20
6.1027551936
 30
0.0
 10
6.2380025934
 20
6.1023617025
 30
0.0
 10
6.2235008304
 20
6.1019033544
 30
0.0
 10
6.2071707987
 20
6.1014445697
 30
0.0
 10
6.1890498058
 20
6.1009875392
 30
0.0
 10
6.1691811169
 20
6.1005330959
 30
0.0
 10
6.1476129531
 20
6.1000822247
 30
0.0
 10
6.1243947356
 20
6.0996357848
 30
0.0
 10
6.0995790444
 20
6.0991950954
 30
0.0
 10
6.0732240241
 20
6.0987590073
 30
0.0
 10
6.0351913229
 20
6.0981659856
 30
0.0
 10
5.9842998771
 20
6.0974298269
 30
0.0
 10
5.9195561187
 20
6.0965484887
 30
0.0
 10
5.8503634506
 20
6.095649273
 30
0.0
 10
5.7773804775
 20
6.0947306071
 30
0.0
 10
5.7012948145
 20
6.0938091137
 30
0.0
 10
5.6228246836
 20
6.0929042726
 30
0.0
 10
5.5427077859
 20
6.092017561
 30
0.0
 10
5.4616982013
 20
6.091147433
 30
0.0
 10
5.3805596564
 20
6.0902835323
 30
0.0
 10
5.3000574976
 20
6.0894042828
 30
0.0
 10
5.2209513458
 20
6.0885018835
 30
0.0
 10
5.1439874331
 20
6.0875861658
 30
0.0
 10
5.0698904375
 20
6.0866650813
 30
0.0
 10
4.9993614348
 20
6.0857547841
 30
0.0
 10
4.9330640076
 20
6.0848707989
 30
0.0
 10
4.8716276508
 20
6.0840031671
 30
0.0
 10
4.8237349905
 20
6.0832659383
 30
0.0
 10
4.7882813341
 20
6.0826661778
 30
0.0
 10
4.7639843153
 20
6.0822251611
 30
0.0
 10
4.7413020984
 20
6.0817787492
 30
0.0
 10
4.7202881548
 20
6.0813261248
 30
0.0
 10
4.7009902801
 20
6.0808695909
 30
0.0
 10
4.6834526338
 20
6.080411007
 30
0.0
 10
4.6677183222
 20
6.0799523405
 30
0.0
 10
4.6538256666
 20
6.0794955709
 30
0.0
 10
4.6418068561
 20
6.0790422713
 30
0.0
 10
4.6329752834
 20
6.0786520555
 30
0.0
 10
4.6268671661
 20
6.0783362443
 30
0.0
 10
4.6230104204
 20
6.0781133256
 30
0.0
 10
4.6196413026
 20
6.077892443
 30
0.0
 10
4.6167620966
 20
6.0776737585
 30
0.0
 10
4.6143738848
 20
6.0774580086
 30
0.0
 10
4.6124775425
 20
6.0772446514
 30
0.0
 10
4.6112053213
 20
6.0770584398
 30
0.0
 10
4.6104364231
 20
6.0769004358
 30
0.0
 10
4.610134703
 20
6.0768204165
 30
0.0
 10
4.6100056471
 20
6.0767779608
 30
0.0
  0
SPLINE
  5
3C6
100
AcDbEntity
  8
0
100
AcDbSpline
 62
9
  6
CONTINUOUS
 70
0
 71
3
 72
16
 73
12
 74
0
 42
0.0000001
 43
0.0000001
 44
0.0000000001
 40
0.0
 40
0.0
 40
0.0
 40
0.0
 40
0.1064117374
 40
0.2166682432
 40
0.2738155785
 40
0.3324509719
 40
0.4545552031
 40
0.5835489911
 40
0.7189810121
 40
0.8588713417
 40
1.0
 40
1.0
 40
1.0
 40
1.0
 10
5.0678182209
 20
5.0321285672
 30
0.0
 10
5.0689543328
 20
5.0321285672
 30
0.0
 10
5.0712764491
 20
5.0318077116
 30
0.0
 10
5.0740083633
 20
5.0306895228
 30
0.0
 10
5.0760563449
 20
5.0294044831
 30
0.0
 10
5.0780443506
 20
5.0278157903
 30
0.0
 10
5.0802755288
 20
5.0253421091
 30
0.0
 10
5.0824341803
 20
5.0218001887
 30
0.0
 10
5.0840217627
 20
5.0177646994
 30
0.0
 10
5.0849986169
 20
5.0134115335
 30
0.0
 10
5.0852271541
 20
5.0104069901
 30
0.0
 10
5.0852271541
 20
5.0089002207
 30
0.0
  0
SPLINE
  5
3C7
100
AcDbEntity
  8
0
100
AcDbSpline
 62
7
  6
CONTINUOUS
 70
0
 71
3
 72
71
 73
67
 74
0
 42
0.0000001
 43
0.0000001
 44
0.0000000001
 40
0.0
 40
0.0
 40
0.0
 40
0.0
 40
0.0000747959
 40
0.0001313377
 40
0.0002038239
 40
0.0002932623
 40
0.0004001867
 40
0.0006675679
 40
0.0010072779
 40
0.0014197983
 40
0.0019053304
 40
0.0024639418
 40
0.0038003233
 40
0.005428518
 40
0.0073477641
 40
0.0095571609
 40
0.0120557335
 40
0.0148424643
 40
0.0179162382
 40
0.0212751121
 40
0.0288382588
 40
0.0375120204
 40
0.0472764321
 40
0.0581113442
 40
0.0699919127
 40
0.0828877919
 40
0.0967683077
 40
0.1116027761
 40
0.1273588765
 40
0.1439974654
 40
0.1797583629
 40
0.218552819
 40
0.2600082132
 40
0.3037319406
 40
0.3493096228
 40
0.3963080375
 40
0.4442859309
 40
0.4927900925
 40
0.5413649412
 40
0.5895515669
 40
0.636893363
 40
0.6829459923
 40
0.7272710626
 40
0.7694521559
 40
0.8090852961
 40
0.845796065
 40
0.879237718
 40
0.8946311671
 40
0.9090934443
 40
0.9225907318
 40
0.9350892864
 40
0.9465591648
 40
0.9569763024
 40
0.9663171551
 40
0.9745582053
 40
0.9816773892
 40
0.9876598749
 40
0.9902209817
 40
0.9924932944
 40
0.9944753324
 40
0.9961656795
 40
0.9975630397
 40
0.9986667917
 40
0.9994779522
 40
0.9997747172
 40
1.0
 40
1.0
 40
1.0
 40
1.0
 10
4.609567518
 20
6.1583853815
 30
0.0
 10
4.6095674906
 20
6.1584271992
 30
0.0
 10
4.6096196003
 20
6.1584941333
 30
0.0
 10
4.6097132743
 20
6.1585549755
 30
0.0
 10
4.6098237924
 20
6.1586094305
 30
0.0
 10
4.6099641071
 20
6.1586628893
 30
0.0
 10
4.6102116071
 20
6.1587409151
 30
0.0
 10
4.6105999238
 20
6.1588347104
 30
0.0
 10
4.6111598951
 20
6.1589420646
 30
0.0
 10
4.611843537
 20
6.1590500387
 30
0.0
 10
4.612650712
 20
6.1591586966
 30
0.0
 10
4.6139726544
 20
6.1593135502
 30
0.0
 10
4.6159334972
 20
6.1595028163
 30
0.0
 10
4.6186553281
 20
6.1597210362
 30
0.0
 10
4.6218664577
 20
6.1599410396
 30
0.0
 10
4.6255650655
 20
6.1601628097
 30
0.0
 10
4.6297493536
 20
6.1603861978
 30
0.0
 10
4.6344174387
 20
6.1606112064
 30
0.0
 10
4.6395669405
 20
6.1608378799
 30
0.0
 10
4.647385464
 20
6.1611547433
 30
0.0
 10
4.6583342742
 20
6.1615485359
 30
0.0
 10
4.6728641755
 20
6.1620074859
 30
0.0
 10
4.6892240827
 20
6.1624670319
 30
0.0
 10
4.7073775665
 20
6.1629246404
 30
0.0
 10
4.7272824077
 20
6.1633788313
 30
0.0
 10
4.7488904987
 20
6.1638294654
 30
0.0
 10
4.7721504997
 20
6.1642760146
 30
0.0
 10
4.7970099805
 20
6.1647180519
 30
0.0
 10
4.8234117868
 20
6.1651551173
 30
0.0
 10
4.8615123716
 20
6.1657488489
 30
0.0
 10
4.9124928329
 20
6.1664843939
 30
0.0
 10
4.9773474432
 20
6.1673673595
 30
0.0
 10
5.0466541416
 20
6.1682696425
 30
0.0
 10
5.1197533937
 20
6.1691874311
 30
0.0
 10
5.1959518787
 20
6.1701100284
 30
0.0
 10
5.2745291735
 20
6.1710178722
 30
0.0
 10
5.3547430072
 20
6.1719020537
 30
0.0
 10
5.4358384022
 20
6.1727733339
 30
0.0
 10
5.5170505533
 20
6.1736399937
 30
0.0
 10
5.5976126824
 20
6.1745176028
 30
0.0
 10
5.6767642789
 20
6.1754216895
 30
0.0
 10
5.753756595
 20
6.1763402948
 30
0.0
 10
5.8278633733
 20
6.1772604983
 30
0.0
 10
5.8983809009
 20
6.1781712898
 30
0.0
 10
5.9646412816
 20
6.1790584402
 30
0.0
 10
6.0260153523
 20
6.1799242042
 30
0.0
 10
6.0738376521
 20
6.1806621156
 30
0.0
 10
6.1092215577
 20
6.1812644071
 30
0.0
 10
6.1334558243
 20
6.1817069482
 30
0.0
 10
6.1560712129
 20
6.1821535972
 30
0.0
 10
6.1770131187
 20
6.1826053714
 30
0.0
 10
6.1962323851
 20
6.1830622632
 30
0.0
 10
6.2136855982
 20
6.1835216237
 30
0.0
 10
6.2293329024
 20
6.1839812127
 30
0.0
 10
6.2431355388
 20
6.1844385509
 30
0.0
 10
6.2550595236
 20
6.1848914115
 30
0.0
 10
6.2638078915
 20
6.1852810019
 30
0.0
 10
6.2698467625
 20
6.185596608
 30
0.0
 10
6.2736507343
 20
6.1858194033
 30
0.0
 10
6.2769670687
 20
6.1860404151
 30
0.0
 10
6.2797930704
 20
6.1862595305
 30
0.0
 10
6.2821267339
 20
6.186475613
 30
0.0
 10
6.283966204
 20
6.1866891794
 30
0.0
 10
6.2851896365
 20
6.1868753372
 30
0.0
 10
6.2859180433
 20
6.187034102
 30
0.0
 10
6.2861991961
 20
6.187114504
 30
0.0
 10
6.2863175767
 20
6.1871575198
 30
0.0
  0
SPLINE
  5
3C8
100
AcDbEntity
  8
0
100
AcDbSpline
 62
7
  6
CONTINUOUS
 70
0
 71
3
 72
60
 73
56
 74
0
 42
0.0000001
 43
0.0000001
 44
0.0000000001
 40
0.0
 40
0.0
 40
0.0
 40
0.0
 40
0.0000720069
 40
0.000125672
 40
0.000194155
 40
0.0003789361
 40
0.0006301373
 40
0.0009490595
 40
0.0013363209
 40
0.0017922611
 40
0.0023170857
 40
0.0035738451
 40
0.0051066516
 40
0.0069144218
 40
0.0089958807
 40
0.0113496803
 40
0.0139744304
 40
0.016868715
 40
0.0200311008
 40
0.027154376
 40
0.0353300346
 40
0.0445374558
 40
0.0547550326
 40
0.0659611359
 40
0.078133752
 40
0.0912457635
 40
0.1052663436
 40
0.120164572
 40
0.1359095181
 40
0.1698020805
 40
0.2066362736
 40
0.2460901294
 40
0.2878099951
 40
0.3314272867
 40
0.376556403
 40
0.4227964174
 40
0.4697399779
 40
0.5169688698
 40
0.5640646596
 40
0.6106126343
 40
0.6562005004
 40
0.7429016177
 40
0.7832450695
 40
0.8210992158
 40
0.8561239211
 40
0.8880135407
 40
0.916479843
 40
0.9412826586
 40
0.9621987059
 40
0.9711427378
 40
0.9790516376
 40
0.9859061319
 40
0.991688964
 40
0.9963897659
 40
1.0
 40
1.0
 40
1.0
 40
1.0
 10
6.2866806463
 20
6.1635924192
 30
0.0
 10
6.2866806469
 20
6.1635523219
 30
0.0
 10
6.2866325846
 20
6.1634878966
 30
0.0
 10
6.2865444681
 20
6.1634286085
 30
0.0
 10
6.2863908809
 20
6.1633507138
 30
0.0
 10
6.2861242647
 20
6.1632611546
 30
0.0
 10
6.285716383
 20
6.1631582163
 30
0.0
 10
6.2851932179
 20
6.1630549305
 30
0.0
 10
6.284554482
 20
6.1629505276
 30
0.0
 10
6.283799896
 20
6.1628456186
 30
0.0
 10
6.2825629029
 20
6.162695897
 30
0.0
 10
6.2807262069
 20
6.1625127569
 30
0.0
 10
6.2781748487
 20
6.1623013246
 30
0.0
 10
6.2751630548
 20
6.1620879904
 30
0.0
 10
6.2716932292
 20
6.1618729106
 30
0.0
 10
6.2677677793
 20
6.1616563884
 30
0.0
 10
6.2633891598
 20
6.1614385657
 30
0.0
 10
6.2585598287
 20
6.1612195537
 30
0.0
 10
6.2512268839
 20
6.1609138259
 30
0.0
 10
6.2409535902
 20
6.1605340719
 30
0.0
 10
6.2273143108
 20
6.1600906149
 30
0.0
 10
6.2119512
 20
6.1596455236
 30
0.0
 10
6.1948999342
 20
6.1592008345
 30
0.0
 10
6.1761969214
 20
6.1587586072
 30
0.0
 10
6.1558816156
 20
6.1583212199
 30
0.0
 10
6.1339986256
 20
6.1578887822
 30
0.0
 10
6.1105975213
 20
6.1574602776
 30
0.0
 10
6.0857299723
 20
6.1570350013
 30
0.0
 10
6.0497976459
 20
6.1564570975
 30
0.0
 10
6.0016508038
 20
6.155744817
 30
0.0
 10
5.9403021212
 20
6.1549004893
 30
0.0
 10
5.8745947077
 20
6.1540318711
 30
0.0
 10
5.805110008
 20
6.1531458443
 30
0.0
 10
5.7324648425
 20
6.1522540755
 30
0.0
 10
5.6573023761
 20
6.1513669953
 30
0.0
 10
5.5802873363
 20
6.1504975943
 30
0.0
 10
5.5021027031
 20
6.1496513612
 30
0.0
 10
5.4234414262
 20
6.1488121985
 30
0.0
 10
5.3450005079
 20
6.1479671576
 30
0.0
 10
5.2674735933
 20
6.1471092881
 30
0.0
 10
5.1678942586
 20
6.1459538149
 30
0.0
 10
5.0717705453
 20
6.1447670906
 30
0.0
 10
4.9799538438
 20
6.1435723789
 30
0.0
 10
4.9169113815
 20
6.1427166099
 30
0.0
 10
4.8585766487
 20
6.1418802875
 30
0.0
 10
4.8054701175
 20
6.141045733
 30
0.0
 10
4.7580567012
 20
6.1401966439
 30
0.0
 10
4.7167553291
 20
6.1393351111
 30
0.0
 10
4.686325477
 20
6.1385728377
 30
0.0
 10
4.6653029821
 20
6.1379461053
 30
0.0
 10
4.6521088089
 20
6.1375029487
 30
0.0
 10
4.6406759454
 20
6.1370640421
 30
0.0
 10
4.6310306768
 20
6.1366321811
 30
0.0
 10
4.6231938842
 20
6.1362076282
 30
0.0
 10
4.6185762279
 20
6.1358914626
 30
0.0
 10
4.6165729343
 20
6.1357229042
 30
0.0
  0
SPLINE
  5
3C9
100
AcDbEntity
  8
0
100
AcDbSpline
 62
7
  6
CONTINUOUS
 70
0
 71
3
 72
12
 73
8
 74
0
 42
0.0000001
 43
0.0000001
 44
0.0000000001
 40
0.0
 40
0.0
 40
0.0
 40
0.0
 40
0.3597032356
 40
0.6462118714
 40
0.8594727873
 40
0.938746241
 40
1.0
 40
1.0
 40
1.0
 40
1.0
 10
4.6165729343
 20
6.1357229042
 30
0.0
 10
4.6157803661
 20
6.135656217
 30
0.0
 10
4.6143571519
 20
6.1355273006
 30
0.0
 10
4.6124686997
 20
6.1353141352
 30
0.0
 10
4.6112010761
 20
6.1351281642
 30
0.0
 10
4.6104347195
 20
6.1349704433
 30
0.0
 10
4.6101339795
 20
6.1348906109
 30
0.0
 10
4.6100053198
 20
6.1348482846
 30
0.0
  0
SPLINE
  5
3CA
100
AcDbEntity
  8
0
100
AcDbSpline
 62
9
  6
CONTINUOUS
 70
0
 71
3
 72
20
 73
16
 74
0
 42
0.0000001
 43
0.0000001
 44
0.0000000001
 40
0.0
 40
0.0
 40
0.0
 40
0.0
 40
0.0189849403
 40
0.0298433326
 40
0.0420251637
 40
0.0710742037
 40
0.1070804562
 40
0.1503571175
 40
0.2009513929
 40
0.2586069221
 40
0.3228709143
 40
0.4691695417
 40
0.6354246125
 40
0.8150297357
 40
1.0
 40
1.0
 40
1.0
 40
1.0
 10
5.1118627569
 20
5.0321285672
 30
0.0
 10
5.1117085083
 20
5.0321285672
 30
0.0
 10
5.1114643546
 20
5.0320590116
 30
0.0
 10
5.111177454
 20
5.0318729602
 30
0.0
 10
5.1108608864
 20
5.0315894992
 30
0.0
 10
5.1104796386
 20
5.0310852165
 30
0.0
 10
5.11005882
 20
5.0303102755
 30
0.0
 10
5.1096539518
 20
5.0293341367
 30
0.0
 10
5.1092707297
 20
5.0281633098
 30
0.0
 10
5.108912006
 20
5.0268077179
 30
0.0
 10
5.1084500751
 20
5.0246774561
 30
0.0
 10
5.1079713389
 20
5.0216511325
 30
0.0
 10
5.1075619591
 20
5.0176720602
 30
0.0
 10
5.1073086049
 20
5.013365452
 30
0.0
 10
5.1072494218
 20
5.0104030649
 30
0.0
 10
5.1072494218
 20
5.0089002207
 30
0.0
  0
SPLINE
  5
3CB
100
AcDbEntity
  8
0
100
AcDbSpline
 62
7
  6
CONTINUOUS
 70
0
 71
3
 72
61
 73
57
 74
0
 42
0.0000001
 43
0.0000001
 44
0.0000000001
 40
0.0
 40
0.0
 40
0.0
 40
0.0
 40
0.0000719555
 40
0.000125528
 40
0.0001938617
 40
0.000378151
 40
0.0006285639
 40
0.0009463545
 40
0.0013320935
 40
0.0017860729
 40
0.0023084505
 40
0.0035586816
 40
0.0050830804
 40
0.0068816021
 40
0.0089538242
 40
0.0112983218
 40
0.0139134016
 40
0.0167973453
 40
0.0199484182
 40
0.0270449551
 40
0.0351889752
 40
0.0443649671
 40
0.0545507659
 40
0.0657222247
 40
0.0778551807
 40
0.0909253734
 40
0.10490481
 40
0.1197604478
 40
0.1354588764
 40
0.1692495826
 40
0.2059809685
 40
0.2453236876
 40
0.286934645
 40
0.3304424068
 40
0.3754677451
 40
0.4216115333
 40
0.4684673683
 40
0.5156220755
 40
0.5626574192
 40
0.6091593088
 40
0.6547200432
 40
0.6989377891
 40
0.7414265661
 40
0.7818070513
 40
0.8197255825
 40
0.8548410911
 40
0.8868447396
 40
0.9154558752
 40
0.9404205398
 40
0.9615271677
 40
0.9705708876
 40
0.9785828292
 40
0.9855469654
 40
0.9914473395
 40
0.9962683665
 40
1.0
 40
1.0
 40
1.0
 40
1.0
 10
4.6095648386
 20
6.2164569979
 30
0.0
 10
4.6095648526
 20
6.216497051
 30
0.0
 10
4.6096127625
 20
6.216561399
 30
0.0
 10
4.609700671
 20
6.2166206559
 30
0.0
 10
4.6098537728
 20
6.2166984398
 30
0.0
 10
4.6101194835
 20
6.2167878657
 30
0.0
 10
4.6105258586
 20
6.2168906086
 30
0.0
 10
4.6110469055
 20
6.2169936588
 30
0.0
 10
4.6116828292
 20
6.217097775
 30
0.0
 10
4.6124338294
 20
6.2172023457
 30
0.0
 10
4.6136642718
 20
6.2173514785
 30
0.0
 10
4.6154906041
 20
6.2175337732
 30
0.0
 10
4.6180275391
 20
6.2177441422
 30
0.0
 10
4.6210232097
 20
6.2179565392
 30
0.0
 10
4.6244762135
 20
6.2181710392
 30
0.0
 10
4.6283844148
 20
6.218387288
 30
0.0
 10
4.6327449863
 20
6.2186050502
 30
0.0
 10
4.6375549717
 20
6.2188241101
 30
0.0
 10
4.6448580859
 20
6.2191298988
 30
0.0
 10
4.655088554
 20
6.2195094405
 30
0.0
 10
4.668672524
 20
6.2199517915
 30
0.0
 10
4.6839768568
 20
6.2203954359
 30
0.0
 10
4.7009670057
 20
6.2208389105
 30
0.0
 10
4.7196036605
 20
6.2212805053
 30
0.0
 10
4.7398463606
 20
6.2217186579
 30
0.0
 10
4.761652528
 20
6.2221514497
 30
0.0
 10
4.784974621
 20
6.2225785129
 30
0.0
 10
4.8097599773
 20
6.2230018875
 30
0.0
 10
4.8455719957
 20
6.2235775435
 30
0.0
 10
4.8935602022
 20
6.224289874
 30
0.0
 10
4.9547091247
 20
6.2251343856
 30
0.0
 10
5.0202112332
 20
6.2259969521
 30
0.0
 10
5.0894853415
 20
6.2268821556
 30
0.0
 10
5.1619227745
 20
6.227773584
 30
0.0
 10
5.2368836322
 20
6.2286564014
 30
0.0
 10
5.313708432
 20
6.2295254391
 30
0.0
 10
5.3917188197
 20
6.230373579
 30
0.0
 10
5.4702256443
 20
6.2312089032
 30
0.0
 10
5.5485353659
 20
6.2320511143
 30
0.0
 10
5.6259575813
 20
6.2329108255
 30
0.0
 10
5.7018111401
 20
6.2337864359
 30
0.0
 10
5.7754305203
 20
6.2346771499
 30
0.0
 10
5.8461661777
 20
6.2355667834
 30
0.0
 10
5.9133954099
 20
6.2364382238
 30
0.0
 10
5.9765202933
 20
6.2372917095
 30
0.0
 10
6.0349820882
 20
6.2381301177
 30
0.0
 10
6.0882625722
 20
6.2389622839
 30
0.0
 10
6.1358918029
 20
6.2398053135
 30
0.0
 10
6.1774538555
 20
6.2406688348
 30
0.0
 10
6.2081236264
 20
6.2414281089
 30
0.0
 10
6.2293570039
 20
6.2420524467
 30
0.0
 10
6.2427200123
 20
6.2424950013
 30
0.0
 10
6.2543323442
 20
6.2429342271
 30
0.0
 10
6.2641673308
 20
6.2433676307
 30
0.0
 10
6.2722012247
 20
6.2437929659
 30
0.0
 10
6.276951904
 20
6.2441078212
 30
0.0
 10
6.2790223542
 20
6.2442746797
 30
0.0
  0
SPLINE
  5
3CC
100
AcDbEntity
  8
0
100
AcDbSpline
 62
7
  6
CONTINUOUS
 70
0
 71
3
 72
13
 73
9
 74
0
 42
0.0000001
 43
0.0000001
 44
0.0000000001
 40
0.0
 40
0.0
 40
0.0
 40
0.0
 40
0.3676265581
 40
0.6566804328
 40
0.7717618667
 40
0.8672572195
 40
0.9432622005
 40
1.0
 40
1.0
 40
1.0
 40
1.0
 10
6.2790223542
 20
6.2442746797
 30
0.0
 10
6.2799197311
 20
6.2443469997
 30
0.0
 10
6.2815218408
 20
6.2444867751
 30
0.0
 10
6.2834010957
 20
6.2446912431
 30
0.0
 10
6.2846129116
 20
6.2448608367
 30
0.0
 10
6.2853051945
 20
6.2449772952
 30
0.0
 10
6.2858521362
 20
6.2450926985
 30
0.0
 10
6.2861658938
 20
6.2451803316
 30
0.0
 10
6.2862965
 20
6.2452277451
 30
0.0
  0
SPLINE
  5
3CD
100
AcDbEntity
  8
0
100
AcDbSpline
 62
7
  6
CONTINUOUS
 70
0
 71
3
 72
70
 73
66
 74
0
 42
0.0000001
 43
0.0000001
 44
0.0000000001
 40
0.0
 40
0.0
 40
0.0
 40
0.0
 40
0.000074804
 40
0.0001313168
 40
0.0002037198
 40
0.0003995736
 40
0.0006661074
 40
0.0010045396
 40
0.0014154023
 40
0.0018989481
 40
0.0024552959
 40
0.0037865229
 40
0.0054090668
 40
0.0073225735
 40
0.0095265487
 40
0.0120203378
 40
0.0148023531
 40
0.0178704567
 40
0.0212224885
 40
0.0287696395
 40
0.0374263712
 40
0.0471750547
 40
0.0579934733
 40
0.0698535071
 40
0.0827266288
 40
0.096584299
 40
0.1113965291
 40
0.127126646
 40
0.1437360336
 40
0.1794378465
 40
0.2181694028
 40
0.2595573707
 40
0.3032145554
 40
0.3487244518
 40
0.3956618871
 40
0.4435836415
 40
0.4920395462
 40
0.540573377
 40
0.5887256244
 40
0.6360430022
 40
0.6820783294
 40
0.726397444
 40
0.7685865508
 40
0.8082447314
 40
0.8450005324
 40
0.878497484
 40
0.8939269157
 40
0.9084282487
 40
0.9219651644
 40
0.9345061569
 40
0.9460243987
 40
0.9564932673
 40
0.9658861596
 40
0.974178965
 40
0.9813548711
 40
0.9873984769
 40
0.989990905
 40
0.9922945696
 40
0.994307643
 40
0.99602898
 40
0.9974583849
 40
0.9985959473
 40
0.9994422971
 40
0.9997569243
 40
1.0
 40
1.0
 40
1.0
 40
1.0
 10
6.2866611768
 20
6.2216631862
 30
0.0
 10
6.2866611475
 20
6.2216213664
 30
0.0
 10
6.2866090016
 20
6.2215545222
 30
0.0
 10
6.2865153825
 20
6.2214936715
 30
0.0
 10
6.2863510938
 20
6.2214130206
 30
0.0
 10
6.2860665111
 20
6.2213205479
 30
0.0
 10
6.2856312823
 20
6.2212141461
 30
0.0
 10
6.2850733587
 20
6.2211074647
 30
0.0
 10
6.2843925286
 20
6.2209996532
 30
0.0
 10
6.2835886792
 20
6.2208913858
 30
0.0
 10
6.2822720582
 20
6.220737008
 30
0.0
 10
6.280318615
 20
6.2205483592
 30
0.0
 10
6.2776061822
 20
6.2203307493
 30
0.0
 10
6.2744046403
 20
6.2201111755
 30
0.0
 10
6.2707151801
 20
6.2198895513
 30
0.0
 10
6.2665395132
 20
6.2196659335
 30
0.0
 10
6.2618802231
 20
6.2194405066
 30
0.0
 10
6.2567406873
 20
6.2192135666
 30
0.0
 10
6.2489385923
 20
6.2188966591
 30
0.0
 10
6.2380127364
 20
6.2185032627
 30
0.0
 10
6.2235109634
 20
6.2180451249
 30
0.0
 10
6.2071795683
 20
6.2175866137
 30
0.0
 10
6.1890566842
 20
6.217129373
 30
0.0
 10
6.1691865021
 20
6.2166745134
 30
0.0
 10
6.1476167198
 20
6.2162233342
 30
0.0
 10
6.124396062
 20
6.215777061
 30
0.0
 10
6.0995777947
 20
6.2153370333
 30
0.0
 10
6.0732208676
 20
6.2149010068
 30
0.0
 10
6.0351864829
 20
6.2143078444
 30
0.0
 10
5.9842936734
 20
6.2135708935
 30
0.0
 10
5.9195488751
 20
6.2126903562
 30
0.0
 10
5.8503564213
 20
6.2117913175
 30
0.0
 10
5.7773744355
 20
6.210872068
 30
0.0
 10
5.7012897625
 20
6.2099509954
 30
0.0
 10
5.6228205905
 20
6.2090462977
 30
0.0
 10
5.5427041338
 20
6.2081586797
 30
0.0
 10
5.4616949502
 20
6.2072892691
 30
0.0
 10
5.3805568409
 20
6.2064254914
 30
0.0
 10
5.3000554455
 20
6.2055453028
 30
0.0
 10
5.2209511827
 20
6.2046436577
 30
0.0
 10
5.1439901689
 20
6.2037280525
 30
0.0
 10
5.0698964382
 20
6.2028064732
 30
0.0
 10
4.9993680333
 20
6.2018969878
 30
0.0
 10
4.9330679801
 20
6.2010131175
 30
0.0
 10
4.8716275845
 20
6.2001445947
 30
0.0
 10
4.8237319656
 20
6.199407657
 30
0.0
 10
4.7882772893
 20
6.1988081492
 30
0.0
 10
4.763980352
 20
6.1983671932
 30
0.0
 10
4.7412986144
 20
6.1979203821
 30
0.0
 10
4.7202850695
 20
6.1974676438
 30
0.0
 10
4.7009872577
 20
6.1970111774
 30
0.0
 10
4.6834500025
 20
6.1965527379
 30
0.0
 10
4.6677166359
 20
6.1960941808
 30
0.0
 10
4.6538250364
 20
6.1956373375
 30
0.0
 10
4.641806917
 20
6.1951838814
 30
0.0
 10
4.6329756461
 20
6.1947935464
 30
0.0
 10
4.626867856
 20
6.1944777203
 30
0.0
 10
4.6230116446
 20
6.1942548467
 30
0.0
 10
4.6196431858
 20
6.1940340861
 30
0.0
 10
4.6167645662
 20
6.1938155092
 30
0.0
 10
4.6143766763
 20
6.1935998202
 30
0.0
 10
4.6124803951
 20
6.193386485
 30
0.0
 10
4.6112081076
 20
6.1932002682
 30
0.0
 10
4.6104391005
 20
6.1930422479
 30
0.0
 10
4.6101373159
 20
6.1929622161
 30
0.0
 10
4.6100082273
 20
6.1929197533
 30
0.0
  0
SPLINE
  5
3CE
100
AcDbEntity
  8
0
100
AcDbSpline
 62
7
  6
CONTINUOUS
 70
0
 71
3
 72
46
 73
42
 74
0
 42
0.0000001
 43
0.0000001
 44
0.0000000001
 40
0.0
 40
0.0
 40
0.0
 40
0.0
 40
0.000148326
 40
0.0002781274
 40
0.0004508355
 40
0.000667964
 40
0.0009302677
 40
0.0012381779
 40
0.0015919642
 40
0.0024376092
 40
0.003467526
 40
0.0046815657
 40
0.006079406
 40
0.0094247541
 40
0.0134997614
 40
0.018300193
 40
0.0238216387
 40
0.0300589101
 40
0.0370035124
 40
0.0446459571
 40
0.0529767373
 40
0.0619863338
 40
0.0716652191
 40
0.0929889769
 40
0.1168441969
 40
0.1431176706
 40
0.1716937334
 40
0.2024353183
 40
0.235194066
 40
0.2698200848
 40
0.3061476888
 40
0.3440012808
 40
0.3832045357
 40
0.4235719175
 40
0.5070268489
 40
0.5927988782
 40
0.6792733278
 40
0.764808135
 40
0.8477896323
 40
0.9267142593
 40
1.0
 40
1.0
 40
1.0
 40
1.0
 10
4.6095600819
 20
6.2745271169
 30
0.0
 10
4.6095600455
 20
6.2745929628
 30
0.0
 10
4.6096793707
 20
6.2746878465
 30
0.0
 10
4.6098527366
 20
6.274767263
 30
0.0
 10
4.6100740937
 20
6.2748444344
 30
0.0
 10
4.6103525404
 20
6.2749193727
 30
0.0
 10
4.6106941385
 20
6.2749958357
 30
0.0
 10
4.6110970402
 20
6.2750722852
 30
0.0
 10
4.6117573589
 20
6.2751813248
 30
0.0
 10
4.6127381683
 20
6.2753144565
 30
0.0
 10
4.6141012056
 20
6.2754677976
 30
0.0
 10
4.6157105686
 20
6.2756221501
 30
0.0
 10
4.6183459883
 20
6.2758426036
 30
0.0
 10
4.6222514821
 20
6.276112556
 30
0.0
 10
4.6276676978
 20
6.2764246948
 30
0.0
 10
4.6340511354
 20
6.2767402229
 30
0.0
 10
4.6413953076
 20
6.2770590953
 30
0.0
 10
4.6496920064
 20
6.277381005
 30
0.0
 10
4.658930826
 20
6.2777051522
 30
0.0
 10
4.6690994843
 20
6.2780306571
 30
0.0
 10
4.6801852631
 20
6.2783566728
 30
0.0
 10
4.6921754418
 20
6.2786823808
 30
0.0
 10
4.7099323496
 20
6.2791297545
 30
0.0
 10
4.7342791448
 20
6.2796775403
 30
0.0
 10
4.7659926114
 20
6.2803079395
 30
0.0
 10
4.800926283
 20
6.2809308564
 30
0.0
 10
4.8389175746
 20
6.2815455202
 30
0.0
 10
4.879788246
 20
6.2821572529
 30
0.0
 10
4.9233448863
 20
6.2827726374
 30
0.0
 10
4.969381403
 20
6.283398654
 30
0.0
 10
5.0176797184
 20
6.2840355263
 30
0.0
 10
5.0680100625
 20
6.2846803641
 30
0.0
 10
5.1201338422
 20
6.2853312205
 30
0.0
 10
5.1925000195
 20
6.2862115002
 30
0.0
 10
5.285538463
 20
6.2872904278
 30
0.0
 10
5.3990446486
 20
6.2885239717
 30
0.0
 10
5.5134743757
 20
6.2897406674
 30
0.0
 10
5.6266650406
 20
6.2909764978
 30
0.0
 10
5.736503293
 20
6.2922677186
 30
0.0
 10
5.8409034058
 20
6.2935621794
 30
0.0
 10
5.9084679927
 20
6.2944465653
 30
0.0
 10
5.9409985434
 20
6.2948886337
 30
0.0
  0
SPLINE
  5
3CF
100
AcDbEntity
  8
0
100
AcDbSpline
 62
9
  6
CONTINUOUS
 70
0
 71
3
 72
20
 73
16
 74
0
 42
0.0000001
 43
0.0000001
 44
0.0000000001
 40
0.0
 40
0.0
 40
0.0
 40
0.0
 40
0.0189849403
 40
0.0298433326
 40
0.0420251637
 40
0.0710742037
 40
0.1070804562
 40
0.1503571175
 40
0.2009513929
 40
0.2586069222
 40
0.3228709143
 40
0.4691695418
 40
0.6354246125
 40
0.8150297357
 40
1.0
 40
1.0
 40
1.0
 40
1.0
 10
6.1765051989
 20
5.0321285672
 30
0.0
 10
6.1763509503
 20
5.0321285672
 30
0.0
 10
6.1761067966
 20
5.0320590116
 30
0.0
 10
6.175819896
 20
5.0318729602
 30
0.0
 10
6.1755033284
 20
5.0315894992
 30
0.0
 10
6.1751220806
 20
5.0310852165
 30
0.0
 10
6.174701262
 20
5.0303102755
 30
0.0
 10
6.1742963938
 20
5.0293341367
 30
0.0
 10
6.1739131717
 20
5.0281633098
 30
0.0
 10
6.173554448
 20
5.0268077179
 30
0.0
 10
6.1730925171
 20
5.0246774561
 30
0.0
 10
6.1726137809
 20
5.0216511325
 30
0.0
 10
6.1722044011
 20
5.0176720602
 30
0.0
 10
6.1719510469
 20
5.013365452
 30
0.0
 10
6.1718918638
 20
5.0104030649
 30
0.0
 10
6.1718918638
 20
5.0089002207
 30
0.0
  0
SPLINE
  5
3D0
100
AcDbEntity
  8
0
100
AcDbSpline
 62
9
  6
CONTINUOUS
 70
0
 71
3
 72
17
 73
13
 74
0
 42
0.0000001
 43
0.0000001
 44
0.0000000001
 40
0.0
 40
0.0
 40
0.0
 40
0.0
 40
0.121070162
 40
0.2435816805
 40
0.3052738518
 40
0.3671420835
 40
0.4914619665
 40
0.6170825389
 40
0.6805347332
 40
0.744363869
 40
0.8724345337
 40
1.0
 40
1.0
 40
1.0
 40
1.0
 10
6.2113230652
 20
5.0321285672
 30
0.0
 10
6.2098906168
 20
5.0321285672
 30
0.0
 10
6.2070014261
 20
5.0318167831
 30
0.0
 10
6.2035374924
 20
5.0307094633
 30
0.0
 10
6.2009238023
 20
5.0294167466
 30
0.0
 10
6.1984384377
 20
5.0278509995
 30
0.0
 10
6.1956327045
 20
5.0254157444
 30
0.0
 10
6.1933426423
 20
5.0224681476
 30
0.0
 10
6.1918673648
 20
5.0198601327
 30
0.0
 10
6.1906394942
 20
5.0170951366
 30
0.0
 10
6.1895936865
 20
5.0134402868
 30
0.0
 10
6.1893007968
 20
5.0104095186
 30
0.0
 10
6.1893007968
 20
5.0089002207
 30
0.0
  0
SPLINE
  5
3D1
100
AcDbEntity
  8
0
100
AcDbSpline
 62
7
  6
CONTINUOUS
 70
0
 71
3
 72
14
 73
10
 74
0
 42
0.0000001
 43
0.0000001
 44
0.0000000001
 40
0.0
 40
0.0
 40
0.0
 40
0.0
 40
0.0458010434
 40
0.1140683429
 40
0.2049857231
 40
0.3186046275
 40
0.4549320692
 40
0.6139560212
 40
1.0
 40
1.0
 40
1.0
 40
1.0
 10
4.5990750993
 20
4.5633084205
 30
0.0
 10
4.5992241324
 20
4.5633577353
 30
0.0
 10
4.5996075028
 20
4.5634408498
 30
0.0
 10
4.6003014008
 20
4.5635489016
 30
0.0
 10
4.6012303981
 20
4.5636579372
 30
0.0
 10
4.6023933854
 20
4.5637687931
 30
0.0
 10
4.6037907288
 20
4.563880393
 30
0.0
 10
4.6061206705
 20
4.5640408205
 30
0.0
 10
4.6079860239
 20
4.5641452115
 30
0.0
 10
4.6093073976
 20
4.5642136113
 30
0.0
  0
LINE
  5
3D2
100
AcDbEntity
  8
0
100
AcDbLine
 62
7
  6
CONTINUOUS
 10
4.6096209451
 20
4.564229728
 11
4.619207489
 21
4.5646456417
  0
SPLINE
  5
3D3
100
AcDbEntity
  8
0
100
AcDbSpline
 62
7
  6
CONTINUOUS
 70
0
 71
3
 72
11
 73
7
 74
0
 42
0.0000001
 43
0.0000001
 44
0.0000000001
 40
0.0
 40
0.0
 40
0.0
 40
0.0
 40
0.1843687757
 40
0.4130681735
 40
0.6853200461
 40
1.0
 40
1.0
 40
1.0
 40
1.0
 10
4.619207489
 20
4.5646456417
 30
0.0
 10
4.6235721474
 20
4.5648106051
 30
0.0
 10
4.6333528766
 20
4.565128145
 30
0.0
 10
4.6495826739
 20
4.5655608036
 30
0.0
 10
4.6689004593
 20
4.5659963977
 30
0.0
 10
4.6828024855
 20
4.5662680854
 30
0.0
 10
4.6902561189
 20
4.5664056033
 30
0.0
  0
SPLINE
  5
3D4
100
AcDbEntity
  8
0
100
AcDbSpline
 62
7
  6
CONTINUOUS
 70
0
 71
3
 72
23
 73
19
 74
0
 42
0.0000001
 43
0.0000001
 44
0.0000000001
 40
0.0
 40
0.0
 40
0.0
 40
0.0
 40
0.0379274896
 40
0.0837574773
 40
0.1367394778
 40
0.1959954395
 40
0.2605589808
 40
0.3293917187
 40
0.4013890917
 40
0.475394928
 40
0.5502204881
 40
0.6246664932
 40
0.6975516975
 40
0.7677218698
 40
0.8340616215
 40
0.8955172805
 40
0.9511174802
 40
1.0
 40
1.0
 40
1.0
 40
1.0
 10
4.6902561189
 20
4.5664056033
 30
0.0
 10
4.7086155192
 20
4.5667443302
 30
0.0
 10
4.749161586
 20
4.5673866297
 30
0.0
 10
4.8153582561
 20
4.5682430141
 30
0.0
 10
4.8918819822
 20
4.5690834966
 30
0.0
 10
4.9774758431
 20
4.5699382079
 30
0.0
 10
5.0707439339
 20
4.5708173279
 30
0.0
 10
5.1701808206
 20
4.5717177668
 30
0.0
 10
5.2741894168
 20
4.5726113982
 30
0.0
 10
5.3810997314
 20
4.5734806567
 30
0.0
 10
5.4891958176
 20
4.5743201656
 30
0.0
 10
5.5967492922
 20
4.5751652136
 30
0.0
 10
5.7020486041
 20
4.5760346938
 30
0.0
 10
5.8034228965
 20
4.5769331689
 30
0.0
 10
5.8992634099
 20
4.5778265843
 30
0.0
 10
5.9880498467
 20
4.5786918727
 30
0.0
 10
6.0683843332
 20
4.5795212367
 30
0.0
 10
6.118966016
 20
4.5801141252
 30
0.0
 10
6.142630392
 20
4.5804222982
 30
0.0
  0
SPLINE
  5
3D5
100
AcDbEntity
  8
0
100
AcDbSpline
 62
7
  6
CONTINUOUS
 70
0
 71
3
 72
31
 73
27
 74
0
 42
0.0000001
 43
0.0000001
 44
0.0000000001
 40
0.0
 40
0.0
 40
0.0
 40
0.0
 40
0.2253987612
 40
0.3282011794
 40
0.4241883661
 40
0.5132139751
 40
0.5951317005
 40
0.6697954549
 40
0.7370774178
 40
0.7968837721
 40
0.8491245806
 40
0.8723798994
 40
0.8937102642
 40
0.9131045979
 40
0.9305546516
 40
0.946057169
 40
0.959609576
 40
0.9712096056
 40
0.9808555478
 40
0.9885468178
 40
0.9916600456
 40
0.9942858655
 40
0.9964258857
 40
0.998083483
 40
0.9992666705
 40
1.0
 40
1.0
 40
1.0
 40
1.0
 10
6.142630392
 20
4.5804222982
 30
0.0
 10
6.1559027079
 20
4.580595139
 30
0.0
 10
6.1752282388
 20
4.5808609568
 30
0.0
 10
6.2002051549
 20
4.5812476263
 30
0.0
 10
6.217151849
 20
4.5815314422
 30
0.0
 10
6.2328684547
 20
4.5818169477
 30
0.0
 10
6.2473291138
 20
4.5821031477
 30
0.0
 10
6.2605090515
 20
4.5823890091
 30
0.0
 10
6.2723865741
 20
4.5826735891
 30
0.0
 10
6.2829432672
 20
4.5829562004
 30
0.0
 10
6.2909074188
 20
4.5831977828
 30
0.0
 10
6.296606106
 20
4.5833919177
 30
0.0
 10
6.3003712455
 20
4.5835309719
 30
0.0
 10
6.3037943044
 20
4.5836690827
 30
0.0
 10
6.3068739053
 20
4.583806201
 30
0.0
 10
6.3096091548
 20
4.5839423393
 30
0.0
 10
6.3119994722
 20
4.584077513
 30
0.0
 10
6.3140443647
 20
4.5842115668
 30
0.0
 10
6.315743273
 20
4.5843445233
 30
0.0
 10
6.3169421701
 20
4.5844603688
 30
0.0
 10
6.3177272491
 20
4.5845560595
 30
0.0
 10
6.3181866442
 20
4.5846223108
 30
0.0
 10
6.3185589424
 20
4.5846880451
 30
0.0
 10
6.3188459703
 20
4.5847527882
 30
0.0
 10
6.3190453258
 20
4.5848162362
 30
0.0
 10
6.3191496909
 20
4.5848673997
 30
0.0
 10
6.3191802272
 20
4.584897936
 30
0.0
  0
SPLINE
  5
3D6
100
AcDbEntity
  8
0
100
AcDbSpline
 62
9
  6
CONTINUOUS
 70
0
 71
3
 72
9
 73
5
 74
0
 42
0.0000001
 43
0.0000001
 44
0.0000000001
 40
0.0
 40
0.0
 40
0.0
 40
0.0
 40
0.4972542575
 40
1.0
 40
1.0
 40
1.0
 40
1.0
 10
6.5568042143
 20
5.0321285672
 30
0.0
 10
6.5555293433
 20
5.0321285672
 30
0.0
 10
6.5529606735
 20
5.0318818971
 30
0.0
 10
6.5504795523
 20
5.0311780524
 30
0.0
 10
6.5492754545
 20
5.0307181162
 30
0.0
  0
SPLINE
  5
3D7
100
AcDbEntity
  8
0
100
AcDbSpline
 62
9
  6
CONTINUOUS
 70
0
 71
3
 72
10
 73
6
 74
0
 42
0.0000001
 43
0.0000001
 44
0.0000000001
 40
0.0
 40
0.0
 40
0.0
 40
0.0
 40
0.2484707364
 40
0.4979232438
 40
1.0
 40
1.0
 40
1.0
 40
1.0
 10
6.5492754545
 20
5.0307181162
 30
0.0
 10
6.5483682829
 20
5.0303715986
 30
0.0
 10
6.5465938185
 20
5.0295543556
 30
0.0
 10
6.543292888
 20
5.0274465946
 30
0.0
 10
6.5411535842
 20
5.0253686958
 30
0.0
 10
6.5399320033
 20
5.0238330386
 30
0.0
  0
SPLINE
  5
3D8
100
AcDbEntity
  8
0
100
AcDbSpline
 62
9
  6
CONTINUOUS
 70
0
 71
3
 72
9
 73
5
 74
0
 42
0.0000001
 43
0.0000001
 44
0.0000000001
 40
0.0
 40
0.0
 40
0.0
 40
0.0
 40
0.5000183969
 40
1.0
 40
1.0
 40
1.0
 40
1.0
 10
6.5377323705
 20
5.0205143939
 30
0.0
 10
6.5367696541
 20
5.0187470827
 30
0.0
 10
6.5352999622
 20
5.0149500704
 30
0.0
 10
6.534781946
 20
5.0109125864
 30
0.0
 10
6.534781946
 20
5.0089002207
 30
0.0
  0
SPLINE
  5
3D9
100
AcDbEntity
  8
0
100
AcDbSpline
 62
7
  6
CONTINUOUS
 70
0
 71
3
 72
33
 73
29
 74
0
 42
0.0000001
 43
0.0000001
 44
0.0000000001
 40
0.0
 40
0.0
 40
0.0
 40
0.0
 40
0.0004649475
 40
0.0010706952
 40
0.0027098567
 40
0.0049220353
 40
0.007707074
 40
0.0110637679
 40
0.0149904831
 40
0.0194853756
 40
0.0245464867
 40
0.0363589263
 40
0.0504020528
 40
0.0666390839
 40
0.0850324628
 40
0.1055441395
 40
0.1281268311
 40
0.15272427
 40
0.1792797928
 40
0.2380268834
 40
0.3038171285
 40
0.3760494375
 40
0.4540509739
 40
0.537108173
 40
0.6244389239
 40
0.7152357083
 40
0.8086866017
 40
1.0
 40
1.0
 40
1.0
 40
1.0
 10
4.5774819552
 20
4.6142193654
 30
0.0
 10
4.5776101975
 20
4.6142614276
 30
0.0
 10
4.5779112479
 20
4.6143404357
 30
0.0
 10
4.5786823626
 20
4.6144964246
 30
0.0
 10
4.5799639443
 20
4.6146797933
 30
0.0
 10
4.5818788421
 20
4.6148898675
 30
0.0
 10
4.5842946999
 20
4.615102102
 30
0.0
 10
4.5872094752
 20
4.6153169761
 30
0.0
 10
4.5906216409
 20
4.6155336472
 30
0.0
 10
4.594529298
 20
4.615752197
 30
0.0
 10
4.6007243706
 20
4.6160621554
 30
0.0
 10
4.6096906726
 20
4.6164465475
 30
0.0
 10
4.6219010237
 20
4.6168956787
 30
0.0
 10
4.6360226353
 20
4.6173497184
 30
0.0
 10
4.6520226933
 20
4.6178063494
 30
0.0
 10
4.6698654317
 20
4.6182627533
 30
0.0
 10
4.6895096517
 20
4.6187170558
 30
0.0
 10
4.7109087689
 20
4.6191679014
 30
0.0
 10
4.7428044349
 20
4.6197834213
 30
0.0
 10
4.7866572031
 20
4.620524004
 30
0.0
 10
4.8437688432
 20
4.6213734755
 30
0.0
 10
4.9064701128
 20
4.6222282797
 30
0.0
 10
4.9741838143
 20
4.6230996966
 30
0.0
 10
5.0462802541
 20
4.6239996008
 30
0.0
 10
5.1220909819
 20
4.624913728
 30
0.0
 10
5.2009190196
 20
4.6258247625
 30
0.0
 10
5.3099295579
 20
4.6270300016
 30
0.0
 10
5.3925860669
 20
4.6278795832
 30
0.0
 10
5.448117236
 20
4.6284510853
 30
0.0
  0
SPLINE
  5
3DA
100
AcDbEntity
  8
0
100
AcDbSpline
 62
7
  6
CONTINUOUS
 70
0
 71
3
 72
33
 73
29
 74
0
 42
0.0000001
 43
0.0000001
 44
0.0000000001
 40
0.0
 40
0.0
 40
0.0
 40
0.0
 40
0.0004647028
 40
0.0010699418
 40
0.0027071548
 40
0.0049173632
 40
0.0077021453
 40
0.0110601032
 40
0.0149888514
 40
0.0194858047
 40
0.0245482692
 40
0.0363586362
 40
0.0503975075
 40
0.0666369358
 40
0.0850343656
 40
0.1055446313
 40
0.1281225106
 40
0.1527212231
 40
0.1792814062
 40
0.2380238402
 40
0.3038169022
 40
0.3760476165
 40
0.4540534637
 40
0.5371092734
 40
0.6244323404
 40
0.7152298316
 40
0.8086969647
 40
1.0
 40
1.0
 40
1.0
 40
1.0
 10
4.5774847289
 20
4.6722825508
 30
0.0
 10
4.5776129499
 20
4.6723244488
 30
0.0
 10
4.5779138337
 20
4.6724032003
 30
0.0
 10
4.5786842116
 20
4.672558855
 30
0.0
 10
4.5799644604
 20
4.6727423425
 30
0.0
 10
4.5818780406
 20
4.6729532627
 30
0.0
 10
4.5842934479
 20
4.6731673142
 30
0.0
 10
4.5872089119
 20
4.6733847473
 30
0.0
 10
4.5906224366
 20
4.6736044156
 30
0.0
 10
4.5945314944
 20
4.6738260698
 30
0.0
 10
4.6007267408
 20
4.6741400636
 30
0.0
 10
4.6096914454
 20
4.6745277245
 30
0.0
 10
4.6219006173
 20
4.6749772371
 30
0.0
 10
4.6360229014
 20
4.6754292038
 30
0.0
 10
4.6520244807
 20
4.6758824609
 30
0.0
 10
4.6698666343
 20
4.6763353954
 30
0.0
 10
4.6895094411
 20
4.6767866404
 30
0.0
 10
4.7109088922
 20
4.6772346927
 30
0.0
 10
4.742804894
 20
4.6778480166
 30
0.0
 10
4.7866582657
 20
4.6785949765
 30
0.0
 10
4.8437687599
 20
4.6794459696
 30
0.0
 10
4.906471561
 20
4.6802953622
 30
0.0
 10
4.9741854303
 20
4.6811712233
 30
0.0
 10
5.0462802745
 20
4.6820747437
 30
0.0
 10
5.1220884202
 20
4.6829868945
 30
0.0
 10
5.2009189897
 20
4.6838955482
 30
0.0
 10
5.309931223
 20
4.6850971792
 30
0.0
 10
5.3925892049
 20
4.6859504817
 30
0.0
 10
5.448117236
 20
4.6865219514
 30
0.0
  0
SPLINE
  5
3DB
100
AcDbEntity
  8
0
100
AcDbSpline
 62
7
  6
CONTINUOUS
 70
0
 71
3
 72
23
 73
19
 74
0
 42
0.0000001
 43
0.0000001
 44
0.0000000001
 40
0.0
 40
0.0
 40
0.0
 40
0.0
 40
0.0044016398
 40
0.0105529548
 40
0.0184720162
 40
0.0281670158
 40
0.0396421312
 40
0.0528964187
 40
0.0847235363
 40
0.1236067901
 40
0.1695004712
 40
0.2223572267
 40
0.2821288412
 40
0.3487656142
 40
0.4221948214
 40
0.5890467557
 40
0.7819113083
 40
1.0
 40
1.0
 40
1.0
 40
1.0
 10
4.5774847289
 20
4.7303534169
 30
0.0
 10
4.5776723696
 20
4.7304147312
 30
0.0
 10
4.5781338057
 20
4.7305246582
 30
0.0
 10
4.5789496053
 20
4.7306684008
 30
0.0
 10
4.5800057338
 20
4.7308139768
 30
0.0
 10
4.5813019758
 20
4.7309615651
 30
0.0
 10
4.5828386993
 20
4.7311105835
 30
0.0
 10
4.5853661615
 20
4.7313242815
 30
0.0
 10
4.5891228223
 20
4.7315866722
 30
0.0
 10
4.5943434871
 20
4.7318906036
 30
0.0
 10
4.6005084704
 20
4.7321979872
 30
0.0
 10
4.6076111119
 20
4.7325081982
 30
0.0
 10
4.6156447385
 20
4.732820399
 30
0.0
 10
4.6246015659
 20
4.7331339631
 30
0.0
 10
4.6383592358
 20
4.7335720263
 30
0.0
 10
4.6577774875
 20
4.7341117274
 30
0.0
 10
4.6836833895
 20
4.7347345756
 30
0.0
 10
4.7021097065
 20
4.7351232757
 30
0.0
 10
4.7118885711
 20
4.7353188432
 30
0.0
  0
LINE
  5
3DC
100
AcDbEntity
  8
0
100
AcDbLine
 62
7
  6
CONTINUOUS
 10
4.7118885711
 20
4.7353188432
 11
4.7259988071
 21
4.735593869
  0
LINE
  5
3DD
100
AcDbEntity
  8
0
100
AcDbLine
 62
7
  6
CONTINUOUS
 10
4.7259988071
 20
4.735593869
 11
4.7364254767
 21
4.7357886398
  0
SPLINE
  5
3DE
100
AcDbEntity
  8
0
100
AcDbSpline
 62
7
  6
CONTINUOUS
 70
0
 71
3
 72
14
 73
10
 74
0
 42
0.0000001
 43
0.0000001
 44
0.0000000001
 40
0.0
 40
0.0
 40
0.0
 40
0.0
 40
0.0912889034
 40
0.1955511263
 40
0.3112891446
 40
0.4368604488
 40
0.5704432428
 40
0.7101721953
 40
1.0
 40
1.0
 40
1.0
 40
1.0
 10
4.7364254767
 20
4.7357886398
 30
0.0
 10
4.75808004
 20
4.736186278
 30
0.0
 10
4.8044681348
 20
4.7369523695
 30
0.0
 10
4.8783138565
 20
4.7379968466
 30
0.0
 10
4.9602934382
 20
4.7390663793
 30
0.0
 10
5.0492292353
 20
4.7401853467
 30
0.0
 10
5.1438571482
 20
4.741316006
 30
0.0
 10
5.2774529525
 20
4.7428301834
 30
0.0
 10
5.3793594796
 20
4.7438851934
 30
0.0
 10
5.448117236
 20
4.7445928176
 30
0.0
  0
SPLINE
  5
3DF
100
AcDbEntity
  8
0
100
AcDbSpline
 62
7
  6
CONTINUOUS
 70
0
 71
3
 72
23
 73
19
 74
0
 42
0.0000001
 43
0.0000001
 44
0.0000000001
 40
0.0
 40
0.0
 40
0.0
 40
0.0
 40
0.0042513993
 40
0.0102688034
 40
0.0180702392
 40
0.0276636822
 40
0.0390527296
 40
0.0522349773
 40
0.0839579563
 40
0.1227872465
 40
0.1686736395
 40
0.221566387
 40
0.2814139372
 40
0.3481571119
 40
0.4217029383
 40
0.5887905001
 40
0.7818517584
 40
1.0
 40
1.0
 40
1.0
 40
1.0
 10
4.5774847289
 20
4.788424283
 30
0.0
 10
4.5776849755
 20
4.7884897165
 30
0.0
 10
4.5781816709
 20
4.788605818
 30
0.0
 10
4.5790640489
 20
4.7887573713
 30
0.0
 10
4.5802143055
 20
4.7889109249
 30
0.0
 10
4.5816320878
 20
4.7890668058
 30
0.0
 10
4.5833177619
 20
4.7892242865
 30
0.0
 10
4.5860981273
 20
4.7894503843
 30
0.0
 10
4.5902382466
 20
4.7897279106
 30
0.0
 10
4.5959991354
 20
4.7900493325
 30
0.0
 10
4.6028102422
 20
4.7903744187
 30
0.0
 10
4.6106637259
 20
4.7907024546
 30
0.0
 10
4.6195514258
 20
4.7910324689
 30
0.0
 10
4.6294631136
 20
4.7913637384
 30
0.0
 10
4.6446872874
 20
4.7918263172
 30
0.0
 10
4.6661703439
 20
4.7923955198
 30
0.0
 10
4.6948187711
 20
4.7930510043
 30
0.0
 10
4.7151910368
 20
4.793459298
 30
0.0
 10
4.7259988071
 20
4.7936647351
 30
0.0
  0
LINE
  5
3E0
100
AcDbEntity
  8
0
100
AcDbLine
 62
7
  6
CONTINUOUS
 10
4.7259988071
 20
4.7936647351
 11
4.7360575913
 21
4.7938527466
  0
SPLINE
  5
3E1
100
AcDbEntity
  8
0
100
AcDbSpline
 62
7
  6
CONTINUOUS
 70
0
 71
3
 72
12
 73
8
 74
0
 42
0.0000001
 43
0.0000001
 44
0.0000000001
 40
0.0
 40
0.0
 40
0.0
 40
0.0
 40
0.2060684035
 40
0.4443866905
 40
0.5743064803
 40
0.7106443451
 40
1.0
 40
1.0
 40
1.0
 40
1.0
 10
4.7360575913
 20
4.7938527466
 30
0.0
 10
4.7606327164
 20
4.7943045474
 30
0.0
 10
4.8136310436
 20
4.7951673054
 30
0.0
 10
4.8821262412
 20
4.7961134283
 30
0.0
 10
4.9423055299
 20
4.7969011563
 30
0.0
 10
5.0085721474
 20
4.7977491282
 30
0.0
 10
5.0593438694
 20
4.7983741094
 30
0.0
 10
5.0938549541
 20
4.7987869758
 30
0.0
  0
LINE
  5
3E2
100
AcDbEntity
  8
0
100
AcDbLine
 62
7
  6
CONTINUOUS
 10
5.0938549541
 20
4.7987869758
 11
5.1025901981
 21
4.7988912224
  0
LINE
  5
3E3
100
AcDbEntity
  8
0
100
AcDbLine
 62
7
  6
CONTINUOUS
 10
5.1025901981
 20
4.7988912224
 11
5.448117236
 21
4.8026636837
  0
SPLINE
  5
3E4
100
AcDbEntity
  8
0
100
AcDbSpline
 62
7
  6
CONTINUOUS
 70
0
 71
3
 72
13
 73
9
 74
0
 42
0.0000001
 43
0.0000001
 44
0.0000000001
 40
0.0
 40
0.0
 40
0.0
 40
0.0
 40
0.2854773695
 40
0.5562980434
 40
0.681840517
 40
0.7986212396
 40
0.9051304832
 40
1.0
 40
1.0
 40
1.0
 40
1.0
 10
5.448117236
 20
4.7445928176
 30
0.0
 10
5.5134393854
 20
4.7452650841
 30
0.0
 10
5.6407299209
 20
4.7465820378
 30
0.0
 10
5.7967447444
 20
4.7483804094
 30
0.0
 10
5.9141580521
 20
4.7498413227
 30
0.0
 10
5.9939745072
 20
4.7508723458
 30
0.0
 10
6.0667719614
 20
4.7518668894
 30
0.0
 10
6.1128478598
 20
4.7525809617
 30
0.0
 10
6.1345536438
 20
4.7529506727
 30
0.0
  0
LINE
  5
3E5
100
AcDbEntity
  8
0
100
AcDbLine
 62
7
  6
CONTINUOUS
 10
6.1345536438
 20
4.7529506727
 11
6.1422270769
 21
4.7530827932
  0
LINE
  5
3E6
100
AcDbEntity
  8
0
100
AcDbLine
 62
7
  6
CONTINUOUS
 10
6.1422270769
 20
4.7530827932
 11
6.1702870174
 21
4.7535927768
  0
LINE
  5
3E7
100
AcDbEntity
  8
0
100
AcDbLine
 62
7
  6
CONTINUOUS
 10
6.1702870174
 20
4.7535927768
 11
6.1845115602
 21
4.7538701384
  0
SPLINE
  5
3E8
100
AcDbEntity
  8
0
100
AcDbSpline
 62
7
  6
CONTINUOUS
 70
0
 71
3
 72
11
 73
7
 74
0
 42
0.0000001
 43
0.0000001
 44
0.0000000001
 40
0.0
 40
0.0
 40
0.0
 40
0.0
 40
0.3095044078
 40
0.5801983102
 40
0.8107846673
 40
1.0
 40
1.0
 40
1.0
 40
1.0
 10
6.1845115602
 20
4.7538701384
 30
0.0
 10
6.1949815365
 20
4.7540796547
 30
0.0
 10
6.2146081523
 20
4.7544954691
 30
0.0
 10
6.2420329344
 20
4.7551645733
 30
0.0
 10
6.2653863303
 20
4.75583312
 30
0.0
 10
6.2795820274
 20
4.7563230297
 30
0.0
 10
6.2859790991
 20
4.7565765964
 30
0.0
  0
SPLINE
  5
3E9
100
AcDbEntity
  8
0
100
AcDbSpline
 62
7
  6
CONTINUOUS
 70
0
 71
3
 72
24
 73
20
 74
0
 42
0.0000001
 43
0.0000001
 44
0.0000000001
 40
0.0
 40
0.0
 40
0.0
 40
0.0
 40
0.2319539837
 40
0.4336305223
 40
0.6048135371
 40
0.678904413
 40
0.745294191
 40
0.8039588917
 40
0.8548764892
 40
0.8980338211
 40
0.9334433239
 40
0.9482519829
 40
0.9611373785
 40
0.9721091383
 40
0.9811829819
 40
0.9883870621
 40
0.9937788979
 40
0.9975009925
 40
1.0
 40
1.0
 40
1.0
 40
1.0
 10
6.2859790991
 20
4.7565765964
 30
0.0
 10
6.2885596795
 20
4.7566788854
 30
0.0
 10
6.2933835988
 20
4.756880425
 30
0.0
 10
6.3001100726
 20
4.7572011394
 30
0.0
 10
6.3050789239
 20
4.7574768528
 30
0.0
 10
6.308541889
 20
4.7576996877
 30
0.0
 10
6.3107535896
 20
4.7578576519
 30
0.0
 10
6.3127066309
 20
4.7580144622
 30
0.0
 10
6.3144001913
 20
4.7581698987
 30
0.0
 10
6.3158337043
 20
4.7583238415
 30
0.0
 10
6.3168649293
 20
4.758457227
 30
0.0
 10
6.3175590716
 20
4.7585662486
 30
0.0
 10
6.3179827687
 20
4.7586427727
 30
0.0
 10
6.3183415511
 20
4.7587188088
 30
0.0
 10
6.3186354304
 20
4.7587945837
 30
0.0
 10
6.3188652686
 20
4.7588690083
 30
0.0
 10
6.3190311788
 20
4.758944219
 30
0.0
 10
6.3191396876
 20
4.7590162271
 30
0.0
 10
6.3191758063
 20
4.7590829026
 30
0.0
 10
6.3191758061
 20
4.7591107269
 30
0.0
  0
SPLINE
  5
3EA
100
AcDbEntity
  8
0
100
AcDbSpline
 62
7
  6
CONTINUOUS
 70
0
 71
3
 72
13
 73
9
 74
0
 42
0.0000001
 43
0.0000001
 44
0.0000000001
 40
0.0
 40
0.0
 40
0.0
 40
0.0
 40
0.2854773695
 40
0.5562980434
 40
0.681840517
 40
0.7986212396
 40
0.9051304832
 40
1.0
 40
1.0
 40
1.0
 40
1.0
 10
5.448117236
 20
4.6284510853
 30
0.0
 10
5.5134393854
 20
4.6291233518
 30
0.0
 10
5.6407299209
 20
4.6304403055
 30
0.0
 10
5.7967447444
 20
4.6322386771
 30
0.0
 10
5.9141580521
 20
4.6336995904
 30
0.0
 10
5.9939745072
 20
4.6347306135
 30
0.0
 10
6.0667719614
 20
4.6357251571
 30
0.0
 10
6.1128478598
 20
4.6364392294
 30
0.0
 10
6.1345536438
 20
4.6368089404
 30
0.0
  0
LINE
  5
3EB
100
AcDbEntity
  8
0
100
AcDbLine
 62
7
  6
CONTINUOUS
 10
6.1345536438
 20
4.6368089404
 11
6.1422639778
 21
4.6369417033
  0
LINE
  5
3EC
100
AcDbEntity
  8
0
100
AcDbLine
 62
7
  6
CONTINUOUS
 10
6.1422639778
 20
4.6369417033
 11
6.1702870174
 21
4.6374510445
  0
LINE
  5
3ED
100
AcDbEntity
  8
0
100
AcDbLine
 62
7
  6
CONTINUOUS
 10
6.1702870174
 20
4.6374510445
 11
6.1722566788
 21
4.6374886184
  0
SPLINE
  5
3EE
100
AcDbEntity
  8
0
100
AcDbSpline
 62
7
  6
CONTINUOUS
 70
0
 71
3
 72
11
 73
7
 74
0
 42
0.0000001
 43
0.0000001
 44
0.0000000001
 40
0.0
 40
0.0
 40
0.0
 40
0.0
 40
0.3126267898
 40
0.5845197104
 40
0.8141323182
 40
1.0
 40
1.0
 40
1.0
 40
1.0
 10
6.1722566788
 20
4.6374886184
 30
0.0
 10
6.1841095359
 20
4.637715498
 30
0.0
 10
6.2062704013
 20
4.6381653278
 30
0.0
 10
6.2371343918
 20
4.6388924404
 30
0.0
 10
6.2631899961
 20
4.6396196147
 30
0.0
 10
6.278936396
 20
4.6401557059
 30
0.0
 10
6.2859790991
 20
4.6404348642
 30
0.0
  0
SPLINE
  5
3EF
100
AcDbEntity
  8
0
100
AcDbSpline
 62
7
  6
CONTINUOUS
 70
0
 71
3
 72
24
 73
20
 74
0
 42
0.0000001
 43
0.0000001
 44
0.0000000001
 40
0.0
 40
0.0
 40
0.0
 40
0.0
 40
0.2319539837
 40
0.4336305223
 40
0.6048135371
 40
0.678904413
 40
0.745294191
 40
0.8039588917
 40
0.8548764892
 40
0.8980338211
 40
0.9334433239
 40
0.9482519829
 40
0.9611373785
 40
0.9721091383
 40
0.9811829819
 40
0.9883870621
 40
0.9937788979
 40
0.9975009925
 40
1.0
 40
1.0
 40
1.0
 40
1.0
 10
6.2859790991
 20
4.6404348642
 30
0.0
 10
6.2885596795
 20
4.6405371531
 30
0.0
 10
6.2933835988
 20
4.6407386927
 30
0.0
 10
6.3001100726
 20
4.6410594071
 30
0.0
 10
6.3050789239
 20
4.6413351206
 30
0.0
 10
6.308541889
 20
4.6415579554
 30
0.0
 10
6.3107535896
 20
4.6417159196
 30
0.0
 10
6.3127066309
 20
4.6418727299
 30
0.0
 10
6.3144001913
 20
4.6420281664
 30
0.0
 10
6.3158337043
 20
4.6421821092
 30
0.0
 10
6.3168649293
 20
4.6423154947
 30
0.0
 10
6.3175590716
 20
4.6424245163
 30
0.0
 10
6.3179827687
 20
4.6425010404
 30
0.0
 10
6.3183415511
 20
4.6425770765
 30
0.0
 10
6.3186354304
 20
4.6426528514
 30
0.0
 10
6.3188652686
 20
4.642727276
 30
0.0
 10
6.3190311788
 20
4.6428024867
 30
0.0
 10
6.3191396876
 20
4.6428744948
 30
0.0
 10
6.3191758063
 20
4.6429411703
 30
0.0
 10
6.3191758061
 20
4.6429689946
 30
0.0
  0
SPLINE
  5
3F0
100
AcDbEntity
  8
0
100
AcDbSpline
 62
7
  6
CONTINUOUS
 70
0
 71
3
 72
13
 73
9
 74
0
 42
0.0000001
 43
0.0000001
 44
0.0000000001
 40
0.0
 40
0.0
 40
0.0
 40
0.0
 40
0.2854773695
 40
0.5562980434
 40
0.681840517
 40
0.7986212396
 40
0.9051304832
 40
1.0
 40
1.0
 40
1.0
 40
1.0
 10
5.448117236
 20
4.6865219514
 30
0.0
 10
5.5134393854
 20
4.6871942179
 30
0.0
 10
5.6407299209
 20
4.6885111716
 30
0.0
 10
5.7967447444
 20
4.6903095432
 30
0.0
 10
5.9141580521
 20
4.6917704565
 30
0.0
 10
5.9939745072
 20
4.6928014796
 30
0.0
 10
6.0667719614
 20
4.6937960233
 30
0.0
 10
6.1128478598
 20
4.6945100955
 30
0.0
 10
6.1345536438
 20
4.6948798065
 30
0.0
  0
LINE
  5
3F1
100
AcDbEntity
  8
0
100
AcDbLine
 62
7
  6
CONTINUOUS
 10
6.1345536438
 20
4.6948798065
 11
6.1426412807
 21
4.6950191414
  0
LINE
  5
3F2
100
AcDbEntity
  8
0
100
AcDbLine
 62
7
  6
CONTINUOUS
 10
6.1426412807
 20
4.6950191414
 11
6.1702870174
 21
4.6955219106
  0
LINE
  5
3F3
100
AcDbEntity
  8
0
100
AcDbLine
 62
7
  6
CONTINUOUS
 10
6.1702870174
 20
4.6955219106
 11
6.1726969971
 21
4.6955679192
  0
SPLINE
  5
3F4
100
AcDbEntity
  8
0
100
AcDbSpline
 62
7
  6
CONTINUOUS
 70
0
 71
3
 72
11
 73
7
 74
0
 42
0.0000001
 43
0.0000001
 44
0.0000000001
 40
0.0
 40
0.0
 40
0.0
 40
0.0
 40
0.3125211142
 40
0.5843727635
 40
0.8140181789
 40
1.0
 40
1.0
 40
1.0
 40
1.0
 10
6.1726969971
 20
4.6955679192
 30
0.0
 10
6.1844999716
 20
4.6957941904
 30
0.0
 10
6.2065694843
 20
4.6962428285
 30
0.0
 10
6.2373096621
 20
4.696967908
 30
0.0
 10
6.2632683718
 20
4.6976930205
 30
0.0
 10
6.2789593517
 20
4.6982274819
 30
0.0
 10
6.2859790991
 20
4.6985057303
 30
0.0
  0
SPLINE
  5
3F5
100
AcDbEntity
  8
0
100
AcDbSpline
 62
7
  6
CONTINUOUS
 70
0
 71
3
 72
24
 73
20
 74
0
 42
0.0000001
 43
0.0000001
 44
0.0000000001
 40
0.0
 40
0.0
 40
0.0
 40
0.0
 40
0.2319539837
 40
0.4336305223
 40
0.6048135371
 40
0.678904413
 40
0.745294191
 40
0.8039588917
 40
0.8548764892
 40
0.8980338211
 40
0.9334433239
 40
0.9482519829
 40
0.9611373785
 40
0.9721091383
 40
0.9811829819
 40
0.9883870621
 40
0.9937788979
 40
0.9975009925
 40
1.0
 40
1.0
 40
1.0
 40
1.0
 10
6.2859790991
 20
4.6985057303
 30
0.0
 10
6.2885596795
 20
4.6986080192
 30
0.0
 10
6.2933835988
 20
4.6988095589
 30
0.0
 10
6.3001100726
 20
4.6991302732
 30
0.0
 10
6.3050789239
 20
4.6994059867
 30
0.0
 10
6.308541889
 20
4.6996288216
 30
0.0
 10
6.3107535896
 20
4.6997867857
 30
0.0
 10
6.3127066309
 20
4.699943596
 30
0.0
 10
6.3144001913
 20
4.7000990326
 30
0.0
 10
6.3158337043
 20
4.7002529753
 30
0.0
 10
6.3168649293
 20
4.7003863608
 30
0.0
 10
6.3175590716
 20
4.7004953824
 30
0.0
 10
6.3179827687
 20
4.7005719065
 30
0.0
 10
6.3183415511
 20
4.7006479426
 30
0.0
 10
6.3186354304
 20
4.7007237175
 30
0.0
 10
6.3188652686
 20
4.7007981421
 30
0.0
 10
6.3190311788
 20
4.7008733528
 30
0.0
 10
6.3191396876
 20
4.7009453609
 30
0.0
 10
6.3191758063
 20
4.7010120365
 30
0.0
 10
6.3191758061
 20
4.7010398608
 30
0.0
  0
LINE
  5
3F6
100
AcDbEntity
  8
0
100
AcDbLine
 62
7
  6
CONTINUOUS
 10
5.448117236
 20
4.8026636837
 11
5.6223472147
 21
4.8044903539
  0
SPLINE
  5
3F7
100
AcDbEntity
  8
0
100
AcDbSpline
 62
7
  6
CONTINUOUS
 70
0
 71
3
 72
19
 73
15
 74
0
 42
0.0000001
 43
0.0000001
 44
0.0000000001
 40
0.0
 40
0.0
 40
0.0
 40
0.0
 40
0.1673637048
 40
0.3304340151
 40
0.4848161553
 40
0.6265746892
 40
0.691532161
 40
0.7519751997
 40
0.8075003662
 40
0.8577508061
 40
0.9024020328
 40
0.9411496329
 40
0.973755987
 40
1.0
 40
1.0
 40
1.0
 40
1.0
 10
5.448117236
 20
5.3833723451
 30
0.0
 10
5.4948627579
 20
5.3838534292
 30
0.0
 10
5.5871546172
 20
5.3848052382
 30
0.0
 10
5.722565186
 20
5.3862955824
 30
0.0
 10
5.8508228644
 20
5.3878200428
 30
0.0
 10
5.9516766329
 20
5.3890986997
 30
0.0
 10
6.0262928722
 20
5.3900893554
 30
0.0
 10
6.0768239589
 20
5.3908036902
 30
0.0
 10
6.1232465164
 20
5.3915262866
 30
0.0
 10
6.1652573147
 20
5.3922612824
 30
0.0
 10
6.202580827
 20
5.3930054701
 30
0.0
 10
6.2349747369
 20
5.3937573767
 30
0.0
 10
6.2622254726
 20
5.3945097488
 30
0.0
 10
6.2786543784
 20
5.3950657871
 30
0.0
 10
6.2859790991
 20
5.395356124
 30
0.0
  0
SPLINE
  5
3F8
100
AcDbEntity
  8
0
100
AcDbSpline
 62
7
  6
CONTINUOUS
 70
0
 71
3
 72
24
 73
20
 74
0
 42
0.0000001
 43
0.0000001
 44
0.0000000001
 40
0.0
 40
0.0
 40
0.0
 40
0.0
 40
0.2319539837
 40
0.4336305223
 40
0.6048135371
 40
0.678904413
 40
0.745294191
 40
0.8039588917
 40
0.8548764892
 40
0.8980338211
 40
0.9334433239
 40
0.9482519829
 40
0.9611373785
 40
0.9721091383
 40
0.9811829819
 40
0.9883870621
 40
0.9937788979
 40
0.9975009925
 40
1.0
 40
1.0
 40
1.0
 40
1.0
 10
6.2859790991
 20
5.395356124
 30
0.0
 10
6.2885596795
 20
5.3954584129
 30
0.0
 10
6.2933835988
 20
5.3956599526
 30
0.0
 10
6.3001100726
 20
5.3959806669
 30
0.0
 10
6.3050789239
 20
5.3962563804
 30
0.0
 10
6.308541889
 20
5.3964792153
 30
0.0
 10
6.3107535896
 20
5.3966371794
 30
0.0
 10
6.3127066309
 20
5.3967939897
 30
0.0
 10
6.3144001913
 20
5.3969494263
 30
0.0
 10
6.3158337043
 20
5.397103369
 30
0.0
 10
6.3168649293
 20
5.3972367545
 30
0.0
 10
6.3175590716
 20
5.3973457761
 30
0.0
 10
6.3179827687
 20
5.3974223002
 30
0.0
 10
6.3183415511
 20
5.3974983363
 30
0.0
 10
6.3186354304
 20
5.3975741112
 30
0.0
 10
6.3188652686
 20
5.3976485358
 30
0.0
 10
6.3190311788
 20
5.3977237465
 30
0.0
 10
6.3191396876
 20
5.3977957546
 30
0.0
 10
6.3191758063
 20
5.3978624302
 30
0.0
 10
6.3191758061
 20
5.3978902545
 30
0.0
  0
SPLINE
  5
3F9
100
AcDbEntity
  8
0
100
AcDbSpline
 62
7
  6
CONTINUOUS
 70
0
 71
3
 72
19
 73
15
 74
0
 42
0.0000001
 43
0.0000001
 44
0.0000000001
 40
0.0
 40
0.0
 40
0.0
 40
0.0
 40
0.1673637048
 40
0.3304340151
 40
0.4848161553
 40
0.6265746892
 40
0.691532161
 40
0.7519751997
 40
0.8075003662
 40
0.8577508061
 40
0.9024020328
 40
0.9411496329
 40
0.973755987
 40
1.0
 40
1.0
 40
1.0
 40
1.0
 10
5.448117236
 20
5.2672306129
 30
0.0
 10
5.4948627579
 20
5.267711697
 30
0.0
 10
5.5871546172
 20
5.2686635059
 30
0.0
 10
5.722565186
 20
5.2701538502
 30
0.0
 10
5.8508228644
 20
5.2716783105
 30
0.0
 10
5.9516766329
 20
5.2729569674
 30
0.0
 10
6.0262928722
 20
5.2739476231
 30
0.0
 10
6.0768239589
 20
5.2746619579
 30
0.0
 10
6.1232465164
 20
5.2753845543
 30
0.0
 10
6.1652573147
 20
5.2761195501
 30
0.0
 10
6.202580827
 20
5.2768637378
 30
0.0
 10
6.2349747369
 20
5.2776156445
 30
0.0
 10
6.2622254726
 20
5.2783680166
 30
0.0
 10
6.2786543784
 20
5.2789240548
 30
0.0
 10
6.2859790991
 20
5.2792143917
 30
0.0
  0
SPLINE
  5
3FA
100
AcDbEntity
  8
0
100
AcDbSpline
 62
7
  6
CONTINUOUS
 70
0
 71
3
 72
24
 73
20
 74
0
 42
0.0000001
 43
0.0000001
 44
0.0000000001
 40
0.0
 40
0.0
 40
0.0
 40
0.0
 40
0.2319539837
 40
0.4336305223
 40
0.6048135371
 40
0.678904413
 40
0.745294191
 40
0.8039588917
 40
0.8548764892
 40
0.8980338211
 40
0.9334433239
 40
0.9482519829
 40
0.9611373785
 40
0.9721091383
 40
0.9811829819
 40
0.9883870621
 40
0.9937788979
 40
0.9975009925
 40
1.0
 40
1.0
 40
1.0
 40
1.0
 10
6.2859790991
 20
5.2792143917
 30
0.0
 10
6.2885596795
 20
5.2793166806
 30
0.0
 10
6.2933835988
 20
5.2795182203
 30
0.0
 10
6.3001100726
 20
5.2798389347
 30
0.0
 10
6.3050789239
 20
5.2801146481
 30
0.0
 10
6.308541889
 20
5.280337483
 30
0.0
 10
6.3107535896
 20
5.2804954471
 30
0.0
 10
6.3127066309
 20
5.2806522575
 30
0.0
 10
6.3144001913
 20
5.280807694
 30
0.0
 10
6.3158337043
 20
5.2809616368
 30
0.0
 10
6.3168649293
 20
5.2810950223
 30
0.0
 10
6.3175590716
 20
5.2812040438
 30
0.0
 10
6.3179827687
 20
5.2812805679
 30
0.0
 10
6.3183415511
 20
5.2813566041
 30
0.0
 10
6.3186354304
 20
5.281432379
 30
0.0
 10
6.3188652686
 20
5.2815068035
 30
0.0
 10
6.3190311788
 20
5.2815820143
 30
0.0
 10
6.3191396876
 20
5.2816540223
 30
0.0
 10
6.3191758063
 20
5.2817206979
 30
0.0
 10
6.3191758061
 20
5.2817485222
 30
0.0
  0
SPLINE
  5
3FB
100
AcDbEntity
  8
0
100
AcDbSpline
 62
7
  6
CONTINUOUS
 70
0
 71
3
 72
19
 73
15
 74
0
 42
0.0000001
 43
0.0000001
 44
0.0000000001
 40
0.0
 40
0.0
 40
0.0
 40
0.0
 40
0.1673637048
 40
0.3304340151
 40
0.4848161553
 40
0.6265746892
 40
0.691532161
 40
0.7519751997
 40
0.8075003662
 40
0.8577508061
 40
0.9024020328
 40
0.9411496329
 40
0.973755987
 40
1.0
 40
1.0
 40
1.0
 40
1.0
 10
5.448117236
 20
5.1510888806
 30
0.0
 10
5.4948627579
 20
5.1515699647
 30
0.0
 10
5.5871546172
 20
5.1525217736
 30
0.0
 10
5.722565186
 20
5.1540121179
 30
0.0
 10
5.8508228644
 20
5.1555365783
 30
0.0
 10
5.9516766329
 20
5.1568152351
 30
0.0
 10
6.0262928722
 20
5.1578058909
 30
0.0
 10
6.0768239589
 20
5.1585202256
 30
0.0
 10
6.1232465164
 20
5.1592428221
 30
0.0
 10
6.1652573147
 20
5.1599778178
 30
0.0
 10
6.202580827
 20
5.1607220055
 30
0.0
 10
6.2349747369
 20
5.1614739122
 30
0.0
 10
6.2622254726
 20
5.1622262843
 30
0.0
 10
6.2786543784
 20
5.1627823225
 30
0.0
 10
6.2859790991
 20
5.1630726594
 30
0.0
  0
SPLINE
  5
3FC
100
AcDbEntity
  8
0
100
AcDbSpline
 62
7
  6
CONTINUOUS
 70
0
 71
3
 72
24
 73
20
 74
0
 42
0.0000001
 43
0.0000001
 44
0.0000000001
 40
0.0
 40
0.0
 40
0.0
 40
0.0
 40
0.2319539837
 40
0.4336305223
 40
0.6048135371
 40
0.678904413
 40
0.745294191
 40
0.8039588917
 40
0.8548764892
 40
0.8980338211
 40
0.9334433239
 40
0.9482519829
 40
0.9611373785
 40
0.9721091383
 40
0.9811829819
 40
0.9883870621
 40
0.9937788979
 40
0.9975009925
 40
1.0
 40
1.0
 40
1.0
 40
1.0
 10
6.2859790991
 20
5.1630726594
 30
0.0
 10
6.2885596795
 20
5.1631749483
 30
0.0
 10
6.2933835988
 20
5.163376488
 30
0.0
 10
6.3001100726
 20
5.1636972024
 30
0.0
 10
6.3050789239
 20
5.1639729158
 30
0.0
 10
6.308541889
 20
5.1641957507
 30
0.0
 10
6.3107535896
 20
5.1643537148
 30
0.0
 10
6.3127066309
 20
5.1645105252
 30
0.0
 10
6.3144001913
 20
5.1646659617
 30
0.0
 10
6.3158337043
 20
5.1648199045
 30
0.0
 10
6.3168649293
 20
5.16495329
 30
0.0
 10
6.3175590716
 20
5.1650623116
 30
0.0
 10
6.3179827687
 20
5.1651388357
 30
0.0
 10
6.3183415511
 20
5.1652148718
 30
0.0
 10
6.3186354304
 20
5.1652906467
 30
0.0
 10
6.3188652686
 20
5.1653650713
 30
0.0
 10
6.3190311788
 20
5.165440282
 30
0.0
 10
6.3191396876
 20
5.1655122901
 30
0.0
 10
6.3191758063
 20
5.1655789656
 30
0.0
 10
6.3191758061
 20
5.1656067899
 30
0.0
  0
SPLINE
  5
3FD
100
AcDbEntity
  8
0
100
AcDbSpline
 62
7
  6
CONTINUOUS
 70
0
 71
3
 72
33
 73
29
 74
0
 42
0.0000001
 43
0.0000001
 44
0.0000000001
 40
0.0
 40
0.0
 40
0.0
 40
0.0
 40
0.0004647028
 40
0.0010699418
 40
0.0027071548
 40
0.0049173632
 40
0.0077021453
 40
0.0110601032
 40
0.0149888514
 40
0.0194858047
 40
0.0245482692
 40
0.0363586362
 40
0.0503975075
 40
0.0666369358
 40
0.0850343656
 40
0.1055446313
 40
0.1281225106
 40
0.1527212231
 40
0.1792814062
 40
0.2380238402
 40
0.3038169022
 40
0.3760476165
 40
0.4540534637
 40
0.5371092734
 40
0.6244323404
 40
0.7152298316
 40
0.8086969647
 40
1.0
 40
1.0
 40
1.0
 40
1.0
 10
4.5774847289
 20
5.1368494799
 30
0.0
 10
4.5776129499
 20
5.1368913779
 30
0.0
 10
4.5779138337
 20
5.1369701294
 30
0.0
 10
4.5786842116
 20
5.1371257841
 30
0.0
 10
4.5799644604
 20
5.1373092716
 30
0.0
 10
4.5818780406
 20
5.1375201919
 30
0.0
 10
4.5842934479
 20
5.1377342433
 30
0.0
 10
4.5872089119
 20
5.1379516764
 30
0.0
 10
4.5906224366
 20
5.1381713448
 30
0.0
 10
4.5945314944
 20
5.1383929989
 30
0.0
 10
4.6007267408
 20
5.1387069928
 30
0.0
 10
4.6096914454
 20
5.1390946536
 30
0.0
 10
4.6219006173
 20
5.1395441662
 30
0.0
 10
4.6360229014
 20
5.1399961329
 30
0.0
 10
4.6520244807
 20
5.14044939
 30
0.0
 10
4.6698666343
 20
5.1409023245
 30
0.0
 10
4.6895094411
 20
5.1413535695
 30
0.0
 10
4.7109088922
 20
5.1418016218
 30
0.0
 10
4.742804894
 20
5.1424149457
 30
0.0
 10
4.7866582657
 20
5.1431619057
 30
0.0
 10
4.8437687599
 20
5.1440128988
 30
0.0
 10
4.906471561
 20
5.1448622913
 30
0.0
 10
4.9741854303
 20
5.1457381524
 30
0.0
 10
5.0462802745
 20
5.1466416728
 30
0.0
 10
5.1220884202
 20
5.1475538236
 30
0.0
 10
5.2009189897
 20
5.1484624773
 30
0.0
 10
5.309931223
 20
5.1496641083
 30
0.0
 10
5.3925892049
 20
5.1505174108
 30
0.0
 10
5.448117236
 20
5.1510888806
 30
0.0
  0
SPLINE
  5
3FE
100
AcDbEntity
  8
0
100
AcDbSpline
 62
7
  6
CONTINUOUS
 70
0
 71
3
 72
19
 73
15
 74
0
 42
0.0000001
 43
0.0000001
 44
0.0000000001
 40
0.0
 40
0.0
 40
0.0
 40
0.0
 40
0.1673637048
 40
0.3304340151
 40
0.4848161553
 40
0.6265746892
 40
0.691532161
 40
0.7519751997
 40
0.8075003662
 40
0.8577508061
 40
0.9024020328
 40
0.9411496329
 40
0.973755987
 40
1.0
 40
1.0
 40
1.0
 40
1.0
 10
5.448117236
 20
5.2091597467
 30
0.0
 10
5.4948627579
 20
5.2096408308
 30
0.0
 10
5.5871546172
 20
5.2105926398
 30
0.0
 10
5.722565186
 20
5.212082984
 30
0.0
 10
5.8508228644
 20
5.2136074444
 30
0.0
 10
5.9516766329
 20
5.2148861013
 30
0.0
 10
6.0262928722
 20
5.215876757
 30
0.0
 10
6.0768239589
 20
5.2165910918
 30
0.0
 10
6.1232465164
 20
5.2173136882
 30
0.0
 10
6.1652573147
 20
5.218048684
 30
0.0
 10
6.202580827
 20
5.2187928717
 30
0.0
 10
6.2349747369
 20
5.2195447783
 30
0.0
 10
6.2622254726
 20
5.2202971504
 30
0.0
 10
6.2786543784
 20
5.2208531887
 30
0.0
 10
6.2859790991
 20
5.2211435256
 30
0.0
  0
SPLINE
  5
3FF
100
AcDbEntity
  8
0
100
AcDbSpline
 62
7
  6
CONTINUOUS
 70
0
 71
3
 72
24
 73
20
 74
0
 42
0.0000001
 43
0.0000001
 44
0.0000000001
 40
0.0
 40
0.0
 40
0.0
 40
0.0
 40
0.2319539837
 40
0.4336305223
 40
0.6048135371
 40
0.678904413
 40
0.745294191
 40
0.8039588917
 40
0.8548764892
 40
0.8980338211
 40
0.9334433239
 40
0.9482519829
 40
0.9611373785
 40
0.9721091383
 40
0.9811829819
 40
0.9883870621
 40
0.9937788979
 40
0.9975009925
 40
1.0
 40
1.0
 40
1.0
 40
1.0
 10
6.2859790991
 20
5.2211435256
 30
0.0
 10
6.2885596795
 20
5.2212458145
 30
0.0
 10
6.2933835988
 20
5.2214473542
 30
0.0
 10
6.3001100726
 20
5.2217680685
 30
0.0
 10
6.3050789239
 20
5.222043782
 30
0.0
 10
6.308541889
 20
5.2222666168
 30
0.0
 10
6.3107535896
 20
5.222424581
 30
0.0
 10
6.3127066309
 20
5.2225813913
 30
0.0
 10
6.3144001913
 20
5.2227368278
 30
0.0
 10
6.3158337043
 20
5.2228907706
 30
0.0
 10
6.3168649293
 20
5.2230241561
 30
0.0
 10
6.3175590716
 20
5.2231331777
 30
0.0
 10
6.3179827687
 20
5.2232097018
 30
0.0
 10
6.3183415511
 20
5.2232857379
 30
0.0
 10
6.3186354304
 20
5.2233615128
 30
0.0
 10
6.3188652686
 20
5.2234359374
 30
0.0
 10
6.3190311788
 20
5.2235111481
 30
0.0
 10
6.3191396876
 20
5.2235831562
 30
0.0
 10
6.3191758063
 20
5.2236498317
 30
0.0
 10
6.3191758061
 20
5.223677656
 30
0.0
  0
SPLINE
  5
400
100
AcDbEntity
  8
0
100
AcDbSpline
 62
7
  6
CONTINUOUS
 70
0
 71
3
 72
19
 73
15
 74
0
 42
0.0000001
 43
0.0000001
 44
0.0000000001
 40
0.0
 40
0.0
 40
0.0
 40
0.0
 40
0.1673637048
 40
0.3304340151
 40
0.4848161553
 40
0.6265746892
 40
0.691532161
 40
0.7519751997
 40
0.8075003662
 40
0.8577508061
 40
0.9024020328
 40
0.9411496329
 40
0.973755987
 40
1.0
 40
1.0
 40
1.0
 40
1.0
 10
5.448117236
 20
6.1963644711
 30
0.0
 10
5.4948627579
 20
6.1968455552
 30
0.0
 10
5.5871546172
 20
6.1977973642
 30
0.0
 10
5.722565186
 20
6.1992877084
 30
0.0
 10
5.8508228644
 20
6.2008121688
 30
0.0
 10
5.9516766329
 20
6.2020908257
 30
0.0
 10
6.0262928722
 20
6.2030814814
 30
0.0
 10
6.0768239589
 20
6.2037958162
 30
0.0
 10
6.1232465164
 20
6.2045184126
 30
0.0
 10
6.1652573147
 20
6.2052534084
 30
0.0
 10
6.202580827
 20
6.2059975961
 30
0.0
 10
6.2349747369
 20
6.2067495027
 30
0.0
 10
6.2622254726
 20
6.2075018748
 30
0.0
 10
6.2786543784
 20
6.2080579131
 30
0.0
 10
6.2859790991
 20
6.20834825
 30
0.0
  0
SPLINE
  5
401
100
AcDbEntity
  8
0
100
AcDbSpline
 62
7
  6
CONTINUOUS
 70
0
 71
3
 72
24
 73
20
 74
0
 42
0.0000001
 43
0.0000001
 44
0.0000000001
 40
0.0
 40
0.0
 40
0.0
 40
0.0
 40
0.2319539837
 40
0.4336305223
 40
0.6048135371
 40
0.678904413
 40
0.745294191
 40
0.8039588917
 40
0.8548764892
 40
0.8980338211
 40
0.9334433239
 40
0.9482519829
 40
0.9611373785
 40
0.9721091383
 40
0.9811829819
 40
0.9883870621
 40
0.9937788979
 40
0.9975009925
 40
1.0
 40
1.0
 40
1.0
 40
1.0
 10
6.2859790991
 20
6.20834825
 30
0.0
 10
6.2885596795
 20
6.2084505389
 30
0.0
 10
6.2933835988
 20
6.2086520786
 30
0.0
 10
6.3001100726
 20
6.2089727929
 30
0.0
 10
6.3050789239
 20
6.2092485064
 30
0.0
 10
6.308541889
 20
6.2094713413
 30
0.0
 10
6.3107535896
 20
6.2096293054
 30
0.0
 10
6.3127066309
 20
6.2097861157
 30
0.0
 10
6.3144001913
 20
6.2099415522
 30
0.0
 10
6.3158337043
 20
6.210095495
 30
0.0
 10
6.3168649293
 20
6.2102288805
 30
0.0
 10
6.3175590716
 20
6.2103379021
 30
0.0
 10
6.3179827687
 20
6.2104144262
 30
0.0
 10
6.3183415511
 20
6.2104904623
 30
0.0
 10
6.3186354304
 20
6.2105662372
 30
0.0
 10
6.3188652686
 20
6.2106406618
 30
0.0
 10
6.3190311788
 20
6.2107158725
 30
0.0
 10
6.3191396876
 20
6.2107878806
 30
0.0
 10
6.3191758063
 20
6.2108545561
 30
0.0
 10
6.3191758061
 20
6.2108823804
 30
0.0
  0
SPLINE
  5
402
100
AcDbEntity
  8
0
100
AcDbSpline
 62
7
  6
CONTINUOUS
 70
0
 71
3
 72
33
 73
29
 74
0
 42
0.0000001
 43
0.0000001
 44
0.0000000001
 40
0.0
 40
0.0
 40
0.0
 40
0.0
 40
0.0004647028
 40
0.0010699418
 40
0.0027071548
 40
0.0049173632
 40
0.0077021453
 40
0.0110601032
 40
0.0149888514
 40
0.0194858047
 40
0.0245482692
 40
0.0363586362
 40
0.0503975075
 40
0.0666369358
 40
0.0850343656
 40
0.1055446313
 40
0.1281225106
 40
0.1527212231
 40
0.1792814062
 40
0.2380238402
 40
0.3038169022
 40
0.3760476165
 40
0.4540534637
 40
0.5371092734
 40
0.6244323404
 40
0.7152298316
 40
0.8086969647
 40
1.0
 40
1.0
 40
1.0
 40
1.0
 10
4.5774847289
 20
5.194920346
 30
0.0
 10
4.5776129499
 20
5.1949622441
 30
0.0
 10
4.5779138337
 20
5.1950409955
 30
0.0
 10
4.5786842116
 20
5.1951966502
 30
0.0
 10
4.5799644604
 20
5.1953801377
 30
0.0
 10
4.5818780406
 20
5.195591058
 30
0.0
 10
4.5842934479
 20
5.1958051094
 30
0.0
 10
4.5872089119
 20
5.1960225425
 30
0.0
 10
4.5906224366
 20
5.1962422109
 30
0.0
 10
4.5945314944
 20
5.196463865
 30
0.0
 10
4.6007267408
 20
5.1967778589
 30
0.0
 10
4.6096914454
 20
5.1971655197
 30
0.0
 10
4.6219006173
 20
5.1976150324
 30
0.0
 10
4.6360229014
 20
5.198066999
 30
0.0
 10
4.6520244807
 20
5.1985202561
 30
0.0
 10
4.6698666343
 20
5.1989731907
 30
0.0
 10
4.6895094411
 20
5.1994244357
 30
0.0
 10
4.7109088922
 20
5.199872488
 30
0.0
 10
4.742804894
 20
5.2004858119
 30
0.0
 10
4.7866582657
 20
5.2012327718
 30
0.0
 10
4.8437687599
 20
5.2020837649
 30
0.0
 10
4.906471561
 20
5.2029331575
 30
0.0
 10
4.9741854303
 20
5.2038090186
 30
0.0
 10
5.0462802745
 20
5.2047125389
 30
0.0
 10
5.1220884202
 20
5.2056246897
 30
0.0
 10
5.2009189897
 20
5.2065333434
 30
0.0
 10
5.309931223
 20
5.2077349745
 30
0.0
 10
5.3925892049
 20
5.2085882769
 30
0.0
 10
5.448117236
 20
5.2091597467
 30
0.0
  0
SPLINE
  5
403
100
AcDbEntity
  8
0
100
AcDbSpline
 62
7
  6
CONTINUOUS
 70
0
 71
3
 72
19
 73
15
 74
0
 42
0.0000001
 43
0.0000001
 44
0.0000000001
 40
0.0
 40
0.0
 40
0.0
 40
0.0
 40
0.1673637048
 40
0.3304340151
 40
0.4848161553
 40
0.6265746892
 40
0.691532161
 40
0.7519751997
 40
0.8075003662
 40
0.8577508061
 40
0.9024020328
 40
0.9411496329
 40
0.973755987
 40
1.0
 40
1.0
 40
1.0
 40
1.0
 10
5.448117236
 20
6.138293605
 30
0.0
 10
5.4948627579
 20
6.1387746891
 30
0.0
 10
5.5871546172
 20
6.139726498
 30
0.0
 10
5.722565186
 20
6.1412168423
 30
0.0
 10
5.8508228644
 20
6.1427413027
 30
0.0
 10
5.9516766329
 20
6.1440199595
 30
0.0
 10
6.0262928722
 20
6.1450106153
 30
0.0
 10
6.0768239589
 20
6.14572495
 30
0.0
 10
6.1232465164
 20
6.1464475465
 30
0.0
 10
6.1652573147
 20
6.1471825422
 30
0.0
 10
6.202580827
 20
6.14792673
 30
0.0
 10
6.2349747369
 20
6.1486786366
 30
0.0
 10
6.2622254726
 20
6.1494310087
 30
0.0
 10
6.2786543784
 20
6.149987047
 30
0.0
 10
6.2859790991
 20
6.1502773839
 30
0.0
  0
SPLINE
  5
404
100
AcDbEntity
  8
0
100
AcDbSpline
 62
7
  6
CONTINUOUS
 70
0
 71
3
 72
24
 73
20
 74
0
 42
0.0000001
 43
0.0000001
 44
0.0000000001
 40
0.0
 40
0.0
 40
0.0
 40
0.0
 40
0.2319539837
 40
0.4336305223
 40
0.6048135371
 40
0.678904413
 40
0.745294191
 40
0.8039588917
 40
0.8548764892
 40
0.8980338211
 40
0.9334433239
 40
0.9482519829
 40
0.9611373785
 40
0.9721091383
 40
0.9811829819
 40
0.9883870621
 40
0.9937788979
 40
0.9975009925
 40
1.0
 40
1.0
 40
1.0
 40
1.0
 10
6.2859790991
 20
6.1502773839
 30
0.0
 10
6.2885596795
 20
6.1503796728
 30
0.0
 10
6.2933835988
 20
6.1505812124
 30
0.0
 10
6.3001100726
 20
6.1509019268
 30
0.0
 10
6.3050789239
 20
6.1511776402
 30
0.0
 10
6.308541889
 20
6.1514004751
 30
0.0
 10
6.3107535896
 20
6.1515584393
 30
0.0
 10
6.3127066309
 20
6.1517152496
 30
0.0
 10
6.3144001913
 20
6.1518706861
 30
0.0
 10
6.3158337043
 20
6.1520246289
 30
0.0
 10
6.3168649293
 20
6.1521580144
 30
0.0
 10
6.3175590716
 20
6.152267036
 30
0.0
 10
6.3179827687
 20
6.1523435601
 30
0.0
 10
6.3183415511
 20
6.1524195962
 30
0.0
 10
6.3186354304
 20
6.1524953711
 30
0.0
 10
6.3188652686
 20
6.1525697957
 30
0.0
 10
6.3190311788
 20
6.1526450064
 30
0.0
 10
6.3191396876
 20
6.1527170145
 30
0.0
 10
6.3191758063
 20
6.15278369
 30
0.0
 10
6.3191758061
 20
6.1528115143
 30
0.0
  0
SPLINE
  5
405
100
AcDbEntity
  8
0
100
AcDbSpline
 62
7
  6
CONTINUOUS
 70
0
 71
3
 72
19
 73
15
 74
0
 42
0.0000001
 43
0.0000001
 44
0.0000000001
 40
0.0
 40
0.0
 40
0.0
 40
0.0
 40
0.1673637048
 40
0.3304340151
 40
0.4848161553
 40
0.6265746892
 40
0.691532161
 40
0.7519751997
 40
0.8075003662
 40
0.8577508061
 40
0.9024020328
 40
0.9411496329
 40
0.973755987
 40
1.0
 40
1.0
 40
1.0
 40
1.0
 10
5.448117236
 20
6.0802227388
 30
0.0
 10
5.4948627579
 20
6.0807038229
 30
0.0
 10
5.5871546172
 20
6.0816556319
 30
0.0
 10
5.722565186
 20
6.0831459762
 30
0.0
 10
5.8508228644
 20
6.0846704365
 30
0.0
 10
5.9516766329
 20
6.0859490934
 30
0.0
 10
6.0262928722
 20
6.0869397491
 30
0.0
 10
6.0768239589
 20
6.0876540839
 30
0.0
 10
6.1232465164
 20
6.0883766803
 30
0.0
 10
6.1652573147
 20
6.0891116761
 30
0.0
 10
6.202580827
 20
6.0898558638
 30
0.0
 10
6.2349747369
 20
6.0906077704
 30
0.0
 10
6.2622254726
 20
6.0913601425
 30
0.0
 10
6.2786543784
 20
6.0919161808
 30
0.0
 10
6.2859790991
 20
6.0922065177
 30
0.0
  0
SPLINE
  5
406
100
AcDbEntity
  8
0
100
AcDbSpline
 62
7
  6
CONTINUOUS
 70
0
 71
3
 72
24
 73
20
 74
0
 42
0.0000001
 43
0.0000001
 44
0.0000000001
 40
0.0
 40
0.0
 40
0.0
 40
0.0
 40
0.2319539837
 40
0.4336305223
 40
0.6048135371
 40
0.678904413
 40
0.745294191
 40
0.8039588917
 40
0.8548764892
 40
0.8980338211
 40
0.9334433239
 40
0.9482519829
 40
0.9611373785
 40
0.9721091383
 40
0.9811829819
 40
0.9883870621
 40
0.9937788979
 40
0.9975009925
 40
1.0
 40
1.0
 40
1.0
 40
1.0
 10
6.2859790991
 20
6.0922065177
 30
0.0
 10
6.2885596795
 20
6.0923088066
 30
0.0
 10
6.2933835988
 20
6.0925103463
 30
0.0
 10
6.3001100726
 20
6.0928310606
 30
0.0
 10
6.3050789239
 20
6.0931067741
 30
0.0
 10
6.308541889
 20
6.093329609
 30
0.0
 10
6.3107535896
 20
6.0934875731
 30
0.0
 10
6.3127066309
 20
6.0936443834
 30
0.0
 10
6.3144001913
 20
6.09379982
 30
0.0
 10
6.3158337043
 20
6.0939537627
 30
0.0
 10
6.3168649293
 20
6.0940871482
 30
0.0
 10
6.3175590716
 20
6.0941961698
 30
0.0
 10
6.3179827687
 20
6.0942726939
 30
0.0
 10
6.3183415511
 20
6.09434873
 30
0.0
 10
6.3186354304
 20
6.0944245049
 30
0.0
 10
6.3188652686
 20
6.0944989295
 30
0.0
 10
6.3190311788
 20
6.0945741402
 30
0.0
 10
6.3191396876
 20
6.0946461483
 30
0.0
 10
6.3191758063
 20
6.0947128239
 30
0.0
 10
6.3191758061
 20
6.0947406482
 30
0.0
  0
SPLINE
  5
407
100
AcDbEntity
  8
0
100
AcDbSpline
 62
7
  6
CONTINUOUS
 70
0
 71
3
 72
19
 73
15
 74
0
 42
0.0000001
 43
0.0000001
 44
0.0000000001
 40
0.0
 40
0.0
 40
0.0
 40
0.0
 40
0.1673637048
 40
0.3304340151
 40
0.4848161553
 40
0.6265746892
 40
0.691532161
 40
0.7519751997
 40
0.8075003662
 40
0.8577508061
 40
0.9024020328
 40
0.9411496329
 40
0.973755987
 40
1.0
 40
1.0
 40
1.0
 40
1.0
 10
5.448117236
 20
5.4414432113
 30
0.0
 10
5.4948627579
 20
5.4419242954
 30
0.0
 10
5.5871546172
 20
5.4428761043
 30
0.0
 10
5.722565186
 20
5.4443664486
 30
0.0
 10
5.8508228644
 20
5.445890909
 30
0.0
 10
5.9516766329
 20
5.4471695658
 30
0.0
 10
6.0262928722
 20
5.4481602216
 30
0.0
 10
6.0768239589
 20
5.4488745563
 30
0.0
 10
6.1232465164
 20
5.4495971528
 30
0.0
 10
6.1652573147
 20
5.4503321485
 30
0.0
 10
6.202580827
 20
5.4510763363
 30
0.0
 10
6.2349747369
 20
5.4518282429
 30
0.0
 10
6.2622254726
 20
5.452580615
 30
0.0
 10
6.2786543784
 20
5.4531366533
 30
0.0
 10
6.2859790991
 20
5.4534269901
 30
0.0
  0
SPLINE
  5
408
100
AcDbEntity
  8
0
100
AcDbSpline
 62
7
  6
CONTINUOUS
 70
0
 71
3
 72
24
 73
20
 74
0
 42
0.0000001
 43
0.0000001
 44
0.0000000001
 40
0.0
 40
0.0
 40
0.0
 40
0.0
 40
0.2319539837
 40
0.4336305223
 40
0.6048135371
 40
0.678904413
 40
0.745294191
 40
0.8039588917
 40
0.8548764892
 40
0.8980338211
 40
0.9334433239
 40
0.9482519829
 40
0.9611373785
 40
0.9721091383
 40
0.9811829819
 40
0.9883870621
 40
0.9937788979
 40
0.9975009925
 40
1.0
 40
1.0
 40
1.0
 40
1.0
 10
6.2859790991
 20
5.4534269901
 30
0.0
 10
6.2885596795
 20
5.4535292791
 30
0.0
 10
6.2933835988
 20
5.4537308187
 30
0.0
 10
6.3001100726
 20
5.4540515331
 30
0.0
 10
6.3050789239
 20
5.4543272465
 30
0.0
 10
6.308541889
 20
5.4545500814
 30
0.0
 10
6.3107535896
 20
5.4547080456
 30
0.0
 10
6.3127066309
 20
5.4548648559
 30
0.0
 10
6.3144001913
 20
5.4550202924
 30
0.0
 10
6.3158337043
 20
5.4551742352
 30
0.0
 10
6.3168649293
 20
5.4553076207
 30
0.0
 10
6.3175590716
 20
5.4554166423
 30
0.0
 10
6.3179827687
 20
5.4554931664
 30
0.0
 10
6.3183415511
 20
5.4555692025
 30
0.0
 10
6.3186354304
 20
5.4556449774
 30
0.0
 10
6.3188652686
 20
5.455719402
 30
0.0
 10
6.3190311788
 20
5.4557946127
 30
0.0
 10
6.3191396876
 20
5.4558666208
 30
0.0
 10
6.3191758063
 20
5.4559332963
 30
0.0
 10
6.3191758061
 20
5.4559611206
 30
0.0
  0
SPLINE
  5
409
100
AcDbEntity
  8
0
100
AcDbSpline
 62
7
  6
CONTINUOUS
 70
0
 71
3
 72
33
 73
29
 74
0
 42
0.0000001
 43
0.0000001
 44
0.0000000001
 40
0.0
 40
0.0
 40
0.0
 40
0.0
 40
0.0004647028
 40
0.0010699418
 40
0.0027071548
 40
0.0049173632
 40
0.0077021453
 40
0.0110601032
 40
0.0149888514
 40
0.0194858047
 40
0.0245482692
 40
0.0363586362
 40
0.0503975075
 40
0.0666369358
 40
0.0850343656
 40
0.1055446313
 40
0.1281225106
 40
0.1527212231
 40
0.1792814062
 40
0.2380238402
 40
0.3038169022
 40
0.3760476165
 40
0.4540534637
 40
0.5371092734
 40
0.6244323404
 40
0.7152298316
 40
0.8086969647
 40
1.0
 40
1.0
 40
1.0
 40
1.0
 10
4.5774847289
 20
5.2529912122
 30
0.0
 10
4.5776129499
 20
5.2530331102
 30
0.0
 10
4.5779138337
 20
5.2531118617
 30
0.0
 10
4.5786842116
 20
5.2532675164
 30
0.0
 10
4.5799644604
 20
5.2534510039
 30
0.0
 10
4.5818780406
 20
5.2536619241
 30
0.0
 10
4.5842934479
 20
5.2538759756
 30
0.0
 10
4.5872089119
 20
5.2540934087
 30
0.0
 10
4.5906224366
 20
5.2543130771
 30
0.0
 10
4.5945314944
 20
5.2545347312
 30
0.0
 10
4.6007267408
 20
5.2548487251
 30
0.0
 10
4.6096914454
 20
5.2552363859
 30
0.0
 10
4.6219006173
 20
5.2556858985
 30
0.0
 10
4.6360229014
 20
5.2561378652
 30
0.0
 10
4.6520244807
 20
5.2565911223
 30
0.0
 10
4.6698666343
 20
5.2570440568
 30
0.0
 10
4.6895094411
 20
5.2574953018
 30
0.0
 10
4.7109088922
 20
5.2579433541
 30
0.0
 10
4.742804894
 20
5.258556678
 30
0.0
 10
4.7866582657
 20
5.259303638
 30
0.0
 10
4.8437687599
 20
5.2601546311
 30
0.0
 10
4.906471561
 20
5.2610040236
 30
0.0
 10
4.9741854303
 20
5.2618798847
 30
0.0
 10
5.0462802745
 20
5.2627834051
 30
0.0
 10
5.1220884202
 20
5.2636955559
 30
0.0
 10
5.2009189897
 20
5.2646042096
 30
0.0
 10
5.309931223
 20
5.2658058406
 30
0.0
 10
5.3925892049
 20
5.2666591431
 30
0.0
 10
5.448117236
 20
5.2672306129
 30
0.0
  0
SPLINE
  5
40A
100
AcDbEntity
  8
0
100
AcDbSpline
 62
7
  6
CONTINUOUS
 70
0
 71
3
 72
33
 73
29
 74
0
 42
0.0000001
 43
0.0000001
 44
0.0000000001
 40
0.0
 40
0.0
 40
0.0
 40
0.0
 40
0.0004647028
 40
0.0010699418
 40
0.0027071548
 40
0.0049173632
 40
0.0077021453
 40
0.0110601032
 40
0.0149888514
 40
0.0194858047
 40
0.0245482692
 40
0.0363586362
 40
0.0503975075
 40
0.0666369358
 40
0.0850343656
 40
0.1055446313
 40
0.1281225106
 40
0.1527212231
 40
0.1792814062
 40
0.2380238402
 40
0.3038169022
 40
0.3760476165
 40
0.4540534637
 40
0.5371092734
 40
0.6244323404
 40
0.7152298316
 40
0.8086969647
 40
1.0
 40
1.0
 40
1.0
 40
1.0
 10
4.5774847289
 20
5.3691329445
 30
0.0
 10
4.5776129499
 20
5.3691748425
 30
0.0
 10
4.5779138337
 20
5.369253594
 30
0.0
 10
4.5786842116
 20
5.3694092487
 30
0.0
 10
4.5799644604
 20
5.3695927362
 30
0.0
 10
4.5818780406
 20
5.3698036564
 30
0.0
 10
4.5842934479
 20
5.3700177079
 30
0.0
 10
4.5872089119
 20
5.370235141
 30
0.0
 10
4.5906224366
 20
5.3704548093
 30
0.0
 10
4.5945314944
 20
5.3706764635
 30
0.0
 10
4.6007267408
 20
5.3709904573
 30
0.0
 10
4.6096914454
 20
5.3713781182
 30
0.0
 10
4.6219006173
 20
5.3718276308
 30
0.0
 10
4.6360229014
 20
5.3722795975
 30
0.0
 10
4.6520244807
 20
5.3727328546
 30
0.0
 10
4.6698666343
 20
5.3731857891
 30
0.0
 10
4.6895094411
 20
5.3736370341
 30
0.0
 10
4.7109088922
 20
5.3740850864
 30
0.0
 10
4.742804894
 20
5.3746984103
 30
0.0
 10
4.7866582657
 20
5.3754453702
 30
0.0
 10
4.8437687599
 20
5.3762963633
 30
0.0
 10
4.906471561
 20
5.3771457559
 30
0.0
 10
4.9741854303
 20
5.378021617
 30
0.0
 10
5.0462802745
 20
5.3789251374
 30
0.0
 10
5.1220884202
 20
5.3798372882
 30
0.0
 10
5.2009189897
 20
5.3807459419
 30
0.0
 10
5.309931223
 20
5.3819475729
 30
0.0
 10
5.3925892049
 20
5.3828008754
 30
0.0
 10
5.448117236
 20
5.3833723451
 30
0.0
  0
SPLINE
  5
40B
100
AcDbEntity
  8
0
100
AcDbSpline
 62
7
  6
CONTINUOUS
 70
0
 71
3
 72
18
 73
14
 74
0
 42
0.0000001
 43
0.0000001
 44
0.0000000001
 40
0.0
 40
0.0
 40
0.0
 40
0.0
 40
0.1672211534
 40
0.3301513549
 40
0.4844358276
 40
0.6261393295
 40
0.7515442231
 40
0.8070945904
 40
0.8573919118
 40
0.9021022244
 40
0.9409328868
 40
0.9736409365
 40
1.0
 40
1.0
 40
1.0
 40
1.0
 10
5.448117236
 20
5.4995140774
 30
0.0
 10
5.4947982369
 20
5.4999944975
 30
0.0
 10
5.5869624113
 20
5.5009411082
 30
0.0
 10
5.7221951405
 20
5.5024333095
 30
0.0
 10
5.8503032258
 20
5.5039571098
 30
0.0
 10
5.9679349542
 20
5.5054427805
 30
0.0
 10
6.0580040803
 20
5.506660997
 30
0.0
 10
6.1225556349
 20
5.5076598785
 30
0.0
 10
6.1645809931
 20
5.508385309
 30
0.0
 10
6.2019376348
 20
5.5091248955
 30
0.0
 10
6.2343824569
 20
5.5098785193
 30
0.0
 10
6.2617024064
 20
5.5106342549
 30
0.0
 10
6.2781831017
 20
5.5111916008
 30
0.0
 10
6.2855360958
 20
5.5114816833
 30
0.0
  0
SPLINE
  5
40C
100
AcDbEntity
  8
0
100
AcDbSpline
 62
7
  6
CONTINUOUS
 70
0
 71
3
 72
19
 73
15
 74
0
 42
0.0000001
 43
0.0000001
 44
0.0000000001
 40
0.0
 40
0.0
 40
0.0
 40
0.0
 40
0.2318948935
 40
0.4333064138
 40
0.6040432347
 40
0.7440076279
 40
0.8532059506
 40
0.9317075446
 40
0.959525443
 40
0.9706100994
 40
0.9798395477
 40
0.9872559898
 40
0.9929427923
 40
1.0
 40
1.0
 40
1.0
 40
1.0
 10
6.2986756174
 20
5.512059431
 30
0.0
 10
6.3002732024
 20
5.5121388755
 30
0.0
 10
6.3032579784
 20
5.5122952583
 30
0.0
 10
6.3074171817
 20
5.5125437216
 30
0.0
 10
6.3109411103
 20
5.512789251
 30
0.0
 10
6.3138276653
 20
5.513030589
 30
0.0
 10
6.3160752544
 20
5.5132683888
 30
0.0
 10
6.3175483693
 20
5.5134758578
 30
0.0
 10
6.3183416486
 20
5.513640319
 30
0.0
 10
6.3186624057
 20
5.5137273434
 30
0.0
 10
6.31884382
 20
5.5137866601
 30
0.0
 10
6.3189873054
 20
5.5138473705
 30
0.0
 10
6.3191052533
 20
5.5139127583
 30
0.0
 10
6.3191775922
 20
5.5139877895
 30
0.0
 10
6.3191779
 20
5.5140364676
 30
0.0
  0
SPLINE
  5
40D
100
AcDbEntity
  8
0
100
AcDbSpline
 62
7
  6
CONTINUOUS
 70
0
 71
3
 72
33
 73
29
 74
0
 42
0.0000001
 43
0.0000001
 44
0.0000000001
 40
0.0
 40
0.0
 40
0.0
 40
0.0
 40
0.0004647028
 40
0.0010699418
 40
0.0027071548
 40
0.0049173632
 40
0.0077021453
 40
0.0110601032
 40
0.0149888514
 40
0.0194858047
 40
0.0245482692
 40
0.0363586362
 40
0.0503975075
 40
0.0666369358
 40
0.0850343656
 40
0.1055446313
 40
0.1281225106
 40
0.1527212231
 40
0.1792814062
 40
0.2380238402
 40
0.3038169022
 40
0.3760476165
 40
0.4540534637
 40
0.5371092734
 40
0.6244323404
 40
0.7152298316
 40
0.8086969647
 40
1.0
 40
1.0
 40
1.0
 40
1.0
 10
4.5774847289
 20
5.4272038106
 30
0.0
 10
4.5776129499
 20
5.4272457086
 30
0.0
 10
4.5779138337
 20
5.4273244601
 30
0.0
 10
4.5786842116
 20
5.4274801148
 30
0.0
 10
4.5799644604
 20
5.4276636023
 30
0.0
 10
4.5818780406
 20
5.4278745226
 30
0.0
 10
4.5842934479
 20
5.428088574
 30
0.0
 10
4.5872089119
 20
5.4283060071
 30
0.0
 10
4.5906224366
 20
5.4285256755
 30
0.0
 10
4.5945314944
 20
5.4287473296
 30
0.0
 10
4.6007267408
 20
5.4290613235
 30
0.0
 10
4.6096914454
 20
5.4294489843
 30
0.0
 10
4.6219006173
 20
5.4298984969
 30
0.0
 10
4.6360229014
 20
5.4303504636
 30
0.0
 10
4.6520244807
 20
5.4308037207
 30
0.0
 10
4.6698666343
 20
5.4312566552
 30
0.0
 10
4.6895094411
 20
5.4317079002
 30
0.0
 10
4.7109088922
 20
5.4321559526
 30
0.0
 10
4.742804894
 20
5.4327692765
 30
0.0
 10
4.7866582657
 20
5.4335162364
 30
0.0
 10
4.8437687599
 20
5.4343672295
 30
0.0
 10
4.906471561
 20
5.435216622
 30
0.0
 10
4.9741854303
 20
5.4360924831
 30
0.0
 10
5.0462802745
 20
5.4369960035
 30
0.0
 10
5.1220884202
 20
5.4379081543
 30
0.0
 10
5.2009189897
 20
5.438816808
 30
0.0
 10
5.309931223
 20
5.440018439
 30
0.0
 10
5.3925892049
 20
5.4408717415
 30
0.0
 10
5.448117236
 20
5.4414432113
 30
0.0
  0
SPLINE
  5
40E
100
AcDbEntity
  8
0
100
AcDbSpline
 62
7
  6
CONTINUOUS
 70
0
 71
3
 72
33
 73
29
 74
0
 42
0.0000001
 43
0.0000001
 44
0.0000000001
 40
0.0
 40
0.0
 40
0.0
 40
0.0
 40
0.0004647028
 40
0.0010699418
 40
0.0027071548
 40
0.0049173632
 40
0.0077021453
 40
0.0110601032
 40
0.0149888514
 40
0.0194858047
 40
0.0245482692
 40
0.0363586362
 40
0.0503975075
 40
0.0666369358
 40
0.0850343656
 40
0.1055446313
 40
0.1281225106
 40
0.1527212231
 40
0.1792814062
 40
0.2380238402
 40
0.3038169022
 40
0.3760476165
 40
0.4540534637
 40
0.5371092734
 40
0.6244323404
 40
0.7152298316
 40
0.8086969647
 40
1.0
 40
1.0
 40
1.0
 40
1.0
 10
4.5774847289
 20
5.4852746767
 30
0.0
 10
4.5776129499
 20
5.4853165748
 30
0.0
 10
4.5779138337
 20
5.4853953262
 30
0.0
 10
4.5786842116
 20
5.4855509809
 30
0.0
 10
4.5799644604
 20
5.4857344684
 30
0.0
 10
4.5818780406
 20
5.4859453887
 30
0.0
 10
4.5842934479
 20
5.4861594402
 30
0.0
 10
4.5872089119
 20
5.4863768733
 30
0.0
 10
4.5906224366
 20
5.4865965416
 30
0.0
 10
4.5945314944
 20
5.4868181958
 30
0.0
 10
4.6007267408
 20
5.4871321896
 30
0.0
 10
4.6096914454
 20
5.4875198504
 30
0.0
 10
4.6219006173
 20
5.4879693631
 30
0.0
 10
4.6360229014
 20
5.4884213298
 30
0.0
 10
4.6520244807
 20
5.4888745869
 30
0.0
 10
4.6698666343
 20
5.4893275214
 30
0.0
 10
4.6895094411
 20
5.4897787664
 30
0.0
 10
4.7109088922
 20
5.4902268187
 30
0.0
 10
4.742804894
 20
5.4908401426
 30
0.0
 10
4.7866582657
 20
5.4915871025
 30
0.0
 10
4.8437687599
 20
5.4924380956
 30
0.0
 10
4.906471561
 20
5.4932874882
 30
0.0
 10
4.9741854303
 20
5.4941633493
 30
0.0
 10
5.0462802745
 20
5.4950668697
 30
0.0
 10
5.1220884202
 20
5.4959790204
 30
0.0
 10
5.2009189897
 20
5.4968876741
 30
0.0
 10
5.309931223
 20
5.4980893052
 30
0.0
 10
5.3925892049
 20
5.4989426077
 30
0.0
 10
5.448117236
 20
5.4995140774
 30
0.0
  0
SPLINE
  5
40F
100
AcDbEntity
  8
0
100
AcDbSpline
 62
7
  6
CONTINUOUS
 70
0
 71
3
 72
13
 73
9
 74
0
 42
0.0000001
 43
0.0000001
 44
0.0000000001
 40
0.0
 40
0.0
 40
0.0
 40
0.0
 40
0.2854773695
 40
0.5562980434
 40
0.681840517
 40
0.7986212396
 40
0.9051304832
 40
1.0
 40
1.0
 40
1.0
 40
1.0
 10
5.448117236
 20
4.7330461793
 30
0.0
 10
5.3827950866
 20
4.7323739129
 30
0.0
 10
5.2555045511
 20
4.7310569631
 30
0.0
 10
5.0994897275
 20
4.7292585914
 30
0.0
 10
4.9820764199
 20
4.7277976772
 30
0.0
 10
4.9022599648
 20
4.7267666528
 30
0.0
 10
4.8294625107
 20
4.7257721079
 30
0.0
 10
4.7833866123
 20
4.7250580361
 30
0.0
 10
4.7616808282
 20
4.7246883256
 30
0.0
  0
LINE
  5
410
100
AcDbEntity
  8
0
100
AcDbLine
 62
7
  6
CONTINUOUS
 10
4.7616808282
 20
4.7246883256
 11
4.7540665587
 21
4.724557235
  0
LINE
  5
411
100
AcDbEntity
  8
0
100
AcDbLine
 62
7
  6
CONTINUOUS
 10
4.7540665587
 20
4.724557235
 11
4.7359736044
 21
4.7242336678
  0
LINE
  5
412
100
AcDbEntity
  8
0
100
AcDbLine
 62
7
  6
CONTINUOUS
 10
4.7359736044
 20
4.7242336678
 11
4.7259474546
 21
4.7240462225
  0
LINE
  5
413
100
AcDbEntity
  8
0
100
AcDbLine
 62
7
  6
CONTINUOUS
 10
4.7259474546
 20
4.7240462225
 11
4.7119351872
 21
4.7237731075
  0
SPLINE
  5
414
100
AcDbEntity
  8
0
100
AcDbSpline
 62
7
  6
CONTINUOUS
 70
0
 71
3
 72
11
 73
7
 74
0
 42
0.0000001
 43
0.0000001
 44
0.0000000001
 40
0.0
 40
0.0
 40
0.0
 40
0.0
 40
0.3095186537
 40
0.5802188622
 40
0.8108011635
 40
1.0
 40
1.0
 40
1.0
 40
1.0
 10
4.7119351872
 20
4.7237731075
 30
0.0
 10
4.7014465328
 20
4.7235633864
 30
0.0
 10
4.6817851115
 20
4.7231471675
 30
0.0
 10
4.6543121069
 20
4.722477378
 30
0.0
 10
4.6309186036
 20
4.7218081288
 30
0.0
 10
4.6166989271
 20
4.7213176827
 30
0.0
 10
4.6102912938
 20
4.7210638271
 30
0.0
  0
SPLINE
  5
415
100
AcDbEntity
  8
0
100
AcDbSpline
 62
7
  6
CONTINUOUS
 70
0
 71
3
 72
24
 73
20
 74
0
 42
0.0000001
 43
0.0000001
 44
0.0000000001
 40
0.0
 40
0.0
 40
0.0
 40
0.0
 40
0.2319539033
 40
0.4336307975
 40
0.6048144679
 40
0.6789057395
 40
0.7452959337
 40
0.8039610506
 40
0.8548790421
 40
0.8980366712
 40
0.9334463115
 40
0.9482549697
 40
0.9611403102
 40
0.972111951
 40
0.9811855959
 40
0.9883893706
 40
0.9937807429
 40
0.9975021125
 40
1.0
 40
1.0
 40
1.0
 40
1.0
 10
4.6102912938
 20
4.7210638271
 30
0.0
 10
4.6077079351
 20
4.7209614805
 30
0.0
 10
4.6028788172
 20
4.7207598265
 30
0.0
 10
4.5961450865
 20
4.7204389296
 30
0.0
 10
4.5911708646
 20
4.7201630588
 30
0.0
 10
4.5877041492
 20
4.7199400969
 30
0.0
 10
4.585490049
 20
4.7197820428
 30
0.0
 10
4.5835348859
 20
4.7196251432
 30
0.0
 10
4.5818394833
 20
4.7194696186
 30
0.0
 10
4.58040441
 20
4.7193155892
 30
0.0
 10
4.5793720615
 20
4.7191821294
 30
0.0
 10
4.5786771624
 20
4.7190730474
 30
0.0
 10
4.5782530041
 20
4.7189964812
 30
0.0
 10
4.5778938314
 20
4.7189204036
 30
0.0
 10
4.5775996328
 20
4.718844587
 30
0.0
 10
4.5773695457
 20
4.7187701236
 30
0.0
 10
4.5772034571
 20
4.7186948711
 30
0.0
 10
4.5770948343
 20
4.7186228338
 30
0.0
 10
4.5770586657
 20
4.7185561127
 30
0.0
 10
4.577058666
 20
4.718528271
 30
0.0
  0
SPLINE
  5
416
100
AcDbEntity
  8
0
100
AcDbSpline
 62
7
  6
CONTINUOUS
 70
0
 71
3
 72
33
 73
29
 74
0
 42
0.0000001
 43
0.0000001
 44
0.0000000001
 40
0.0
 40
0.0
 40
0.0
 40
0.0
 40
0.0004649033
 40
0.0010704761
 40
0.0027089539
 40
0.0049207816
 40
0.0077058704
 40
0.0110628594
 40
0.0149899577
 40
0.019485164
 40
0.0245463623
 40
0.0363579052
 40
0.0504008783
 40
0.0666385058
 40
0.0850321907
 40
0.1055431596
 40
0.1281258408
 40
0.1527237741
 40
0.1792794943
 40
0.23802609
 40
0.3038168652
 40
0.3760489036
 40
0.4540505994
 40
0.537107576
 40
0.6244389499
 40
0.7152359328
 40
0.8086859585
 40
1.0
 40
1.0
 40
1.0
 40
1.0
 10
4.5774824954
 20
6.0659924685
 30
0.0
 10
4.5776107198
 20
6.0660345439
 30
0.0
 10
4.5779116989
 20
6.0661135733
 30
0.0
 10
4.5786825424
 20
6.0662695794
 30
0.0
 10
4.5799637691
 20
6.0664529536
 30
0.0
 10
4.581878387
 20
6.0666629505
 30
0.0
 10
4.58429425
 20
6.066875089
 30
0.0
 10
4.5872092454
 20
6.0670898254
 30
0.0
 10
4.5906217091
 20
6.0673063091
 30
0.0
 10
4.5945296055
 20
6.0675246064
 30
0.0
 10
4.600724553
 20
6.0678341019
 30
0.0
 10
4.6096906047
 20
6.0682176527
 30
0.0
 10
4.6219008392
 20
6.0686661032
 30
0.0
 10
4.6360226695
 20
6.0691197778
 30
0.0
 10
4.6520227738
 20
6.069576348
 30
0.0
 10
4.6698653726
 20
6.0700330239
 30
0.0
 10
4.6895095055
 20
6.0704876701
 30
0.0
 10
4.7109087953
 20
6.0709389741
 30
0.0
 10
4.7428044788
 20
6.0715553532
 30
0.0
 10
4.7866572666
 20
6.0722969549
 30
0.0
 10
4.8437688059
 20
6.0731458941
 30
0.0
 10
4.9064701601
 20
6.0740000863
 30
0.0
 10
4.9741837246
 20
6.0748708392
 30
0.0
 10
5.0462802792
 20
6.075770396
 30
0.0
 10
5.1220911194
 20
6.076685091
 30
0.0
 10
5.2009190829
 20
6.0775964838
 30
0.0
 10
5.3099295323
 20
6.078801991
 30
0.0
 10
5.3925859201
 20
6.0796512353
 30
0.0
 10
5.448117236
 20
6.0802227388
 30
0.0
  0
LINE
  5
417
100
AcDbEntity
  8
0
100
AcDbLine
 62
7
  6
CONTINUOUS
 10
4.8007555479
 20
4.6672502768
 11
4.7616808282
 21
4.6666174594
  0
SPLINE
  5
418
100
AcDbEntity
  8
0
100
AcDbSpline
 62
7
  6
CONTINUOUS
 70
0
 71
3
 72
12
 73
8
 74
0
 42
0.0000001
 43
0.0000001
 44
0.0000000001
 40
0.0
 40
0.0
 40
0.0
 40
0.0
 40
0.3199718617
 40
0.5948920733
 40
0.8222612402
 40
0.9174603697
 40
1.0
 40
1.0
 40
1.0
 40
1.0
 10
4.7604405494
 20
4.6665962975
 30
0.0
 10
4.7444235104
 20
4.6663225392
 30
0.0
 10
4.7146451406
 20
4.6657807095
 30
0.0
 10
4.6734880924
 20
4.6648964011
 30
0.0
 10
4.6435847709
 20
4.6641183891
 30
0.0
 10
4.6233131046
 20
4.663478666
 30
0.0
 10
4.6144203979
 20
4.6631565465
 30
0.0
 10
4.6102912938
 20
4.662992961
 30
0.0
  0
SPLINE
  5
419
100
AcDbEntity
  8
0
100
AcDbSpline
 62
7
  6
CONTINUOUS
 70
0
 71
3
 72
24
 73
20
 74
0
 42
0.0000001
 43
0.0000001
 44
0.0000000001
 40
0.0
 40
0.0
 40
0.0
 40
0.0
 40
0.2319539033
 40
0.4336307975
 40
0.6048144679
 40
0.6789057395
 40
0.7452959337
 40
0.8039610506
 40
0.8548790421
 40
0.8980366712
 40
0.9334463115
 40
0.9482549697
 40
0.9611403102
 40
0.972111951
 40
0.9811855959
 40
0.9883893706
 40
0.9937807429
 40
0.9975021125
 40
1.0
 40
1.0
 40
1.0
 40
1.0
 10
4.6102912938
 20
4.662992961
 30
0.0
 10
4.6077079351
 20
4.6628906143
 30
0.0
 10
4.6028788172
 20
4.6626889603
 30
0.0
 10
4.5961450865
 20
4.6623680634
 30
0.0
 10
4.5911708646
 20
4.6620921927
 30
0.0
 10
4.5877041492
 20
4.6618692308
 30
0.0
 10
4.585490049
 20
4.6617111766
 30
0.0
 10
4.5835348859
 20
4.6615542771
 30
0.0
 10
4.5818394833
 20
4.6613987524
 30
0.0
 10
4.58040441
 20
4.661244723
 30
0.0
 10
4.5793720615
 20
4.6611112632
 30
0.0
 10
4.5786771624
 20
4.6610021813
 30
0.0
 10
4.5782530041
 20
4.660925615
 30
0.0
 10
4.5778938314
 20
4.6608495374
 30
0.0
 10
4.5775996328
 20
4.6607737209
 30
0.0
 10
4.5773695457
 20
4.6606992574
 30
0.0
 10
4.5772034571
 20
4.6606240049
 30
0.0
 10
4.5770948343
 20
4.6605519677
 30
0.0
 10
4.5770586657
 20
4.6604852466
 30
0.0
 10
4.577058666
 20
4.6604574049
 30
0.0
  0
SPLINE
  5
41A
100
AcDbEntity
  8
0
100
AcDbSpline
 62
7
  6
CONTINUOUS
 70
0
 71
3
 72
14
 73
10
 74
0
 42
0.0000001
 43
0.0000001
 44
0.0000000001
 40
0.0
 40
0.0
 40
0.0
 40
0.0
 40
0.2898587467
 40
0.4295988455
 40
0.5631879151
 40
0.6887593104
 40
0.8044899277
 40
0.9087362609
 40
1.0
 40
1.0
 40
1.0
 40
1.0
 10
5.448117236
 20
4.7911170454
 30
0.0
 10
5.3793361227
 20
4.7904091809
 30
0.0
 10
5.277395873
 20
4.7893538209
 30
0.0
 10
5.1437574773
 20
4.7878390736
 30
0.0
 10
5.0491033694
 20
4.7867080341
 30
0.0
 10
4.9601471042
 20
4.7855887439
 30
0.0
 10
4.8781539345
 20
4.78451894
 30
0.0
 10
4.8043025143
 20
4.7834741107
 30
0.0
 10
4.757913362
 20
4.7827076321
 30
0.0
 10
4.7362597296
 20
4.7823097933
 30
0.0
  0
LINE
  5
41B
100
AcDbEntity
  8
0
100
AcDbLine
 62
7
  6
CONTINUOUS
 10
4.7362597296
 20
4.7823097933
 11
4.7259474546
 21
4.7821170887
  0
LINE
  5
41C
100
AcDbEntity
  8
0
100
AcDbLine
 62
7
  6
CONTINUOUS
 10
4.7259474546
 20
4.7821170887
 11
4.7116992193
 21
4.7818392533
  0
SPLINE
  5
41D
100
AcDbEntity
  8
0
100
AcDbSpline
 62
7
  6
CONTINUOUS
 70
0
 71
3
 72
11
 73
7
 74
0
 42
0.0000001
 43
0.0000001
 44
0.0000000001
 40
0.0
 40
0.0
 40
0.0
 40
0.0
 40
0.3094547658
 40
0.5801308226
 40
0.8107331351
 40
1.0
 40
1.0
 40
1.0
 40
1.0
 10
4.7116992193
 20
4.7818392533
 30
0.0
 10
4.7012370741
 20
4.7816298753
 30
0.0
 10
4.6816242733
 20
4.7812143293
 30
0.0
 10
4.654217348
 20
4.7805456856
 30
0.0
 10
4.6308759941
 20
4.7798775909
 30
0.0
 10
4.6166863528
 20
4.7793880507
 30
0.0
 10
4.6102912938
 20
4.7791346933
 30
0.0
  0
SPLINE
  5
41E
100
AcDbEntity
  8
0
100
AcDbSpline
 62
7
  6
CONTINUOUS
 70
0
 71
3
 72
24
 73
20
 74
0
 42
0.0000001
 43
0.0000001
 44
0.0000000001
 40
0.0
 40
0.0
 40
0.0
 40
0.0
 40
0.2319539033
 40
0.4336307975
 40
0.6048144679
 40
0.6789057395
 40
0.7452959337
 40
0.8039610506
 40
0.8548790421
 40
0.8980366712
 40
0.9334463115
 40
0.9482549697
 40
0.9611403102
 40
0.972111951
 40
0.9811855959
 40
0.9883893706
 40
0.9937807429
 40
0.9975021125
 40
1.0
 40
1.0
 40
1.0
 40
1.0
 10
4.6102912938
 20
4.7791346933
 30
0.0
 10
4.6077079351
 20
4.7790323466
 30
0.0
 10
4.6028788172
 20
4.7788306926
 30
0.0
 10
4.5961450865
 20
4.7785097957
 30
0.0
 10
4.5911708646
 20
4.778233925
 30
0.0
 10
4.5877041492
 20
4.7780109631
 30
0.0
 10
4.585490049
 20
4.7778529089
 30
0.0
 10
4.5835348859
 20
4.7776960094
 30
0.0
 10
4.5818394833
 20
4.7775404847
 30
0.0
 10
4.58040441
 20
4.7773864553
 30
0.0
 10
4.5793720615
 20
4.7772529955
 30
0.0
 10
4.5786771624
 20
4.7771439135
 30
0.0
 10
4.5782530041
 20
4.7770673473
 30
0.0
 10
4.5778938314
 20
4.7769912697
 30
0.0
 10
4.5775996328
 20
4.7769154532
 30
0.0
 10
4.5773695457
 20
4.7768409897
 30
0.0
 10
4.5772034571
 20
4.7767657372
 30
0.0
 10
4.5770948343
 20
4.7766937
 30
0.0
 10
4.5770586657
 20
4.7766269789
 30
0.0
 10
4.577058666
 20
4.7765991371
 30
0.0
  0
SPLINE
  5
41F
100
AcDbEntity
  8
0
100
AcDbSpline
 62
7
  6
CONTINUOUS
 70
0
 71
3
 72
14
 73
10
 74
0
 42
0.0000001
 43
0.0000001
 44
0.0000000001
 40
0.0
 40
0.0
 40
0.0
 40
0.0
 40
0.2918251701
 40
0.4322799607
 40
0.5662776877
 40
0.6918582621
 40
0.8071160236
 40
0.9103455836
 40
1.0
 40
1.0
 40
1.0
 40
1.0
 10
5.448117236
 20
4.616904447
 30
0.0
 10
5.3778662581
 20
4.6161814553
 30
0.0
 10
5.2738036978
 20
4.615103565
 30
0.0
 10
5.1374854342
 20
4.613553796
 30
0.0
 10
5.0411874227
 20
4.6123984218
 30
0.0
 10
4.950955682
 20
4.6112582031
 30
0.0
 10
4.8681310564
 20
4.6101720629
 30
0.0
 10
4.7939559284
 20
4.6091036999
 30
0.0
 10
4.7475271763
 20
4.6083147572
 30
0.0
 10
4.7259474546
 20
4.6079044902
 30
0.0
  0
LINE
  5
420
100
AcDbEntity
  8
0
100
AcDbLine
 62
7
  6
CONTINUOUS
 10
4.7259474546
 20
4.6079044902
 11
4.7119369837
 21
4.6076314111
  0
SPLINE
  5
421
100
AcDbEntity
  8
0
100
AcDbSpline
 62
7
  6
CONTINUOUS
 70
0
 71
3
 72
11
 73
7
 74
0
 42
0.0000001
 43
0.0000001
 44
0.0000000001
 40
0.0
 40
0.0
 40
0.0
 40
0.0
 40
0.3095191395
 40
0.5802195317
 40
0.8108016808
 40
1.0
 40
1.0
 40
1.0
 40
1.0
 10
4.7119369837
 20
4.6076314111
 30
0.0
 10
4.7014481274
 20
4.6074216874
 30
0.0
 10
4.6817863359
 20
4.6070054635
 30
0.0
 10
4.6543128282
 20
4.6063356652
 30
0.0
 10
4.6309189279
 20
4.6056664073
 30
0.0
 10
4.6166990228
 20
4.6051759542
 30
0.0
 10
4.6102912938
 20
4.6049220948
 30
0.0
  0
SPLINE
  5
422
100
AcDbEntity
  8
0
100
AcDbSpline
 62
7
  6
CONTINUOUS
 70
0
 71
3
 72
24
 73
20
 74
0
 42
0.0000001
 43
0.0000001
 44
0.0000000001
 40
0.0
 40
0.0
 40
0.0
 40
0.0
 40
0.2319539044
 40
0.4336307995
 40
0.6048144707
 40
0.6789057426
 40
0.745295937
 40
0.8039610541
 40
0.8548790456
 40
0.8980366746
 40
0.9334463147
 40
0.9482549727
 40
0.961140313
 40
0.9721119536
 40
0.9811855982
 40
0.9883893725
 40
0.9937807443
 40
0.9975021132
 40
1.0
 40
1.0
 40
1.0
 40
1.0
 10
4.6102912938
 20
4.6049220948
 30
0.0
 10
4.6077079351
 20
4.6048197481
 30
0.0
 10
4.6028788172
 20
4.6046180941
 30
0.0
 10
4.5961450865
 20
4.6042971971
 30
0.0
 10
4.5911708646
 20
4.6040213264
 30
0.0
 10
4.5877041492
 20
4.6037983645
 30
0.0
 10
4.585490049
 20
4.6036403104
 30
0.0
 10
4.5835348859
 20
4.6034834109
 30
0.0
 10
4.5818394833
 20
4.6033278863
 30
0.0
 10
4.58040441
 20
4.603173857
 30
0.0
 10
4.5793720615
 20
4.6030403972
 30
0.0
 10
4.5786771624
 20
4.6029313153
 30
0.0
 10
4.5782530041
 20
4.6028547491
 30
0.0
 10
4.5778938314
 20
4.6027786716
 30
0.0
 10
4.5775996328
 20
4.6027028551
 30
0.0
 10
4.5773695457
 20
4.6026283917
 30
0.0
 10
4.5772034571
 20
4.6025531392
 30
0.0
 10
4.5770948343
 20
4.602481102
 30
0.0
 10
4.5770586657
 20
4.602414381
 30
0.0
 10
4.577058666
 20
4.6023865392
 30
0.0
  0
SPLINE
  5
423
100
AcDbEntity
  8
0
100
AcDbSpline
 62
7
  6
CONTINUOUS
 70
0
 71
3
 72
33
 73
29
 74
0
 42
0.0000001
 43
0.0000001
 44
0.0000000001
 40
0.0
 40
0.0
 40
0.0
 40
0.0
 40
0.0004647028
 40
0.0010699418
 40
0.0027071548
 40
0.0049173632
 40
0.0077021453
 40
0.0110601032
 40
0.0149888514
 40
0.0194858047
 40
0.0245482692
 40
0.0363586362
 40
0.0503975075
 40
0.0666369358
 40
0.0850343656
 40
0.1055446313
 40
0.1281225106
 40
0.1527212231
 40
0.1792814062
 40
0.2380238402
 40
0.3038169022
 40
0.3760476165
 40
0.4540534637
 40
0.5371092734
 40
0.6244323404
 40
0.7152298316
 40
0.8086969647
 40
1.0
 40
1.0
 40
1.0
 40
1.0
 10
4.5774847289
 20
6.1240542043
 30
0.0
 10
4.5776129499
 20
6.1240961023
 30
0.0
 10
4.5779138337
 20
6.1241748538
 30
0.0
 10
4.5786842116
 20
6.1243305085
 30
0.0
 10
4.5799644604
 20
6.124513996
 30
0.0
 10
4.5818780406
 20
6.1247249163
 30
0.0
 10
4.5842934479
 20
6.1249389677
 30
0.0
 10
4.5872089119
 20
6.1251564008
 30
0.0
 10
4.5906224366
 20
6.1253760692
 30
0.0
 10
4.5945314944
 20
6.1255977233
 30
0.0
 10
4.6007267408
 20
6.1259117172
 30
0.0
 10
4.6096914454
 20
6.126299378
 30
0.0
 10
4.6219006173
 20
6.1267488906
 30
0.0
 10
4.6360229014
 20
6.1272008573
 30
0.0
 10
4.6520244807
 20
6.1276541144
 30
0.0
 10
4.6698666343
 20
6.1281070489
 30
0.0
 10
4.6895094411
 20
6.1285582939
 30
0.0
 10
4.7109088922
 20
6.1290063463
 30
0.0
 10
4.742804894
 20
6.1296196702
 30
0.0
 10
4.7866582657
 20
6.1303666301
 30
0.0
 10
4.8437687599
 20
6.1312176232
 30
0.0
 10
4.906471561
 20
6.1320670157
 30
0.0
 10
4.9741854303
 20
6.1329428768
 30
0.0
 10
5.0462802745
 20
6.1338463972
 30
0.0
 10
5.1220884202
 20
6.134758548
 30
0.0
 10
5.2009189897
 20
6.1356672017
 30
0.0
 10
5.309931223
 20
6.1368688327
 30
0.0
 10
5.3925892049
 20
6.1377221352
 30
0.0
 10
5.448117236
 20
6.138293605
 30
0.0
  0
SPLINE
  5
424
100
AcDbEntity
  8
0
100
AcDbSpline
 62
7
  6
CONTINUOUS
 70
0
 71
3
 72
33
 73
29
 74
0
 42
0.0000001
 43
0.0000001
 44
0.0000000001
 40
0.0
 40
0.0
 40
0.0
 40
0.0
 40
0.0004647028
 40
0.0010699418
 40
0.0027071548
 40
0.0049173632
 40
0.0077021453
 40
0.0110601032
 40
0.0149888514
 40
0.0194858047
 40
0.0245482692
 40
0.0363586362
 40
0.0503975075
 40
0.0666369358
 40
0.0850343656
 40
0.1055446313
 40
0.1281225106
 40
0.1527212231
 40
0.1792814062
 40
0.2380238402
 40
0.3038169022
 40
0.3760476165
 40
0.4540534637
 40
0.5371092734
 40
0.6244323404
 40
0.7152298316
 40
0.8086969647
 40
1.0
 40
1.0
 40
1.0
 40
1.0
 10
4.5774847289
 20
6.1821250705
 30
0.0
 10
4.5776129499
 20
6.1821669685
 30
0.0
 10
4.5779138337
 20
6.1822457199
 30
0.0
 10
4.5786842116
 20
6.1824013746
 30
0.0
 10
4.5799644604
 20
6.1825848621
 30
0.0
 10
4.5818780406
 20
6.1827957824
 30
0.0
 10
4.5842934479
 20
6.1830098339
 30
0.0
 10
4.5872089119
 20
6.183227267
 30
0.0
 10
4.5906224366
 20
6.1834469353
 30
0.0
 10
4.5945314944
 20
6.1836685895
 30
0.0
 10
4.6007267408
 20
6.1839825833
 30
0.0
 10
4.6096914454
 20
6.1843702441
 30
0.0
 10
4.6219006173
 20
6.1848197568
 30
0.0
 10
4.6360229014
 20
6.1852717235
 30
0.0
 10
4.6520244807
 20
6.1857249806
 30
0.0
 10
4.6698666343
 20
6.1861779151
 30
0.0
 10
4.6895094411
 20
6.1866291601
 30
0.0
 10
4.7109088922
 20
6.1870772124
 30
0.0
 10
4.742804894
 20
6.1876905363
 30
0.0
 10
4.7866582657
 20
6.1884374962
 30
0.0
 10
4.8437687599
 20
6.1892884893
 30
0.0
 10
4.906471561
 20
6.1901378819
 30
0.0
 10
4.9741854303
 20
6.191013743
 30
0.0
 10
5.0462802745
 20
6.1919172634
 30
0.0
 10
5.1220884202
 20
6.1928294141
 30
0.0
 10
5.2009189897
 20
6.1937380679
 30
0.0
 10
5.309931223
 20
6.1949396989
 30
0.0
 10
5.3925892049
 20
6.1957930014
 30
0.0
 10
5.448117236
 20
6.1963644711
 30
0.0
  0
SPLINE
  5
425
100
AcDbEntity
  8
0
100
AcDbSpline
 62
7
  6
CONTINUOUS
 70
0
 71
3
 72
33
 73
29
 74
0
 42
0.0000001
 43
0.0000001
 44
0.0000000001
 40
0.0
 40
0.0
 40
0.0
 40
0.0
 40
0.0004647033
 40
0.0010699428
 40
0.0027071568
 40
0.0049173661
 40
0.0077021491
 40
0.0110601079
 40
0.014988857
 40
0.0194858111
 40
0.0245482764
 40
0.0363586448
 40
0.0503975175
 40
0.0666369469
 40
0.0850343777
 40
0.1055446443
 40
0.1281225242
 40
0.1527212373
 40
0.1792814209
 40
0.2380238552
 40
0.3038169171
 40
0.3760476307
 40
0.4540534768
 40
0.537109285
 40
0.6244323501
 40
0.7152298391
 40
0.8086969699
 40
1.0
 40
1.0
 40
1.0
 40
1.0
 10
4.5774847301
 20
6.240195937
 30
0.0
 10
4.5776129513
 20
6.240237835
 30
0.0
 10
4.5779138354
 20
6.2403165865
 30
0.0
 10
4.5786842139
 20
6.2404722411
 30
0.0
 10
4.5799644633
 20
6.2406557287
 30
0.0
 10
4.5818780444
 20
6.2408666489
 30
0.0
 10
4.5842934525
 20
6.2410807004
 30
0.0
 10
4.5872089172
 20
6.2412981335
 30
0.0
 10
4.5906224427
 20
6.2415178018
 30
0.0
 10
4.5945315012
 20
6.241739456
 30
0.0
 10
4.6007267485
 20
6.2420534498
 30
0.0
 10
4.6096914541
 20
6.2424411107
 30
0.0
 10
4.621900627
 20
6.2428906232
 30
0.0
 10
4.6360229122
 20
6.2433425899
 30
0.0
 10
4.6520244924
 20
6.2437958469
 30
0.0
 10
4.6698666467
 20
6.2442487814
 30
0.0
 10
4.6895094541
 20
6.2447000265
 30
0.0
 10
4.7109089056
 20
6.2451480789
 30
0.0
 10
4.7428049078
 20
6.245761403
 30
0.0
 10
4.7866582795
 20
6.246508363
 30
0.0
 10
4.8437687736
 20
6.2473593547
 30
0.0
 10
4.9064715741
 20
6.2482087464
 30
0.0
 10
4.9741854422
 20
6.2490846115
 30
0.0
 10
5.046280285
 20
6.2499881366
 30
0.0
 10
5.1220884291
 20
6.2509002765
 30
0.0
 10
5.2009189969
 20
6.2518089089
 30
0.0
 10
5.3099312268
 20
6.2530105749
 30
0.0
 10
5.3925892053
 20
6.2538639832
 30
0.0
 10
5.448117236
 20
6.2544353373
 30
0.0
  0
SPLINE
  5
426
100
AcDbEntity
  8
0
100
AcDbSpline
 62
7
  6
CONTINUOUS
 70
0
 71
3
 72
19
 73
15
 74
0
 42
0.0000001
 43
0.0000001
 44
0.0000000001
 40
0.0
 40
0.0
 40
0.0
 40
0.0
 40
0.1673515302
 40
0.330411033
 40
0.4847849491
 40
0.6265390171
 40
0.6914959785
 40
0.7519397925
 40
0.807467123
 40
0.8577211521
 40
0.9023774856
 40
0.9411317205
 40
0.9737462417
 40
1.0
 40
1.0
 40
1.0
 40
1.0
 10
5.448117236
 20
6.2428886989
 30
0.0
 10
5.4013771199
 20
6.2424076705
 30
0.0
 10
5.3090956387
 20
6.2414559714
 30
0.0
 10
5.1736995944
 20
6.2399658077
 30
0.0
 10
5.0454539804
 20
6.2384415253
 30
0.0
 10
4.9446082251
 20
6.2371629909
 30
0.0
 10
4.8699963596
 20
6.2361724346
 30
0.0
 10
4.8194667614
 20
6.2354581812
 30
0.0
 10
4.7730443708
 20
6.2347356853
 30
0.0
 10
4.7310323399
 20
6.2340007879
 30
0.0
 10
4.6937061446
 20
6.2332566997
 30
0.0
 10
4.661308061
 20
6.2325048858
 30
0.0
 10
4.6340516342
 20
6.2317525912
 30
0.0
 10
4.6176184259
 20
6.2311966308
 30
0.0
 10
4.6102912938
 20
6.2309063468
 30
0.0
  0
SPLINE
  5
427
100
AcDbEntity
  8
0
100
AcDbSpline
 62
7
  6
CONTINUOUS
 70
0
 71
3
 72
24
 73
20
 74
0
 42
0.0000001
 43
0.0000001
 44
0.0000000001
 40
0.0
 40
0.0
 40
0.0
 40
0.0
 40
0.2319539033
 40
0.4336307975
 40
0.6048144679
 40
0.6789057395
 40
0.7452959337
 40
0.8039610506
 40
0.8548790421
 40
0.8980366712
 40
0.9334463115
 40
0.9482549697
 40
0.9611403102
 40
0.972111951
 40
0.9811855959
 40
0.9883893706
 40
0.9937807429
 40
0.9975021125
 40
1.0
 40
1.0
 40
1.0
 40
1.0
 10
4.6102912938
 20
6.2309063468
 30
0.0
 10
4.6077079352
 20
6.2308040001
 30
0.0
 10
4.6028788172
 20
6.2306023462
 30
0.0
 10
4.5961450865
 20
6.2302814493
 30
0.0
 10
4.5911708646
 20
6.2300055785
 30
0.0
 10
4.5877041492
 20
6.2297826166
 30
0.0
 10
4.5854900491
 20
6.2296245624
 30
0.0
 10
4.5835348859
 20
6.2294676629
 30
0.0
 10
4.5818394833
 20
6.2293121382
 30
0.0
 10
4.58040441
 20
6.2291581089
 30
0.0
 10
4.5793720615
 20
6.2290246491
 30
0.0
 10
4.5786771624
 20
6.2289155671
 30
0.0
 10
4.5782530041
 20
6.2288390008
 30
0.0
 10
4.5778938314
 20
6.2287629232
 30
0.0
 10
4.5775996328
 20
6.2286871067
 30
0.0
 10
4.5773695457
 20
6.2286126432
 30
0.0
 10
4.5772034571
 20
6.2285373908
 30
0.0
 10
4.5770948343
 20
6.2284653535
 30
0.0
 10
4.5770586657
 20
6.2283986324
 30
0.0
 10
4.577058666
 20
6.2283707907
 30
0.0
  0
SPLINE
  5
428
100
AcDbEntity
  8
0
100
AcDbSpline
 62
7
  6
CONTINUOUS
 70
0
 71
3
 72
19
 73
15
 74
0
 42
0.0000001
 43
0.0000001
 44
0.0000000001
 40
0.0
 40
0.0
 40
0.0
 40
0.0
 40
0.1673515302
 40
0.330411033
 40
0.4847849492
 40
0.6265390171
 40
0.6914959785
 40
0.7519397925
 40
0.8074671231
 40
0.8577211521
 40
0.9023774856
 40
0.9411317205
 40
0.9737462417
 40
1.0
 40
1.0
 40
1.0
 40
1.0
 10
5.448117236
 20
5.4879674391
 30
0.0
 10
5.4013771199
 20
5.4874864107
 30
0.0
 10
5.3090956386
 20
5.4865347115
 30
0.0
 10
5.1736995944
 20
5.4850445478
 30
0.0
 10
5.0454539804
 20
5.4835202654
 30
0.0
 10
4.944608225
 20
5.482241731
 30
0.0
 10
4.8699963596
 20
5.4812511748
 30
0.0
 10
4.8194667614
 20
5.4805369214
 30
0.0
 10
4.7730443708
 20
5.4798144254
 30
0.0
 10
4.7310323399
 20
5.479079528
 30
0.0
 10
4.6937061446
 20
5.4783354399
 30
0.0
 10
4.661308061
 20
5.4775836259
 30
0.0
 10
4.6340516342
 20
5.4768313313
 30
0.0
 10
4.6176184259
 20
5.476275371
 30
0.0
 10
4.6102912938
 20
5.475985087
 30
0.0
  0
SPLINE
  5
429
100
AcDbEntity
  8
0
100
AcDbSpline
 62
7
  6
CONTINUOUS
 70
0
 71
3
 72
24
 73
20
 74
0
 42
0.0000001
 43
0.0000001
 44
0.0000000001
 40
0.0
 40
0.0
 40
0.0
 40
0.0
 40
0.2319539033
 40
0.4336307975
 40
0.6048144679
 40
0.6789057395
 40
0.7452959337
 40
0.8039610506
 40
0.8548790421
 40
0.8980366712
 40
0.9334463115
 40
0.9482549697
 40
0.9611403102
 40
0.972111951
 40
0.9811855959
 40
0.9883893706
 40
0.9937807429
 40
0.9975021125
 40
1.0
 40
1.0
 40
1.0
 40
1.0
 10
4.6102912938
 20
5.475985087
 30
0.0
 10
4.6077079351
 20
5.4758827403
 30
0.0
 10
4.6028788172
 20
5.4756810863
 30
0.0
 10
4.5961450865
 20
5.4753601894
 30
0.0
 10
4.5911708646
 20
5.4750843187
 30
0.0
 10
4.5877041492
 20
5.4748613568
 30
0.0
 10
4.585490049
 20
5.4747033026
 30
0.0
 10
4.5835348859
 20
5.4745464031
 30
0.0
 10
4.5818394833
 20
5.4743908784
 30
0.0
 10
4.58040441
 20
5.474236849
 30
0.0
 10
4.5793720615
 20
5.4741033892
 30
0.0
 10
4.5786771624
 20
5.4739943072
 30
0.0
 10
4.5782530041
 20
5.473917741
 30
0.0
 10
4.5778938314
 20
5.4738416634
 30
0.0
 10
4.5775996328
 20
5.4737658469
 30
0.0
 10
4.5773695457
 20
5.4736913834
 30
0.0
 10
4.5772034571
 20
5.4736161309
 30
0.0
 10
4.5770948343
 20
5.4735440937
 30
0.0
 10
4.5770586657
 20
5.4734773726
 30
0.0
 10
4.577058666
 20
5.4734495308
 30
0.0
  0
SPLINE
  5
42A
100
AcDbEntity
  8
0
100
AcDbSpline
 62
7
  6
CONTINUOUS
 70
0
 71
3
 72
19
 73
15
 74
0
 42
0.0000001
 43
0.0000001
 44
0.0000000001
 40
0.0
 40
0.0
 40
0.0
 40
0.0
 40
0.1673515302
 40
0.330411033
 40
0.4847849492
 40
0.6265390171
 40
0.6914959785
 40
0.7519397925
 40
0.8074671231
 40
0.8577211521
 40
0.9023774856
 40
0.9411317205
 40
0.9737462417
 40
1.0
 40
1.0
 40
1.0
 40
1.0
 10
5.448117236
 20
5.429896573
 30
0.0
 10
5.4013771199
 20
5.4294155446
 30
0.0
 10
5.3090956386
 20
5.4284638454
 30
0.0
 10
5.1736995944
 20
5.4269736817
 30
0.0
 10
5.0454539804
 20
5.4254493993
 30
0.0
 10
4.944608225
 20
5.4241708649
 30
0.0
 10
4.8699963596
 20
5.4231803086
 30
0.0
 10
4.8194667614
 20
5.4224660552
 30
0.0
 10
4.7730443708
 20
5.4217435593
 30
0.0
 10
4.7310323399
 20
5.4210086619
 30
0.0
 10
4.6937061446
 20
5.4202645738
 30
0.0
 10
4.661308061
 20
5.4195127598
 30
0.0
 10
4.6340516342
 20
5.4187604652
 30
0.0
 10
4.6176184259
 20
5.4182045048
 30
0.0
 10
4.6102912938
 20
5.4179142208
 30
0.0
  0
SPLINE
  5
42B
100
AcDbEntity
  8
0
100
AcDbSpline
 62
7
  6
CONTINUOUS
 70
0
 71
3
 72
24
 73
20
 74
0
 42
0.0000001
 43
0.0000001
 44
0.0000000001
 40
0.0
 40
0.0
 40
0.0
 40
0.0
 40
0.2319539033
 40
0.4336307975
 40
0.6048144679
 40
0.6789057395
 40
0.7452959337
 40
0.8039610506
 40
0.8548790421
 40
0.8980366712
 40
0.9334463115
 40
0.9482549697
 40
0.9611403102
 40
0.972111951
 40
0.9811855959
 40
0.9883893706
 40
0.9937807429
 40
0.9975021125
 40
1.0
 40
1.0
 40
1.0
 40
1.0
 10
4.6102912938
 20
5.4179142208
 30
0.0
 10
4.6077079351
 20
5.4178118742
 30
0.0
 10
4.6028788172
 20
5.4176102202
 30
0.0
 10
4.5961450865
 20
5.4172893233
 30
0.0
 10
4.5911708646
 20
5.4170134525
 30
0.0
 10
4.5877041492
 20
5.4167904906
 30
0.0
 10
4.585490049
 20
5.4166324365
 30
0.0
 10
4.5835348859
 20
5.4164755369
 30
0.0
 10
4.5818394833
 20
5.4163200123
 30
0.0
 10
4.58040441
 20
5.4161659829
 30
0.0
 10
4.5793720615
 20
5.4160325231
 30
0.0
 10
4.5786771624
 20
5.4159234411
 30
0.0
 10
4.5782530041
 20
5.4158468749
 30
0.0
 10
4.5778938314
 20
5.4157707973
 30
0.0
 10
4.5775996328
 20
5.4156949807
 30
0.0
 10
4.5773695457
 20
5.4156205173
 30
0.0
 10
4.5772034571
 20
5.4155452648
 30
0.0
 10
4.5770948343
 20
5.4154732275
 30
0.0
 10
4.5770586657
 20
5.4154065065
 30
0.0
 10
4.577058666
 20
5.4153786647
 30
0.0
  0
SPLINE
  5
42C
100
AcDbEntity
  8
0
100
AcDbSpline
 62
7
  6
CONTINUOUS
 70
0
 71
3
 72
34
 73
30
 74
0
 42
0.0000001
 43
0.0000001
 44
0.0000000001
 40
0.0
 40
0.0
 40
0.0
 40
0.0
 40
0.0004313245
 40
0.0010031355
 40
0.0025743814
 40
0.0047204062
 40
0.007443143
 40
0.0107414697
 40
0.0146130225
 40
0.0190552184
 40
0.0240653576
 40
0.0357783262
 40
0.0497293866
 40
0.065891098
 40
0.084221127
 40
0.1046740539
 40
0.1272044004
 40
0.1517653582
 40
0.1782978174
 40
0.2067358643
 40
0.2370134971
 40
0.3028160507
 40
0.3750906328
 40
0.4531712661
 40
0.5363298249
 40
0.6237793284
 40
0.7147225482
 40
0.808350164
 40
1.0
 40
1.0
 40
1.0
 40
1.0
 10
6.3188267456
 20
4.6311702591
 30
0.0
 10
6.3187089657
 20
4.6311277525
 30
0.0
 10
6.3184281305
 20
4.6310485831
 30
0.0
 10
6.3176972186
 20
4.6308921516
 30
0.0
 10
6.3164646535
 20
4.6307088379
 30
0.0
 10
6.3146070719
 20
4.6304979776
 30
0.0
 10
6.3122455682
 20
4.6302840016
 30
0.0
 10
6.3093819195
 20
4.6300664478
 30
0.0
 10
6.3060179957
 20
4.6298466146
 30
0.0
 10
6.3021563527
 20
4.6296247318
 30
0.0
 10
6.2960199946
 20
4.6293101246
 30
0.0
 10
6.2871234973
 20
4.6289218308
 30
0.0
 10
6.2749895877
 20
4.6284716533
 30
0.0
 10
6.2609336613
 20
4.6280189303
 30
0.0
 10
6.2449894072
 20
4.6275648344
 30
0.0
 10
6.2271956364
 20
4.6271109941
 30
0.0
 10
6.2075924321
 20
4.6266587753
 30
0.0
 10
6.1862238169
 20
4.6262097398
 30
0.0
 10
6.1631397513
 20
4.6257643309
 30
0.0
 10
6.1383957531
 20
4.6253227852
 30
0.0
 10
6.1022525058
 20
4.6247226855
 30
0.0
 10
6.0533837459
 20
4.6239934095
 30
0.0
 10
5.9906379063
 20
4.6231424872
 30
0.0
 10
5.9228534459
 20
4.622265439
 30
0.0
 10
5.8506636354
 20
4.6213603508
 30
0.0
 10
5.7747395815
 20
4.6204464746
 30
0.0
 10
5.6957760606
 20
4.6195360254
 30
0.0
 10
5.5865640873
 20
4.6183319187
 30
0.0
 10
5.5037511261
 20
4.6174770061
 30
0.0
 10
5.448117236
 20
4.616904447
 30
0.0
  0
SPLINE
  5
42D
100
AcDbEntity
  8
0
100
AcDbSpline
 62
7
  6
CONTINUOUS
 70
0
 71
3
 72
19
 73
15
 74
0
 42
0.0000001
 43
0.0000001
 44
0.0000000001
 40
0.0
 40
0.0
 40
0.0
 40
0.0
 40
0.1673515302
 40
0.330411033
 40
0.4847849492
 40
0.6265390171
 40
0.6914959785
 40
0.7519397925
 40
0.8074671231
 40
0.8577211521
 40
0.9023774856
 40
0.9411317205
 40
0.9737462417
 40
1.0
 40
1.0
 40
1.0
 40
1.0
 10
5.448117236
 20
5.3718257068
 30
0.0
 10
5.4013771199
 20
5.3713446784
 30
0.0
 10
5.3090956386
 20
5.3703929792
 30
0.0
 10
5.1736995944
 20
5.3689028156
 30
0.0
 10
5.0454539804
 20
5.3673785331
 30
0.0
 10
4.944608225
 20
5.3660999987
 30
0.0
 10
4.8699963596
 20
5.3651094425
 30
0.0
 10
4.8194667614
 20
5.3643951891
 30
0.0
 10
4.7730443708
 20
5.3636726931
 30
0.0
 10
4.7310323399
 20
5.3629377957
 30
0.0
 10
4.6937061446
 20
5.3621937076
 30
0.0
 10
4.661308061
 20
5.3614418936
 30
0.0
 10
4.6340516342
 20
5.3606895991
 30
0.0
 10
4.6176184259
 20
5.3601336387
 30
0.0
 10
4.6102912938
 20
5.3598433547
 30
0.0
  0
SPLINE
  5
42E
100
AcDbEntity
  8
0
100
AcDbSpline
 62
7
  6
CONTINUOUS
 70
0
 71
3
 72
24
 73
20
 74
0
 42
0.0000001
 43
0.0000001
 44
0.0000000001
 40
0.0
 40
0.0
 40
0.0
 40
0.0
 40
0.2319539033
 40
0.4336307975
 40
0.6048144679
 40
0.6789057395
 40
0.7452959337
 40
0.8039610506
 40
0.8548790421
 40
0.8980366712
 40
0.9334463115
 40
0.9482549697
 40
0.9611403102
 40
0.972111951
 40
0.9811855959
 40
0.9883893706
 40
0.9937807429
 40
0.9975021125
 40
1.0
 40
1.0
 40
1.0
 40
1.0
 10
4.6102912938
 20
5.3598433547
 30
0.0
 10
4.6077079351
 20
5.359741008
 30
0.0
 10
4.6028788172
 20
5.359539354
 30
0.0
 10
4.5961450865
 20
5.3592184571
 30
0.0
 10
4.5911708646
 20
5.3589425864
 30
0.0
 10
4.5877041492
 20
5.3587196245
 30
0.0
 10
4.585490049
 20
5.3585615703
 30
0.0
 10
4.5835348859
 20
5.3584046708
 30
0.0
 10
4.5818394833
 20
5.3582491461
 30
0.0
 10
4.58040441
 20
5.3580951167
 30
0.0
 10
4.5793720615
 20
5.3579616569
 30
0.0
 10
4.5786771624
 20
5.357852575
 30
0.0
 10
4.5782530041
 20
5.3577760087
 30
0.0
 10
4.5778938314
 20
5.3576999311
 30
0.0
 10
4.5775996328
 20
5.3576241146
 30
0.0
 10
4.5773695457
 20
5.3575496511
 30
0.0
 10
4.5772034571
 20
5.3574743986
 30
0.0
 10
4.5770948343
 20
5.3574023614
 30
0.0
 10
4.5770586657
 20
5.3573356403
 30
0.0
 10
4.577058666
 20
5.3573077986
 30
0.0
  0
SPLINE
  5
42F
100
AcDbEntity
  8
0
100
AcDbSpline
 62
7
  6
CONTINUOUS
 70
0
 71
3
 72
34
 73
30
 74
0
 42
0.0000001
 43
0.0000001
 44
0.0000000001
 40
0.0
 40
0.0
 40
0.0
 40
0.0
 40
0.0004313245
 40
0.0010031355
 40
0.0025743814
 40
0.0047204062
 40
0.007443143
 40
0.0107414697
 40
0.0146130225
 40
0.0190552184
 40
0.0240653576
 40
0.0357783262
 40
0.0497293866
 40
0.065891098
 40
0.084221127
 40
0.1046740539
 40
0.1272044004
 40
0.1517653582
 40
0.1782978174
 40
0.2067358643
 40
0.2370134971
 40
0.3028160507
 40
0.3750906328
 40
0.4531712661
 40
0.5363298249
 40
0.6237793284
 40
0.7147225482
 40
0.808350164
 40
1.0
 40
1.0
 40
1.0
 40
1.0
 10
6.3188267456
 20
4.6892411252
 30
0.0
 10
6.3187089657
 20
4.6891986186
 30
0.0
 10
6.3184281305
 20
4.6891194493
 30
0.0
 10
6.3176972186
 20
4.6889630177
 30
0.0
 10
6.3164646535
 20
4.6887797041
 30
0.0
 10
6.3146070719
 20
4.6885688437
 30
0.0
 10
6.3122455682
 20
4.6883548677
 30
0.0
 10
6.3093819195
 20
4.6881373139
 30
0.0
 10
6.3060179957
 20
4.6879174807
 30
0.0
 10
6.3021563527
 20
4.687695598
 30
0.0
 10
6.2960199946
 20
4.6873809907
 30
0.0
 10
6.2871234973
 20
4.686992697
 30
0.0
 10
6.2749895877
 20
4.6865425194
 30
0.0
 10
6.2609336613
 20
4.6860897964
 30
0.0
 10
6.2449894072
 20
4.6856357005
 30
0.0
 10
6.2271956364
 20
4.6851818602
 30
0.0
 10
6.2075924321
 20
4.6847296415
 30
0.0
 10
6.1862238169
 20
4.684280606
 30
0.0
 10
6.1631397513
 20
4.683835197
 30
0.0
 10
6.1383957531
 20
4.6833936514
 30
0.0
 10
6.1022525058
 20
4.6827935516
 30
0.0
 10
6.0533837459
 20
4.6820642756
 30
0.0
 10
5.9906379063
 20
4.6812133533
 30
0.0
 10
5.9228534459
 20
4.6803363052
 30
0.0
 10
5.8506636354
 20
4.6794312169
 30
0.0
 10
5.7747395815
 20
4.6785173408
 30
0.0
 10
5.6957760606
 20
4.6776068915
 30
0.0
 10
5.5865640873
 20
4.6764027848
 30
0.0
 10
5.5037511261
 20
4.6755478723
 30
0.0
 10
5.448117236
 20
4.6749753131
 30
0.0
  0
SPLINE
  5
430
100
AcDbEntity
  8
0
100
AcDbSpline
 62
7
  6
CONTINUOUS
 70
0
 71
3
 72
19
 73
15
 74
0
 42
0.0000001
 43
0.0000001
 44
0.0000000001
 40
0.0
 40
0.0
 40
0.0
 40
0.0
 40
0.1673515302
 40
0.330411033
 40
0.4847849492
 40
0.6265390171
 40
0.6914959785
 40
0.7519397925
 40
0.8074671231
 40
0.8577211521
 40
0.9023774856
 40
0.9411317205
 40
0.9737462417
 40
1.0
 40
1.0
 40
1.0
 40
1.0
 10
5.448117236
 20
6.1848178328
 30
0.0
 10
5.4013771199
 20
6.1843368044
 30
0.0
 10
5.3090956386
 20
6.1833851052
 30
0.0
 10
5.1736995944
 20
6.1818949415
 30
0.0
 10
5.0454539804
 20
6.1803706591
 30
0.0
 10
4.944608225
 20
6.1790921247
 30
0.0
 10
4.8699963596
 20
6.1781015685
 30
0.0
 10
4.8194667614
 20
6.1773873151
 30
0.0
 10
4.7730443708
 20
6.1766648191
 30
0.0
 10
4.7310323399
 20
6.1759299217
 30
0.0
 10
4.6937061446
 20
6.1751858336
 30
0.0
 10
4.661308061
 20
6.1744340196
 30
0.0
 10
4.6340516342
 20
6.173681725
 30
0.0
 10
4.6176184259
 20
6.1731257647
 30
0.0
 10
4.6102912938
 20
6.1728354807
 30
0.0
  0
SPLINE
  5
431
100
AcDbEntity
  8
0
100
AcDbSpline
 62
7
  6
CONTINUOUS
 70
0
 71
3
 72
24
 73
20
 74
0
 42
0.0000001
 43
0.0000001
 44
0.0000000001
 40
0.0
 40
0.0
 40
0.0
 40
0.0
 40
0.2319539033
 40
0.4336307975
 40
0.6048144679
 40
0.6789057395
 40
0.7452959337
 40
0.8039610506
 40
0.8548790421
 40
0.8980366712
 40
0.9334463115
 40
0.9482549697
 40
0.9611403102
 40
0.972111951
 40
0.9811855959
 40
0.9883893706
 40
0.9937807429
 40
0.9975021125
 40
1.0
 40
1.0
 40
1.0
 40
1.0
 10
4.6102912938
 20
6.1728354807
 30
0.0
 10
4.6077079351
 20
6.172733134
 30
0.0
 10
4.6028788172
 20
6.17253148
 30
0.0
 10
4.5961450865
 20
6.1722105831
 30
0.0
 10
4.5911708646
 20
6.1719347124
 30
0.0
 10
4.5877041492
 20
6.1717117505
 30
0.0
 10
4.585490049
 20
6.1715536963
 30
0.0
 10
4.5835348859
 20
6.1713967968
 30
0.0
 10
4.5818394833
 20
6.1712412721
 30
0.0
 10
4.58040441
 20
6.1710872427
 30
0.0
 10
4.5793720615
 20
6.1709537829
 30
0.0
 10
4.5786771624
 20
6.1708447009
 30
0.0
 10
4.5782530041
 20
6.1707681347
 30
0.0
 10
4.5778938314
 20
6.1706920571
 30
0.0
 10
4.5775996328
 20
6.1706162406
 30
0.0
 10
4.5773695457
 20
6.1705417771
 30
0.0
 10
4.5772034571
 20
6.1704665246
 30
0.0
 10
4.5770948343
 20
6.1703944874
 30
0.0
 10
4.5770586657
 20
6.1703277663
 30
0.0
 10
4.577058666
 20
6.1702999245
 30
0.0
  0
SPLINE
  5
432
100
AcDbEntity
  8
0
100
AcDbSpline
 62
7
  6
CONTINUOUS
 70
0
 71
3
 72
23
 73
19
 74
0
 42
0.0000001
 43
0.0000001
 44
0.0000000001
 40
0.0
 40
0.0
 40
0.0
 40
0.0
 40
0.0041204936
 40
0.0100035614
 40
0.0176707458
 40
0.0271314102
 40
0.0383903603
 40
0.0514475992
 40
0.0829384248
 40
0.1215622482
 40
0.1672728294
 40
0.2200221714
 40
0.2797613635
 40
0.3464402368
 40
0.4199867346
 40
0.5872939792
 40
0.7808983519
 40
1.0
 40
1.0
 40
1.0
 40
1.0
 10
6.3188267456
 20
4.7473119914
 30
0.0
 10
6.3186530928
 20
4.7472493204
 30
0.0
 10
6.3182173056
 20
4.7471387638
 30
0.0
 10
6.3174389504
 20
4.746994799
 30
0.0
 10
6.3164179551
 20
4.7468489785
 30
0.0
 10
6.3151547364
 20
4.7467009548
 30
0.0
 10
6.3136487056
 20
4.7465514812
 30
0.0
 10
6.3111575155
 20
4.7463367082
 30
0.0
 10
6.3074401953
 20
4.7460732581
 30
0.0
 10
6.3022596459
 20
4.7457682154
 30
0.0
 10
6.2961254037
 20
4.7454596223
 30
0.0
 10
6.2890442249
 20
4.74514811
 30
0.0
 10
6.2810228609
 20
4.744834548
 30
0.0
 10
6.2720691157
 20
4.7445195702
 30
0.0
 10
6.2582973588
 20
4.7440793214
 30
0.0
 10
6.2388392607
 20
4.7435370075
 30
0.0
 10
6.2128596875
 20
4.7429112422
 30
0.0
 10
6.1943727923
 20
4.7425208443
 30
0.0
 10
6.1845580695
 20
4.7423244014
 30
0.0
  0
LINE
  5
433
100
AcDbEntity
  8
0
100
AcDbLine
 62
7
  6
CONTINUOUS
 10
6.1845580695
 20
4.7423244014
 11
6.1702356649
 21
4.7420451303
  0
LINE
  5
434
100
AcDbEntity
  8
0
100
AcDbLine
 62
7
  6
CONTINUOUS
 10
6.1702356649
 20
4.7420451303
 11
6.1599932234
 21
4.7418537431
  0
SPLINE
  5
435
100
AcDbEntity
  8
0
100
AcDbSpline
 62
7
  6
CONTINUOUS
 70
0
 71
3
 72
14
 73
10
 74
0
 42
0.0000001
 43
0.0000001
 44
0.0000000001
 40
0.0
 40
0.0
 40
0.0
 40
0.0
 40
0.091260984
 40
0.1955056046
 40
0.3112354408
 40
0.4368069248
 40
0.5703968068
 40
0.7101381401
 40
1.0
 40
1.0
 40
1.0
 40
1.0
 10
6.1599932234
 20
4.7418537431
 30
0.0
 10
6.1383396829
 20
4.7414558881
 30
0.0
 10
6.0919503863
 20
4.7406893996
 30
0.0
 10
6.0180982948
 20
4.7396445211
 30
0.0
 10
5.9361035668
 20
4.7385747026
 30
0.0
 10
5.8471449638
 20
4.737455362
 30
0.0
 10
5.7524878918
 20
4.736324274
 30
0.0
 10
5.6188448019
 20
4.7348094798
 30
0.0
 10
5.5169008739
 20
4.7337540697
 30
0.0
 10
5.448117236
 20
4.7330461793
 30
0.0
  0
SPLINE
  5
436
100
AcDbEntity
  8
0
100
AcDbSpline
 62
7
  6
CONTINUOUS
 70
0
 71
3
 72
19
 73
15
 74
0
 42
0.0000001
 43
0.0000001
 44
0.0000000001
 40
0.0
 40
0.0
 40
0.0
 40
0.0
 40
0.1656707719
 40
0.3272011627
 40
0.4804359039
 40
0.5527486111
 40
0.6215636443
 40
0.7470006651
 40
0.8028285254
 40
0.8535880745
 40
0.8989487412
 40
0.9386349714
 40
0.9723883771
 40
1.0
 40
1.0
 40
1.0
 40
1.0
 10
5.448117236
 20
6.0686761005
 30
0.0
 10
5.4021383971
 20
6.0682029068
 30
0.0
 10
5.3113297954
 20
6.0672689395
 30
0.0
 10
5.1779947801
 20
6.0657989197
 30
0.0
 10
5.0705703392
 20
6.0645288158
 30
0.0
 10
4.9888774585
 20
6.0635161632
 30
0.0
 10
4.9148994965
 20
6.0625707994
 30
0.0
 10
4.8454971078
 20
6.0616316771
 30
0.0
 10
4.7811071519
 20
6.0606465857
 30
0.0
 10
4.7389406001
 20
6.0599310198
 30
0.0
 10
4.701255059
 20
6.0592022046
 30
0.0
 10
4.6682906554
 20
6.0584655543
 30
0.0
 10
4.6402539608
 20
6.0577257692
 30
0.0
 10
4.6232308552
 20
6.0571814087
 30
0.0
 10
4.615572551
 20
6.0568993198
 30
0.0
  0
SPLINE
  5
437
100
AcDbEntity
  8
0
100
AcDbSpline
 62
7
  6
CONTINUOUS
 70
0
 71
3
 72
25
 73
21
 74
0
 42
0.0000001
 43
0.0000001
 44
0.0000000001
 40
0.0
 40
0.0
 40
0.0
 40
0.0
 40
0.231970285
 40
0.4336913092
 40
0.604867662
 40
0.678950562
 40
0.7453395089
 40
0.8040180822
 40
0.8549716605
 40
0.8981887211
 40
0.9336635643
 40
0.948499572
 40
0.9614045361
 40
0.9723844894
 40
0.9814511738
 40
0.9886296745
 40
0.9939730864
 40
0.9959955281
 40
0.997625944
 40
1.0
 40
1.0
 40
1.0
 40
1.0
 10
4.615572551
 20
6.0568993198
 30
0.0
 10
4.6125798287
 20
6.0567890847
 30
0.0
 10
4.6069850302
 20
6.0565719498
 30
0.0
 10
4.5991837435
 20
6.0562267379
 30
0.0
 10
4.5934207413
 20
6.0559300329
 30
0.0
 10
4.5894044939
 20
6.0556898703
 30
0.0
 10
4.5868390849
 20
6.0555193568
 30
0.0
 10
4.5845729505
 20
6.0553497212
 30
0.0
 10
4.582606815
 20
6.0551811144
 30
0.0
 10
4.5809414272
 20
6.0550136029
 30
0.0
 10
4.5797425982
 20
6.0548681375
 30
0.0
 10
4.5789351702
 20
6.05474904
 30
0.0
 10
4.5784422614
 20
6.0546654507
 30
0.0
 10
4.5780250111
 20
6.0545822307
 30
0.0
 10
4.57768317
 20
6.0544997227
 30
0.0
 10
4.5774166683
 20
6.054417606
 30
0.0
 10
4.5772425768
 20
6.0543456107
 30
0.0
 10
4.5771433399
 20
6.0542839893
 30
0.0
 10
4.5770841091
 20
6.0542345258
 30
0.0
 10
4.5770556135
 20
6.0541844429
 30
0.0
 10
4.5770557793
 20
6.0541537941
 30
0.0
  0
LINE
  5
438
100
AcDbEntity
  8
0
100
AcDbLine
 62
7
  6
CONTINUOUS
 10
6.3059358191
 20
4.8040589409
 11
6.2765343654
 21
4.8027488474
  0
SPLINE
  5
439
100
AcDbEntity
  8
0
100
AcDbSpline
 62
7
  6
CONTINUOUS
 70
0
 71
3
 72
11
 73
7
 74
0
 42
0.0000001
 43
0.0000001
 44
0.0000000001
 40
0.0
 40
0.0
 40
0.0
 40
0.0
 40
0.1957149067
 40
0.4283883297
 40
0.6968891332
 40
1.0
 40
1.0
 40
1.0
 40
1.0
 10
6.2765343654
 20
4.8027488474
 30
0.0
 10
6.2696017197
 20
4.8025049272
 30
0.0
 10
6.2544251948
 20
4.8020303115
 30
0.0
 10
6.2297331817
 20
4.8013771729
 30
0.0
 10
6.2012334194
 20
4.8007260601
 30
0.0
 10
6.1809772113
 20
4.8003201751
 30
0.0
 10
6.1702356649
 20
4.8001159965
 30
0.0
  0
LINE
  5
43A
100
AcDbEntity
  8
0
100
AcDbLine
 62
7
  6
CONTINUOUS
 10
6.1702356649
 20
4.8001159965
 11
6.1674845755
 21
4.8000639472
  0
LINE
  5
43B
100
AcDbEntity
  8
0
100
AcDbLine
 62
7
  6
CONTINUOUS
 10
6.1674845755
 20
4.8000639472
 11
6.160279239
 21
4.7999298668
  0
SPLINE
  5
43C
100
AcDbEntity
  8
0
100
AcDbSpline
 62
7
  6
CONTINUOUS
 70
0
 71
3
 72
14
 73
10
 74
0
 42
0.0000001
 43
0.0000001
 44
0.0000000001
 40
0.0
 40
0.0
 40
0.0
 40
0.0
 40
0.0912175829
 40
0.1954348379
 40
0.3111519534
 40
0.4367237156
 40
0.5703246161
 40
0.7100851968
 40
1.0
 40
1.0
 40
1.0
 40
1.0
 10
6.160279239
 20
4.7999298668
 30
0.0
 10
6.1386273065
 20
4.7995316758
 30
0.0
 10
6.0922361775
 20
4.7987645724
 30
0.0
 10
6.0183742363
 20
4.797719068
 30
0.0
 10
5.9363560134
 20
4.7966488033
 30
0.0
 10
5.8473620054
 20
4.7955288819
 30
0.0
 10
5.7526596496
 20
4.7943971273
 30
0.0
 10
5.6189431083
 20
4.7928813757
 30
0.0
 10
5.5169410805
 20
4.7918253497
 30
0.0
 10
5.448117236
 20
4.7911170454
 30
0.0
  0
SPLINE
  5
43D
100
AcDbEntity
  8
0
100
AcDbSpline
 62
7
  6
CONTINUOUS
 70
0
 71
3
 72
19
 73
15
 74
0
 42
0.0000001
 43
0.0000001
 44
0.0000000001
 40
0.0
 40
0.0
 40
0.0
 40
0.0
 40
0.1673515302
 40
0.330411033
 40
0.4847849492
 40
0.6265390171
 40
0.6914959785
 40
0.7519397925
 40
0.8074671231
 40
0.8577211521
 40
0.9023774856
 40
0.9411317205
 40
0.9737462417
 40
1.0
 40
1.0
 40
1.0
 40
1.0
 10
5.448117236
 20
6.1267469667
 30
0.0
 10
5.4013771199
 20
6.1262659383
 30
0.0
 10
5.3090956386
 20
6.1253142391
 30
0.0
 10
5.1736995944
 20
6.1238240754
 30
0.0
 10
5.0454539804
 20
6.122299793
 30
0.0
 10
4.944608225
 20
6.1210212586
 30
0.0
 10
4.8699963596
 20
6.1200307023
 30
0.0
 10
4.8194667614
 20
6.1193164489
 30
0.0
 10
4.7730443708
 20
6.118593953
 30
0.0
 10
4.7310323399
 20
6.1178590556
 30
0.0
 10
4.6937061446
 20
6.1171149675
 30
0.0
 10
4.661308061
 20
6.1163631535
 30
0.0
 10
4.6340516342
 20
6.1156108589
 30
0.0
 10
4.6176184259
 20
6.1150548985
 30
0.0
 10
4.6102912938
 20
6.1147646145
 30
0.0
  0
SPLINE
  5
43E
100
AcDbEntity
  8
0
100
AcDbSpline
 62
7
  6
CONTINUOUS
 70
0
 71
3
 72
24
 73
20
 74
0
 42
0.0000001
 43
0.0000001
 44
0.0000000001
 40
0.0
 40
0.0
 40
0.0
 40
0.0
 40
0.2319539033
 40
0.4336307975
 40
0.6048144679
 40
0.6789057395
 40
0.7452959337
 40
0.8039610506
 40
0.8548790421
 40
0.8980366712
 40
0.9334463115
 40
0.9482549697
 40
0.9611403102
 40
0.972111951
 40
0.9811855959
 40
0.9883893706
 40
0.9937807429
 40
0.9975021125
 40
1.0
 40
1.0
 40
1.0
 40
1.0
 10
4.6102912938
 20
6.1147646145
 30
0.0
 10
4.6077079351
 20
6.1146622679
 30
0.0
 10
4.6028788172
 20
6.1144606139
 30
0.0
 10
4.5961450865
 20
6.114139717
 30
0.0
 10
4.5911708646
 20
6.1138638462
 30
0.0
 10
4.5877041492
 20
6.1136408843
 30
0.0
 10
4.585490049
 20
6.1134828302
 30
0.0
 10
4.5835348859
 20
6.1133259306
 30
0.0
 10
4.5818394833
 20
6.113170406
 30
0.0
 10
4.58040441
 20
6.1130163766
 30
0.0
 10
4.5793720615
 20
6.1128829168
 30
0.0
 10
4.5786771624
 20
6.1127738348
 30
0.0
 10
4.5782530041
 20
6.1126972686
 30
0.0
 10
4.5778938314
 20
6.112621191
 30
0.0
 10
4.5775996328
 20
6.1125453744
 30
0.0
 10
4.5773695457
 20
6.112470911
 30
0.0
 10
4.5772034571
 20
6.1123956585
 30
0.0
 10
4.5770948343
 20
6.1123236212
 30
0.0
 10
4.5770586657
 20
6.1122569002
 30
0.0
 10
4.577058666
 20
6.1122290584
 30
0.0
  0
SPLINE
  5
43F
100
AcDbEntity
  8
0
100
AcDbSpline
 62
7
  6
CONTINUOUS
 70
0
 71
3
 72
19
 73
15
 74
0
 42
0.0000001
 43
0.0000001
 44
0.0000000001
 40
0.0
 40
0.0
 40
0.0
 40
0.0
 40
0.1673515302
 40
0.330411033
 40
0.4847849492
 40
0.6265390171
 40
0.6914959785
 40
0.7519397925
 40
0.8074671231
 40
0.8577211521
 40
0.9023774856
 40
0.9411317205
 40
0.9737462417
 40
1.0
 40
1.0
 40
1.0
 40
1.0
 10
5.448117236
 20
5.1395422422
 30
0.0
 10
5.4013771199
 20
5.1390612139
 30
0.0
 10
5.3090956386
 20
5.1381095147
 30
0.0
 10
5.1736995944
 20
5.136619351
 30
0.0
 10
5.0454539804
 20
5.1350950686
 30
0.0
 10
4.944608225
 20
5.1338165342
 30
0.0
 10
4.8699963596
 20
5.1328259779
 30
0.0
 10
4.8194667614
 20
5.1321117245
 30
0.0
 10
4.7730443708
 20
5.1313892286
 30
0.0
 10
4.7310323399
 20
5.1306543312
 30
0.0
 10
4.6937061446
 20
5.129910243
 30
0.0
 10
4.661308061
 20
5.1291584291
 30
0.0
 10
4.6340516342
 20
5.1284061345
 30
0.0
 10
4.6176184259
 20
5.1278501741
 30
0.0
 10
4.6102912938
 20
5.1275598901
 30
0.0
  0
SPLINE
  5
440
100
AcDbEntity
  8
0
100
AcDbSpline
 62
7
  6
CONTINUOUS
 70
0
 71
3
 72
24
 73
20
 74
0
 42
0.0000001
 43
0.0000001
 44
0.0000000001
 40
0.0
 40
0.0
 40
0.0
 40
0.0
 40
0.2319539033
 40
0.4336307975
 40
0.6048144679
 40
0.6789057395
 40
0.7452959337
 40
0.8039610506
 40
0.8548790421
 40
0.8980366712
 40
0.9334463115
 40
0.9482549697
 40
0.9611403102
 40
0.972111951
 40
0.9811855959
 40
0.9883893706
 40
0.9937807429
 40
0.9975021125
 40
1.0
 40
1.0
 40
1.0
 40
1.0
 10
4.6102912938
 20
5.1275598901
 30
0.0
 10
4.6077079351
 20
5.1274575435
 30
0.0
 10
4.6028788172
 20
5.1272558895
 30
0.0
 10
4.5961450865
 20
5.1269349926
 30
0.0
 10
4.5911708646
 20
5.1266591218
 30
0.0
 10
4.5877041492
 20
5.1264361599
 30
0.0
 10
4.585490049
 20
5.1262781057
 30
0.0
 10
4.5835348859
 20
5.1261212062
 30
0.0
 10
4.5818394833
 20
5.1259656815
 30
0.0
 10
4.58040441
 20
5.1258116522
 30
0.0
 10
4.5793720615
 20
5.1256781924
 30
0.0
 10
4.5786771624
 20
5.1255691104
 30
0.0
 10
4.5782530041
 20
5.1254925441
 30
0.0
 10
4.5778938314
 20
5.1254164665
 30
0.0
 10
4.5775996328
 20
5.12534065
 30
0.0
 10
4.5773695457
 20
5.1252661866
 30
0.0
 10
4.5772034571
 20
5.1251909341
 30
0.0
 10
4.5770948343
 20
5.1251188968
 30
0.0
 10
4.5770586657
 20
5.1250521757
 30
0.0
 10
4.577058666
 20
5.125024334
 30
0.0
  0
SPLINE
  5
441
100
AcDbEntity
  8
0
100
AcDbSpline
 62
7
  6
CONTINUOUS
 70
0
 71
3
 72
19
 73
15
 74
0
 42
0.0000001
 43
0.0000001
 44
0.0000000001
 40
0.0
 40
0.0
 40
0.0
 40
0.0
 40
0.1673515302
 40
0.330411033
 40
0.4847849492
 40
0.6265390171
 40
0.6914959785
 40
0.7519397925
 40
0.8074671231
 40
0.8577211521
 40
0.9023774856
 40
0.9411317205
 40
0.9737462417
 40
1.0
 40
1.0
 40
1.0
 40
1.0
 10
5.448117236
 20
5.1976131084
 30
0.0
 10
5.4013771199
 20
5.19713208
 30
0.0
 10
5.3090956386
 20
5.1961803808
 30
0.0
 10
5.1736995944
 20
5.1946902171
 30
0.0
 10
5.0454539804
 20
5.1931659347
 30
0.0
 10
4.944608225
 20
5.1918874003
 30
0.0
 10
4.8699963596
 20
5.1908968441
 30
0.0
 10
4.8194667614
 20
5.1901825907
 30
0.0
 10
4.7730443708
 20
5.1894600947
 30
0.0
 10
4.7310323399
 20
5.1887251973
 30
0.0
 10
4.6937061446
 20
5.1879811092
 30
0.0
 10
4.661308061
 20
5.1872292952
 30
0.0
 10
4.6340516342
 20
5.1864770006
 30
0.0
 10
4.6176184259
 20
5.1859210403
 30
0.0
 10
4.6102912938
 20
5.1856307563
 30
0.0
  0
SPLINE
  5
442
100
AcDbEntity
  8
0
100
AcDbSpline
 62
7
  6
CONTINUOUS
 70
0
 71
3
 72
24
 73
20
 74
0
 42
0.0000001
 43
0.0000001
 44
0.0000000001
 40
0.0
 40
0.0
 40
0.0
 40
0.0
 40
0.2319539033
 40
0.4336307975
 40
0.6048144679
 40
0.6789057395
 40
0.7452959337
 40
0.8039610506
 40
0.8548790421
 40
0.8980366712
 40
0.9334463115
 40
0.9482549697
 40
0.9611403102
 40
0.972111951
 40
0.9811855959
 40
0.9883893706
 40
0.9937807429
 40
0.9975021125
 40
1.0
 40
1.0
 40
1.0
 40
1.0
 10
4.6102912938
 20
5.1856307563
 30
0.0
 10
4.6077079351
 20
5.1855284096
 30
0.0
 10
4.6028788172
 20
5.1853267556
 30
0.0
 10
4.5961450865
 20
5.1850058587
 30
0.0
 10
4.5911708646
 20
5.184729988
 30
0.0
 10
4.5877041492
 20
5.1845070261
 30
0.0
 10
4.585490049
 20
5.1843489719
 30
0.0
 10
4.5835348859
 20
5.1841920724
 30
0.0
 10
4.5818394833
 20
5.1840365477
 30
0.0
 10
4.58040441
 20
5.1838825183
 30
0.0
 10
4.5793720615
 20
5.1837490585
 30
0.0
 10
4.5786771624
 20
5.1836399765
 30
0.0
 10
4.5782530041
 20
5.1835634103
 30
0.0
 10
4.5778938314
 20
5.1834873327
 30
0.0
 10
4.5775996328
 20
5.1834115162
 30
0.0
 10
4.5773695457
 20
5.1833370527
 30
0.0
 10
4.5772034571
 20
5.1832618002
 30
0.0
 10
4.5770948343
 20
5.183189763
 30
0.0
 10
4.5770586657
 20
5.1831230419
 30
0.0
 10
4.577058666
 20
5.1830952001
 30
0.0
  0
SPLINE
  5
443
100
AcDbEntity
  8
0
100
AcDbSpline
 62
7
  6
CONTINUOUS
 70
0
 71
3
 72
42
 73
38
 74
0
 42
0.0000001
 43
0.0000001
 44
0.0000000001
 40
0.0
 40
0.0
 40
0.0
 40
0.0
 40
0.0979265754
 40
0.1950281987
 40
0.2902185196
 40
0.3825798075
 40
0.4712583985
 40
0.555414022
 40
0.6342183249
 40
0.7069142808
 40
0.7407521659
 40
0.7728023244
 40
0.8029914536
 40
0.8312498827
 40
0.8575079565
 40
0.8816970987
 40
0.9037611223
 40
0.9236518734
 40
0.9413213809
 40
0.9567220007
 40
0.9635589306
 40
0.9698159605
 40
0.9754900949
 40
0.9805783684
 40
0.9850778618
 40
0.9889857302
 40
0.9922992582
 40
0.995015984
 40
0.9961501464
 40
0.9971350643
 40
0.9979711163
 40
0.9986589268
 40
0.9991996336
 40
0.9995956442
 40
0.9997412625
 40
0.9998541052
 40
1.0
 40
1.0
 40
1.0
 40
1.0
 10
5.448117236
 20
6.3009595651
 30
0.0
 10
5.4196756295
 20
6.3006684025
 30
0.0
 10
5.3630320529
 20
6.300084725
 30
0.0
 10
5.2787418505
 20
6.2991921353
 30
0.0
 10
5.1960684311
 20
6.2982779675
 30
0.0
 10
5.11584181
 20
6.2973510219
 30
0.0
 10
5.0388205135
 20
6.2964209449
 30
0.0
 10
4.9657370631
 20
6.295501004
 30
0.0
 10
4.8972958037
 20
6.2946123166
 30
0.0
 10
4.843468765
 20
6.293875007
 30
0.0
 10
4.8032210186
 20
6.2932772488
 30
0.0
 10
4.7753185865
 20
6.2928349756
 30
0.0
 10
4.7490370182
 20
6.2923881135
 30
0.0
 10
4.7244381149
 20
6.2919370442
 30
0.0
 10
4.701582316
 20
6.2914821487
 30
0.0
 10
4.6805261661
 20
6.2910235464
 30
0.0
 10
4.6613199667
 20
6.2905622945
 30
0.0
 10
4.6440080418
 20
6.2901000047
 30
0.0
 10
4.6286322851
 20
6.2896381076
 30
0.0
 10
4.6170479052
 20
6.2892407527
 30
0.0
 10
4.6087777704
 20
6.2889198662
 30
0.0
 10
4.6033313612
 20
6.2886897661
 30
0.0
 10
4.5983932977
 20
6.2884608137
 30
0.0
 10
4.5939662485
 20
6.2882332652
 30
0.0
 10
4.590052879
 20
6.2880074049
 30
0.0
 10
4.5866558107
 20
6.2877836864
 30
0.0
 10
4.583777687
 20
6.2875624039
 30
0.0
 10
4.5817053949
 20
6.2873712541
 30
0.0
 10
4.5803094442
 20
6.2872154167
 30
0.0
 10
4.5794580205
 20
6.2871064129
 30
0.0
 10
4.5787373453
 20
6.286998068
 30
0.0
 10
4.578147215
 20
6.2868910852
 30
0.0
 10
4.5776871538
 20
6.2867844591
 30
0.0
 10
4.5773865961
 20
6.286692098
 30
0.0
 10
4.5772127209
 20
6.2866112292
 30
0.0
 10
4.5771149489
 20
6.2865511872
 30
0.0
 10
4.5770586656
 20
6.2864840323
 30
0.0
 10
4.577058666
 20
6.2864416567
 30
0.0
  0
SPLINE
  5
444
100
AcDbEntity
  8
0
100
AcDbSpline
 62
7
  6
CONTINUOUS
 70
0
 71
3
 72
19
 73
15
 74
0
 42
0.0000001
 43
0.0000001
 44
0.0000000001
 40
0.0
 40
0.0
 40
0.0
 40
0.0
 40
0.1673515302
 40
0.330411033
 40
0.4847849492
 40
0.6265390171
 40
0.6914959785
 40
0.7519397925
 40
0.8074671231
 40
0.8577211521
 40
0.9023774856
 40
0.9411317205
 40
0.9737462417
 40
1.0
 40
1.0
 40
1.0
 40
1.0
 10
5.448117236
 20
5.2556839745
 30
0.0
 10
5.4013771199
 20
5.2552029461
 30
0.0
 10
5.3090956386
 20
5.254251247
 30
0.0
 10
5.1736995944
 20
5.2527610833
 30
0.0
 10
5.0454539804
 20
5.2512368008
 30
0.0
 10
4.944608225
 20
5.2499582665
 30
0.0
 10
4.8699963596
 20
5.2489677102
 30
0.0
 10
4.8194667614
 20
5.2482534568
 30
0.0
 10
4.7730443708
 20
5.2475309609
 30
0.0
 10
4.7310323399
 20
5.2467960635
 30
0.0
 10
4.6937061446
 20
5.2460519753
 30
0.0
 10
4.661308061
 20
5.2453001614
 30
0.0
 10
4.6340516342
 20
5.2445478668
 30
0.0
 10
4.6176184259
 20
5.2439919064
 30
0.0
 10
4.6102912938
 20
5.2437016224
 30
0.0
  0
SPLINE
  5
445
100
AcDbEntity
  8
0
100
AcDbSpline
 62
7
  6
CONTINUOUS
 70
0
 71
3
 72
24
 73
20
 74
0
 42
0.0000001
 43
0.0000001
 44
0.0000000001
 40
0.0
 40
0.0
 40
0.0
 40
0.0
 40
0.2319539033
 40
0.4336307975
 40
0.6048144679
 40
0.6789057395
 40
0.7452959337
 40
0.8039610506
 40
0.8548790421
 40
0.8980366712
 40
0.9334463115
 40
0.9482549697
 40
0.9611403102
 40
0.972111951
 40
0.9811855959
 40
0.9883893706
 40
0.9937807429
 40
0.9975021125
 40
1.0
 40
1.0
 40
1.0
 40
1.0
 10
4.6102912938
 20
5.2437016224
 30
0.0
 10
4.6077079351
 20
5.2435992757
 30
0.0
 10
4.6028788172
 20
5.2433976218
 30
0.0
 10
4.5961450865
 20
5.2430767248
 30
0.0
 10
4.5911708646
 20
5.2428008541
 30
0.0
 10
4.5877041492
 20
5.2425778922
 30
0.0
 10
4.585490049
 20
5.242419838
 30
0.0
 10
4.5835348859
 20
5.2422629385
 30
0.0
 10
4.5818394833
 20
5.2421074138
 30
0.0
 10
4.58040441
 20
5.2419533845
 30
0.0
 10
4.5793720615
 20
5.2418199247
 30
0.0
 10
4.5786771624
 20
5.2417108427
 30
0.0
 10
4.5782530041
 20
5.2416342764
 30
0.0
 10
4.5778938314
 20
5.2415581988
 30
0.0
 10
4.5775996328
 20
5.2414823823
 30
0.0
 10
4.5773695457
 20
5.2414079188
 30
0.0
 10
4.5772034571
 20
5.2413326663
 30
0.0
 10
4.5770948343
 20
5.2412606291
 30
0.0
 10
4.5770586657
 20
5.241193908
 30
0.0
 10
4.577058666
 20
5.2411660663
 30
0.0
  0
SPLINE
  5
446
100
AcDbEntity
  8
0
100
AcDbSpline
 62
7
  6
CONTINUOUS
 70
0
 71
3
 72
34
 73
30
 74
0
 42
0.0000001
 43
0.0000001
 44
0.0000000001
 40
0.0
 40
0.0
 40
0.0
 40
0.0
 40
0.0004313245
 40
0.0010031355
 40
0.0025743814
 40
0.0047204062
 40
0.007443143
 40
0.0107414697
 40
0.0146130225
 40
0.0190552184
 40
0.0240653576
 40
0.0357783262
 40
0.0497293866
 40
0.065891098
 40
0.084221127
 40
0.1046740539
 40
0.1272044004
 40
0.1517653582
 40
0.1782978174
 40
0.2067358643
 40
0.2370134971
 40
0.3028160507
 40
0.3750906328
 40
0.4531712661
 40
0.5363298249
 40
0.6237793284
 40
0.7147225482
 40
0.808350164
 40
1.0
 40
1.0
 40
1.0
 40
1.0
 10
6.3188267456
 20
5.1538080544
 30
0.0
 10
6.3187089657
 20
5.1537655478
 30
0.0
 10
6.3184281305
 20
5.1536863784
 30
0.0
 10
6.3176972186
 20
5.1535299469
 30
0.0
 10
6.3164646535
 20
5.1533466332
 30
0.0
 10
6.3146070719
 20
5.1531357729
 30
0.0
 10
6.3122455682
 20
5.1529217968
 30
0.0
 10
6.3093819195
 20
5.1527042431
 30
0.0
 10
6.3060179957
 20
5.1524844099
 30
0.0
 10
6.3021563527
 20
5.1522625271
 30
0.0
 10
6.2960199946
 20
5.1519479198
 30
0.0
 10
6.2871234973
 20
5.1515596261
 30
0.0
 10
6.2749895877
 20
5.1511094485
 30
0.0
 10
6.2609336613
 20
5.1506567256
 30
0.0
 10
6.2449894072
 20
5.1502026297
 30
0.0
 10
6.2271956364
 20
5.1497487894
 30
0.0
 10
6.2075924321
 20
5.1492965706
 30
0.0
 10
6.1862238169
 20
5.1488475351
 30
0.0
 10
6.1631397513
 20
5.1484021262
 30
0.0
 10
6.1383957531
 20
5.1479605805
 30
0.0
 10
6.1022525058
 20
5.1473604808
 30
0.0
 10
6.0533837459
 20
5.1466312048
 30
0.0
 10
5.9906379063
 20
5.1457802825
 30
0.0
 10
5.9228534459
 20
5.1449032343
 30
0.0
 10
5.8506636354
 20
5.1439981461
 30
0.0
 10
5.7747395815
 20
5.1430842699
 30
0.0
 10
5.6957760606
 20
5.1421738206
 30
0.0
 10
5.5865640873
 20
5.140969714
 30
0.0
 10
5.5037511261
 20
5.1401148014
 30
0.0
 10
5.448117236
 20
5.1395422422
 30
0.0
  0
SPLINE
  5
447
100
AcDbEntity
  8
0
100
AcDbSpline
 62
7
  6
CONTINUOUS
 70
0
 71
3
 72
34
 73
30
 74
0
 42
0.0000001
 43
0.0000001
 44
0.0000000001
 40
0.0
 40
0.0
 40
0.0
 40
0.0
 40
0.0004313245
 40
0.0010031355
 40
0.0025743814
 40
0.0047204062
 40
0.007443143
 40
0.0107414697
 40
0.0146130225
 40
0.0190552184
 40
0.0240653576
 40
0.0357783262
 40
0.0497293866
 40
0.065891098
 40
0.084221127
 40
0.1046740539
 40
0.1272044004
 40
0.1517653582
 40
0.1782978174
 40
0.2067358643
 40
0.2370134971
 40
0.3028160507
 40
0.3750906328
 40
0.4531712661
 40
0.5363298249
 40
0.6237793284
 40
0.7147225482
 40
0.808350164
 40
1.0
 40
1.0
 40
1.0
 40
1.0
 10
6.3188267456
 20
5.2118789205
 30
0.0
 10
6.3187089657
 20
5.2118364139
 30
0.0
 10
6.3184281305
 20
5.2117572445
 30
0.0
 10
6.3176972186
 20
5.211600813
 30
0.0
 10
6.3164646535
 20
5.2114174993
 30
0.0
 10
6.3146070719
 20
5.211206639
 30
0.0
 10
6.3122455682
 20
5.210992663
 30
0.0
 10
6.3093819195
 20
5.2107751092
 30
0.0
 10
6.3060179957
 20
5.210555276
 30
0.0
 10
6.3021563527
 20
5.2103333932
 30
0.0
 10
6.2960199946
 20
5.210018786
 30
0.0
 10
6.2871234973
 20
5.2096304922
 30
0.0
 10
6.2749895877
 20
5.2091803147
 30
0.0
 10
6.2609336613
 20
5.2087275917
 30
0.0
 10
6.2449894072
 20
5.2082734958
 30
0.0
 10
6.2271956364
 20
5.2078196555
 30
0.0
 10
6.2075924321
 20
5.2073674367
 30
0.0
 10
6.1862238169
 20
5.2069184012
 30
0.0
 10
6.1631397513
 20
5.2064729923
 30
0.0
 10
6.1383957531
 20
5.2060314467
 30
0.0
 10
6.1022525058
 20
5.2054313469
 30
0.0
 10
6.0533837459
 20
5.2047020709
 30
0.0
 10
5.9906379063
 20
5.2038511486
 30
0.0
 10
5.9228534459
 20
5.2029741004
 30
0.0
 10
5.8506636354
 20
5.2020690122
 30
0.0
 10
5.7747395815
 20
5.2011551361
 30
0.0
 10
5.6957760606
 20
5.2002446868
 30
0.0
 10
5.5865640873
 20
5.1990405801
 30
0.0
 10
5.5037511261
 20
5.1981856675
 30
0.0
 10
5.448117236
 20
5.1976131084
 30
0.0
  0
SPLINE
  5
448
100
AcDbEntity
  8
0
100
AcDbSpline
 62
7
  6
CONTINUOUS
 70
0
 71
3
 72
34
 73
30
 74
0
 42
0.0000001
 43
0.0000001
 44
0.0000000001
 40
0.0
 40
0.0
 40
0.0
 40
0.0
 40
0.0004313245
 40
0.0010031355
 40
0.0025743814
 40
0.0047204062
 40
0.007443143
 40
0.0107414697
 40
0.0146130225
 40
0.0190552184
 40
0.0240653576
 40
0.0357783262
 40
0.0497293866
 40
0.065891098
 40
0.084221127
 40
0.1046740539
 40
0.1272044004
 40
0.1517653582
 40
0.1782978174
 40
0.2067358643
 40
0.2370134971
 40
0.3028160507
 40
0.3750906328
 40
0.4531712661
 40
0.5363298249
 40
0.6237793284
 40
0.7147225482
 40
0.808350164
 40
1.0
 40
1.0
 40
1.0
 40
1.0
 10
6.3188267456
 20
5.2699497867
 30
0.0
 10
6.3187089657
 20
5.2699072801
 30
0.0
 10
6.3184281305
 20
5.2698281107
 30
0.0
 10
6.3176972186
 20
5.2696716791
 30
0.0
 10
6.3164646535
 20
5.2694883655
 30
0.0
 10
6.3146070719
 20
5.2692775052
 30
0.0
 10
6.3122455682
 20
5.2690635291
 30
0.0
 10
6.3093819195
 20
5.2688459754
 30
0.0
 10
6.3060179957
 20
5.2686261421
 30
0.0
 10
6.3021563527
 20
5.2684042594
 30
0.0
 10
6.2960199946
 20
5.2680896521
 30
0.0
 10
6.2871234973
 20
5.2677013584
 30
0.0
 10
6.2749895877
 20
5.2672511808
 30
0.0
 10
6.2609336613
 20
5.2667984578
 30
0.0
 10
6.2449894072
 20
5.266344362
 30
0.0
 10
6.2271956364
 20
5.2658905216
 30
0.0
 10
6.2075924321
 20
5.2654383029
 30
0.0
 10
6.1862238169
 20
5.2649892674
 30
0.0
 10
6.1631397513
 20
5.2645438584
 30
0.0
 10
6.1383957531
 20
5.2641023128
 30
0.0
 10
6.1022525058
 20
5.263502213
 30
0.0
 10
6.0533837459
 20
5.262772937
 30
0.0
 10
5.9906379063
 20
5.2619220148
 30
0.0
 10
5.9228534459
 20
5.2610449666
 30
0.0
 10
5.8506636354
 20
5.2601398784
 30
0.0
 10
5.7747395815
 20
5.2592260022
 30
0.0
 10
5.6957760606
 20
5.2583155529
 30
0.0
 10
5.5865640873
 20
5.2571114463
 30
0.0
 10
5.5037511261
 20
5.2562565337
 30
0.0
 10
5.448117236
 20
5.2556839745
 30
0.0
  0
SPLINE
  5
449
100
AcDbEntity
  8
0
100
AcDbSpline
 62
7
  6
CONTINUOUS
 70
0
 71
3
 72
34
 73
30
 74
0
 42
0.0000001
 43
0.0000001
 44
0.0000000001
 40
0.0
 40
0.0
 40
0.0
 40
0.0
 40
0.0004313245
 40
0.0010031355
 40
0.0025743814
 40
0.0047204062
 40
0.007443143
 40
0.0107414697
 40
0.0146130225
 40
0.0190552184
 40
0.0240653576
 40
0.0357783262
 40
0.0497293866
 40
0.065891098
 40
0.084221127
 40
0.1046740539
 40
0.1272044004
 40
0.1517653582
 40
0.1782978174
 40
0.2067358643
 40
0.2370134971
 40
0.3028160507
 40
0.3750906328
 40
0.4531712661
 40
0.5363298249
 40
0.6237793284
 40
0.7147225482
 40
0.808350164
 40
1.0
 40
1.0
 40
1.0
 40
1.0
 10
6.3188267456
 20
5.3860915189
 30
0.0
 10
6.3187089657
 20
5.3860490123
 30
0.0
 10
6.3184281305
 20
5.385969843
 30
0.0
 10
6.3176972186
 20
5.3858134114
 30
0.0
 10
6.3164646535
 20
5.3856300978
 30
0.0
 10
6.3146070719
 20
5.3854192374
 30
0.0
 10
6.3122455682
 20
5.3852052614
 30
0.0
 10
6.3093819195
 20
5.3849877076
 30
0.0
 10
6.3060179957
 20
5.3847678744
 30
0.0
 10
6.3021563527
 20
5.3845459917
 30
0.0
 10
6.2960199946
 20
5.3842313844
 30
0.0
 10
6.2871234973
 20
5.3838430907
 30
0.0
 10
6.2749895877
 20
5.3833929131
 30
0.0
 10
6.2609336613
 20
5.3829401901
 30
0.0
 10
6.2449894072
 20
5.3824860942
 30
0.0
 10
6.2271956364
 20
5.3820322539
 30
0.0
 10
6.2075924321
 20
5.3815800352
 30
0.0
 10
6.1862238169
 20
5.3811309997
 30
0.0
 10
6.1631397513
 20
5.3806855907
 30
0.0
 10
6.1383957531
 20
5.3802440451
 30
0.0
 10
6.1022525058
 20
5.3796439453
 30
0.0
 10
6.0533837459
 20
5.3789146693
 30
0.0
 10
5.9906379063
 20
5.378063747
 30
0.0
 10
5.9228534459
 20
5.3771866989
 30
0.0
 10
5.8506636354
 20
5.3762816106
 30
0.0
 10
5.7747395815
 20
5.3753677345
 30
0.0
 10
5.6957760606
 20
5.3744572852
 30
0.0
 10
5.5865640873
 20
5.3732531785
 30
0.0
 10
5.5037511261
 20
5.372398266
 30
0.0
 10
5.448117236
 20
5.3718257068
 30
0.0
  0
SPLINE
  5
44A
100
AcDbEntity
  8
0
100
AcDbSpline
 62
7
  6
CONTINUOUS
 70
0
 71
3
 72
34
 73
30
 74
0
 42
0.0000001
 43
0.0000001
 44
0.0000000001
 40
0.0
 40
0.0
 40
0.0
 40
0.0
 40
0.0004313245
 40
0.0010031355
 40
0.0025743814
 40
0.0047204062
 40
0.007443143
 40
0.0107414697
 40
0.0146130225
 40
0.0190552184
 40
0.0240653576
 40
0.0357783262
 40
0.0497293866
 40
0.065891098
 40
0.084221127
 40
0.1046740539
 40
0.1272044004
 40
0.1517653582
 40
0.1782978174
 40
0.2067358643
 40
0.2370134971
 40
0.3028160507
 40
0.3750906328
 40
0.4531712661
 40
0.5363298249
 40
0.6237793284
 40
0.7147225482
 40
0.808350164
 40
1.0
 40
1.0
 40
1.0
 40
1.0
 10
6.3188267456
 20
5.4441623851
 30
0.0
 10
6.3187089657
 20
5.4441198785
 30
0.0
 10
6.3184281305
 20
5.4440407091
 30
0.0
 10
6.3176972186
 20
5.4438842776
 30
0.0
 10
6.3164646535
 20
5.4437009639
 30
0.0
 10
6.3146070719
 20
5.4434901036
 30
0.0
 10
6.3122455682
 20
5.4432761275
 30
0.0
 10
6.3093819195
 20
5.4430585738
 30
0.0
 10
6.3060179957
 20
5.4428387406
 30
0.0
 10
6.3021563527
 20
5.4426168578
 30
0.0
 10
6.2960199946
 20
5.4423022505
 30
0.0
 10
6.2871234973
 20
5.4419139568
 30
0.0
 10
6.2749895877
 20
5.4414637793
 30
0.0
 10
6.2609336613
 20
5.4410110563
 30
0.0
 10
6.2449894072
 20
5.4405569604
 30
0.0
 10
6.2271956364
 20
5.4401031201
 30
0.0
 10
6.2075924321
 20
5.4396509013
 30
0.0
 10
6.1862238169
 20
5.4392018658
 30
0.0
 10
6.1631397513
 20
5.4387564569
 30
0.0
 10
6.1383957531
 20
5.4383149112
 30
0.0
 10
6.1022525058
 20
5.4377148115
 30
0.0
 10
6.0533837459
 20
5.4369855355
 30
0.0
 10
5.9906379063
 20
5.4361346132
 30
0.0
 10
5.9228534459
 20
5.435257565
 30
0.0
 10
5.8506636354
 20
5.4343524768
 30
0.0
 10
5.7747395815
 20
5.4334386006
 30
0.0
 10
5.6957760606
 20
5.4325281514
 30
0.0
 10
5.5865640873
 20
5.4313240447
 30
0.0
 10
5.5037511261
 20
5.4304691321
 30
0.0
 10
5.448117236
 20
5.429896573
 30
0.0
  0
SPLINE
  5
44B
100
AcDbEntity
  8
0
100
AcDbSpline
 62
7
  6
CONTINUOUS
 70
0
 71
3
 72
34
 73
30
 74
0
 42
0.0000001
 43
0.0000001
 44
0.0000000001
 40
0.0
 40
0.0
 40
0.0
 40
0.0
 40
0.0004314896
 40
0.0010035784
 40
0.0025759257
 40
0.004723568
 40
0.0074467741
 40
0.0107442433
 40
0.0146141993
 40
0.0190546375
 40
0.02406343
 40
0.0296383766
 40
0.0357772225
 40
0.0497325047
 40
0.0658927136
 40
0.0842189701
 40
0.1046722617
 40
0.1272074488
 40
0.1517679661
 40
0.1782959715
 40
0.2370154843
 40
0.302816042
 40
0.3750917678
 40
0.45316843
 40
0.5363279633
 40
0.623785862
 40
0.7147286792
 40
0.8083391982
 40
1.0
 40
1.0
 40
1.0
 40
1.0
 10
6.3188289438
 20
5.5022234153
 30
0.0
 10
6.3187111759
 20
5.502180734
 30
0.0
 10
6.3184302733
 20
5.5021012963
 30
0.0
 10
6.3176989687
 20
5.5019445413
 30
0.0
 10
6.3164654806
 20
5.5017613851
 30
0.0
 10
6.3146068523
 20
5.5015515126
 30
0.0
 10
6.3122448023
 20
5.5013395296
 30
0.0
 10
6.3093815137
 20
5.5011248083
 30
0.0
 10
6.3060185928
 20
5.5009083277
 30
0.0
 10
6.3021581081
 20
5.5006900282
 30
0.0
 10
6.2978020445
 20
5.500470002
 30
0.0
 10
6.29295245
 20
5.5002481693
 30
0.0
 10
6.2855070978
 20
5.4999363932
 30
0.0
 10
6.2749893988
 20
5.499547715
 30
0.0
 10
6.2609338271
 20
5.4990932041
 30
0.0
 10
6.2449910704
 20
5.4986356993
 30
0.0
 10
6.2271969614
 20
5.4981777997
 30
0.0
 10
6.2075924302
 20
5.4977218374
 30
0.0
 10
6.1862238751
 20
5.4972691651
 30
0.0
 10
6.1543520294
 20
5.4966507688
 30
0.0
 10
6.1105082536
 20
5.4959071037
 30
0.0
 10
6.0533837432
 20
5.4950568968
 30
0.0
 10
5.9906392631
 20
5.49420176
 30
0.0
 10
5.9228551703
 20
5.493330034
 30
0.0
 10
5.8506636354
 20
5.4924289606
 30
0.0
 10
5.7747369002
 20
5.4915121839
 30
0.0
 10
5.6957759388
 20
5.4905987837
 30
0.0
 10
5.5865657421
 20
5.4893907214
 30
0.0
 10
5.5037543925
 20
5.4885400319
 30
0.0
 10
5.448117236
 20
5.4879674391
 30
0.0
  0
SPLINE
  5
44C
100
AcDbEntity
  8
0
100
AcDbSpline
 62
7
  6
CONTINUOUS
 70
0
 71
3
 72
34
 73
30
 74
0
 42
0.0000001
 43
0.0000001
 44
0.0000000001
 40
0.0
 40
0.0
 40
0.0
 40
0.0
 40
0.0004313245
 40
0.0010031355
 40
0.0025743814
 40
0.0047204062
 40
0.007443143
 40
0.0107414697
 40
0.0146130225
 40
0.0190552184
 40
0.0240653576
 40
0.0357783262
 40
0.0497293866
 40
0.065891098
 40
0.084221127
 40
0.1046740539
 40
0.1272044004
 40
0.1517653582
 40
0.1782978174
 40
0.2067358643
 40
0.2370134971
 40
0.3028160507
 40
0.3750906328
 40
0.4531712661
 40
0.5363298249
 40
0.6237793284
 40
0.7147225482
 40
0.808350164
 40
1.0
 40
1.0
 40
1.0
 40
1.0
 10
6.3188267456
 20
6.0829419127
 30
0.0
 10
6.3187089657
 20
6.0828994061
 30
0.0
 10
6.3184281305
 20
6.0828202367
 30
0.0
 10
6.3176972186
 20
6.0826638051
 30
0.0
 10
6.3164646535
 20
6.0824804915
 30
0.0
 10
6.3146070719
 20
6.0822696311
 30
0.0
 10
6.3122455682
 20
6.0820556551
 30
0.0
 10
6.3093819195
 20
6.0818381013
 30
0.0
 10
6.3060179957
 20
6.0816182681
 30
0.0
 10
6.3021563527
 20
6.0813963854
 30
0.0
 10
6.2960199946
 20
6.0810817781
 30
0.0
 10
6.2871234973
 20
6.0806934844
 30
0.0
 10
6.2749895877
 20
6.0802433068
 30
0.0
 10
6.2609336613
 20
6.0797905838
 30
0.0
 10
6.2449894072
 20
6.0793364879
 30
0.0
 10
6.2271956364
 20
6.0788826476
 30
0.0
 10
6.2075924321
 20
6.0784304289
 30
0.0
 10
6.1862238169
 20
6.0779813934
 30
0.0
 10
6.1631397513
 20
6.0775359844
 30
0.0
 10
6.1383957531
 20
6.0770944388
 30
0.0
 10
6.1022525058
 20
6.076494339
 30
0.0
 10
6.0533837459
 20
6.075765063
 30
0.0
 10
5.9906379063
 20
6.0749141407
 30
0.0
 10
5.9228534459
 20
6.0740370926
 30
0.0
 10
5.8506636354
 20
6.0731320043
 30
0.0
 10
5.7747395815
 20
6.0722181282
 30
0.0
 10
5.6957760606
 20
6.0713076789
 30
0.0
 10
5.5865640873
 20
6.0701035722
 30
0.0
 10
5.5037511261
 20
6.0692486597
 30
0.0
 10
5.448117236
 20
6.0686761005
 30
0.0
  0
SPLINE
  5
44D
100
AcDbEntity
  8
0
100
AcDbSpline
 62
7
  6
CONTINUOUS
 70
0
 71
3
 72
34
 73
30
 74
0
 42
0.0000001
 43
0.0000001
 44
0.0000000001
 40
0.0
 40
0.0
 40
0.0
 40
0.0
 40
0.0004313245
 40
0.0010031355
 40
0.0025743814
 40
0.0047204062
 40
0.007443143
 40
0.0107414697
 40
0.0146130225
 40
0.0190552184
 40
0.0240653576
 40
0.0357783262
 40
0.0497293866
 40
0.065891098
 40
0.084221127
 40
0.1046740539
 40
0.1272044004
 40
0.1517653582
 40
0.1782978174
 40
0.2067358643
 40
0.2370134971
 40
0.3028160507
 40
0.3750906328
 40
0.4531712661
 40
0.5363298249
 40
0.6237793284
 40
0.7147225482
 40
0.808350164
 40
1.0
 40
1.0
 40
1.0
 40
1.0
 10
6.3188267456
 20
6.1410127788
 30
0.0
 10
6.3187089657
 20
6.1409702722
 30
0.0
 10
6.3184281305
 20
6.1408911028
 30
0.0
 10
6.3176972186
 20
6.1407346713
 30
0.0
 10
6.3164646535
 20
6.1405513576
 30
0.0
 10
6.3146070719
 20
6.1403404973
 30
0.0
 10
6.3122455682
 20
6.1401265212
 30
0.0
 10
6.3093819195
 20
6.1399089675
 30
0.0
 10
6.3060179957
 20
6.1396891343
 30
0.0
 10
6.3021563527
 20
6.1394672515
 30
0.0
 10
6.2960199946
 20
6.1391526442
 30
0.0
 10
6.2871234973
 20
6.1387643505
 30
0.0
 10
6.2749895877
 20
6.138314173
 30
0.0
 10
6.2609336613
 20
6.13786145
 30
0.0
 10
6.2449894072
 20
6.1374073541
 30
0.0
 10
6.2271956364
 20
6.1369535138
 30
0.0
 10
6.2075924321
 20
6.136501295
 30
0.0
 10
6.1862238169
 20
6.1360522595
 30
0.0
 10
6.1631397513
 20
6.1356068506
 30
0.0
 10
6.1383957531
 20
6.1351653049
 30
0.0
 10
6.1022525058
 20
6.1345652052
 30
0.0
 10
6.0533837459
 20
6.1338359292
 30
0.0
 10
5.9906379063
 20
6.1329850069
 30
0.0
 10
5.9228534459
 20
6.1321079587
 30
0.0
 10
5.8506636354
 20
6.1312028705
 30
0.0
 10
5.7747395815
 20
6.1302889943
 30
0.0
 10
5.6957760606
 20
6.1293785451
 30
0.0
 10
5.5865640873
 20
6.1281744384
 30
0.0
 10
5.5037511261
 20
6.1273195258
 30
0.0
 10
5.448117236
 20
6.1267469667
 30
0.0
  0
SPLINE
  5
44E
100
AcDbEntity
  8
0
100
AcDbSpline
 62
7
  6
CONTINUOUS
 70
0
 71
3
 72
34
 73
30
 74
0
 42
0.0000001
 43
0.0000001
 44
0.0000000001
 40
0.0
 40
0.0
 40
0.0
 40
0.0
 40
0.0004313245
 40
0.0010031355
 40
0.0025743814
 40
0.0047204062
 40
0.007443143
 40
0.0107414697
 40
0.0146130225
 40
0.0190552184
 40
0.0240653576
 40
0.0357783262
 40
0.0497293866
 40
0.065891098
 40
0.084221127
 40
0.1046740539
 40
0.1272044004
 40
0.1517653582
 40
0.1782978174
 40
0.2067358643
 40
0.2370134971
 40
0.3028160507
 40
0.3750906328
 40
0.4531712661
 40
0.5363298249
 40
0.6237793284
 40
0.7147225482
 40
0.808350164
 40
1.0
 40
1.0
 40
1.0
 40
1.0
 10
6.3188267456
 20
6.1990836449
 30
0.0
 10
6.3187089657
 20
6.1990411383
 30
0.0
 10
6.3184281305
 20
6.1989619689
 30
0.0
 10
6.3176972186
 20
6.1988055374
 30
0.0
 10
6.3164646535
 20
6.1986222237
 30
0.0
 10
6.3146070719
 20
6.1984113634
 30
0.0
 10
6.3122455682
 20
6.1981973874
 30
0.0
 10
6.3093819195
 20
6.1979798336
 30
0.0
 10
6.3060179957
 20
6.1977600004
 30
0.0
 10
6.3021563527
 20
6.1975381176
 30
0.0
 10
6.2960199946
 20
6.1972235104
 30
0.0
 10
6.2871234973
 20
6.1968352166
 30
0.0
 10
6.2749895877
 20
6.1963850391
 30
0.0
 10
6.2609336613
 20
6.1959323161
 30
0.0
 10
6.2449894072
 20
6.1954782202
 30
0.0
 10
6.2271956364
 20
6.1950243799
 30
0.0
 10
6.2075924321
 20
6.1945721612
 30
0.0
 10
6.1862238169
 20
6.1941231256
 30
0.0
 10
6.1631397513
 20
6.1936777167
 30
0.0
 10
6.1383957531
 20
6.1932361711
 30
0.0
 10
6.1022525058
 20
6.1926360713
 30
0.0
 10
6.0533837459
 20
6.1919067953
 30
0.0
 10
5.9906379063
 20
6.191055873
 30
0.0
 10
5.9228534459
 20
6.1901788249
 30
0.0
 10
5.8506636354
 20
6.1892737366
 30
0.0
 10
5.7747395815
 20
6.1883598605
 30
0.0
 10
5.6957760606
 20
6.1874494112
 30
0.0
 10
5.5865640873
 20
6.1862453045
 30
0.0
 10
5.5037511261
 20
6.1853903919
 30
0.0
 10
5.448117236
 20
6.1848178328
 30
0.0
  0
SPLINE
  5
44F
100
AcDbEntity
  8
0
100
AcDbSpline
 62
7
  6
CONTINUOUS
 70
0
 71
3
 72
34
 73
30
 74
0
 42
0.0000001
 43
0.0000001
 44
0.0000000001
 40
0.0
 40
0.0
 40
0.0
 40
0.0
 40
0.0004313245
 40
0.0010031355
 40
0.0025743814
 40
0.0047204062
 40
0.007443143
 40
0.0107414697
 40
0.0146130225
 40
0.0190552184
 40
0.0240653576
 40
0.0357783262
 40
0.0497293866
 40
0.065891098
 40
0.084221127
 40
0.1046740539
 40
0.1272044004
 40
0.1517653582
 40
0.1782978174
 40
0.2067358643
 40
0.2370134971
 40
0.3028160507
 40
0.3750906328
 40
0.4531712661
 40
0.5363298249
 40
0.6237793284
 40
0.7147225482
 40
0.808350164
 40
1.0
 40
1.0
 40
1.0
 40
1.0
 10
6.3188267456
 20
6.2571545111
 30
0.0
 10
6.3187089657
 20
6.2571120045
 30
0.0
 10
6.3184281305
 20
6.2570328351
 30
0.0
 10
6.3176972186
 20
6.2568764035
 30
0.0
 10
6.3164646535
 20
6.2566930899
 30
0.0
 10
6.3146070719
 20
6.2564822296
 30
0.0
 10
6.3122455682
 20
6.2562682535
 30
0.0
 10
6.3093819195
 20
6.2560506998
 30
0.0
 10
6.3060179957
 20
6.2558308666
 30
0.0
 10
6.3021563527
 20
6.2556089838
 30
0.0
 10
6.2960199946
 20
6.2552943765
 30
0.0
 10
6.2871234973
 20
6.2549060828
 30
0.0
 10
6.2749895877
 20
6.2544559052
 30
0.0
 10
6.2609336613
 20
6.2540031823
 30
0.0
 10
6.2449894072
 20
6.2535490864
 30
0.0
 10
6.2271956364
 20
6.253095246
 30
0.0
 10
6.2075924321
 20
6.2526430273
 30
0.0
 10
6.1862238169
 20
6.2521939918
 30
0.0
 10
6.1631397513
 20
6.2517485828
 30
0.0
 10
6.1383957531
 20
6.2513070372
 30
0.0
 10
6.1022525058
 20
6.2507069374
 30
0.0
 10
6.0533837459
 20
6.2499776615
 30
0.0
 10
5.9906379063
 20
6.2491267392
 30
0.0
 10
5.9228534459
 20
6.248249691
 30
0.0
 10
5.8506636354
 20
6.2473446028
 30
0.0
 10
5.7747395815
 20
6.2464307266
 30
0.0
 10
5.6957760606
 20
6.2455202773
 30
0.0
 10
5.5865640873
 20
6.2443161707
 30
0.0
 10
5.5037511261
 20
6.2434612581
 30
0.0
 10
5.448117236
 20
6.2428886989
 30
0.0
  0
SPLINE
  5
450
100
AcDbEntity
  8
0
100
AcDbSpline
 62
9
  6
CONTINUOUS
 70
0
 71
3
 72
17
 73
13
 74
0
 42
0.0000001
 43
0.0000001
 44
0.0000000001
 40
0.0
 40
0.0
 40
0.0
 40
0.0
 40
0.1210701617
 40
0.2435816803
 40
0.3052738517
 40
0.3671420835
 40
0.4914619666
 40
0.6170825389
 40
0.6805347332
 40
0.7443638689
 40
0.8724345336
 40
1.0
 40
1.0
 40
1.0
 40
1.0
 10
6.5127596777
 20
4.8044907719
 30
0.0
 10
6.514192126
 20
4.8044907719
 30
0.0
 10
6.5170813168
 20
4.804802556
 30
0.0
 10
6.5205452505
 20
4.8059098758
 30
0.0
 10
6.5231589406
 20
4.8072025925
 30
0.0
 10
6.5256443051
 20
4.8087683396
 30
0.0
 10
6.5284500383
 20
4.8112035947
 30
0.0
 10
6.5307401005
 20
4.8141511915
 30
0.0
 10
6.532215378
 20
4.8167592064
 30
0.0
 10
6.5334432486
 20
4.8195242025
 30
0.0
 10
6.5344890562
 20
4.8231790523
 30
0.0
 10
6.5347819459
 20
4.8262098205
 30
0.0
 10
6.5347819459
 20
4.8277191184
 30
0.0
  0
LINE
  5
451
100
AcDbEntity
  8
0
100
AcDbLine
 62
9
  6
CONTINUOUS
 10
4.360246469
 20
4.8277198932
 11
4.3607091795
 21
4.8277132139
  0
ENDSEC
  0
SECTION
  2
OBJECTS
  0
DICTIONARY
  5
C
100
AcDbDictionary
280
0
281
1
  3
ACAD_GROUP
350
D
  3
ACAD_MLINESTYLE
350
17
  3
ACAD_LAYOUT
350
1A
  3
ACAD_PLOTSETTINGS
350
19
  3
ACAD_PLOTSTYLENAME
350
E
  0
DICTIONARY
  5
D
102
{ACAD_REACTORS
330
C
102
}
100
AcDbDictionary
280
0
281
1
  0
ACDBDICTIONARYWDFLT
  5
E
102
{ACAD_REACTORS
330
C
102
}
100
AcDbDictionary
281
1
  3
Normal
350
F
100
AcDbDictionaryWithDefault
340
F
  0
DICTIONARY
  5
17
102
{ACAD_REACTORS
330
C
102
}
100
AcDbDictionary
280
0
281
1
  3
Standard
350
18
  0
DICTIONARY
  5
19
102
{ACAD_REACTORS
330
C
102
}
100
AcDbDictionary
281
1
  0
DICTIONARY
  5
1A
102
{ACAD_REACTORS
330
C
102
}
100
AcDbDictionary
281
1
  3
Model
350
452
  3
Layout1
350
453
  0
ACDBPLACEHOLDER
  5
F
102
{ACAD_REACTORS
330
E
102
}
  0
MLINESTYLE
  5
18
102
{ACAD_REACTORS
330
17
102
}
100
AcDbMlineStyle
  2
STANDARD
 70
0
  3

 62
256
 51
90.0
 52
90.0
 71
2
 49
0.5
 62
256
  6
BYLAYER
 49
-0.5
 62
256
  6
BYLAYER
  0
LAYOUT
  5
452
102
{ACAD_REACTORS
330
1A
102
}
100
AcDbPlotSettings
  1

  2
none_device
  4
ANSI_A_(11.00_x_8.50_Inches)
  6

 40
0.0
 41
0.0
 42
0.0
 43
0.0
 44
279.4
 45
215.9
 46
0.0
 47
0.0
 48
0.0
 49
0.0
140
0.0
141
0.0
142
1.0
143
1.0
 70
1024
 72
0
 73
0
 74
0
  7

 75
0
147
1.0
148
0.0
149
0.0
100
AcDbLayout
  1
Model
 70
0
 71
0
 10
0.0
 20
0.0
 11
11.0
 21
8.5
 12
0.0
 22
0.0
 32
0.0
 14
0.0
 24
0.0
 34
0.0
 15
0.0
 25
0.0
 35
0.0
146
0.0
 13
0.0
 23
0.0
 33
0.0
 16
1.0
 26
0.0
 36
0.0
 17
0.0
 27
1.0
 37
0.0
 76
0
330
22B
345
0
346
0
  0
LAYOUT
  5
453
102
{ACAD_REACTORS
330
1A
102
}
100
AcDbPlotSettings
  1

  2
none_device
  4
ANSI_A_(11.00_x_8.50_Inches)
  6

 40
0.0
 41
0.0
 42
0.0
 43
0.0
 44
279.4
 45
215.9
 46
0.0
 47
0.0
 48
0.0
 49
0.0
140
0.0
141
0.0
142
1.0
143
1.0
 70
0
 72
0
 73
0
 74
0
  7

 75
0
147
1.0
148
0.0
149
0.0
100
AcDbLayout
  1
Layout1
 70
0
 71
1
 10
0.0
 20
0.0
 11
11.0
 21
8.5
 12
0.0
 22
0.0
 32
0.0
 14
0.0
 24
0.0
 34
0.0
 15
0.0
 25
0.0
 35
0.0
146
0.0
 13
0.0
 23
0.0
 33
0.0
 16
1.0
 26
0.0
 36
0.0
 17
0.0
 27
1.0
 37
0.0
 76
0
330
22C
345
0
346
0
  0
ENDSEC
  0
EOF
