999
DXF file: C:\Prowork\plots\330_right.dxf
999
Pro/ENGINEER 2018500 by Parametric Technology Corporation
  0
SECTION
  2
HEADER
  9
$ACADVER
  1
AC1032
  9
$DWGCODEPAGE
  3
ANSI_1252
  9
$EXTMAX
 10
11.0
 20
8.5
 30
0.0
  9
$EXTMIN
 10
0.0
 20
0.0
 30
0.0
  9
$LIMMIN
 10
0.0
 20
0.0
  9
$LIMMAX
 10
11.0
 20
8.5
  9
$VIEWCTR
 10
5.5
 20
4.25
  9
$VIEWSIZE
 40
8.5
  9
$CLAYER
  8
0
  9
$LTSCALE
 40
0.605
  9
$CELTYPE
  6
BYLAYER
  9
$DIMSCALE
 40
1.0
  9
$DIMASZ
 40
0.1
  9
$DIMEXO
 40
0.0625
  9
$DIMDLI
 40
0.418
  9
$DIMEXE
 40
0.125
  9
$DIMCEN
 40
0.099
  9
$DIMLFAC
 40
1.0
  9
$DIMBLK
  1
_FILLED
  9
$DIMALT
 70
1
  9
$DIMALTD
 70
2
  9
$DIMALTTD
 70
2
  9
$DIMALTF
 40
25.4
  9
$DIMTXT
 40
0.08
  9
$DIMTOL
 70
1
  9
$DIMLIM
 70
0
  9
$DIMTFAC
 40
1.0
  9
$DIMTP
 40
0.001
  9
$DIMTM
 40
0.001
  9
$DIMGAP
 40
0.09
  9
$DIMDSEP
 70
46
  9
$AUNITS
 70
0
  9
$PDMODE
 70
3
  9
$PDSIZE
 40
0.06
  9
$HANDSEED
  5
44C
  9
$TILEMODE
 70
1
  9
$MEASUREMENT
 70
0
  9
$INSUNITS
 70
1
  0
ENDSEC
  0
SECTION
  2
CLASSES
  0
CLASS
  1
ACDBDICTIONARYWDFLT
  2
AcDbDictionaryWithDefault
  3
AutoCAD 2000
 90
0
 91
1
280
0
281
0
  0
CLASS
  1
ACDBPLACEHOLDER
  2
AcDbPlaceHolder
  3
AutoCAD 2000
 90
0
 91
1
280
0
281
0
  0
CLASS
  1
LAYOUT
  2
AcDbLayout
  3
AutoCAD 2000
 90
0
 91
0
280
0
281
0
  0
ENDSEC
  0
SECTION
  2
TABLES
  0
TABLE
  2
VPORT
  5
8
100
AcDbSymbolTable
 70
2
  0
VPORT
  5
1F4
100
AcDbSymbolTableRecord
100
AcDbViewportTableRecord
  2
*ACTIVE
 70
0
 10
0.0
 20
0.0
 11
1.0
 21
1.0
 12
5.5
 22
4.25
 13
0.0
 23
0.0
 14
1.0
 24
1.0
 15
0.0
 25
0.0
 16
0.0
 26
0.0
 36
1.0
 17
0.0
 27
0.0
 37
0.0
 40
8.5
 41
1.2941176471
 42
50.0
 43
0.0
 44
0.0
 50
0.0
 51
0.0
 71
0
 72
100
 73
1
 74
1
 75
0
 76
0
 77
0
 78
0
  0
ENDTAB
  0
TABLE
  2
LTYPE
  5
5
100
AcDbSymbolTable
 70
6
  0
LTYPE
  5
14
100
AcDbSymbolTableRecord
100
AcDbLinetypeTableRecord
  2
BYBLOCK
 70
0
  3

 72
65
 73
0
 40
0.0
  0
LTYPE
  5
15
100
AcDbSymbolTableRecord
100
AcDbLinetypeTableRecord
  2
BYLAYER
 70
0
  3

 72
65
 73
0
 40
0.0
  0
LTYPE
  5
16
100
AcDbSymbolTableRecord
100
AcDbLinetypeTableRecord
  2
CONTINUOUS
 70
64
  3
Solid line
 72
65
 73
0
 40
0.0
  0
LTYPE
  5
1F5
100
AcDbSymbolTableRecord
100
AcDbLinetypeTableRecord
  2
CENTER
 70
64
  3
____ _ ____ _ ____ _ ____ _ ____ _ ____ _ ____
 72
65
 73
4
 40
0.6
 49
0.375
 74
0
 49
-0.075
 74
0
 49
0.075
 74
0
 49
-0.075
 74
0
  0
LTYPE
  5
1F6
100
AcDbSymbolTableRecord
100
AcDbLinetypeTableRecord
  2
HIDDEN
 70
64
  3
- - - - - - - - - - - - - - - - - - - -
 72
65
 73
2
 40
0.2
 49
0.1
 74
0
 49
-0.1
 74
0
  0
LTYPE
  5
1F7
100
AcDbSymbolTableRecord
100
AcDbLinetypeTableRecord
  2
PHANTOM
 70
64
  3
_____ _ _ _____ _ _ _____ _ _ _____
 72
65
 73
6
 40
0.8
 49
0.45
 74
0
 49
-0.05
 74
0
 49
0.1
 74
0
 49
-0.05
 74
0
 49
0.1
 74
0
 49
-0.05
 74
0
  0
LTYPE
  5
1F8
100
AcDbSymbolTableRecord
100
AcDbLinetypeTableRecord
  2
DOT
 70
64
  3
. . . . . . . . . . . . . . . . . . . .
 72
65
 73
2
 40
0.2
 49
0.1
 74
0
 49
-0.1
 74
0
  0
LTYPE
  5
1F9
100
AcDbSymbolTableRecord
100
AcDbLinetypeTableRecord
  2
DASHED
 70
64
  3
- - - - - - - - - - - - - - - - - - - -
 72
65
 73
2
 40
0.2
 49
0.1
 74
0
 49
-0.1
 74
0
  0
ENDTAB
  0
TABLE
  2
LAYER
  5
2
100
AcDbSymbolTable
 70
36
  0
LAYER
  5
10
100
AcDbSymbolTableRecord
100
AcDbLayerTableRecord
  2
0
 70
0
 62
7
  6
CONTINUOUS
370
-3
390
F
  0
LAYER
  5
1FA
100
AcDbSymbolTableRecord
100
AcDbLayerTableRecord
  2
DEFAULT_1
 70
0
 62
7
  6
CENTER
370
-3
390
F
  0
LAYER
  5
1FB
100
AcDbSymbolTableRecord
100
AcDbLayerTableRecord
  2
DEFAULT_2
 70
0
 62
8
  6
HIDDEN
370
-3
390
F
  0
LAYER
  5
1FC
100
AcDbSymbolTableRecord
100
AcDbLayerTableRecord
  2
DEFAULT_3
 70
0
 62
7
  6
PHANTOM
370
-3
390
F
  0
LAYER
  5
1FD
100
AcDbSymbolTableRecord
100
AcDbLayerTableRecord
  2
1-708
 70
0
 62
7
  6
CONTINUOUS
370
-3
390
F
  0
LAYER
  5
1FE
100
AcDbSymbolTableRecord
100
AcDbLayerTableRecord
  2
12586
 70
0
 62
7
  6
CONTINUOUS
370
-3
390
F
  0
LAYER
  5
1FF
100
AcDbSymbolTableRecord
100
AcDbLayerTableRecord
  2
12587
 70
0
 62
7
  6
CONTINUOUS
370
-3
390
F
  0
LAYER
  5
200
100
AcDbSymbolTableRecord
100
AcDbLayerTableRecord
  2
12588
 70
0
 62
7
  6
CONTINUOUS
370
-3
390
F
  0
LAYER
  5
201
100
AcDbSymbolTableRecord
100
AcDbLayerTableRecord
  2
20-284
 70
0
 62
7
  6
CONTINUOUS
370
-3
390
F
  0
LAYER
  5
202
100
AcDbSymbolTableRecord
100
AcDbLayerTableRecord
  2
91641
 70
0
 62
7
  6
CONTINUOUS
370
-3
390
F
  0
LAYER
  5
203
100
AcDbSymbolTableRecord
100
AcDbLayerTableRecord
  2
91696
 70
0
 62
7
  6
CONTINUOUS
370
-3
390
F
  0
LAYER
  5
204
100
AcDbSymbolTableRecord
100
AcDbLayerTableRecord
  2
91698
 70
0
 62
7
  6
CONTINUOUS
370
-3
390
F
  0
LAYER
  5
205
100
AcDbSymbolTableRecord
100
AcDbLayerTableRecord
  2
91699
 70
0
 62
7
  6
CONTINUOUS
370
-3
390
F
  0
LAYER
  5
206
100
AcDbSymbolTableRecord
100
AcDbLayerTableRecord
  2
91705
 70
0
 62
7
  6
CONTINUOUS
370
-3
390
F
  0
LAYER
  5
207
100
AcDbSymbolTableRecord
100
AcDbLayerTableRecord
  2
92858
 70
0
 62
7
  6
CONTINUOUS
370
-3
390
F
  0
LAYER
  5
208
100
AcDbSymbolTableRecord
100
AcDbLayerTableRecord
  2
DEFAULT_COORDINATE_SYSTEM
 70
0
 62
7
  6
CONTINUOUS
370
-3
390
F
  0
LAYER
  5
209
100
AcDbSymbolTableRecord
100
AcDbLayerTableRecord
  2
DEFAULT_DATUM_AXES
 70
0
 62
7
  6
CONTINUOUS
370
-3
390
F
  0
LAYER
  5
20A
100
AcDbSymbolTableRecord
100
AcDbLayerTableRecord
  2
DEFAULT_DATUM_PLANES
 70
0
 62
7
  6
CONTINUOUS
370
-3
390
F
  0
LAYER
  5
20B
100
AcDbSymbolTableRecord
100
AcDbLayerTableRecord
  2
INTF_11
 70
0
 62
7
  6
CONTINUOUS
370
-3
390
F
  0
LAYER
  5
20C
100
AcDbSymbolTableRecord
100
AcDbLayerTableRecord
  2
INTF_12586
 70
0
 62
7
  6
CONTINUOUS
370
-3
390
F
  0
LAYER
  5
20D
100
AcDbSymbolTableRecord
100
AcDbLayerTableRecord
  2
INTF_12587
 70
0
 62
7
  6
CONTINUOUS
370
-3
390
F
  0
LAYER
  5
20E
100
AcDbSymbolTableRecord
100
AcDbLayerTableRecord
  2
INTF_12588
 70
0
 62
7
  6
CONTINUOUS
370
-3
390
F
  0
LAYER
  5
20F
100
AcDbSymbolTableRecord
100
AcDbLayerTableRecord
  2
INTF_91641
 70
0
 62
7
  6
CONTINUOUS
370
-3
390
F
  0
LAYER
  5
210
100
AcDbSymbolTableRecord
100
AcDbLayerTableRecord
  2
INTF_91696
 70
0
 62
7
  6
CONTINUOUS
370
-3
390
F
  0
LAYER
  5
211
100
AcDbSymbolTableRecord
100
AcDbLayerTableRecord
  2
INTF_91698
 70
0
 62
7
  6
CONTINUOUS
370
-3
390
F
  0
LAYER
  5
212
100
AcDbSymbolTableRecord
100
AcDbLayerTableRecord
  2
INTF_91699
 70
0
 62
7
  6
CONTINUOUS
370
-3
390
F
  0
LAYER
  5
213
100
AcDbSymbolTableRecord
100
AcDbLayerTableRecord
  2
INTF_91705
 70
0
 62
7
  6
CONTINUOUS
370
-3
390
F
  0
LAYER
  5
214
100
AcDbSymbolTableRecord
100
AcDbLayerTableRecord
  2
INTF_92858
 70
0
 62
7
  6
CONTINUOUS
370
-3
390
F
  0
LAYER
  5
215
100
AcDbSymbolTableRecord
100
AcDbLayerTableRecord
  2
NONE
 70
0
 62
7
  6
CONTINUOUS
370
-3
390
F
  0
LAYER
  5
216
100
AcDbSymbolTableRecord
100
AcDbLayerTableRecord
  2
NONE_1
 70
0
 62
7
  6
CONTINUOUS
370
-3
390
F
  0
LAYER
  5
217
100
AcDbSymbolTableRecord
100
AcDbLayerTableRecord
  2
NONE_10
 70
0
 62
7
  6
CONTINUOUS
370
-3
390
F
  0
LAYER
  5
218
100
AcDbSymbolTableRecord
100
AcDbLayerTableRecord
  2
NONE_11
 70
0
 62
7
  6
CONTINUOUS
370
-3
390
F
  0
LAYER
  5
219
100
AcDbSymbolTableRecord
100
AcDbLayerTableRecord
  2
NONE_12
 70
0
 62
7
  6
CONTINUOUS
370
-3
390
F
  0
LAYER
  5
21A
100
AcDbSymbolTableRecord
100
AcDbLayerTableRecord
  2
NONE_13
 70
0
 62
7
  6
CONTINUOUS
370
-3
390
F
  0
LAYER
  5
21B
100
AcDbSymbolTableRecord
100
AcDbLayerTableRecord
  2
NONE_2
 70
0
 62
7
  6
CONTINUOUS
370
-3
390
F
  0
LAYER
  5
21C
100
AcDbSymbolTableRecord
100
AcDbLayerTableRecord
  2
NONE_3
 70
0
 62
7
  6
CONTINUOUS
370
-3
390
F
  0
LAYER
  5
21D
100
AcDbSymbolTableRecord
100
AcDbLayerTableRecord
  2
NONE_4
 70
0
 62
7
  6
CONTINUOUS
370
-3
390
F
  0
LAYER
  5
21E
100
AcDbSymbolTableRecord
100
AcDbLayerTableRecord
  2
NONE_5
 70
0
 62
7
  6
CONTINUOUS
370
-3
390
F
  0
LAYER
  5
21F
100
AcDbSymbolTableRecord
100
AcDbLayerTableRecord
  2
NONE_6
 70
0
 62
7
  6
CONTINUOUS
370
-3
390
F
  0
LAYER
  5
220
100
AcDbSymbolTableRecord
100
AcDbLayerTableRecord
  2
NONE_7
 70
0
 62
7
  6
CONTINUOUS
370
-3
390
F
  0
LAYER
  5
221
100
AcDbSymbolTableRecord
100
AcDbLayerTableRecord
  2
NONE_8
 70
0
 62
7
  6
CONTINUOUS
370
-3
390
F
  0
LAYER
  5
222
100
AcDbSymbolTableRecord
100
AcDbLayerTableRecord
  2
NONE_9
 70
0
 62
7
  6
CONTINUOUS
370
-3
390
F
  0
LAYER
  5
223
100
AcDbSymbolTableRecord
100
AcDbLayerTableRecord
  2
PRODUCT_27206
 70
0
 62
7
  6
CONTINUOUS
370
-3
390
F
  0
LAYER
  5
224
100
AcDbSymbolTableRecord
100
AcDbLayerTableRecord
  2
PRODUCT_27223
 70
0
 62
7
  6
CONTINUOUS
370
-3
390
F
  0
LAYER
  5
225
100
AcDbSymbolTableRecord
100
AcDbLayerTableRecord
  2
PRODUCT_27240
 70
0
 62
7
  6
CONTINUOUS
370
-3
390
F
  0
LAYER
  5
226
100
AcDbSymbolTableRecord
100
AcDbLayerTableRecord
  2
PRODUCT_27257
 70
0
 62
7
  6
CONTINUOUS
370
-3
390
F
  0
LAYER
  5
227
100
AcDbSymbolTableRecord
100
AcDbLayerTableRecord
  2
PRODUCT_27274
 70
0
 62
7
  6
CONTINUOUS
370
-3
390
F
  0
LAYER
  5
228
100
AcDbSymbolTableRecord
100
AcDbLayerTableRecord
  2
PRODUCT_27291
 70
0
 62
7
  6
CONTINUOUS
370
-3
390
F
  0
ENDTAB
  0
TABLE
  2
STYLE
  5
3
100
AcDbSymbolTable
 70
1
  0
STYLE
  5
11
100
AcDbSymbolTableRecord
100
AcDbTextStyleTableRecord
  2
STANDARD
 70
0
 40
0.0
 41
0.8
 50
0.0
 71
0
 42
0.2
  3
txt
  4

  0
STYLE
  5
229
100
AcDbSymbolTableRecord
100
AcDbTextStyleTableRecord
  2
TEXTSTYLE_1
 70
0
 40
0.0
 41
0.8
 50
0.0
 71
0
 42
0.2
  3
gdt
  4

  0
ENDTAB
  0
TABLE
  2
VIEW
  5
6
100
AcDbSymbolTable
 70
0
  0
ENDTAB
  0
TABLE
  2
UCS
  5
7
100
AcDbSymbolTable
 70
0
  0
ENDTAB
  0
TABLE
  2
APPID
  5
9
100
AcDbSymbolTable
 70
1
  0
APPID
  5
22A
100
AcDbSymbolTableRecord
100
AcDbRegAppTableRecord
  2
ACAD
 70
0
  0
ENDTAB
  0
TABLE
  2
BLOCK_RECORD
  5
1
100
AcDbSymbolTable
 70
0
  0
BLOCK_RECORD
  5
22B
100
AcDbSymbolTableRecord
100
AcDbBlockTableRecord
  2
*Model_Space
  0
BLOCK_RECORD
  5
22C
100
AcDbSymbolTableRecord
100
AcDbBlockTableRecord
  2
*Paper_Space
  0
BLOCK_RECORD
  5
22D
100
AcDbSymbolTableRecord
100
AcDbBlockTableRecord
  2
_FILLED
  0
ENDTAB
  0
TABLE
  2
DIMSTYLE
  5
A
100
AcDbSymbolTable
 70
1
100
AcDbDimStyleTable
 71
0
  0
DIMSTYLE
105
22E
100
AcDbSymbolTableRecord
100
AcDbDimStyleTableRecord
  2
STANDARD
 70
0
  3

  4

 40
1.0
 41
0.1
 42
0.0625
 43
0.38
 44
0.125
 45
0.0
 46
0.0
 47
0.001
 48
0.001
140
0.08
141
0.09
142
0.0
143
25.4
144
1.0
145
0.0
146
1.0
147
0.09
 71
1.0
 72
0.0
 73
1
 74
1
 75
0
 76
0
 77
0
 78
4
 79
1
170
1
171
2
172
0
173
0
174
0
175
0
176
0
177
0
178
0
270
2
179
3
271
3
272
3
273
2
274
2
275
0
280
0
281
0
282
0
283
1
284
4
285
0
286
0
287
3
288
0
340
11
278
46
341
22D
342
22D
343
22D
344
22D
  0
ENDTAB
  0
ENDSEC
  0
SECTION
  2
BLOCKS
  0
BLOCK
  5
20
100
AcDbEntity
  8
0
100
AcDbBlockBegin
  2
*Model_Space
 70
0
 10
0.0
 20
0.0
 30
0.0
  3
*Model_Space
  1

  0
ENDBLK
  5
21
100
AcDbEntity
  8
0
100
AcDbBlockEnd
  0
BLOCK
  5
1C
100
AcDbEntity
  8
0
100
AcDbBlockBegin
  2
*Paper_Space
 70
0
 10
0.0
 20
0.0
 30
0.0
  3
*Paper_Space
  1

  0
ENDBLK
  5
1D
100
AcDbEntity
  8
0
100
AcDbBlockEnd
  0
BLOCK
  5
22F
100
AcDbEntity
  8
0
100
AcDbBlockBegin
  2
_FILLED
 70
64
 10
0.0
 20
0.0
  3
_FILLED
  1

  0
SOLID
  5
230
100
AcDbEntity
  8
0
  6
BYBLOCK
 62
0
100
AcDbTrace
 10
0.0
 20
0.0
 11
-1.0
 21
0.2
 12
-1.0
 22
-0.2
 13
-1.0
 23
-0.2
  0
ENDBLK
  5
231
100
AcDbEntity
  8
0
  6
BYBLOCK
 62
0
100
AcDbBlockEnd
  0
ENDSEC
  0
SECTION
  2
ENTITIES
  0
MTEXT
  5
232
100
AcDbEntity
  8
0
100
AcDbMText
 62
7
  6
CONTINUOUS
  7
STANDARD
 71
1
 72
1
 10
9.4142663043
 20
0.410322205
 30
0.0
 11
1.0
 21
0.0
 31
0.0
 73
2
 44
0.9
  1
SCALE: 1.18
 40
0.08
 41
0.704
  0
LINE
  5
233
100
AcDbEntity
  8
0
100
AcDbLine
 62
7
  6
CONTINUOUS
 10
0.0
 20
0.0
 11
0.0
 21
8.5
  0
LINE
  5
234
100
AcDbEntity
  8
0
100
AcDbLine
 62
7
  6
CONTINUOUS
 10
0.0
 20
0.0
 11
11.0
 21
0.0
  0
LINE
  5
235
100
AcDbEntity
  8
0
100
AcDbLine
 62
7
  6
CONTINUOUS
 10
0.0
 20
8.5
 11
11.0
 21
8.5
  0
LINE
  5
236
100
AcDbEntity
  8
0
100
AcDbLine
 62
7
  6
CONTINUOUS
 10
11.0
 20
0.0
 11
11.0
 21
8.5
  0
LINE
  5
237
100
AcDbEntity
  8
0
100
AcDbLine
 62
7
  6
CONTINUOUS
 10
6.0802257238
 20
0.0959053439
 11
4.6084776923
 21
0.0959053439
  0
LINE
  5
238
100
AcDbEntity
  8
0
100
AcDbLine
 62
7
  6
CONTINUOUS
 10
4.6246365018
 20
8.1345783901
 11
4.6233525995
 21
8.1325770129
  0
LINE
  5
239
100
AcDbEntity
  8
0
100
AcDbLine
 62
7
  6
CONTINUOUS
 10
4.4732887159
 20
6.2890238466
 11
4.4737123338
 21
6.2893021524
  0
LINE
  5
23A
100
AcDbEntity
  8
0
100
AcDbLine
 62
7
  6
CONTINUOUS
 10
4.4732887159
 20
6.2309529804
 11
4.473715534
 21
6.2312324351
  0
LINE
  5
23B
100
AcDbEntity
  8
0
100
AcDbLine
 62
7
  6
CONTINUOUS
 10
4.4732887159
 20
6.1728821143
 11
4.473715534
 21
6.173161569
  0
LINE
  5
23C
100
AcDbEntity
  8
0
100
AcDbLine
 62
7
  6
CONTINUOUS
 10
4.4732887159
 20
6.1148112482
 11
4.473715534
 21
6.1150907029
  0
LINE
  5
23D
100
AcDbEntity
  8
0
100
AcDbLine
 62
7
  6
CONTINUOUS
 10
4.5062431773
 20
6.3000945044
 11
4.4737123332
 21
6.2893042873
  0
LINE
  5
23E
100
AcDbEntity
  8
0
100
AcDbLine
 62
7
  6
CONTINUOUS
 10
4.5062476252
 20
6.2420256983
 11
4.4737155331
 21
6.2312350123
  0
LINE
  5
23F
100
AcDbEntity
  8
0
100
AcDbLine
 62
7
  6
CONTINUOUS
 10
4.5062476252
 20
6.1839548322
 11
4.4737155331
 21
6.1731641462
  0
LINE
  5
240
100
AcDbEntity
  8
0
100
AcDbLine
 62
7
  6
CONTINUOUS
 10
4.5062476252
 20
6.125883966
 11
4.4737155331
 21
6.1150932801
  0
LINE
  5
241
100
AcDbEntity
  8
0
100
AcDbLine
 62
7
  6
CONTINUOUS
 10
4.4386784797
 20
6.0732998428
 11
4.1053517081
 21
5.6691266145
  0
LINE
  5
242
100
AcDbEntity
  8
0
100
AcDbLine
 62
7
  6
CONTINUOUS
 10
4.4732887159
 20
5.4760317206
 11
4.473715534
 21
5.4763111753
  0
LINE
  5
243
100
AcDbEntity
  8
0
100
AcDbLine
 62
7
  6
CONTINUOUS
 10
4.4732887159
 20
5.4179608545
 11
4.473715534
 21
5.4182403092
  0
LINE
  5
244
100
AcDbEntity
  8
0
100
AcDbLine
 62
7
  6
CONTINUOUS
 10
4.4732887159
 20
5.5341025867
 11
4.4737155342
 21
5.5343812374
  0
LINE
  5
245
100
AcDbEntity
  8
0
100
AcDbLine
 62
7
  6
CONTINUOUS
 10
6.1825352577
 20
6.2943343647
 11
6.2150650168
 21
6.3062573457
  0
LINE
  5
246
100
AcDbEntity
  8
0
100
AcDbLine
 62
7
  6
CONTINUOUS
 10
6.1825352577
 20
6.2362634986
 11
6.2150650168
 21
6.2481864796
  0
LINE
  5
247
100
AcDbEntity
  8
0
100
AcDbLine
 62
7
  6
CONTINUOUS
 10
6.1825352577
 20
6.1781926324
 11
6.2150650168
 21
6.1901156134
  0
LINE
  5
248
100
AcDbEntity
  8
0
100
AcDbLine
 62
7
  6
CONTINUOUS
 10
6.1825352577
 20
6.1201217663
 11
6.2150650168
 21
6.1320447473
  0
LINE
  5
249
100
AcDbEntity
  8
0
100
AcDbLine
 62
7
  6
CONTINUOUS
 10
4.5062476252
 20
5.5451753046
 11
4.4737155331
 21
5.5343846186
  0
LINE
  5
24A
100
AcDbEntity
  8
0
100
AcDbLine
 62
7
  6
CONTINUOUS
 10
4.5062476252
 20
5.4871044385
 11
4.4737155331
 21
5.4763137525
  0
LINE
  5
24B
100
AcDbEntity
  8
0
100
AcDbLine
 62
7
  6
CONTINUOUS
 10
3.9506509207
 20
7.717851857
 11
3.9506509207
 21
7.7082453944
  0
LINE
  5
24C
100
AcDbEntity
  8
0
100
AcDbLine
 62
7
  6
CONTINUOUS
 10
4.0900209994
 20
7.2380060783
 11
4.0900209994
 21
7.1450926924
  0
LINE
  5
24D
100
AcDbEntity
  8
0
100
AcDbLine
 62
7
  6
CONTINUOUS
 10
4.1053517081
 20
5.6691266145
 11
4.1053517081
 21
5.5622762208
  0
LINE
  5
24E
100
AcDbEntity
  8
0
100
AcDbLine
 62
7
  6
CONTINUOUS
 10
4.1295091884
 20
5.3759935028
 11
4.1295091884
 21
5.3202454713
  0
LINE
  5
24F
100
AcDbEntity
  8
0
100
AcDbLine
 62
7
  6
CONTINUOUS
 10
4.1480918656
 20
5.0945910922
 11
4.1480918656
 21
5.1271107773
  0
LINE
  5
250
100
AcDbEntity
  8
0
100
AcDbLine
 62
7
  6
CONTINUOUS
 10
6.2154147002
 20
6.3065126413
 11
6.2150650161
 21
6.3062597691
  0
LINE
  5
251
100
AcDbEntity
  8
0
100
AcDbLine
 62
7
  6
CONTINUOUS
 10
4.4732887159
 20
5.3018191222
 11
4.473715534
 21
5.3020985769
  0
LINE
  5
252
100
AcDbEntity
  8
0
100
AcDbLine
 62
7
  6
CONTINUOUS
 10
4.4732887159
 20
5.243748256
 11
4.473715534
 21
5.2440277107
  0
LINE
  5
253
100
AcDbEntity
  8
0
100
AcDbLine
 62
7
  6
CONTINUOUS
 10
4.4732887159
 20
5.1856773899
 11
4.473715534
 21
5.1859568446
  0
LINE
  5
254
100
AcDbEntity
  8
0
100
AcDbLine
 62
7
  6
CONTINUOUS
 10
4.5062476252
 20
5.4290335723
 11
4.4737155331
 21
5.4182428864
  0
LINE
  5
255
100
AcDbEntity
  8
0
100
AcDbLine
 62
7
  6
CONTINUOUS
 10
4.5062476252
 20
5.31289184
 11
4.4737155331
 21
5.3021011541
  0
LINE
  5
256
100
AcDbEntity
  8
0
100
AcDbLine
 62
7
  6
CONTINUOUS
 10
4.5062476252
 20
5.2548209739
 11
4.4737155331
 21
5.2440302879
  0
LINE
  5
257
100
AcDbEntity
  8
0
100
AcDbLine
 62
7
  6
CONTINUOUS
 10
4.5062476252
 20
5.1967501078
 11
4.4737155331
 21
5.1859594218
  0
LINE
  5
258
100
AcDbEntity
  8
0
100
AcDbLine
 62
7
  6
CONTINUOUS
 10
4.2912437955
 20
5.04348873
 11
4.2912437955
 21
4.8623007355
  0
LINE
  5
259
100
AcDbEntity
  8
0
100
AcDbLine
 62
9
  6
CONTINUOUS
 10
4.2917065271
 20
5.04348873
 11
4.2917065271
 21
4.8623076277
  0
LINE
  5
25A
100
AcDbEntity
  8
0
100
AcDbLine
 62
7
  6
CONTINUOUS
 10
4.4732887159
 20
6.2890238466
 11
4.4732887159
 21
6.2774772083
  0
LINE
  5
25B
100
AcDbEntity
  8
0
100
AcDbLine
 62
7
  6
CONTINUOUS
 10
4.4732887159
 20
4.6514929563
 11
4.4732887159
 21
4.6630395946
  0
LINE
  5
25C
100
AcDbEntity
  8
0
100
AcDbLine
 62
7
  6
CONTINUOUS
 10
4.4732887159
 20
4.7095638224
 11
4.4732887159
 21
4.7211104608
  0
LINE
  5
25D
100
AcDbEntity
  8
0
100
AcDbLine
 62
7
  6
CONTINUOUS
 10
4.4732887159
 20
4.7676346886
 11
4.4732887159
 21
4.7791813269
  0
LINE
  5
25E
100
AcDbEntity
  8
0
100
AcDbLine
 62
7
  6
CONTINUOUS
 10
4.4732887159
 20
4.8257055547
 11
4.4732887159
 21
4.837252193
  0
LINE
  5
25F
100
AcDbEntity
  8
0
100
AcDbLine
 62
7
  6
CONTINUOUS
 10
4.4732887159
 20
5.1741307516
 11
4.4732887159
 21
5.1856773899
  0
LINE
  5
260
100
AcDbEntity
  8
0
100
AcDbLine
 62
7
  6
CONTINUOUS
 10
4.4732887159
 20
5.2322016177
 11
4.4732887159
 21
5.243748256
  0
LINE
  5
261
100
AcDbEntity
  8
0
100
AcDbLine
 62
7
  6
CONTINUOUS
 10
4.4732887159
 20
5.2902724838
 11
4.4732887159
 21
5.3018191222
  0
LINE
  5
262
100
AcDbEntity
  8
0
100
AcDbLine
 62
7
  6
CONTINUOUS
 10
4.4732887159
 20
5.4064142161
 11
4.4732887159
 21
5.4179608545
  0
LINE
  5
263
100
AcDbEntity
  8
0
100
AcDbLine
 62
7
  6
CONTINUOUS
 10
4.4732887159
 20
5.4644850823
 11
4.4732887159
 21
5.4760317206
  0
LINE
  5
264
100
AcDbEntity
  8
0
100
AcDbLine
 62
7
  6
CONTINUOUS
 10
4.4732887159
 20
5.5225559484
 11
4.4732887159
 21
5.5341025867
  0
LINE
  5
265
100
AcDbEntity
  8
0
100
AcDbLine
 62
7
  6
CONTINUOUS
 10
4.4732887159
 20
6.1032646098
 11
4.4732887159
 21
6.1148112482
  0
LINE
  5
266
100
AcDbEntity
  8
0
100
AcDbLine
 62
7
  6
CONTINUOUS
 10
4.4732887159
 20
6.161335476
 11
4.4732887159
 21
6.1728821143
  0
LINE
  5
267
100
AcDbEntity
  8
0
100
AcDbLine
 62
7
  6
CONTINUOUS
 10
4.4732887159
 20
6.2194063421
 11
4.4732887159
 21
6.2309529804
  0
LINE
  5
268
100
AcDbEntity
  8
0
100
AcDbLine
 62
7
  6
CONTINUOUS
 10
4.4732887159
 20
6.3355480744
 11
4.4732887159
 21
6.4476372111
  0
LINE
  5
269
100
AcDbEntity
  8
0
100
AcDbLine
 62
7
  6
CONTINUOUS
 10
4.4732887159
 20
7.051574219
 11
4.4732887159
 21
7.1450926924
  0
LINE
  5
26A
100
AcDbEntity
  8
0
100
AcDbLine
 62
7
  6
CONTINUOUS
 10
4.4732887159
 20
7.2380060783
 11
4.4732887159
 21
7.4634853368
  0
LINE
  5
26B
100
AcDbEntity
  8
0
100
AcDbLine
 62
7
  6
CONTINUOUS
 10
4.5058083985
 20
6.3236343857
 11
4.5058083985
 21
6.2998056547
  0
LINE
  5
26C
100
AcDbEntity
  8
0
100
AcDbLine
 62
7
  6
CONTINUOUS
 10
4.505808401
 20
6.2655628435
 11
4.505808401
 21
6.2417341125
  0
LINE
  5
26D
100
AcDbEntity
  8
0
100
AcDbLine
 62
7
  6
CONTINUOUS
 10
4.505808401
 20
6.2074919774
 11
4.505808401
 21
6.1836632464
  0
LINE
  5
26E
100
AcDbEntity
  8
0
100
AcDbLine
 62
7
  6
CONTINUOUS
 10
4.505808401
 20
6.1494211113
 11
4.505808401
 21
6.1255923802
  0
LINE
  5
26F
100
AcDbEntity
  8
0
100
AcDbLine
 62
7
  6
CONTINUOUS
 10
4.505808401
 20
6.0913502451
 11
4.505808401
 21
6.0732998428
  0
LINE
  5
270
100
AcDbEntity
  8
0
100
AcDbLine
 62
7
  6
CONTINUOUS
 10
4.505808401
 20
5.5622762208
 11
4.505808401
 21
5.5448837188
  0
LINE
  5
271
100
AcDbEntity
  8
0
100
AcDbLine
 62
7
  6
CONTINUOUS
 10
4.505808401
 20
5.5106415837
 11
4.505808401
 21
5.4868128527
  0
LINE
  5
272
100
AcDbEntity
  8
0
100
AcDbLine
 62
7
  6
CONTINUOUS
 10
4.505808401
 20
5.4525707176
 11
4.505808401
 21
5.4287419865
  0
LINE
  5
273
100
AcDbEntity
  8
0
100
AcDbLine
 62
7
  6
CONTINUOUS
 10
4.505808401
 20
5.3944998514
 11
4.505808401
 21
5.3759935028
  0
LINE
  5
274
100
AcDbEntity
  8
0
100
AcDbLine
 62
7
  6
CONTINUOUS
 10
4.505808401
 20
5.3202454713
 11
4.505808401
 21
5.3126002542
  0
LINE
  5
275
100
AcDbEntity
  8
0
100
AcDbLine
 62
7
  6
CONTINUOUS
 10
4.505808401
 20
5.2783581191
 11
4.505808401
 21
5.2545293881
  0
LINE
  5
276
100
AcDbEntity
  8
0
100
AcDbLine
 62
7
  6
CONTINUOUS
 10
4.505808401
 20
5.220287253
 11
4.505808401
 21
5.196458522
  0
LINE
  5
277
100
AcDbEntity
  8
0
100
AcDbLine
 62
7
  6
CONTINUOUS
 10
4.505808401
 20
5.1622163869
 11
4.505808401
 21
5.154984793
  0
LINE
  5
278
100
AcDbEntity
  8
0
100
AcDbLine
 62
7
  6
CONTINUOUS
 10
4.505808401
 20
4.81379119
 11
4.505808401
 21
4.789962459
  0
LINE
  5
279
100
AcDbEntity
  8
0
100
AcDbLine
 62
7
  6
CONTINUOUS
 10
4.505808401
 20
4.7557203239
 11
4.505808401
 21
4.7318915928
  0
LINE
  5
27A
100
AcDbEntity
  8
0
100
AcDbLine
 62
7
  6
CONTINUOUS
 10
4.505808401
 20
4.6976494577
 11
4.505808401
 21
4.6738207267
  0
LINE
  5
27B
100
AcDbEntity
  8
0
100
AcDbLine
 62
7
  6
CONTINUOUS
 10
4.505808401
 20
4.6395785916
 11
4.505808401
 21
4.6157498605
  0
LINE
  5
27C
100
AcDbEntity
  8
0
100
AcDbLine
 62
9
  6
CONTINUOUS
 10
4.5074508587
 20
4.8623076277
 11
4.5074508587
 21
5.04348873
  0
LINE
  5
27D
100
AcDbEntity
  8
0
100
AcDbLine
 62
7
  6
CONTINUOUS
 10
6.2154147002
 20
6.0742151666
 11
6.2150650207
 21
6.0739606935
  0
LINE
  5
27E
100
AcDbEntity
  8
0
100
AcDbLine
 62
7
  6
CONTINUOUS
 10
6.2154147002
 20
6.2484417752
 11
6.2150650161
 21
6.2481889029
  0
LINE
  5
27F
100
AcDbEntity
  8
0
100
AcDbLine
 62
7
  6
CONTINUOUS
 10
6.2154147002
 20
6.190370909
 11
6.2150650161
 21
6.1901180368
  0
LINE
  5
280
100
AcDbEntity
  8
0
100
AcDbLine
 62
7
  6
CONTINUOUS
 10
6.2154147002
 20
6.1323000429
 11
6.2150650161
 21
6.1320471707
  0
LINE
  5
281
100
AcDbEntity
  8
0
100
AcDbLine
 62
7
  6
CONTINUOUS
 10
4.4732887159
 20
4.837252193
 11
4.473715534
 21
4.8375316477
  0
LINE
  5
282
100
AcDbEntity
  8
0
100
AcDbLine
 62
7
  6
CONTINUOUS
 10
4.4732887159
 20
4.7791813269
 11
4.473715534
 21
4.7794607816
  0
LINE
  5
283
100
AcDbEntity
  8
0
100
AcDbLine
 62
7
  6
CONTINUOUS
 10
4.4732887159
 20
4.7211104608
 11
4.473715534
 21
4.7213899155
  0
LINE
  5
284
100
AcDbEntity
  8
0
100
AcDbLine
 62
7
  6
CONTINUOUS
 10
4.4732887159
 20
4.6630395946
 11
4.473715534
 21
4.6633190493
  0
LINE
  5
285
100
AcDbEntity
  8
0
100
AcDbLine
 62
7
  6
CONTINUOUS
 10
6.1825352577
 20
5.5394131049
 11
6.2150650168
 21
5.5513360859
  0
LINE
  5
286
100
AcDbEntity
  8
0
100
AcDbLine
 62
7
  6
CONTINUOUS
 10
6.1825352577
 20
5.4813422387
 11
6.2150650168
 21
5.4932652197
  0
LINE
  5
287
100
AcDbEntity
  8
0
100
AcDbLine
 62
9
  6
CONTINUOUS
 10
4.5228289315
 20
5.04348873
 11
4.5228289315
 21
4.8623076277
  0
LINE
  5
288
100
AcDbEntity
  8
0
100
AcDbLine
 62
7
  6
CONTINUOUS
 10
4.5313595821
 20
7.9606872492
 11
4.5313595821
 21
8.0071439421
  0
LINE
  5
289
100
AcDbEntity
  8
0
100
AcDbLine
 62
7
  6
CONTINUOUS
 10
4.5325185071
 20
8.2022620523
 11
4.5325185071
 21
8.237104572
  0
LINE
  5
28A
100
AcDbEntity
  8
0
100
AcDbLine
 62
7
  6
CONTINUOUS
 10
4.6084776923
 20
4.5962580998
 11
4.6084776923
 21
0.0959053439
  0
LINE
  5
28B
100
AcDbEntity
  8
0
100
AcDbLine
 62
7
  6
CONTINUOUS
 10
4.6246365018
 20
8.0071439421
 11
4.6246365018
 21
8.0973977578
  0
LINE
  5
28C
100
AcDbEntity
  8
0
100
AcDbLine
 62
7
  6
CONTINUOUS
 10
4.6246365018
 20
8.1345783901
 11
4.6246365018
 21
8.2022620523
  0
LINE
  5
28D
100
AcDbEntity
  8
0
100
AcDbLine
 62
7
  6
CONTINUOUS
 10
4.639645355
 20
6.2948672809
 11
4.6396453998
 21
6.341391509
  0
LINE
  5
28E
100
AcDbEntity
  8
0
100
AcDbLine
 62
7
  6
CONTINUOUS
 10
4.6750487612
 20
6.540550597
 11
4.6750487612
 21
6.9586608332
  0
LINE
  5
28F
100
AcDbEntity
  8
0
100
AcDbLine
 62
7
  6
CONTINUOUS
 10
6.0640669143
 20
8.0973977578
 11
6.0668576799
 21
8.1047029972
  0
LINE
  5
290
100
AcDbEntity
  8
0
100
AcDbLine
 62
7
  6
CONTINUOUS
 10
6.2154147002
 20
5.5515867388
 11
6.2150650181
 21
5.5513317158
  0
LINE
  5
291
100
AcDbEntity
  8
0
100
AcDbLine
 62
7
  6
CONTINUOUS
 10
6.1825352577
 20
5.4232713726
 11
6.2150650168
 21
5.4351943536
  0
LINE
  5
292
100
AcDbEntity
  8
0
100
AcDbLine
 62
7
  6
CONTINUOUS
 10
6.1825352577
 20
5.3071296403
 11
6.2150650168
 21
5.3190526213
  0
LINE
  5
293
100
AcDbEntity
  8
0
100
AcDbLine
 62
7
  6
CONTINUOUS
 10
6.1825352577
 20
5.2490587742
 11
6.2150650168
 21
5.2609817552
  0
LINE
  5
294
100
AcDbEntity
  8
0
100
AcDbLine
 62
7
  6
CONTINUOUS
 10
6.1825352577
 20
5.190987908
 11
6.2150650168
 21
5.202910889
  0
LINE
  5
295
100
AcDbEntity
  8
0
100
AcDbLine
 62
7
  6
CONTINUOUS
 10
4.5062476252
 20
4.7902540448
 11
4.4737155331
 21
4.7794633588
  0
LINE
  5
296
100
AcDbEntity
  8
0
100
AcDbLine
 62
7
  6
CONTINUOUS
 10
4.5062476252
 20
4.7321831786
 11
4.4737155331
 21
4.7213924927
  0
LINE
  5
297
100
AcDbEntity
  8
0
100
AcDbLine
 62
7
  6
CONTINUOUS
 10
4.5062476252
 20
4.6741123125
 11
4.4737155331
 21
4.6633216265
  0
LINE
  5
298
100
AcDbEntity
  8
0
100
AcDbLine
 62
7
  6
CONTINUOUS
 10
4.5062476244
 20
4.6160414456
 11
4.4844094362
 21
4.6087978136
  0
LINE
  5
299
100
AcDbEntity
  8
0
100
AcDbLine
 62
7
  6
CONTINUOUS
 10
4.9355328104
 20
7.7410802035
 11
4.9355328104
 21
7.9606872492
  0
LINE
  5
29A
100
AcDbEntity
  8
0
100
AcDbLine
 62
7
  6
CONTINUOUS
 10
6.2154147002
 20
5.4935205153
 11
6.2150650161
 21
5.4932676431
  0
LINE
  5
29B
100
AcDbEntity
  8
0
100
AcDbLine
 62
7
  6
CONTINUOUS
 10
6.2154147002
 20
5.4354496492
 11
6.2150650161
 21
5.435196777
  0
LINE
  5
29C
100
AcDbEntity
  8
0
100
AcDbLine
 62
7
  6
CONTINUOUS
 10
6.2154147002
 20
5.3773787831
 11
6.2150650161
 21
5.3771259108
  0
LINE
  5
29D
100
AcDbEntity
  8
0
100
AcDbLine
 62
7
  6
CONTINUOUS
 10
6.2154147002
 20
5.3193079169
 11
6.2150650161
 21
5.3190550447
  0
LINE
  5
29E
100
AcDbEntity
  8
0
100
AcDbLine
 62
7
  6
CONTINUOUS
 10
6.2154147002
 20
5.2612370508
 11
6.2150650161
 21
5.2609841785
  0
LINE
  5
29F
100
AcDbEntity
  8
0
100
AcDbLine
 62
7
  6
CONTINUOUS
 10
6.2154147002
 20
5.2031661846
 11
6.2150650161
 21
5.2029133124
  0
LINE
  5
2A0
100
AcDbEntity
  8
0
100
AcDbLine
 62
7
  6
CONTINUOUS
 10
4.4965170624
 20
4.5962580998
 11
4.4841917804
 21
4.6085833818
  0
LINE
  5
2A1
100
AcDbEntity
  8
0
100
AcDbLine
 62
7
  6
CONTINUOUS
 10
6.1825352577
 20
4.784491845
 11
6.2150650168
 21
4.796414826
  0
LINE
  5
2A2
100
AcDbEntity
  8
0
100
AcDbLine
 62
7
  6
CONTINUOUS
 10
6.1825352577
 20
4.7264209789
 11
6.2150650168
 21
4.7383439599
  0
LINE
  5
2A3
100
AcDbEntity
  8
0
100
AcDbLine
 62
7
  6
CONTINUOUS
 10
6.1825352577
 20
4.6683501128
 11
6.2150650168
 21
4.6802730937
  0
LINE
  5
2A4
100
AcDbEntity
  8
0
100
AcDbLine
 62
9
  6
CONTINUOUS
 10
5.5527084976
 20
4.8623076277
 11
5.5527084976
 21
5.04348873
  0
LINE
  5
2A5
100
AcDbEntity
  8
0
100
AcDbLine
 62
9
  6
CONTINUOUS
 10
5.5754741124
 20
5.04348873
 11
5.5754741124
 21
4.8623076277
  0
LINE
  5
2A6
100
AcDbEntity
  8
0
100
AcDbLine
 62
7
  6
CONTINUOUS
 10
6.2154147002
 20
4.7966701216
 11
6.2150650161
 21
4.7964172494
  0
LINE
  5
2A7
100
AcDbEntity
  8
0
100
AcDbLine
 62
7
  6
CONTINUOUS
 10
6.2154147002
 20
4.7385992555
 11
6.2150650161
 21
4.7383463833
  0
LINE
  5
2A8
100
AcDbEntity
  8
0
100
AcDbLine
 62
7
  6
CONTINUOUS
 10
6.2154147002
 20
4.6805283894
 11
6.2150650161
 21
4.6802755171
  0
LINE
  5
2A9
100
AcDbEntity
  8
0
100
AcDbLine
 62
7
  6
CONTINUOUS
 10
4.4736383993
 20
4.6512376607
 11
4.5061681584
 21
4.6393146797
  0
LINE
  5
2AA
100
AcDbEntity
  8
0
100
AcDbLine
 62
7
  6
CONTINUOUS
 10
4.4736383993
 20
4.7093085268
 11
4.5061681584
 21
4.6973855458
  0
LINE
  5
2AB
100
AcDbEntity
  8
0
100
AcDbLine
 62
7
  6
CONTINUOUS
 10
4.4736383993
 20
4.767379393
 11
4.5061681584
 21
4.755456412
  0
LINE
  5
2AC
100
AcDbEntity
  8
0
100
AcDbLine
 62
7
  6
CONTINUOUS
 10
4.4736383993
 20
4.8254502591
 11
4.5061681584
 21
4.8135272781
  0
LINE
  5
2AD
100
AcDbEntity
  8
0
100
AcDbLine
 62
7
  6
CONTINUOUS
 10
5.7531706057
 20
7.7410802035
 11
5.7531706057
 21
7.9606872492
  0
LINE
  5
2AE
100
AcDbEntity
  8
0
100
AcDbLine
 62
7
  6
CONTINUOUS
 10
6.1921863537
 20
4.5962580998
 11
6.2154147002
 21
4.6194864463
  0
LINE
  5
2AF
100
AcDbEntity
  8
0
100
AcDbLine
 62
7
  6
CONTINUOUS
 10
6.1921861741
 20
4.5962580998
 11
4.4965407556
 21
4.5962580998
  0
LINE
  5
2B0
100
AcDbEntity
  8
0
100
AcDbLine
 62
7
  6
CONTINUOUS
 10
5.3443518309
 20
4.6194864463
 11
6.2154147002
 21
4.6194864463
  0
LINE
  5
2B1
100
AcDbEntity
  8
0
100
AcDbLine
 62
7
  6
CONTINUOUS
 10
6.3742312742
 20
4.8390792812
 11
4.3144721419
 21
4.8390792812
  0
LINE
  5
2B2
100
AcDbEntity
  8
0
100
AcDbLine
 62
7
  6
CONTINUOUS
 10
4.4736383993
 20
5.173875456
 11
4.5061681584
 21
5.161952475
  0
LINE
  5
2B3
100
AcDbEntity
  8
0
100
AcDbLine
 62
7
  6
CONTINUOUS
 10
6.0136546549
 20
6.9586608332
 11
6.0136546549
 21
6.540550597
  0
LINE
  5
2B4
100
AcDbEntity
  8
0
100
AcDbLine
 62
7
  6
CONTINUOUS
 10
6.0640669143
 20
8.0071439421
 11
6.0640669143
 21
8.0973977578
  0
LINE
  5
2B5
100
AcDbEntity
  8
0
100
AcDbLine
 62
7
  6
CONTINUOUS
 10
6.0640669143
 20
8.1345783901
 11
6.0640669143
 21
8.2022620523
  0
LINE
  5
2B6
100
AcDbEntity
  8
0
100
AcDbLine
 62
7
  6
CONTINUOUS
 10
6.0802257238
 20
0.0959053439
 11
6.0802257238
 21
4.5962580998
  0
LINE
  5
2B7
100
AcDbEntity
  8
0
100
AcDbLine
 62
7
  6
CONTINUOUS
 10
6.156184909
 20
8.2022620523
 11
6.156184909
 21
8.237104572
  0
LINE
  5
2B8
100
AcDbEntity
  8
0
100
AcDbLine
 62
7
  6
CONTINUOUS
 10
6.1573438341
 20
7.9606872492
 11
6.1573438341
 21
8.0071439421
  0
LINE
  5
2B9
100
AcDbEntity
  8
0
100
AcDbLine
 62
7
  6
CONTINUOUS
 10
6.1828950152
 20
4.6447852936
 11
6.1828950152
 21
4.6686140246
  0
LINE
  5
2BA
100
AcDbEntity
  8
0
100
AcDbLine
 62
7
  6
CONTINUOUS
 10
6.1828950152
 20
4.7028561598
 11
6.1828950152
 21
4.7266848908
  0
LINE
  5
2BB
100
AcDbEntity
  8
0
100
AcDbLine
 62
7
  6
CONTINUOUS
 10
6.1828950152
 20
4.7609270259
 11
6.1828950152
 21
4.7847557569
  0
LINE
  5
2BC
100
AcDbEntity
  8
0
100
AcDbLine
 62
7
  6
CONTINUOUS
 10
6.1828950152
 20
4.818997892
 11
6.1828950152
 21
4.8390792812
  0
LINE
  5
2BD
100
AcDbEntity
  8
0
100
AcDbLine
 62
7
  6
CONTINUOUS
 10
6.1828950152
 20
5.1674230889
 11
6.1828950152
 21
5.1912518199
  0
LINE
  5
2BE
100
AcDbEntity
  8
0
100
AcDbLine
 62
7
  6
CONTINUOUS
 10
6.1828950152
 20
5.225493955
 11
6.1828950152
 21
5.2493226861
  0
LINE
  5
2BF
100
AcDbEntity
  8
0
100
AcDbLine
 62
7
  6
CONTINUOUS
 10
6.1828950152
 20
5.2835648212
 11
6.1828950152
 21
5.3073935522
  0
LINE
  5
2C0
100
AcDbEntity
  8
0
100
AcDbLine
 62
7
  6
CONTINUOUS
 10
6.1828950152
 20
5.3997065535
 11
6.1828950152
 21
5.4235352845
  0
LINE
  5
2C1
100
AcDbEntity
  8
0
100
AcDbLine
 62
7
  6
CONTINUOUS
 10
6.1828950152
 20
5.4577774196
 11
6.1828950152
 21
5.4816061506
  0
LINE
  5
2C2
100
AcDbEntity
  8
0
100
AcDbLine
 62
7
  6
CONTINUOUS
 10
6.1828950152
 20
5.5158482857
 11
6.1828950152
 21
5.5396770168
  0
LINE
  5
2C3
100
AcDbEntity
  8
0
100
AcDbLine
 62
7
  6
CONTINUOUS
 10
6.1828950152
 20
6.0965569472
 11
6.1828950152
 21
6.1203856782
  0
LINE
  5
2C4
100
AcDbEntity
  8
0
100
AcDbLine
 62
7
  6
CONTINUOUS
 10
6.1828950152
 20
6.1546278133
 11
6.1828950152
 21
6.1784565443
  0
LINE
  5
2C5
100
AcDbEntity
  8
0
100
AcDbLine
 62
7
  6
CONTINUOUS
 10
6.1828950152
 20
6.2126986794
 11
6.1828950152
 21
6.2365274105
  0
LINE
  5
2C6
100
AcDbEntity
  8
0
100
AcDbLine
 62
7
  6
CONTINUOUS
 10
6.1828950152
 20
6.2707695456
 11
6.1828950152
 21
6.2945982766
  0
LINE
  5
2C7
100
AcDbEntity
  8
0
100
AcDbLine
 62
7
  6
CONTINUOUS
 10
6.2154147002
 20
7.4634853368
 11
6.2154147002
 21
7.2380060783
  0
LINE
  5
2C8
100
AcDbEntity
  8
0
100
AcDbLine
 62
7
  6
CONTINUOUS
 10
6.2154147002
 20
7.1450926924
 11
6.2154147002
 21
7.051574219
  0
LINE
  5
2C9
100
AcDbEntity
  8
0
100
AcDbLine
 62
7
  6
CONTINUOUS
 10
6.2154147002
 20
6.4476372111
 11
6.2154147002
 21
6.3065126413
  0
LINE
  5
2CA
100
AcDbEntity
  8
0
100
AcDbLine
 62
7
  6
CONTINUOUS
 10
6.2154147002
 20
4.6194864463
 11
6.2154147002
 21
4.6340041621
  0
LINE
  5
2CB
100
AcDbEntity
  8
0
100
AcDbLine
 62
7
  6
CONTINUOUS
 10
6.2154147002
 20
4.6805283894
 11
6.2154147002
 21
4.6920750277
  0
LINE
  5
2CC
100
AcDbEntity
  8
0
100
AcDbLine
 62
7
  6
CONTINUOUS
 10
6.2154147002
 20
4.7385992555
 11
6.2154147002
 21
4.7501458938
  0
LINE
  5
2CD
100
AcDbEntity
  8
0
100
AcDbLine
 62
7
  6
CONTINUOUS
 10
6.2154147002
 20
4.7966701216
 11
6.2154147002
 21
4.80821676
  0
LINE
  5
2CE
100
AcDbEntity
  8
0
100
AcDbLine
 62
7
  6
CONTINUOUS
 10
6.2154147002
 20
5.154984793
 11
6.2154147002
 21
5.1566419568
  0
LINE
  5
2CF
100
AcDbEntity
  8
0
100
AcDbLine
 62
7
  6
CONTINUOUS
 10
6.2154147002
 20
5.2031661846
 11
6.2154147002
 21
5.214712823
  0
LINE
  5
2D0
100
AcDbEntity
  8
0
100
AcDbLine
 62
7
  6
CONTINUOUS
 10
6.2154147002
 20
5.2612370508
 11
6.2154147002
 21
5.2727836891
  0
LINE
  5
2D1
100
AcDbEntity
  8
0
100
AcDbLine
 62
7
  6
CONTINUOUS
 10
6.2154147002
 20
5.3773787831
 11
6.2154147002
 21
5.3889254214
  0
LINE
  5
2D2
100
AcDbEntity
  8
0
100
AcDbLine
 62
7
  6
CONTINUOUS
 10
6.2154147002
 20
5.4354496492
 11
6.2154147002
 21
5.4469962875
  0
LINE
  5
2D3
100
AcDbEntity
  8
0
100
AcDbLine
 62
7
  6
CONTINUOUS
 10
6.2154147002
 20
5.4935205153
 11
6.2154147002
 21
5.5050671537
  0
LINE
  5
2D4
100
AcDbEntity
  8
0
100
AcDbLine
 62
7
  6
CONTINUOUS
 10
6.2154147002
 20
5.551591382
 11
6.2154147002
 21
5.5622762208
  0
LINE
  5
2D5
100
AcDbEntity
  8
0
100
AcDbLine
 62
7
  6
CONTINUOUS
 10
6.2154147002
 20
6.0742291773
 11
6.2154147002
 21
6.0857758156
  0
LINE
  5
2D6
100
AcDbEntity
  8
0
100
AcDbLine
 62
7
  6
CONTINUOUS
 10
6.2154147002
 20
6.1323000429
 11
6.2154147002
 21
6.1438466812
  0
LINE
  5
2D7
100
AcDbEntity
  8
0
100
AcDbLine
 62
7
  6
CONTINUOUS
 10
6.2154147002
 20
6.190370909
 11
6.2154147002
 21
6.2019175474
  0
LINE
  5
2D8
100
AcDbEntity
  8
0
100
AcDbLine
 62
7
  6
CONTINUOUS
 10
6.2154147002
 20
6.2484417752
 11
6.2154147002
 21
6.2599884135
  0
LINE
  5
2D9
100
AcDbEntity
  8
0
100
AcDbLine
 62
9
  6
CONTINUOUS
 10
4.2912460412
 20
4.8623000883
 11
4.2917065271
 21
4.862307627
  0
LINE
  5
2DA
100
AcDbEntity
  8
0
100
AcDbLine
 62
9
  6
CONTINUOUS
 10
4.2917065271
 20
4.8623076277
 11
4.5074508587
 21
4.8623076277
  0
LINE
  5
2DB
100
AcDbEntity
  8
0
100
AcDbLine
 62
9
  6
CONTINUOUS
 10
4.5228289315
 20
4.8623076277
 11
6.389609347
 21
4.8623076277
  0
LINE
  5
2DC
100
AcDbEntity
  8
0
100
AcDbLine
 62
9
  6
CONTINUOUS
 10
4.2912437955
 20
5.04348873
 11
6.3974596207
 21
5.04348873
  0
LINE
  5
2DD
100
AcDbEntity
  8
0
100
AcDbLine
 62
7
  6
CONTINUOUS
 10
4.1759664754
 20
5.0667170765
 11
6.5127369407
 21
5.0667170765
  0
LINE
  5
2DE
100
AcDbEntity
  8
0
100
AcDbLine
 62
9
  6
CONTINUOUS
 10
4.1480918656
 20
5.0945910922
 11
6.5406115506
 21
5.0945910922
  0
LINE
  5
2DF
100
AcDbEntity
  8
0
100
AcDbLine
 62
9
  6
CONTINUOUS
 10
6.5406115506
 20
5.1271107773
 11
4.1480918656
 21
5.1271107773
  0
LINE
  5
2E0
100
AcDbEntity
  8
0
100
AcDbLine
 62
7
  6
CONTINUOUS
 10
6.214987883
 20
4.6342861934
 11
6.1824557909
 21
4.6450768794
  0
LINE
  5
2E1
100
AcDbEntity
  8
0
100
AcDbLine
 62
7
  6
CONTINUOUS
 10
6.214987883
 20
4.6923570596
 11
6.1824557909
 21
4.7031477455
  0
LINE
  5
2E2
100
AcDbEntity
  8
0
100
AcDbLine
 62
7
  6
CONTINUOUS
 10
6.214987883
 20
4.7504279257
 11
6.1824557909
 21
4.7612186117
  0
LINE
  5
2E3
100
AcDbEntity
  8
0
100
AcDbLine
 62
7
  6
CONTINUOUS
 10
6.214987883
 20
4.8084987919
 11
6.1824557909
 21
4.8192894778
  0
LINE
  5
2E4
100
AcDbEntity
  8
0
100
AcDbLine
 62
7
  6
CONTINUOUS
 10
4.4736383993
 20
5.2319463221
 11
4.5061681584
 21
5.2200233411
  0
LINE
  5
2E5
100
AcDbEntity
  8
0
100
AcDbLine
 62
7
  6
CONTINUOUS
 10
4.4736383993
 20
5.2900171882
 11
4.5061681584
 21
5.2780942072
  0
LINE
  5
2E6
100
AcDbEntity
  8
0
100
AcDbLine
 62
7
  6
CONTINUOUS
 10
4.4736383993
 20
5.4061589205
 11
4.5061681584
 21
5.3942359395
  0
LINE
  5
2E7
100
AcDbEntity
  8
0
100
AcDbLine
 62
7
  6
CONTINUOUS
 10
4.4736383993
 20
5.4642297867
 11
4.5061681584
 21
5.4523068057
  0
LINE
  5
2E8
100
AcDbEntity
  8
0
100
AcDbLine
 62
7
  6
CONTINUOUS
 10
4.4736383993
 20
5.5223006528
 11
4.5061681584
 21
5.5103776718
  0
LINE
  5
2E9
100
AcDbEntity
  8
0
100
AcDbLine
 62
7
  6
CONTINUOUS
 10
6.2154147002
 20
4.6340115186
 11
6.2149878849
 21
4.6342919833
  0
LINE
  5
2EA
100
AcDbEntity
  8
0
100
AcDbLine
 62
7
  6
CONTINUOUS
 10
4.6246365018
 20
8.0973977578
 11
4.6218457362
 21
8.1047029972
  0
LINE
  5
2EB
100
AcDbEntity
  8
0
100
AcDbLine
 62
9
  6
CONTINUOUS
 10
6.389609347
 20
4.8623076277
 11
6.389609347
 21
5.04348873
  0
LINE
  5
2EC
100
AcDbEntity
  8
0
100
AcDbLine
 62
7
  6
CONTINUOUS
 10
6.3974596207
 20
4.8623166254
 11
6.3974596207
 21
5.04348873
  0
LINE
  5
2ED
100
AcDbEntity
  8
0
100
AcDbLine
 62
7
  6
CONTINUOUS
 10
6.5406115506
 20
5.0945910922
 11
6.5406115506
 21
5.1271107773
  0
LINE
  5
2EE
100
AcDbEntity
  8
0
100
AcDbLine
 62
7
  6
CONTINUOUS
 10
4.1759889011
 20
5.154984793
 11
6.5127145151
 21
5.154984793
  0
LINE
  5
2EF
100
AcDbEntity
  8
0
100
AcDbLine
 62
7
  6
CONTINUOUS
 10
6.5591759735
 20
5.3202454713
 11
4.1295274427
 21
5.3202454713
  0
LINE
  5
2F0
100
AcDbEntity
  8
0
100
AcDbLine
 62
7
  6
CONTINUOUS
 10
6.5591757979
 20
5.3759935028
 11
4.1295276182
 21
5.3759935028
  0
LINE
  5
2F1
100
AcDbEntity
  8
0
100
AcDbLine
 62
7
  6
CONTINUOUS
 10
6.214987883
 20
5.1569239887
 11
6.1824557909
 21
5.1677146747
  0
LINE
  5
2F2
100
AcDbEntity
  8
0
100
AcDbLine
 62
7
  6
CONTINUOUS
 10
6.5591942278
 20
5.3759935028
 11
6.5591942278
 21
5.3202454713
  0
LINE
  5
2F3
100
AcDbEntity
  8
0
100
AcDbLine
 62
7
  6
CONTINUOUS
 10
6.5833517081
 20
5.6691266145
 11
6.5833517081
 21
5.5622762208
  0
LINE
  5
2F4
100
AcDbEntity
  8
0
100
AcDbLine
 62
7
  6
CONTINUOUS
 10
6.5986824167
 20
7.2380060783
 11
6.5986824167
 21
7.1450926924
  0
LINE
  5
2F5
100
AcDbEntity
  8
0
100
AcDbLine
 62
7
  6
CONTINUOUS
 10
6.7380524955
 20
7.7082453944
 11
6.7380524955
 21
7.717851857
  0
LINE
  5
2F6
100
AcDbEntity
  8
0
100
AcDbLine
 62
7
  6
CONTINUOUS
 10
6.5833467564
 20
5.5622762208
 11
4.1053566598
 21
5.5622762208
  0
LINE
  5
2F7
100
AcDbEntity
  8
0
100
AcDbLine
 62
7
  6
CONTINUOUS
 10
6.5833517081
 20
5.6691266145
 11
4.1053517081
 21
5.6691266145
  0
LINE
  5
2F8
100
AcDbEntity
  8
0
100
AcDbLine
 62
7
  6
CONTINUOUS
 10
6.214987883
 20
5.2149948549
 11
6.1824557909
 21
5.2257855408
  0
LINE
  5
2F9
100
AcDbEntity
  8
0
100
AcDbLine
 62
7
  6
CONTINUOUS
 10
6.214987883
 20
5.273065721
 11
6.1824557909
 21
5.283856407
  0
LINE
  5
2FA
100
AcDbEntity
  8
0
100
AcDbLine
 62
7
  6
CONTINUOUS
 10
6.214987883
 20
5.3892074533
 11
6.1824557909
 21
5.3999981392
  0
LINE
  5
2FB
100
AcDbEntity
  8
0
100
AcDbLine
 62
7
  6
CONTINUOUS
 10
6.214987883
 20
5.4472783194
 11
6.1824557909
 21
5.4580690054
  0
LINE
  5
2FC
100
AcDbEntity
  8
0
100
AcDbLine
 62
7
  6
CONTINUOUS
 10
6.214987883
 20
5.5053491856
 11
6.1824557909
 21
5.5161398715
  0
LINE
  5
2FD
100
AcDbEntity
  8
0
100
AcDbLine
 62
7
  6
CONTINUOUS
 10
4.4736383993
 20
6.1030093142
 11
4.5061681584
 21
6.0910863332
  0
LINE
  5
2FE
100
AcDbEntity
  8
0
100
AcDbLine
 62
7
  6
CONTINUOUS
 10
4.4736383993
 20
6.1610801804
 11
4.5061681584
 21
6.1491571994
  0
LINE
  5
2FF
100
AcDbEntity
  8
0
100
AcDbLine
 62
7
  6
CONTINUOUS
 10
4.4736383993
 20
6.2191510465
 11
4.5061681584
 21
6.2072280655
  0
LINE
  5
300
100
AcDbEntity
  8
0
100
AcDbLine
 62
7
  6
CONTINUOUS
 10
4.4736383993
 20
6.2772219126
 11
4.5061681584
 21
6.2652989316
  0
LINE
  5
301
100
AcDbEntity
  8
0
100
AcDbLine
 62
7
  6
CONTINUOUS
 10
4.4736351895
 20
6.3352952357
 11
4.5061670868
 21
6.323371486
  0
LINE
  5
302
100
AcDbEntity
  8
0
100
AcDbLine
 62
7
  6
CONTINUOUS
 10
4.4386845377
 20
6.0732998428
 11
6.2500142679
 21
6.0732998428
  0
LINE
  5
303
100
AcDbEntity
  8
0
100
AcDbLine
 62
7
  6
CONTINUOUS
 10
6.214987883
 20
6.086057847
 11
6.1824557909
 21
6.096848533
  0
LINE
  5
304
100
AcDbEntity
  8
0
100
AcDbLine
 62
7
  6
CONTINUOUS
 10
6.2154147002
 20
6.0857804009
 11
6.2149878844
 21
6.0860619559
  0
LINE
  5
305
100
AcDbEntity
  8
0
100
AcDbLine
 62
7
  6
CONTINUOUS
 10
6.2500249364
 20
6.0732998428
 11
6.5833517081
 21
5.6691266145
  0
LINE
  5
306
100
AcDbEntity
  8
0
100
AcDbLine
 62
7
  6
CONTINUOUS
 10
6.2154147002
 20
6.4476372111
 11
6.081188396
 21
6.4476372111
  0
LINE
  5
307
100
AcDbEntity
  8
0
100
AcDbLine
 62
7
  6
CONTINUOUS
 10
4.6075150202
 20
6.4476372111
 11
4.4732887159
 21
6.4476372111
  0
LINE
  5
308
100
AcDbEntity
  8
0
100
AcDbLine
 62
7
  6
CONTINUOUS
 10
6.214987883
 20
6.1441287131
 11
6.1824557909
 21
6.1549193991
  0
LINE
  5
309
100
AcDbEntity
  8
0
100
AcDbLine
 62
7
  6
CONTINUOUS
 10
6.214987883
 20
6.2021995793
 11
6.1824557909
 21
6.2129902652
  0
LINE
  5
30A
100
AcDbEntity
  8
0
100
AcDbLine
 62
7
  6
CONTINUOUS
 10
6.214987883
 20
6.2602704454
 11
6.1824557909
 21
6.2710611314
  0
LINE
  5
30B
100
AcDbEntity
  8
0
100
AcDbLine
 62
7
  6
CONTINUOUS
 10
4.4732887159
 20
7.051574219
 11
4.6075150202
 21
7.051574219
  0
LINE
  5
30C
100
AcDbEntity
  8
0
100
AcDbLine
 62
7
  6
CONTINUOUS
 10
6.081188396
 20
7.051574219
 11
6.2154147002
 21
7.051574219
  0
LINE
  5
30D
100
AcDbEntity
  8
0
100
AcDbLine
 62
7
  6
CONTINUOUS
 10
4.0900256839
 20
7.1450926924
 11
6.5986777322
 21
7.1450926924
  0
LINE
  5
30E
100
AcDbEntity
  8
0
100
AcDbLine
 62
7
  6
CONTINUOUS
 10
6.0640669143
 20
8.1345783901
 11
6.0653508167
 21
8.1325770129
  0
LINE
  5
30F
100
AcDbEntity
  8
0
100
AcDbLine
 62
7
  6
CONTINUOUS
 10
6.7207248176
 20
7.6857790153
 11
6.3020530897
 21
7.5758172323
  0
LINE
  5
310
100
AcDbEntity
  8
0
100
AcDbLine
 62
7
  6
CONTINUOUS
 10
4.0900256839
 20
7.2380060783
 11
6.5986777322
 21
7.2380060783
  0
LINE
  5
311
100
AcDbEntity
  8
0
100
AcDbLine
 62
9
  6
CONTINUOUS
 10
4.4732887159
 20
7.4634853368
 11
6.2154147002
 21
7.4634853368
  0
LINE
  5
312
100
AcDbEntity
  8
0
100
AcDbLine
 62
7
  6
CONTINUOUS
 10
4.3866503265
 20
7.5758172323
 11
3.9679785986
 21
7.6857790153
  0
LINE
  5
313
100
AcDbEntity
  8
0
100
AcDbLine
 62
9
  6
CONTINUOUS
 10
6.3020530897
 20
7.5758172323
 11
4.3866503265
 21
7.5758172323
  0
LINE
  5
314
100
AcDbEntity
  8
0
100
AcDbLine
 62
9
  6
CONTINUOUS
 10
6.7207248176
 20
7.6857790153
 11
3.9679785986
 21
7.6857790153
  0
LINE
  5
315
100
AcDbEntity
  8
0
100
AcDbLine
 62
9
  6
CONTINUOUS
 10
3.9506509207
 20
7.7082453944
 11
6.7380524955
 21
7.7082453944
  0
LINE
  5
316
100
AcDbEntity
  8
0
100
AcDbLine
 62
9
  6
CONTINUOUS
 10
6.7380524955
 20
7.717851857
 11
3.9506509207
 21
7.717851857
  0
LINE
  5
317
100
AcDbEntity
  8
0
100
AcDbLine
 62
7
  6
CONTINUOUS
 10
3.9738792671
 20
7.7410802035
 11
6.714824149
 21
7.7410802035
  0
LINE
  5
318
100
AcDbEntity
  8
0
100
AcDbLine
 62
7
  6
CONTINUOUS
 10
6.157310374
 20
7.9606872492
 11
4.5313930422
 21
7.9606872492
  0
LINE
  5
319
100
AcDbEntity
  8
0
100
AcDbLine
 62
7
  6
CONTINUOUS
 10
4.5313941815
 20
8.0071439421
 11
6.1573092347
 21
8.0071439421
  0
LINE
  5
31A
100
AcDbEntity
  8
0
100
AcDbLine
 62
7
  6
CONTINUOUS
 10
4.6246365018
 20
8.0973977578
 11
6.0640669143
 21
8.0973977578
  0
LINE
  5
31B
100
AcDbEntity
  8
0
100
AcDbLine
 62
7
  6
CONTINUOUS
 10
4.5294090463
 20
8.1047029972
 11
6.1592943699
 21
8.1047029972
  0
LINE
  5
31C
100
AcDbEntity
  8
0
100
AcDbLine
 62
7
  6
CONTINUOUS
 10
4.5294090463
 20
8.1325770129
 11
6.1592943699
 21
8.1325770129
  0
LINE
  5
31D
100
AcDbEntity
  8
0
100
AcDbLine
 62
7
  6
CONTINUOUS
 10
4.6246365018
 20
8.1345783901
 11
6.0640669143
 21
8.1345783901
  0
LINE
  5
31E
100
AcDbEntity
  8
0
100
AcDbLine
 62
7
  6
CONTINUOUS
 10
6.1561514964
 20
8.2022620523
 11
4.5325519198
 21
8.2022620523
  0
LINE
  5
31F
100
AcDbEntity
  8
0
100
AcDbLine
 62
7
  6
CONTINUOUS
 10
6.1561849067
 20
8.237104572
 11
4.5325185071
 21
8.237104572
  0
ARC
  5
320
100
AcDbEntity
  8
0
100
AcDbCircle
 62
7
  6
CONTINUOUS
 10
4.9011882969
 20
-9.9961787427
 40
14.6558506076
100
AcDbArc
 50
91.0226117338
 51
91.1455028823
  0
ARC
  5
321
100
AcDbEntity
  8
0
100
AcDbCircle
 62
7
  6
CONTINUOUS
 10
4.8865912318
 20
-9.2119975355
 40
13.883078605
100
AcDbArc
 50
91.0190616412
 51
91.1593942575
  0
ARC
  5
322
100
AcDbEntity
  8
0
100
AcDbCircle
 62
7
  6
CONTINUOUS
 10
4.8551265036
 20
-5.9317525828
 40
10.5788540005
100
AcDbArc
 50
91.1100342315
 51
91.3358632026
  0
ARC
  5
323
100
AcDbEntity
  8
0
100
AcDbCircle
 62
7
  6
CONTINUOUS
 10
4.8410748292
 20
-5.2248742402
 40
9.9641280786
100
AcDbArc
 50
91.1818784977
 51
91.3298698059
  0
ARC
  5
324
100
AcDbEntity
  8
0
100
AcDbCircle
 62
7
  6
CONTINUOUS
 10
4.7802958983
 20
-3.9413860167
 40
8.774028483
100
AcDbArc
 50
91.1406476264
 51
91.5133020967
  0
ARC
  5
325
100
AcDbEntity
  8
0
100
AcDbCircle
 62
7
  6
CONTINUOUS
 10
4.6387125269
 20
1.3470824919
 40
3.4836659052
100
AcDbArc
 50
91.482535581
 51
92.1664201595
  0
ARC
  5
326
100
AcDbEntity
  8
0
100
AcDbCircle
 62
7
  6
CONTINUOUS
 10
4.1759658813
 20
5.1271107773
 40
0.0278740157
100
AcDbArc
 50
90.0
 51
180.0
  0
ARC
  5
327
100
AcDbEntity
  8
0
100
AcDbCircle
 62
7
  6
CONTINUOUS
 10
4.1759658813
 20
5.0945910922
 40
0.0278740157
100
AcDbArc
 50
180.0
 51
270.0000398728
  0
ARC
  5
328
100
AcDbEntity
  8
0
100
AcDbCircle
 62
7
  6
CONTINUOUS
 10
4.268015449
 20
5.04348873
 40
0.0232283465
100
AcDbArc
 50
0.0
 51
89.9999999511
  0
ARC
  5
329
100
AcDbEntity
  8
0
100
AcDbCircle
 62
7
  6
CONTINUOUS
 10
4.3144721419
 20
4.8623076277
 40
0.0232283465
100
AcDbArc
 50
180.0961779297
 51
269.9999999944
  0
ARC
  5
32A
100
AcDbEntity
  8
0
100
AcDbCircle
 62
7
  6
CONTINUOUS
 10
4.3571469837
 20
7.4634853368
 40
0.1161417323
100
AcDbArc
 50
0.0
 51
75.2839564378
  0
ARC
  5
32B
100
AcDbEntity
  8
0
100
AcDbCircle
 62
7
  6
CONTINUOUS
 10
3.9738792671
 20
7.7082453944
 40
0.0232283465
100
AcDbArc
 50
180.0
 51
255.2839564396
  0
ARC
  5
32C
100
AcDbEntity
  8
0
100
AcDbCircle
 62
7
  6
CONTINUOUS
 10
3.9738792671
 20
7.717851857
 40
0.0232283465
100
AcDbArc
 50
90.0
 51
180.0
  0
ARC
  5
32D
100
AcDbEntity
  8
0
100
AcDbCircle
 62
7
  6
CONTINUOUS
 10
4.5290367474
 20
8.1186400051
 40
0.0139370079
100
AcDbArc
 50
90.0
 51
270.0
  0
ARC
  5
32E
100
AcDbEntity
  8
0
100
AcDbCircle
 62
7
  6
CONTINUOUS
 10
6.5127375348
 20
5.1271107773
 40
0.0278740157
100
AcDbArc
 50
0.0
 51
90.0
  0
ARC
  5
32F
100
AcDbEntity
  8
0
100
AcDbCircle
 62
7
  6
CONTINUOUS
 10
6.5127375348
 20
5.0945910922
 40
0.0278740157
100
AcDbArc
 50
269.9999556806
 51
360.0
  0
ARC
  5
330
100
AcDbEntity
  8
0
100
AcDbCircle
 62
7
  6
CONTINUOUS
 10
6.4206879671
 20
5.04348873
 40
0.0232283465
100
AcDbArc
 50
90.0000000731
 51
180.0
  0
ARC
  5
331
100
AcDbEntity
  8
0
100
AcDbCircle
 62
7
  6
CONTINUOUS
 10
6.3742312742
 20
4.8623076277
 40
0.0232283465
100
AcDbArc
 50
270.0000000002
 51
0.1698798307
  0
ARC
  5
332
100
AcDbEntity
  8
0
100
AcDbCircle
 62
7
  6
CONTINUOUS
 10
5.707280288
 20
21.5705977434
 40
16.8765297787
100
AcDbArc
 50
270.9615036619
 51
271.1756668061
  0
ARC
  5
333
100
AcDbEntity
  8
0
100
AcDbCircle
 62
7
  6
CONTINUOUS
 10
5.8076728149
 20
16.5855057728
 40
11.8323681784
100
AcDbArc
 50
271.1428863699
 51
271.263557392
  0
ARC
  5
334
100
AcDbEntity
  8
0
100
AcDbCircle
 62
7
  6
CONTINUOUS
 10
5.8551540224
 20
14.2526854552
 40
9.6151824082
100
AcDbArc
 50
271.2271837205
 51
271.3449333831
  0
ARC
  5
335
100
AcDbEntity
  8
0
100
AcDbCircle
 62
7
  6
CONTINUOUS
 10
5.3443517081
 20
5.8143880366
 40
2.5551181102
100
AcDbArc
 50
71.4744055877
 51
108.525594411
  0
ARC
  5
336
100
AcDbEntity
  8
0
100
AcDbCircle
 62
7
  6
CONTINUOUS
 10
6.1298224045
 20
6.7222933506
 40
1.3369269531
100
AcDbArc
 50
272.2230253884
 51
272.853856571
  0
ARC
  5
337
100
AcDbEntity
  8
0
100
AcDbCircle
 62
7
  6
CONTINUOUS
 10
6.1298224045
 20
6.083513823
 40
1.336926953
100
AcDbArc
 50
272.2230253886
 51
272.8538565712
  0
ARC
  5
338
100
AcDbEntity
  8
0
100
AcDbCircle
 62
7
  6
CONTINUOUS
 10
6.1298224046
 20
6.5480807519
 40
1.3369269529
100
AcDbArc
 50
272.2230253884
 51
272.853856571
  0
ARC
  5
339
100
AcDbEntity
  8
0
100
AcDbCircle
 62
7
  6
CONTINUOUS
 10
6.1298224046
 20
6.6061516179
 40
1.3369269527
100
AcDbArc
 50
272.2230253881
 51
272.8538565708
  0
ARC
  5
33A
100
AcDbEntity
  8
0
100
AcDbCircle
 62
7
  6
CONTINUOUS
 10
6.1298224046
 20
7.5352854761
 40
1.3369269526
100
AcDbArc
 50
272.2230253882
 51
272.8538565709
  0
ARC
  5
33B
100
AcDbEntity
  8
0
100
AcDbCircle
 62
7
  6
CONTINUOUS
 10
6.1298224046
 20
6.0254429563
 40
1.3369269525
100
AcDbArc
 50
272.2230253881
 51
272.853856571
  0
ARC
  5
33C
100
AcDbEntity
  8
0
100
AcDbCircle
 62
7
  6
CONTINUOUS
 10
6.1298224046
 20
7.4772146095
 40
1.3369269521
100
AcDbArc
 50
272.2230253879
 51
272.8538565709
  0
ARC
  5
33D
100
AcDbEntity
  8
0
100
AcDbCircle
 62
7
  6
CONTINUOUS
 10
6.1298224046
 20
6.8384350817
 40
1.3369269519
100
AcDbArc
 50
272.2230253877
 51
272.8538565708
  0
ARC
  5
33E
100
AcDbEntity
  8
0
100
AcDbCircle
 62
7
  6
CONTINUOUS
 10
6.1298224046
 20
6.1415846879
 40
1.3369269518
100
AcDbArc
 50
272.2230253877
 51
272.8538565708
  0
ARC
  5
33F
100
AcDbEntity
  8
0
100
AcDbCircle
 62
7
  6
CONTINUOUS
 10
6.1298224046
 20
7.5933563413
 40
1.3369269517
100
AcDbArc
 50
272.2230253879
 51
272.8538565711
  0
ARC
  5
340
100
AcDbEntity
  8
0
100
AcDbCircle
 62
7
  6
CONTINUOUS
 10
6.1298224046
 20
6.780364215
 40
1.3369269514
100
AcDbArc
 50
272.2230253875
 51
272.8538565708
  0
ARC
  5
341
100
AcDbEntity
  8
0
100
AcDbCircle
 62
7
  6
CONTINUOUS
 10
6.3315564325
 20
7.4634853368
 40
0.1161417323
100
AcDbArc
 50
104.7160435622
 51
180.0
  0
ARC
  5
342
100
AcDbEntity
  8
0
100
AcDbCircle
 62
7
  6
CONTINUOUS
 10
6.714824149
 20
7.7082453944
 40
0.0232283465
100
AcDbArc
 50
284.7160435612
 51
360.0
  0
ARC
  5
343
100
AcDbEntity
  8
0
100
AcDbCircle
 62
7
  6
CONTINUOUS
 10
6.714824149
 20
7.717851857
 40
0.0232283465
100
AcDbArc
 50
0.0
 51
90.0
  0
ARC
  5
344
100
AcDbEntity
  8
0
100
AcDbCircle
 62
7
  6
CONTINUOUS
 10
6.1596666687
 20
8.1186400051
 40
0.0139370079
100
AcDbArc
 50
270.0
 51
90.0
  0
SPLINE
  5
345
100
AcDbEntity
  8
0
100
AcDbSpline
 62
7
  6
CONTINUOUS
 70
0
 71
3
 72
22
 73
18
 74
0
 42
0.0000001
 43
0.0000001
 44
0.0000000001
 40
0.0
 40
0.0
 40
0.0
 40
0.0
 40
0.0809734646
 40
0.1613082643
 40
0.2398246784
 40
0.3158208313
 40
0.3890330094
 40
0.4591460306
 40
0.5260764381
 40
0.5898717551
 40
0.6505241377
 40
0.7080894592
 40
0.8145269616
 40
0.8639329406
 40
0.9110773913
 40
0.9562899826
 40
1.0
 40
1.0
 40
1.0
 40
1.0
 10
6.0136546549
 20
6.540550597
 30
0.0
 10
6.0136546549
 20
6.5371644688
 30
0.0
 10
6.0139749922
 20
6.530415307
 30
0.0
 10
6.0153386402
 20
6.5204671433
 30
0.0
 10
6.0175309893
 20
6.5108805743
 30
0.0
 10
6.0204721756
 20
6.5018106053
 30
0.0
 10
6.0240368758
 20
6.493348405
 30
0.0
 10
6.0281221286
 20
6.4855510951
 30
0.0
 10
6.032633894
 20
6.4784554868
 30
0.0
 10
6.0374830594
 20
6.4720775981
 30
0.0
 10
6.0425880557
 20
6.4664181832
 30
0.0
 10
6.0494658241
 20
6.4600082496
 30
0.0
 10
6.056810143
 20
6.4548163039
 30
0.0
 10
6.0644537342
 20
6.4510904979
 30
0.0
 10
6.070059987
 20
6.4491177466
 30
0.0
 10
6.0756373609
 20
6.4479159265
 30
0.0
 10
6.0793605413
 20
6.4476372111
 30
0.0
 10
6.081188396
 20
6.4476372111
 30
0.0
  0
SPLINE
  5
346
100
AcDbEntity
  8
0
100
AcDbSpline
 62
7
  6
CONTINUOUS
 70
0
 71
3
 72
22
 73
18
 74
0
 42
0.0000001
 43
0.0000001
 44
0.0000000001
 40
0.0
 40
0.0
 40
0.0
 40
0.0
 40
0.0437128462
 40
0.0889311293
 40
0.1360803621
 40
0.1854872398
 40
0.2919153402
 40
0.3494760775
 40
0.4101266466
 40
0.4739230405
 40
0.5408554682
 40
0.6109700094
 40
0.6841837565
 40
0.7601799493
 40
0.8386936869
 40
0.9190267861
 40
1.0
 40
1.0
 40
1.0
 40
1.0
 10
6.081188396
 20
7.051574219
 30
0.0
 10
6.079360422
 20
7.051574219
 30
0.0
 10
6.0756368876
 20
7.0512955461
 30
0.0
 10
6.0700588952
 20
7.0500939663
 30
0.0
 10
6.0644520467
 20
7.0481214449
 30
0.0
 10
6.0568085252
 20
7.0443957612
 30
0.0
 10
6.0494654101
 20
7.0392029149
 30
0.0
 10
6.042589126
 20
7.032792386
 30
0.0
 10
6.0374847439
 20
7.0271327368
 30
0.0
 10
6.0326354248
 20
7.0207549161
 30
0.0
 10
6.0281230244
 20
7.0136594862
 30
0.0
 10
6.0240369319
 20
7.0058623698
 30
0.0
 10
6.0204714862
 20
6.9974003305
 30
0.0
 10
6.0175297975
 20
6.9883305544
 30
0.0
 10
6.0153375163
 20
6.9787441268
 30
0.0
 10
6.0139746527
 20
6.9687960343
 30
0.0
 10
6.0136546549
 20
6.9620469527
 30
0.0
 10
6.0136546549
 20
6.9586608332
 30
0.0
  0
SPLINE
  5
347
100
AcDbEntity
  8
0
100
AcDbSpline
 62
7
  6
CONTINUOUS
 70
0
 71
3
 72
22
 73
18
 74
0
 42
0.0000001
 43
0.0000001
 44
0.0000000001
 40
0.0
 40
0.0
 40
0.0
 40
0.0
 40
0.0437085901
 40
0.0889132438
 40
0.1360448443
 40
0.185443385
 40
0.2919117827
 40
0.3494999511
 40
0.4101606811
 40
0.4739495244
 40
0.5408673526
 40
0.6109737357
 40
0.6841983968
 40
0.7602069471
 40
0.8387137568
 40
0.9190337638
 40
1.0
 40
1.0
 40
1.0
 40
1.0
 10
4.6075150202
 20
6.4476372111
 30
0.0
 10
4.6093428759
 20
6.4476372111
 30
0.0
 10
4.6130657728
 20
6.4479138958
 30
0.0
 10
4.6186435731
 20
6.4491101031
 30
0.0
 10
4.6242506567
 20
6.4510777862
 30
0.0
 10
4.6318959562
 20
6.4548023795
 30
0.0
 10
4.6392377947
 20
6.4600025292
 30
0.0
 10
4.6461133202
 20
6.4664188844
 30
0.0
 10
4.6512173272
 20
6.4720808318
 30
0.0
 10
4.656066919
 20
6.4784580797
 30
0.0
 10
4.6605796741
 20
6.4855521187
 30
0.0
 10
4.6646660322
 20
6.4933488895
 30
0.0
 10
4.6682314937
 20
6.5018119417
 30
0.0
 10
4.6711736781
 20
6.5108825693
 30
0.0
 10
4.673366909
 20
6.5204687944
 30
0.0
 10
4.6747291759
 20
6.5304161966
 30
0.0
 10
4.6750487612
 20
6.5371646586
 30
0.0
 10
4.6750487612
 20
6.540550597
 30
0.0
  0
SPLINE
  5
348
100
AcDbEntity
  8
0
100
AcDbSpline
 62
7
  6
CONTINUOUS
 70
0
 71
3
 72
22
 73
18
 74
0
 42
0.0000001
 43
0.0000001
 44
0.0000000001
 40
0.0
 40
0.0
 40
0.0
 40
0.0
 40
0.0809663983
 40
0.1612864056
 40
0.2397940546
 40
0.3158053004
 40
0.3890356161
 40
0.4591513133
 40
0.5260773265
 40
0.5898673904
 40
0.6505185976
 40
0.7080906337
 40
0.8145426311
 40
0.8639464978
 40
0.9110847681
 40
0.9562919629
 40
1.0
 40
1.0
 40
1.0
 40
1.0
 10
4.6750487612
 20
6.9586608332
 30
0.0
 10
4.6750487612
 20
6.962046702
 30
0.0
 10
4.6747288893
 20
6.9687950205
 30
0.0
 10
4.6733659575
 20
6.9787421396
 30
0.0
 10
4.6711726025
 20
6.9883282354
 30
0.0
 10
4.6682310437
 20
6.997399223
 30
0.0
 10
4.6646664737
 20
7.0058632135
 30
0.0
 10
4.660581156
 20
7.0136613929
 30
0.0
 10
4.6560692622
 20
7.0207566961
 30
0.0
 10
4.6512200694
 20
7.0271340827
 30
0.0
 10
4.6461153507
 20
7.0327938573
 30
0.0
 10
4.6392375087
 20
7.0392050477
 30
0.0
 10
4.6318932361
 20
7.0443987381
 30
0.0
 10
4.6242491208
 20
7.0481244083
 30
0.0
 10
4.6186429046
 20
7.0500958076
 30
0.0
 10
4.6130657215
 20
7.0512960913
 30
0.0
 10
4.6093428115
 20
7.051574219
 30
0.0
 10
4.6075150202
 20
7.051574219
 30
0.0
  0
LINE
  5
349
100
AcDbEntity
  8
0
100
AcDbLine
 62
7
  6
CONTINUOUS
 10
4.4841882878
 20
4.6085896159
 11
4.4844066622
 21
4.6088024551
  0
SPLINE
  5
34A
100
AcDbEntity
  8
0
100
AcDbSpline
 62
7
  6
CONTINUOUS
 70
0
 71
3
 72
32
 73
28
 74
0
 42
0.0000001
 43
0.0000001
 44
0.0000000001
 40
0.0
 40
0.0
 40
0.0
 40
0.0
 40
0.2278950523
 40
0.3317577545
 40
0.4286408143
 40
0.5183519697
 40
0.6007041133
 40
0.6755697565
 40
0.7428600915
 40
0.8024872007
 40
0.8543635614
 40
0.8984026596
 40
0.9174609586
 40
0.9345389406
 40
0.9496329663
 40
0.9627398059
 40
0.9738569341
 40
0.9829831497
 40
0.9868001303
 40
0.9901204423
 40
0.992945467
 40
0.9952778324
 40
0.9971227372
 40
0.9984915737
 40
0.9990062483
 40
0.9994173055
 40
1.0
 40
1.0
 40
1.0
 40
1.0
 10
4.6396453909
 20
6.3413915088
 30
0.0
 10
4.6269911612
 20
6.3411674988
 30
0.0
 10
4.6085701739
 20
6.3408186919
 30
0.0
 10
4.5847708938
 20
6.3403112077
 30
0.0
 10
4.5686445642
 20
6.3399395691
 30
0.0
 10
4.5537132038
 20
6.3395665924
 30
0.0
 10
4.5400049935
 20
6.3391938361
 30
0.0
 10
4.5275423954
 20
6.3388222801
 30
0.0
 10
4.5163423961
 20
6.3384525687
 30
0.0
 10
4.5064197866
 20
6.3380854781
 30
0.0
 10
4.4977893125
 20
6.3377216754
 30
0.0
 10
4.491411781
 20
6.3374091039
 30
0.0
 10
4.4869663745
 20
6.3371564025
 30
0.0
 10
4.4841269147
 20
6.3369771444
 30
0.0
 10
4.481618632
 20
6.3367989703
 30
0.0
 10
4.4794422195
 20
6.3366220403
 30
0.0
 10
4.4775983942
 20
6.3364464267
 30
0.0
 10
4.4762707434
 20
6.3362940772
 30
0.0
 10
4.4753761411
 20
6.3361694496
 30
0.0
 10
4.4748297769
 20
6.3360820267
 30
0.0
 10
4.4743670093
 20
6.3359950282
 30
0.0
 10
4.4739876302
 20
6.3359088695
 30
0.0
 10
4.4736916072
 20
6.3358231444
 30
0.0
 10
4.4734980005
 20
6.3357482187
 30
0.0
 10
4.4733871153
 20
6.335683827
 30
0.0
 10
4.4733216779
 20
6.3356330185
 30
0.0
 10
4.4732887159
 20
6.3355804345
 30
0.0
 10
4.4732887159
 20
6.3355480744
 30
0.0
  0
SPLINE
  5
34B
100
AcDbEntity
  8
0
100
AcDbSpline
 62
7
  6
CONTINUOUS
 70
0
 71
3
 72
18
 73
14
 74
0
 42
0.0000001
 43
0.0000001
 44
0.0000000001
 40
0.0
 40
0.0
 40
0.0
 40
0.0
 40
0.0153736553
 40
0.0369627591
 40
0.0648344379
 40
0.0990129464
 40
0.1395062531
 40
0.1863148216
 40
0.29886065
 40
0.4366018802
 40
0.5994719432
 40
0.787347747
 40
1.0
 40
1.0
 40
1.0
 40
1.0
 10
6.215063057
 20
4.7383450352
 30
0.0
 10
6.2149015728
 20
4.7382865577
 30
0.0
 10
6.2145008836
 20
4.7381820188
 30
0.0
 10
6.2137896206
 20
4.7380456908
 30
0.0
 10
6.2128651539
 20
4.7379078454
 30
0.0
 10
6.2117280821
 20
4.7377684135
 30
0.0
 10
6.2103781683
 20
4.7376280703
 30
0.0
 10
6.2081545766
 20
4.7374273465
 30
0.0
 10
6.2048444852
 20
4.7371819172
 30
0.0
 10
6.2002375737
 20
4.7368983861
 30
0.0
 10
6.1947879324
 20
4.7366116904
 30
0.0
 10
6.1885005948
 20
4.7363218956
 30
0.0
 10
6.184029856
 20
4.736138373
 30
0.0
 10
6.1816560378
 20
4.7360454141
 30
0.0
  0
SPLINE
  5
34C
100
AcDbEntity
  8
0
100
AcDbSpline
 62
7
  6
CONTINUOUS
 70
0
 71
3
 72
11
 73
7
 74
0
 42
0.0000001
 43
0.0000001
 44
0.0000000001
 40
0.0
 40
0.0
 40
0.0
 40
0.0
 40
0.1905698612
 40
0.4215046444
 40
0.6917833762
 40
1.0
 40
1.0
 40
1.0
 40
1.0
 10
6.1816560378
 20
4.7360454141
 30
0.0
 10
6.1753928602
 20
4.7358001475
 30
0.0
 10
6.161537304
 20
4.7353239986
 30
0.0
 10
6.138793395
 20
4.7346700766
 30
0.0
 10
6.1121786836
 20
4.7340140806
 30
0.0
 10
6.0931559218
 20
4.7336054226
 30
0.0
 10
6.0830205394
 20
4.7334000055
 30
0.0
  0
LINE
  5
34D
100
AcDbEntity
  8
0
100
AcDbLine
 62
7
  6
CONTINUOUS
 10
6.0830205394
 20
4.7334000055
 11
6.0691787986
 21
4.7331269374
  0
LINE
  5
34E
100
AcDbEntity
  8
0
100
AcDbLine
 62
7
  6
CONTINUOUS
 10
6.0691787986
 20
4.7331269374
 11
6.061290422
 21
4.7329775941
  0
LINE
  5
34F
100
AcDbEntity
  8
0
100
AcDbLine
 62
7
  6
CONTINUOUS
 10
6.061290422
 20
4.7329775941
 11
6.0564561523
 21
4.732888166
  0
LINE
  5
350
100
AcDbEntity
  8
0
100
AcDbLine
 62
7
  6
CONTINUOUS
 10
6.0564561523
 20
4.732888166
 11
6.049023337
 21
4.7327536193
  0
LINE
  5
351
100
AcDbEntity
  8
0
100
AcDbLine
 62
7
  6
CONTINUOUS
 10
6.049023337
 20
4.7327536193
 11
6.0388710245
 21
4.7325752672
  0
SPLINE
  5
352
100
AcDbEntity
  8
0
100
AcDbSpline
 62
7
  6
CONTINUOUS
 70
0
 71
3
 72
23
 73
19
 74
0
 42
0.0000001
 43
0.0000001
 44
0.0000000001
 40
0.0
 40
0.0
 40
0.0
 40
0.0
 40
0.0464452892
 40
0.0987177346
 40
0.1561662197
 40
0.2180637614
 40
0.2836345321
 40
0.3520521634
 40
0.4224568575
 40
0.4939624516
 40
0.5656702624
 40
0.6366768065
 40
0.706091297
 40
0.7730370947
 40
0.8366765604
 40
0.8962040092
 40
0.950876063
 40
1.0
 40
1.0
 40
1.0
 40
1.0
 10
6.0388710245
 20
4.7325752672
 30
0.0
 10
6.0177893077
 20
4.7322109874
 30
0.0
 10
5.9729796281
 20
4.7315109552
 30
0.0
 10
5.9020914579
 20
4.7305192254
 30
0.0
 10
5.8241881512
 20
4.7294978868
 30
0.0
 10
5.7402475763
 20
4.7284540857
 30
0.0
 10
5.6513271277
 20
4.7273954316
 30
0.0
 10
5.5585443843
 20
4.7263388362
 30
0.0
 10
5.4630670403
 20
4.725299091
 30
0.0
 10
5.3660955319
 20
4.7243002881
 30
0.0
 10
5.2688506456
 20
4.7233154649
 30
0.0
 10
5.1725555087
 20
4.7222920418
 30
0.0
 10
5.0784226235
 20
4.7212409736
 30
0.0
 10
4.9876345018
 20
4.7201813433
 30
0.0
 10
4.901335057
 20
4.7191287371
 30
0.0
 10
4.8206077164
 20
4.718097162
 30
0.0
 10
4.7464702517
 20
4.7170916809
 30
0.0
 10
4.6993548578
 20
4.7163971929
 30
0.0
 10
4.6770568219
 20
4.7160400963
 30
0.0
  0
LINE
  5
353
100
AcDbEntity
  8
0
100
AcDbLine
 62
7
  6
CONTINUOUS
 10
4.6770568219
 20
4.7160400963
 11
4.6396254167
 21
4.7154084896
  0
SPLINE
  5
354
100
AcDbEntity
  8
0
100
AcDbSpline
 62
7
  6
CONTINUOUS
 70
0
 71
3
 72
11
 73
7
 74
0
 42
0.0000001
 43
0.0000001
 44
0.0000000001
 40
0.0
 40
0.0
 40
0.0
 40
0.0
 40
0.3162177388
 40
0.5896498046
 40
0.8181438689
 40
1.0
 40
1.0
 40
1.0
 40
1.0
 10
4.6396254167
 20
4.7154084896
 30
0.0
 10
4.6256460073
 20
4.7151586588
 30
0.0
 10
4.599579239
 20
4.7146596503
 30
0.0
 10
4.5634138551
 20
4.7138464077
 30
0.0
 10
4.533191128
 20
4.7130329588
 30
0.0
 10
4.515057095
 20
4.7124314347
 30
0.0
 10
4.5070224459
 20
4.7121166905
 30
0.0
  0
SPLINE
  5
355
100
AcDbEntity
  8
0
100
AcDbSpline
 62
7
  6
CONTINUOUS
 70
0
 71
3
 72
24
 73
20
 74
0
 42
0.0000001
 43
0.0000001
 44
0.0000000001
 40
0.0
 40
0.0
 40
0.0
 40
0.0
 40
0.2320196135
 40
0.4337161891
 40
0.6047986886
 40
0.6788151188
 40
0.7451330747
 40
0.8037426954
 40
0.8546361469
 40
0.8978090806
 40
0.933263684
 40
0.948101436
 40
0.9610178552
 40
0.9720207252
 40
0.9811238879
 40
0.9883535533
 40
0.9937651659
 40
0.9974989297
 40
1.0
 40
1.0
 40
1.0
 40
1.0
 10
4.5070224459
 20
4.7121166905
 30
0.0
 10
4.5043994616
 20
4.7120139394
 30
0.0
 10
4.4994966783
 20
4.71181169
 30
0.0
 10
4.4926616878
 20
4.7114903892
 30
0.0
 10
4.4876142335
 20
4.7112144662
 30
0.0
 10
4.4840980167
 20
4.7109912655
 30
0.0
 10
4.481852785
 20
4.7108328564
 30
0.0
 10
4.4798698218
 20
4.7106752877
 30
0.0
 10
4.4781495514
 20
4.7105186763
 30
0.0
 10
4.4766924168
 20
4.7103630717
 30
0.0
 10
4.4756434881
 20
4.710227915
 30
0.0
 10
4.4749369249
 20
4.7101172781
 30
0.0
 10
4.4745053423
 20
4.7100395423
 30
0.0
 10
4.4741397212
 20
4.7099622616
 30
0.0
 10
4.4738401096
 20
4.7098852154
 30
0.0
 10
4.4736056971
 20
4.7098095459
 30
0.0
 10
4.4734364214
 20
4.7097330584
 30
0.0
 10
4.4733257133
 20
4.7096599498
 30
0.0
 10
4.4732887159
 20
4.7095921187
 30
0.0
 10
4.4732887159
 20
4.7095638224
 30
0.0
  0
SPLINE
  5
356
100
AcDbEntity
  8
0
100
AcDbSpline
 62
7
  6
CONTINUOUS
 70
0
 71
3
 72
18
 73
14
 74
0
 42
0.0000001
 43
0.0000001
 44
0.0000000001
 40
0.0
 40
0.0
 40
0.0
 40
0.0
 40
0.0153736553
 40
0.0369627591
 40
0.0648344379
 40
0.0990129464
 40
0.1395062531
 40
0.1863148216
 40
0.29886065
 40
0.4366018802
 40
0.5994719432
 40
0.787347747
 40
1.0
 40
1.0
 40
1.0
 40
1.0
 10
6.215063057
 20
4.7964159013
 30
0.0
 10
6.2149015728
 20
4.7963574238
 30
0.0
 10
6.2145008836
 20
4.796252885
 30
0.0
 10
6.2137896206
 20
4.7961165569
 30
0.0
 10
6.2128651539
 20
4.7959787115
 30
0.0
 10
6.2117280821
 20
4.7958392796
 30
0.0
 10
6.2103781683
 20
4.7956989364
 30
0.0
 10
6.2081545766
 20
4.7954982126
 30
0.0
 10
6.2048444852
 20
4.7952527834
 30
0.0
 10
6.2002375737
 20
4.7949692523
 30
0.0
 10
6.1947879324
 20
4.7946825566
 30
0.0
 10
6.1885005948
 20
4.7943927617
 30
0.0
 10
6.184029856
 20
4.7942092392
 30
0.0
 10
6.1816560378
 20
4.7941162802
 30
0.0
  0
SPLINE
  5
357
100
AcDbEntity
  8
0
100
AcDbSpline
 62
7
  6
CONTINUOUS
 70
0
 71
3
 72
11
 73
7
 74
0
 42
0.0000001
 43
0.0000001
 44
0.0000000001
 40
0.0
 40
0.0
 40
0.0
 40
0.0
 40
0.1905698612
 40
0.4215046444
 40
0.6917833762
 40
1.0
 40
1.0
 40
1.0
 40
1.0
 10
6.1816560378
 20
4.7941162802
 30
0.0
 10
6.1753928602
 20
4.7938710137
 30
0.0
 10
6.161537304
 20
4.7933948648
 30
0.0
 10
6.138793395
 20
4.7927409427
 30
0.0
 10
6.1121786836
 20
4.7920849467
 30
0.0
 10
6.0931559218
 20
4.7916762887
 30
0.0
 10
6.0830205394
 20
4.7914708716
 30
0.0
  0
LINE
  5
358
100
AcDbEntity
  8
0
100
AcDbLine
 62
7
  6
CONTINUOUS
 10
6.0830205394
 20
4.7914708716
 11
6.0803118111
 21
4.7914162685
  0
LINE
  5
359
100
AcDbEntity
  8
0
100
AcDbLine
 62
7
  6
CONTINUOUS
 10
6.0803118111
 20
4.7914162685
 11
6.0560367098
 21
4.7909513455
  0
LINE
  5
35A
100
AcDbEntity
  8
0
100
AcDbLine
 62
7
  6
CONTINUOUS
 10
6.0560367098
 20
4.7909513455
 11
6.049023337
 21
4.7908244854
  0
LINE
  5
35B
100
AcDbEntity
  8
0
100
AcDbLine
 62
7
  6
CONTINUOUS
 10
6.049023337
 20
4.7908244854
 11
6.0384994681
 21
4.7906397168
  0
SPLINE
  5
35C
100
AcDbEntity
  8
0
100
AcDbSpline
 62
7
  6
CONTINUOUS
 70
0
 71
3
 72
23
 73
19
 74
0
 42
0.0000001
 43
0.0000001
 44
0.0000000001
 40
0.0
 40
0.0
 40
0.0
 40
0.0
 40
0.0469210767
 40
0.0998530019
 40
0.158098267
 40
0.2208809006
 40
0.287368144
 40
0.3566777874
 40
0.4278885754
 40
0.5000560419
 40
0.5722216249
 40
0.6434268043
 40
0.7127271671
 40
0.7792016175
 40
0.8419680656
 40
0.9001940278
 40
0.9531037203
 40
1.0
 40
1.0
 40
1.0
 40
1.0
 10
6.0384994681
 20
4.7906397168
 30
0.0
 10
6.0167838966
 20
4.7902649226
 30
0.0
 10
5.970569526
 20
4.7895457204
 30
0.0
 10
5.8973961732
 20
4.7885261691
 30
0.0
 10
5.8168805791
 20
4.7874754264
 30
0.0
 10
5.7300903031
 20
4.7864012255
 30
0.0
 10
5.6381783443
 20
4.7853132628
 30
0.0
 10
5.5423648547
 20
4.7842296297
 30
0.0
 10
5.4439217048
 20
4.78316759
 30
0.0
 10
5.3441560622
 20
4.782150225
 30
0.0
 10
5.2443930158
 20
4.7811328511
 30
0.0
 10
5.1459576284
 20
4.7800709785
 30
0.0
 10
5.0501569517
 20
4.7789874623
 30
0.0
 10
4.9582627049
 20
4.7778993825
 30
0.0
 10
4.8714947792
 20
4.7768251749
 30
0.0
 10
4.7910059034
 20
4.7757745782
 30
0.0
 10
4.7178632557
 20
4.7747551543
 30
0.0
 10
4.6716706577
 20
4.7740358732
 30
0.0
 10
4.6499665674
 20
4.7736610008
 30
0.0
  0
LINE
  5
35D
100
AcDbEntity
  8
0
100
AcDbLine
 62
7
  6
CONTINUOUS
 10
4.6499665674
 20
4.7736610008
 11
4.6396254167
 21
4.7734793558
  0
LINE
  5
35E
100
AcDbEntity
  8
0
100
AcDbLine
 62
7
  6
CONTINUOUS
 10
4.6396254167
 20
4.7734793558
 11
4.6321615464
 21
4.773344215
  0
LINE
  5
35F
100
AcDbEntity
  8
0
100
AcDbLine
 62
7
  6
CONTINUOUS
 10
4.6321615464
 20
4.773344215
 11
4.6084283301
 21
4.7728892879
  0
LINE
  5
360
100
AcDbEntity
  8
0
100
AcDbLine
 62
7
  6
CONTINUOUS
 10
4.6084283301
 20
4.7728892879
 11
4.6056335798
 21
4.7728329491
  0
SPLINE
  5
361
100
AcDbEntity
  8
0
100
AcDbSpline
 62
7
  6
CONTINUOUS
 70
0
 71
3
 72
11
 73
7
 74
0
 42
0.0000001
 43
0.0000001
 44
0.0000000001
 40
0.0
 40
0.0
 40
0.0
 40
0.0
 40
0.3082326922
 40
0.5785167773
 40
0.809446177
 40
1.0
 40
1.0
 40
1.0
 40
1.0
 10
4.6056335798
 20
4.7728329491
 30
0.0
 10
4.5955001717
 20
4.7726275305
 30
0.0
 10
4.576481403
 20
4.7722188722
 30
0.0
 10
4.5498727373
 20
4.771562875
 30
0.0
 10
4.527134975
 20
4.7709089681
 30
0.0
 10
4.5132835473
 20
4.770432825
 30
0.0
 10
4.5070224459
 20
4.7701875567
 30
0.0
  0
SPLINE
  5
362
100
AcDbEntity
  8
0
100
AcDbSpline
 62
7
  6
CONTINUOUS
 70
0
 71
3
 72
24
 73
20
 74
0
 42
0.0000001
 43
0.0000001
 44
0.0000000001
 40
0.0
 40
0.0
 40
0.0
 40
0.0
 40
0.2320196135
 40
0.4337161891
 40
0.6047986886
 40
0.6788151188
 40
0.7451330747
 40
0.8037426954
 40
0.8546361469
 40
0.8978090806
 40
0.933263684
 40
0.948101436
 40
0.9610178552
 40
0.9720207252
 40
0.9811238879
 40
0.9883535533
 40
0.9937651659
 40
0.9974989297
 40
1.0
 40
1.0
 40
1.0
 40
1.0
 10
4.5070224459
 20
4.7701875567
 30
0.0
 10
4.5043994616
 20
4.7700848056
 30
0.0
 10
4.4994966783
 20
4.7698825562
 30
0.0
 10
4.4926616878
 20
4.7695612553
 30
0.0
 10
4.4876142335
 20
4.7692853324
 30
0.0
 10
4.4840980167
 20
4.7690621316
 30
0.0
 10
4.481852785
 20
4.7689037225
 30
0.0
 10
4.4798698218
 20
4.7687461538
 30
0.0
 10
4.4781495514
 20
4.7685895425
 30
0.0
 10
4.4766924168
 20
4.7684339379
 30
0.0
 10
4.4756434881
 20
4.7682987811
 30
0.0
 10
4.4749369249
 20
4.7681881443
 30
0.0
 10
4.4745053423
 20
4.7681104085
 30
0.0
 10
4.4741397212
 20
4.7680331278
 30
0.0
 10
4.4738401096
 20
4.7679560815
 30
0.0
 10
4.4736056971
 20
4.7678804121
 30
0.0
 10
4.4734364214
 20
4.7678039245
 30
0.0
 10
4.4733257133
 20
4.767730816
 30
0.0
 10
4.4732887159
 20
4.7676629849
 30
0.0
 10
4.4732887159
 20
4.7676346886
 30
0.0
  0
SPLINE
  5
363
100
AcDbEntity
  8
0
100
AcDbSpline
 62
7
  6
CONTINUOUS
 70
0
 71
3
 72
12
 73
8
 74
0
 42
0.0000001
 43
0.0000001
 44
0.0000000001
 40
0.0
 40
0.0
 40
0.0
 40
0.0
 40
0.288916054
 40
0.5575706068
 40
0.7972036003
 40
0.9036441891
 40
1.0
 40
1.0
 40
1.0
 40
1.0
 10
5.1708921761
 20
4.8384070682
 30
0.0
 10
5.1206633542
 20
4.8378591116
 30
0.0
 10
5.0237286521
 20
4.8367619854
 30
0.0
 10
4.8851346412
 20
4.8350800883
 30
0.0
 10
4.7782652713
 20
4.8336821131
 30
0.0
 10
4.7013511412
 20
4.8325740803
 30
0.0
 10
4.6660968165
 20
4.8320110241
 30
0.0
 10
4.6493466146
 20
4.8317211486
 30
0.0
  0
LINE
  5
364
100
AcDbEntity
  8
0
100
AcDbLine
 62
7
  6
CONTINUOUS
 10
4.6493466146
 20
4.8317211486
 11
4.6396254167
 21
4.8315502219
  0
LINE
  5
365
100
AcDbEntity
  8
0
100
AcDbLine
 62
7
  6
CONTINUOUS
 10
4.6396254167
 20
4.8315502219
 11
4.6324844889
 21
4.8314210021
  0
LINE
  5
366
100
AcDbEntity
  8
0
100
AcDbLine
 62
7
  6
CONTINUOUS
 10
4.6324844889
 20
4.8314210021
 11
4.6193101315
 21
4.8311737611
  0
LINE
  5
367
100
AcDbEntity
  8
0
100
AcDbLine
 62
7
  6
CONTINUOUS
 10
4.6193101315
 20
4.8311737611
 11
4.6082188795
 21
4.8309559534
  0
LINE
  5
368
100
AcDbEntity
  8
0
100
AcDbLine
 62
7
  6
CONTINUOUS
 10
4.6082188795
 20
4.8309559534
 11
4.6056335798
 21
4.8309038152
  0
SPLINE
  5
369
100
AcDbEntity
  8
0
100
AcDbSpline
 62
7
  6
CONTINUOUS
 70
0
 71
3
 72
24
 73
20
 74
0
 42
0.0000001
 43
0.0000001
 44
0.0000000001
 40
0.0
 40
0.0
 40
0.0
 40
0.0
 40
0.2320196135
 40
0.4337161891
 40
0.6047986886
 40
0.6788151188
 40
0.7451330747
 40
0.8037426954
 40
0.8546361469
 40
0.8978090806
 40
0.933263684
 40
0.948101436
 40
0.9610178552
 40
0.9720207252
 40
0.9811238879
 40
0.9883535533
 40
0.9937651659
 40
0.9974989297
 40
1.0
 40
1.0
 40
1.0
 40
1.0
 10
4.5070224459
 20
4.8282584228
 30
0.0
 10
4.5043994616
 20
4.8281556717
 30
0.0
 10
4.4994966783
 20
4.8279534223
 30
0.0
 10
4.4926616878
 20
4.8276321215
 30
0.0
 10
4.4876142335
 20
4.8273561985
 30
0.0
 10
4.4840980167
 20
4.8271329978
 30
0.0
 10
4.481852785
 20
4.8269745886
 30
0.0
 10
4.4798698218
 20
4.82681702
 30
0.0
 10
4.4781495514
 20
4.8266604086
 30
0.0
 10
4.4766924168
 20
4.826504804
 30
0.0
 10
4.4756434881
 20
4.8263696473
 30
0.0
 10
4.4749369249
 20
4.8262590104
 30
0.0
 10
4.4745053423
 20
4.8261812746
 30
0.0
 10
4.4741397212
 20
4.8261039939
 30
0.0
 10
4.4738401096
 20
4.8260269477
 30
0.0
 10
4.4736056971
 20
4.8259512782
 30
0.0
 10
4.4734364214
 20
4.8258747906
 30
0.0
 10
4.4733257133
 20
4.8258016821
 30
0.0
 10
4.4732887159
 20
4.825733851
 30
0.0
 10
4.4732887159
 20
4.8257055547
 30
0.0
  0
SPLINE
  5
36A
100
AcDbEntity
  8
0
100
AcDbSpline
 62
7
  6
CONTINUOUS
 70
0
 71
3
 72
12
 73
8
 74
0
 42
0.0000001
 43
0.0000001
 44
0.0000000001
 40
0.0
 40
0.0
 40
0.0
 40
0.0
 40
0.0970486042
 40
0.2035769199
 40
0.4420933197
 40
0.7096358769
 40
1.0
 40
1.0
 40
1.0
 40
1.0
 10
4.6625922175
 20
6.0732998428
 30
0.0
 10
4.6757718219
 20
6.073547347
 30
0.0
 10
4.703419072
 20
6.074031652
 30
0.0
 10
4.7634602639
 20
6.0749821269
 30
0.0
 10
4.8466586366
 20
6.0761534293
 30
0.0
 10
4.9548260979
 20
6.0775625974
 30
0.0
 10
5.0305996835
 20
6.078502783
 30
0.0
 10
5.0700364683
 20
6.0789747767
 30
0.0
  0
LINE
  5
36B
100
AcDbEntity
  8
0
100
AcDbLine
 62
7
  6
CONTINUOUS
 10
5.0700364683
 20
6.0789747767
 11
5.6126453893
 21
6.0850319145
  0
LINE
  5
36C
100
AcDbEntity
  8
0
100
AcDbLine
 62
7
  6
CONTINUOUS
 10
5.6126453893
 20
6.0850319145
 11
5.6183660104
 21
6.0851002172
  0
SPLINE
  5
36D
100
AcDbEntity
  8
0
100
AcDbSpline
 62
7
  6
CONTINUOUS
 70
0
 71
3
 72
40
 73
36
 74
0
 42
0.0000001
 43
0.0000001
 44
0.0000000001
 40
0.0
 40
0.0
 40
0.0
 40
0.0
 40
0.1069960366
 40
0.2104594902
 40
0.3097651837
 40
0.404313783
 40
0.4935482157
 40
0.5769182701
 40
0.6539282194
 40
0.724130552
 40
0.7870899653
 40
0.815739062
 40
0.8424466272
 40
0.8671718765
 40
0.8898740487
 40
0.9105155668
 40
0.9290700092
 40
0.9455134725
 40
0.9598221698
 40
0.9719725174
 40
0.9772310594
 40
0.9819416744
 40
0.986103421
 40
0.9897159596
 40
0.9927791702
 40
0.9952933449
 40
0.9963448961
 40
0.9972597669
 40
0.9980384692
 40
0.9986818997
 40
0.9991917456
 40
0.9995715812
 40
0.9997154273
 40
0.9998313994
 40
1.0
 40
1.0
 40
1.0
 40
1.0
 10
5.6183660104
 20
6.0851002172
 30
0.0
 10
5.638509558
 20
6.0853411412
 30
0.0
 10
5.6781314914
 20
6.0858236126
 30
0.0
 10
5.736448817
 20
6.0865570473
 30
0.0
 10
5.7924225046
 20
6.0872802827
 30
0.0
 10
5.8457171539
 20
6.0879881931
 30
0.0
 10
5.896011341
 20
6.0886857544
 30
0.0
 10
5.9430031558
 20
6.0893762467
 30
0.0
 10
5.9864112533
 20
6.0900656049
 30
0.0
 10
6.0259758537
 20
6.0907608715
 30
0.0
 10
6.056435209
 20
6.0913702434
 30
0.0
 10
6.0787059249
 20
6.0918694864
 30
0.0
 10
6.09377918
 20
6.0922340236
 30
0.0
 10
6.1077323778
 20
6.0925997537
 30
0.0
 10
6.1205430386
 20
6.0929658425
 30
0.0
 10
6.1321913689
 20
6.0933315158
 30
0.0
 10
6.1426607282
 20
6.0936958603
 30
0.0
 10
6.1519370472
 20
6.0940578894
 30
0.0
 10
6.1600067093
 20
6.094416719
 30
0.0
 10
6.1659705652
 20
6.0947248568
 30
0.0
 10
6.1701277632
 20
6.0949736522
 30
0.0
 10
6.1727824812
 20
6.0951498829
 30
0.0
 10
6.1751266214
 20
6.0953248567
 30
0.0
 10
6.1771597384
 20
6.0954985151
 30
0.0
 10
6.1788814508
 20
6.0956708895
 30
0.0
 10
6.1801207062
 20
6.0958205255
 30
0.0
 10
6.1809554043
 20
6.0959430473
 30
0.0
 10
6.1814651006
 20
6.0960290667
 30
0.0
 10
6.181896749
 20
6.0961147442
 30
0.0
 10
6.1822506173
 20
6.0961997299
 30
0.0
 10
6.1825267546
 20
6.0962843589
 30
0.0
 10
6.1827073112
 20
6.0963585861
 30
0.0
 10
6.1828104244
 20
6.0964221465
 30
0.0
 10
6.1828720255
 20
6.0964731585
 30
0.0
 10
6.1829019375
 20
6.0965248289
 30
0.0
 10
6.1829019683
 20
6.0965565727
 30
0.0
  0
SPLINE
  5
36E
100
AcDbEntity
  8
0
100
AcDbSpline
 62
7
  6
CONTINUOUS
 70
0
 71
3
 72
14
 73
10
 74
0
 42
0.0000001
 43
0.0000001
 44
0.0000000001
 40
0.0
 40
0.0
 40
0.0
 40
0.0
 40
0.1442929235
 40
0.2867736648
 40
0.5583331044
 40
0.6838891003
 40
0.800355403
 40
0.9061929962
 40
1.0
 40
1.0
 40
1.0
 40
1.0
 10
5.3443518309
 20
4.6194864463
 30
0.0
 10
5.377748257
 20
4.6198301474
 30
0.0
 10
5.4441216809
 20
4.6205133707
 30
0.0
 10
5.5733466873
 20
4.6218941037
 30
0.0
 10
5.6982338754
 20
4.6233387185
 30
0.0
 10
5.8170989307
 20
4.6248117069
 30
0.0
 10
5.8976081818
 20
4.6258567517
 30
0.0
 10
5.970768374
 20
4.6268823163
 30
0.0
 10
6.0169726569
 20
4.6276095095
 30
0.0
 10
6.0386820742
 20
4.6279853019
 30
0.0
  0
SPLINE
  5
36F
100
AcDbEntity
  8
0
100
AcDbSpline
 62
7
  6
CONTINUOUS
 70
0
 71
3
 72
32
 73
28
 74
0
 42
0.0000001
 43
0.0000001
 44
0.0000000001
 40
0.0
 40
0.0
 40
0.0
 40
0.0
 40
0.2277305697
 40
0.3314696329
 40
0.4282353803
 40
0.5178612684
 40
0.6001866975
 40
0.6750872136
 40
0.7424522023
 40
0.8021712978
 40
0.8541345869
 40
0.8982500012
 40
0.917347827
 40
0.9344645621
 40
0.9495946352
 40
0.962732867
 40
0.9738747542
 40
0.9830170654
 40
0.9868381803
 40
0.990159649
 40
0.9929828404
 40
0.9953109372
 40
0.9971496995
 40
0.9985109349
 40
0.9990212959
 40
0.9994276713
 40
1.0
 40
1.0
 40
1.0
 40
1.0
 10
6.0386820742
 20
4.6279853019
 30
0.0
 10
6.0521149457
 20
4.6282178263
 30
0.0
 10
6.0716666273
 20
4.6285759051
 30
0.0
 10
6.0969249353
 20
4.6290930607
 30
0.0
 10
6.1140369262
 20
4.6294710896
 30
0.0
 10
6.1298852516
 20
4.6298510047
 30
0.0
 10
6.1444432037
 20
4.6302325077
 30
0.0
 10
6.1576873747
 20
4.6306145715
 30
0.0
 10
6.1695972991
 20
4.6309960674
 30
0.0
 10
6.1801533449
 20
4.6313757861
 30
0.0
 10
6.1893368941
 20
4.6317526111
 30
0.0
 10
6.1961240523
 20
4.6320766404
 30
0.0
 10
6.200855852
 20
4.6323388798
 30
0.0
 10
6.2038792092
 20
4.6325250342
 30
0.0
 10
6.2065503074
 20
4.6327101484
 30
0.0
 10
6.2088680734
 20
4.6328940261
 30
0.0
 10
6.2108314095
 20
4.6330765651
 30
0.0
 10
6.212244819
 20
4.6332349391
 30
0.0
 10
6.2131968069
 20
4.6333645158
 30
0.0
 10
6.2137777271
 20
4.6334553762
 30
0.0
 10
6.2142693941
 20
4.6335457966
 30
0.0
 10
6.2146721048
 20
4.6336353343
 30
0.0
 10
6.214986018
 20
4.6337244594
 30
0.0
 10
6.2151911687
 20
4.6338023408
 30
0.0
 10
6.2153086042
 20
4.6338694266
 30
0.0
 10
6.2153776064
 20
4.6339221206
 30
0.0
 10
6.2154125412
 20
4.6339770891
 30
0.0
 10
6.2154124053
 20
4.6340108532
 30
0.0
  0
SPLINE
  5
370
100
AcDbEntity
  8
0
100
AcDbSpline
 62
7
  6
CONTINUOUS
 70
0
 71
3
 72
18
 73
14
 74
0
 42
0.0000001
 43
0.0000001
 44
0.0000000001
 40
0.0
 40
0.0
 40
0.0
 40
0.0
 40
0.0153736553
 40
0.0369627591
 40
0.0648344379
 40
0.0990129464
 40
0.1395062531
 40
0.1863148216
 40
0.29886065
 40
0.4366018802
 40
0.5994719432
 40
0.787347747
 40
1.0
 40
1.0
 40
1.0
 40
1.0
 10
6.215063057
 20
5.2029119643
 30
0.0
 10
6.2149015728
 20
5.2028534868
 30
0.0
 10
6.2145008836
 20
5.2027489479
 30
0.0
 10
6.2137896206
 20
5.2026126199
 30
0.0
 10
6.2128651539
 20
5.2024747745
 30
0.0
 10
6.2117280821
 20
5.2023353426
 30
0.0
 10
6.2103781683
 20
5.2021949994
 30
0.0
 10
6.2081545766
 20
5.2019942756
 30
0.0
 10
6.2048444852
 20
5.2017488463
 30
0.0
 10
6.2002375737
 20
5.2014653153
 30
0.0
 10
6.1947879324
 20
5.2011786196
 30
0.0
 10
6.1885005948
 20
5.2008888247
 30
0.0
 10
6.184029856
 20
5.2007053022
 30
0.0
 10
6.1816560378
 20
5.2006123432
 30
0.0
  0
SPLINE
  5
371
100
AcDbEntity
  8
0
100
AcDbSpline
 62
7
  6
CONTINUOUS
 70
0
 71
3
 72
33
 73
29
 74
0
 42
0.0000001
 43
0.0000001
 44
0.0000000001
 40
0.0
 40
0.0
 40
0.0
 40
0.0
 40
0.0131968609
 40
0.0295610594
 40
0.0489909499
 40
0.0713531349
 40
0.0965083706
 40
0.1242906228
 40
0.1545169283
 40
0.1869959335
 40
0.2578395436
 40
0.3349809651
 40
0.4164139555
 40
0.4580799978
 40
0.5000195631
 40
0.5419589525
 40
0.5836244673
 40
0.665055367
 40
0.7421933677
 40
0.8130323143
 40
0.8455085585
 40
0.8757318397
 40
0.9035108243
 40
0.9286625709
 40
0.9510210668
 40
0.9704470932
 40
0.9868072773
 40
1.0
 40
1.0
 40
1.0
 40
1.0
 10
6.1816560378
 20
5.2006123432
 30
0.0
 10
6.1742941898
 20
5.2003240526
 30
0.0
 10
6.1578000519
 20
5.1997696645
 30
0.0
 10
6.130459899
 20
5.1990157913
 30
0.0
 10
6.0980013343
 20
5.198261022
 30
0.0
 10
6.0606336671
 20
5.1975143472
 30
0.0
 10
6.0186019006
 20
5.196788157
 30
0.0
 10
5.9721790166
 20
5.1960747229
 30
0.0
 10
5.9216670514
 20
5.1953586235
 30
0.0
 10
5.8471166369
 20
5.1943556676
 30
0.0
 10
5.7463758585
 20
5.19308779
 30
0.0
 10
5.6183062369
 20
5.191572753
 30
0.0
 10
5.5065236805
 20
5.1903312393
 30
0.0
 10
5.4143916906
 20
5.1893618913
 30
0.0
 10
5.3443065701
 20
5.1886478093
 30
0.0
 10
5.2742217437
 20
5.1879337719
 30
0.0
 10
5.1820913117
 20
5.1869646208
 30
0.0
 10
5.0703121233
 20
5.1857234329
 30
0.0
 10
4.9422481851
 20
5.1842081738
 30
0.0
 10
4.8415134621
 20
5.1829402827
 30
0.0
 10
4.7669688807
 20
5.1819373841
 30
0.0
 10
4.7164619698
 20
5.1812212998
 30
0.0
 10
4.6700445471
 20
5.1805078592
 30
0.0
 10
4.6280186133
 20
5.1797816508
 30
0.0
 10
4.5906571124
 20
5.1790349548
 30
0.0
 10
4.5582050076
 20
5.1782801718
 30
0.0
 10
4.5308715657
 20
5.1775263048
 30
0.0
 10
4.5143819816
 20
5.1769719174
 30
0.0
 10
4.5070224459
 20
5.1766836197
 30
0.0
  0
SPLINE
  5
372
100
AcDbEntity
  8
0
100
AcDbSpline
 62
7
  6
CONTINUOUS
 70
0
 71
3
 72
24
 73
20
 74
0
 42
0.0000001
 43
0.0000001
 44
0.0000000001
 40
0.0
 40
0.0
 40
0.0
 40
0.0
 40
0.2320196135
 40
0.4337161891
 40
0.6047986886
 40
0.6788151188
 40
0.7451330747
 40
0.8037426954
 40
0.8546361469
 40
0.8978090806
 40
0.933263684
 40
0.948101436
 40
0.9610178552
 40
0.9720207252
 40
0.9811238879
 40
0.9883535533
 40
0.9937651659
 40
0.9974989297
 40
1.0
 40
1.0
 40
1.0
 40
1.0
 10
4.5070224459
 20
5.1766836197
 30
0.0
 10
4.5043994616
 20
5.1765808686
 30
0.0
 10
4.4994966783
 20
5.1763786192
 30
0.0
 10
4.4926616878
 20
5.1760573183
 30
0.0
 10
4.4876142335
 20
5.1757813954
 30
0.0
 10
4.4840980167
 20
5.1755581946
 30
0.0
 10
4.481852785
 20
5.1753997855
 30
0.0
 10
4.4798698218
 20
5.1752422168
 30
0.0
 10
4.4781495514
 20
5.1750856055
 30
0.0
 10
4.4766924168
 20
5.1749300009
 30
0.0
 10
4.4756434881
 20
5.1747948441
 30
0.0
 10
4.4749369249
 20
5.1746842073
 30
0.0
 10
4.4745053423
 20
5.1746064714
 30
0.0
 10
4.4741397212
 20
5.1745291907
 30
0.0
 10
4.4738401096
 20
5.1744521445
 30
0.0
 10
4.4736056971
 20
5.1743764751
 30
0.0
 10
4.4734364214
 20
5.1742999875
 30
0.0
 10
4.4733257133
 20
5.174226879
 30
0.0
 10
4.4732887159
 20
5.1741590479
 30
0.0
 10
4.4732887159
 20
5.1741307516
 30
0.0
  0
SPLINE
  5
373
100
AcDbEntity
  8
0
100
AcDbSpline
 62
7
  6
CONTINUOUS
 70
0
 71
3
 72
18
 73
14
 74
0
 42
0.0000001
 43
0.0000001
 44
0.0000000001
 40
0.0
 40
0.0
 40
0.0
 40
0.0
 40
0.0153736553
 40
0.0369627591
 40
0.0648344379
 40
0.0990129464
 40
0.1395062531
 40
0.1863148216
 40
0.29886065
 40
0.4366018802
 40
0.5994719432
 40
0.787347747
 40
1.0
 40
1.0
 40
1.0
 40
1.0
 10
6.215063057
 20
5.2609828304
 30
0.0
 10
6.2149015728
 20
5.2609243529
 30
0.0
 10
6.2145008836
 20
5.2608198141
 30
0.0
 10
6.2137896206
 20
5.260683486
 30
0.0
 10
6.2128651539
 20
5.2605456406
 30
0.0
 10
6.2117280821
 20
5.2604062087
 30
0.0
 10
6.2103781683
 20
5.2602658656
 30
0.0
 10
6.2081545766
 20
5.2600651418
 30
0.0
 10
6.2048444852
 20
5.2598197125
 30
0.0
 10
6.2002375737
 20
5.2595361814
 30
0.0
 10
6.1947879324
 20
5.2592494857
 30
0.0
 10
6.1885005948
 20
5.2589596908
 30
0.0
 10
6.184029856
 20
5.2587761683
 30
0.0
 10
6.1816560378
 20
5.2586832094
 30
0.0
  0
SPLINE
  5
374
100
AcDbEntity
  8
0
100
AcDbSpline
 62
7
  6
CONTINUOUS
 70
0
 71
3
 72
33
 73
29
 74
0
 42
0.0000001
 43
0.0000001
 44
0.0000000001
 40
0.0
 40
0.0
 40
0.0
 40
0.0
 40
0.0131968609
 40
0.0295610594
 40
0.0489909499
 40
0.0713531349
 40
0.0965083706
 40
0.1242906228
 40
0.1545169283
 40
0.1869959335
 40
0.2578395436
 40
0.3349809651
 40
0.4164139555
 40
0.4580799978
 40
0.5000195631
 40
0.5419589525
 40
0.5836244673
 40
0.665055367
 40
0.7421933677
 40
0.8130323143
 40
0.8455085585
 40
0.8757318397
 40
0.9035108243
 40
0.9286625709
 40
0.9510210668
 40
0.9704470932
 40
0.9868072773
 40
1.0
 40
1.0
 40
1.0
 40
1.0
 10
6.1816560378
 20
5.2586832094
 30
0.0
 10
6.1742941898
 20
5.2583949188
 30
0.0
 10
6.1578000519
 20
5.2578405306
 30
0.0
 10
6.130459899
 20
5.2570866574
 30
0.0
 10
6.0980013343
 20
5.2563318882
 30
0.0
 10
6.0606336671
 20
5.2555852134
 30
0.0
 10
6.0186019006
 20
5.2548590232
 30
0.0
 10
5.9721790166
 20
5.254145589
 30
0.0
 10
5.9216670514
 20
5.2534294897
 30
0.0
 10
5.8471166369
 20
5.2524265337
 30
0.0
 10
5.7463758585
 20
5.2511586561
 30
0.0
 10
5.6183062369
 20
5.2496436192
 30
0.0
 10
5.5065236805
 20
5.2484021054
 30
0.0
 10
5.4143916906
 20
5.2474327575
 30
0.0
 10
5.3443065701
 20
5.2467186754
 30
0.0
 10
5.2742217437
 20
5.2460046381
 30
0.0
 10
5.1820913117
 20
5.2450354869
 30
0.0
 10
5.0703121233
 20
5.2437942991
 30
0.0
 10
4.9422481851
 20
5.24227904
 30
0.0
 10
4.8415134621
 20
5.2410111488
 30
0.0
 10
4.7669688807
 20
5.2400082502
 30
0.0
 10
4.7164619698
 20
5.2392921659
 30
0.0
 10
4.6700445471
 20
5.2385787253
 30
0.0
 10
4.6280186133
 20
5.2378525169
 30
0.0
 10
4.5906571124
 20
5.2371058209
 30
0.0
 10
4.5582050076
 20
5.2363510379
 30
0.0
 10
4.5308715657
 20
5.235597171
 30
0.0
 10
4.5143819816
 20
5.2350427835
 30
0.0
 10
4.5070224459
 20
5.2347544858
 30
0.0
  0
SPLINE
  5
375
100
AcDbEntity
  8
0
100
AcDbSpline
 62
7
  6
CONTINUOUS
 70
0
 71
3
 72
24
 73
20
 74
0
 42
0.0000001
 43
0.0000001
 44
0.0000000001
 40
0.0
 40
0.0
 40
0.0
 40
0.0
 40
0.2320196135
 40
0.4337161891
 40
0.6047986886
 40
0.6788151188
 40
0.7451330747
 40
0.8037426954
 40
0.8546361469
 40
0.8978090806
 40
0.933263684
 40
0.948101436
 40
0.9610178552
 40
0.9720207252
 40
0.9811238879
 40
0.9883535533
 40
0.9937651659
 40
0.9974989297
 40
1.0
 40
1.0
 40
1.0
 40
1.0
 10
4.5070224459
 20
5.2347544858
 30
0.0
 10
4.5043994616
 20
5.2346517347
 30
0.0
 10
4.4994966783
 20
5.2344494853
 30
0.0
 10
4.4926616878
 20
5.2341281845
 30
0.0
 10
4.4876142335
 20
5.2338522615
 30
0.0
 10
4.4840980167
 20
5.2336290608
 30
0.0
 10
4.481852785
 20
5.2334706516
 30
0.0
 10
4.4798698218
 20
5.233313083
 30
0.0
 10
4.4781495514
 20
5.2331564716
 30
0.0
 10
4.4766924168
 20
5.233000867
 30
0.0
 10
4.4756434881
 20
5.2328657103
 30
0.0
 10
4.4749369249
 20
5.2327550734
 30
0.0
 10
4.4745053423
 20
5.2326773376
 30
0.0
 10
4.4741397212
 20
5.2326000569
 30
0.0
 10
4.4738401096
 20
5.2325230107
 30
0.0
 10
4.4736056971
 20
5.2324473412
 30
0.0
 10
4.4734364214
 20
5.2323708536
 30
0.0
 10
4.4733257133
 20
5.2322977451
 30
0.0
 10
4.4732887159
 20
5.232229914
 30
0.0
 10
4.4732887159
 20
5.2322016177
 30
0.0
  0
SPLINE
  5
376
100
AcDbEntity
  8
0
100
AcDbSpline
 62
7
  6
CONTINUOUS
 70
0
 71
3
 72
18
 73
14
 74
0
 42
0.0000001
 43
0.0000001
 44
0.0000000001
 40
0.0
 40
0.0
 40
0.0
 40
0.0
 40
0.0153736553
 40
0.0369627591
 40
0.0648344379
 40
0.0990129464
 40
0.1395062531
 40
0.1863148216
 40
0.29886065
 40
0.4366018802
 40
0.5994719432
 40
0.787347747
 40
1.0
 40
1.0
 40
1.0
 40
1.0
 10
6.215063057
 20
5.3190536966
 30
0.0
 10
6.2149015728
 20
5.3189952191
 30
0.0
 10
6.2145008836
 20
5.3188906802
 30
0.0
 10
6.2137896206
 20
5.3187543522
 30
0.0
 10
6.2128651539
 20
5.3186165068
 30
0.0
 10
6.2117280821
 20
5.3184770749
 30
0.0
 10
6.2103781683
 20
5.3183367317
 30
0.0
 10
6.2081545766
 20
5.3181360079
 30
0.0
 10
6.2048444852
 20
5.3178905786
 30
0.0
 10
6.2002375737
 20
5.3176070475
 30
0.0
 10
6.1947879324
 20
5.3173203518
 30
0.0
 10
6.1885005948
 20
5.317030557
 30
0.0
 10
6.184029856
 20
5.3168470344
 30
0.0
 10
6.1816560378
 20
5.3167540755
 30
0.0
  0
SPLINE
  5
377
100
AcDbEntity
  8
0
100
AcDbSpline
 62
7
  6
CONTINUOUS
 70
0
 71
3
 72
33
 73
29
 74
0
 42
0.0000001
 43
0.0000001
 44
0.0000000001
 40
0.0
 40
0.0
 40
0.0
 40
0.0
 40
0.0131968609
 40
0.0295610594
 40
0.0489909499
 40
0.0713531349
 40
0.0965083706
 40
0.1242906228
 40
0.1545169283
 40
0.1869959335
 40
0.2578395436
 40
0.3349809651
 40
0.4164139555
 40
0.4580799978
 40
0.5000195631
 40
0.5419589525
 40
0.5836244673
 40
0.665055367
 40
0.7421933677
 40
0.8130323143
 40
0.8455085585
 40
0.8757318397
 40
0.9035108243
 40
0.9286625709
 40
0.9510210668
 40
0.9704470932
 40
0.9868072773
 40
1.0
 40
1.0
 40
1.0
 40
1.0
 10
6.1816560378
 20
5.3167540755
 30
0.0
 10
6.1742941898
 20
5.3164657849
 30
0.0
 10
6.1578000519
 20
5.3159113968
 30
0.0
 10
6.130459899
 20
5.3151575236
 30
0.0
 10
6.0980013343
 20
5.3144027543
 30
0.0
 10
6.0606336671
 20
5.3136560795
 30
0.0
 10
6.0186019006
 20
5.3129298893
 30
0.0
 10
5.9721790166
 20
5.3122164552
 30
0.0
 10
5.9216670514
 20
5.3115003558
 30
0.0
 10
5.8471166369
 20
5.3104973998
 30
0.0
 10
5.7463758585
 20
5.3092295222
 30
0.0
 10
5.6183062369
 20
5.3077144853
 30
0.0
 10
5.5065236805
 20
5.3064729716
 30
0.0
 10
5.4143916906
 20
5.3055036236
 30
0.0
 10
5.3443065701
 20
5.3047895416
 30
0.0
 10
5.2742217437
 20
5.3040755042
 30
0.0
 10
5.1820913117
 20
5.3031063531
 30
0.0
 10
5.0703121233
 20
5.3018651652
 30
0.0
 10
4.9422481851
 20
5.3003499061
 30
0.0
 10
4.8415134621
 20
5.299082015
 30
0.0
 10
4.7669688807
 20
5.2980791164
 30
0.0
 10
4.7164619698
 20
5.2973630321
 30
0.0
 10
4.6700445471
 20
5.2966495915
 30
0.0
 10
4.6280186133
 20
5.2959233831
 30
0.0
 10
4.5906571124
 20
5.2951766871
 30
0.0
 10
4.5582050076
 20
5.2944219041
 30
0.0
 10
4.5308715657
 20
5.2936680371
 30
0.0
 10
4.5143819816
 20
5.2931136497
 30
0.0
 10
4.5070224459
 20
5.292825352
 30
0.0
  0
SPLINE
  5
378
100
AcDbEntity
  8
0
100
AcDbSpline
 62
7
  6
CONTINUOUS
 70
0
 71
3
 72
24
 73
20
 74
0
 42
0.0000001
 43
0.0000001
 44
0.0000000001
 40
0.0
 40
0.0
 40
0.0
 40
0.0
 40
0.2320196135
 40
0.4337161891
 40
0.6047986886
 40
0.6788151188
 40
0.7451330747
 40
0.8037426954
 40
0.8546361469
 40
0.8978090806
 40
0.933263684
 40
0.948101436
 40
0.9610178552
 40
0.9720207252
 40
0.9811238879
 40
0.9883535533
 40
0.9937651659
 40
0.9974989297
 40
1.0
 40
1.0
 40
1.0
 40
1.0
 10
4.5070224459
 20
5.292825352
 30
0.0
 10
4.5043994616
 20
5.2927226009
 30
0.0
 10
4.4994966783
 20
5.2925203514
 30
0.0
 10
4.4926616878
 20
5.2921990506
 30
0.0
 10
4.4876142335
 20
5.2919231277
 30
0.0
 10
4.4840980167
 20
5.2916999269
 30
0.0
 10
4.481852785
 20
5.2915415178
 30
0.0
 10
4.4798698218
 20
5.2913839491
 30
0.0
 10
4.4781495514
 20
5.2912273378
 30
0.0
 10
4.4766924168
 20
5.2910717331
 30
0.0
 10
4.4756434881
 20
5.2909365764
 30
0.0
 10
4.4749369249
 20
5.2908259395
 30
0.0
 10
4.4745053423
 20
5.2907482037
 30
0.0
 10
4.4741397212
 20
5.290670923
 30
0.0
 10
4.4738401096
 20
5.2905938768
 30
0.0
 10
4.4736056971
 20
5.2905182073
 30
0.0
 10
4.4734364214
 20
5.2904417198
 30
0.0
 10
4.4733257133
 20
5.2903686113
 30
0.0
 10
4.4732887159
 20
5.2903007802
 30
0.0
 10
4.4732887159
 20
5.2902724838
 30
0.0
  0
SPLINE
  5
379
100
AcDbEntity
  8
0
100
AcDbSpline
 62
7
  6
CONTINUOUS
 70
0
 71
3
 72
18
 73
14
 74
0
 42
0.0000001
 43
0.0000001
 44
0.0000000001
 40
0.0
 40
0.0
 40
0.0
 40
0.0
 40
0.0153736553
 40
0.0369627591
 40
0.0648344379
 40
0.0990129464
 40
0.1395062531
 40
0.1863148216
 40
0.29886065
 40
0.4366018802
 40
0.5994719432
 40
0.787347747
 40
1.0
 40
1.0
 40
1.0
 40
1.0
 10
6.215063057
 20
5.4351954289
 30
0.0
 10
6.2149015728
 20
5.4351369514
 30
0.0
 10
6.2145008836
 20
5.4350324125
 30
0.0
 10
6.2137896206
 20
5.4348960845
 30
0.0
 10
6.2128651539
 20
5.4347582391
 30
0.0
 10
6.2117280821
 20
5.4346188072
 30
0.0
 10
6.2103781683
 20
5.434478464
 30
0.0
 10
6.2081545766
 20
5.4342777402
 30
0.0
 10
6.2048444852
 20
5.4340323109
 30
0.0
 10
6.2002375737
 20
5.4337487798
 30
0.0
 10
6.1947879324
 20
5.4334620841
 30
0.0
 10
6.1885005948
 20
5.4331722893
 30
0.0
 10
6.184029856
 20
5.4329887667
 30
0.0
 10
6.1816560378
 20
5.4328958078
 30
0.0
  0
SPLINE
  5
37A
100
AcDbEntity
  8
0
100
AcDbSpline
 62
7
  6
CONTINUOUS
 70
0
 71
3
 72
33
 73
29
 74
0
 42
0.0000001
 43
0.0000001
 44
0.0000000001
 40
0.0
 40
0.0
 40
0.0
 40
0.0
 40
0.0131968609
 40
0.0295610594
 40
0.0489909499
 40
0.0713531349
 40
0.0965083706
 40
0.1242906228
 40
0.1545169283
 40
0.1869959335
 40
0.2578395436
 40
0.3349809651
 40
0.4164139555
 40
0.4580799978
 40
0.5000195631
 40
0.5419589525
 40
0.5836244673
 40
0.665055367
 40
0.7421933677
 40
0.8130323143
 40
0.8455085585
 40
0.8757318397
 40
0.9035108243
 40
0.9286625709
 40
0.9510210668
 40
0.9704470932
 40
0.9868072773
 40
1.0
 40
1.0
 40
1.0
 40
1.0
 10
6.1816560378
 20
5.4328958078
 30
0.0
 10
6.1742941898
 20
5.4326075172
 30
0.0
 10
6.1578000519
 20
5.4320531291
 30
0.0
 10
6.130459899
 20
5.4312992559
 30
0.0
 10
6.0980013343
 20
5.4305444866
 30
0.0
 10
6.0606336671
 20
5.4297978118
 30
0.0
 10
6.0186019006
 20
5.4290716216
 30
0.0
 10
5.9721790166
 20
5.4283581874
 30
0.0
 10
5.9216670514
 20
5.4276420881
 30
0.0
 10
5.8471166369
 20
5.4266391321
 30
0.0
 10
5.7463758586
 20
5.4253712545
 30
0.0
 10
5.6183062369
 20
5.4238562176
 30
0.0
 10
5.5065236805
 20
5.4226147038
 30
0.0
 10
5.4143916906
 20
5.4216453559
 30
0.0
 10
5.3443065701
 20
5.4209312739
 30
0.0
 10
5.2742217437
 20
5.4202172365
 30
0.0
 10
5.1820913117
 20
5.4192480854
 30
0.0
 10
5.0703121233
 20
5.4180068975
 30
0.0
 10
4.9422481851
 20
5.4164916384
 30
0.0
 10
4.8415134621
 20
5.4152237472
 30
0.0
 10
4.7669688807
 20
5.4142208487
 30
0.0
 10
4.7164619698
 20
5.4135047643
 30
0.0
 10
4.6700445471
 20
5.4127913238
 30
0.0
 10
4.6280186133
 20
5.4120651153
 30
0.0
 10
4.5906571124
 20
5.4113184194
 30
0.0
 10
4.5582050076
 20
5.4105636364
 30
0.0
 10
4.5308715657
 20
5.4098097694
 30
0.0
 10
4.5143819816
 20
5.409255382
 30
0.0
 10
4.5070224459
 20
5.4089670842
 30
0.0
  0
SPLINE
  5
37B
100
AcDbEntity
  8
0
100
AcDbSpline
 62
7
  6
CONTINUOUS
 70
0
 71
3
 72
24
 73
20
 74
0
 42
0.0000001
 43
0.0000001
 44
0.0000000001
 40
0.0
 40
0.0
 40
0.0
 40
0.0
 40
0.2320196135
 40
0.4337161891
 40
0.6047986886
 40
0.6788151188
 40
0.7451330747
 40
0.8037426954
 40
0.8546361469
 40
0.8978090806
 40
0.933263684
 40
0.948101436
 40
0.9610178552
 40
0.9720207252
 40
0.9811238879
 40
0.9883535533
 40
0.9937651659
 40
0.9974989297
 40
1.0
 40
1.0
 40
1.0
 40
1.0
 10
4.5070224459
 20
5.4089670842
 30
0.0
 10
4.5043994616
 20
5.4088643331
 30
0.0
 10
4.4994966783
 20
5.4086620837
 30
0.0
 10
4.4926616878
 20
5.4083407829
 30
0.0
 10
4.4876142335
 20
5.4080648599
 30
0.0
 10
4.4840980167
 20
5.4078416592
 30
0.0
 10
4.481852785
 20
5.4076832501
 30
0.0
 10
4.4798698218
 20
5.4075256814
 30
0.0
 10
4.4781495514
 20
5.40736907
 30
0.0
 10
4.4766924168
 20
5.4072134654
 30
0.0
 10
4.4756434881
 20
5.4070783087
 30
0.0
 10
4.4749369249
 20
5.4069676718
 30
0.0
 10
4.4745053423
 20
5.406889936
 30
0.0
 10
4.4741397212
 20
5.4068126553
 30
0.0
 10
4.4738401096
 20
5.4067356091
 30
0.0
 10
4.4736056971
 20
5.4066599396
 30
0.0
 10
4.4734364214
 20
5.4065834521
 30
0.0
 10
4.4733257133
 20
5.4065103435
 30
0.0
 10
4.4732887159
 20
5.4064425124
 30
0.0
 10
4.4732887159
 20
5.4064142161
 30
0.0
  0
SPLINE
  5
37C
100
AcDbEntity
  8
0
100
AcDbSpline
 62
7
  6
CONTINUOUS
 70
0
 71
3
 72
18
 73
14
 74
0
 42
0.0000001
 43
0.0000001
 44
0.0000000001
 40
0.0
 40
0.0
 40
0.0
 40
0.0
 40
0.0153736553
 40
0.0369627591
 40
0.0648344379
 40
0.0990129464
 40
0.1395062531
 40
0.1863148216
 40
0.29886065
 40
0.4366018802
 40
0.5994719432
 40
0.787347747
 40
1.0
 40
1.0
 40
1.0
 40
1.0
 10
6.215063057
 20
5.493266295
 30
0.0
 10
6.2149015728
 20
5.4932078175
 30
0.0
 10
6.2145008836
 20
5.4931032787
 30
0.0
 10
6.2137896206
 20
5.4929669506
 30
0.0
 10
6.2128651539
 20
5.4928291052
 30
0.0
 10
6.2117280821
 20
5.4926896733
 30
0.0
 10
6.2103781683
 20
5.4925493301
 30
0.0
 10
6.2081545766
 20
5.4923486063
 30
0.0
 10
6.2048444852
 20
5.4921031771
 30
0.0
 10
6.2002375737
 20
5.491819646
 30
0.0
 10
6.1947879324
 20
5.4915329503
 30
0.0
 10
6.1885005948
 20
5.4912431554
 30
0.0
 10
6.184029856
 20
5.4910596329
 30
0.0
 10
6.1816560378
 20
5.4909666739
 30
0.0
  0
SPLINE
  5
37D
100
AcDbEntity
  8
0
100
AcDbSpline
 62
7
  6
CONTINUOUS
 70
0
 71
3
 72
33
 73
29
 74
0
 42
0.0000001
 43
0.0000001
 44
0.0000000001
 40
0.0
 40
0.0
 40
0.0
 40
0.0
 40
0.0131968609
 40
0.0295610594
 40
0.0489909499
 40
0.0713531349
 40
0.0965083706
 40
0.1242906228
 40
0.1545169283
 40
0.1869959335
 40
0.2578395436
 40
0.3349809651
 40
0.4164139555
 40
0.4580799978
 40
0.5000195631
 40
0.5419589525
 40
0.5836244673
 40
0.665055367
 40
0.7421933677
 40
0.8130323143
 40
0.8455085585
 40
0.8757318397
 40
0.9035108243
 40
0.9286625709
 40
0.9510210668
 40
0.9704470932
 40
0.9868072773
 40
1.0
 40
1.0
 40
1.0
 40
1.0
 10
6.1816560378
 20
5.4909666739
 30
0.0
 10
6.1742941898
 20
5.4906783833
 30
0.0
 10
6.1578000519
 20
5.4901239952
 30
0.0
 10
6.130459899
 20
5.489370122
 30
0.0
 10
6.0980013343
 20
5.4886153528
 30
0.0
 10
6.0606336671
 20
5.4878686779
 30
0.0
 10
6.0186019006
 20
5.4871424877
 30
0.0
 10
5.9721790166
 20
5.4864290536
 30
0.0
 10
5.9216670514
 20
5.4857129542
 30
0.0
 10
5.8471166369
 20
5.4847099983
 30
0.0
 10
5.7463758585
 20
5.4834421207
 30
0.0
 10
5.6183062369
 20
5.4819270837
 30
0.0
 10
5.5065236805
 20
5.48068557
 30
0.0
 10
5.4143916906
 20
5.479716222
 30
0.0
 10
5.3443065701
 20
5.47900214
 30
0.0
 10
5.2742217437
 20
5.4782881026
 30
0.0
 10
5.1820913117
 20
5.4773189515
 30
0.0
 10
5.0703121233
 20
5.4760777636
 30
0.0
 10
4.9422481851
 20
5.4745625045
 30
0.0
 10
4.8415134621
 20
5.4732946134
 30
0.0
 10
4.7669688807
 20
5.4722917148
 30
0.0
 10
4.7164619698
 20
5.4715756305
 30
0.0
 10
4.6700445471
 20
5.4708621899
 30
0.0
 10
4.6280186133
 20
5.4701359815
 30
0.0
 10
4.5906571124
 20
5.4693892855
 30
0.0
 10
4.5582050076
 20
5.4686345025
 30
0.0
 10
4.5308715657
 20
5.4678806355
 30
0.0
 10
4.5143819816
 20
5.4673262481
 30
0.0
 10
4.5070224459
 20
5.4670379504
 30
0.0
  0
SPLINE
  5
37E
100
AcDbEntity
  8
0
100
AcDbSpline
 62
7
  6
CONTINUOUS
 70
0
 71
3
 72
24
 73
20
 74
0
 42
0.0000001
 43
0.0000001
 44
0.0000000001
 40
0.0
 40
0.0
 40
0.0
 40
0.0
 40
0.2320196135
 40
0.4337161891
 40
0.6047986886
 40
0.6788151188
 40
0.7451330747
 40
0.8037426954
 40
0.8546361469
 40
0.8978090806
 40
0.933263684
 40
0.948101436
 40
0.9610178552
 40
0.9720207252
 40
0.9811238879
 40
0.9883535533
 40
0.9937651659
 40
0.9974989297
 40
1.0
 40
1.0
 40
1.0
 40
1.0
 10
4.5070224459
 20
5.4670379504
 30
0.0
 10
4.5043994616
 20
5.4669351993
 30
0.0
 10
4.4994966783
 20
5.4667329499
 30
0.0
 10
4.4926616878
 20
5.466411649
 30
0.0
 10
4.4876142335
 20
5.4661357261
 30
0.0
 10
4.4840980167
 20
5.4659125253
 30
0.0
 10
4.481852785
 20
5.4657541162
 30
0.0
 10
4.4798698218
 20
5.4655965475
 30
0.0
 10
4.4781495514
 20
5.4654399362
 30
0.0
 10
4.4766924168
 20
5.4652843316
 30
0.0
 10
4.4756434881
 20
5.4651491748
 30
0.0
 10
4.4749369249
 20
5.465038538
 30
0.0
 10
4.4745053423
 20
5.4649608022
 30
0.0
 10
4.4741397212
 20
5.4648835215
 30
0.0
 10
4.4738401096
 20
5.4648064752
 30
0.0
 10
4.4736056971
 20
5.4647308058
 30
0.0
 10
4.4734364214
 20
5.4646543182
 30
0.0
 10
4.4733257133
 20
5.4645812097
 30
0.0
 10
4.4732887159
 20
5.4645133786
 30
0.0
 10
4.4732887159
 20
5.4644850823
 30
0.0
  0
SPLINE
  5
37F
100
AcDbEntity
  8
0
100
AcDbSpline
 62
7
  6
CONTINUOUS
 70
0
 71
3
 72
41
 73
37
 74
0
 42
0.0000001
 43
0.0000001
 44
0.0000000001
 40
0.0
 40
0.0
 40
0.0
 40
0.0
 40
0.1067590255
 40
0.2100332463
 40
0.3091898138
 40
0.4036519079
 40
0.4928566555
 40
0.5762575583
 40
0.6533286352
 40
0.7236127619
 40
0.756071704
 40
0.7866729038
 40
0.8153734575
 40
0.8421312147
 40
0.86690404
 40
0.8896501652
 40
0.9103352013
 40
0.9289318305
 40
0.9454130819
 40
0.9597520924
 40
0.9719232333
 40
0.9771906432
 40
0.9819109194
 40
0.9860828956
 40
0.9897055223
 40
0.9927779514
 40
0.995299713
 40
0.996354187
 40
0.9972712501
 40
0.9980512824
 40
0.9986950221
 40
0.9992039676
 40
0.9995815513
 40
0.9997236674
 40
0.9998374204
 40
1.0
 40
1.0
 40
1.0
 40
1.0
 10
5.61856669
 20
6.0741923006
 30
0.0
 10
5.6398152229
 20
6.0744371169
 30
0.0
 10
5.6816185816
 20
6.074928923
 30
0.0
 10
5.7431570449
 20
6.0756725777
 30
0.0
 10
5.8022477987
 20
6.0764058454
 30
0.0
 10
5.8585380513
 20
6.0771239545
 30
0.0
 10
5.9116921337
 20
6.0778272294
 30
0.0
 10
5.9613843823
 20
6.0785237268
 30
0.0
 10
6.0073101591
 20
6.0792205028
 30
0.0
 10
6.0430964123
 20
6.0798208722
 30
0.0
 10
6.0696334942
 20
6.0803123467
 30
0.0
 10
6.0878944872
 20
6.0806749955
 30
0.0
 10
6.1050203849
 20
6.0810404807
 30
0.0
 10
6.1209858394
 20
6.0814080348
 30
0.0
 10
6.1357657223
 20
6.0817768001
 30
0.0
 10
6.1493364366
 20
6.0821459904
 30
0.0
 10
6.1616773212
 20
6.082514769
 30
0.0
 10
6.1727706375
 20
6.0828822357
 30
0.0
 10
6.1826001214
 20
6.0832473992
 30
0.0
 10
6.1911497628
 20
6.0836093969
 30
0.0
 10
6.1974673974
 20
6.0839203155
 30
0.0
 10
6.2018708695
 20
6.0841717624
 30
0.0
 10
6.2046836609
 20
6.0843502128
 30
0.0
 10
6.2071683962
 20
6.0845276883
 30
0.0
 10
6.2093242904
 20
6.0847040525
 30
0.0
 10
6.2111505338
 20
6.084879257
 30
0.0
 10
6.2124653191
 20
6.0850314081
 30
0.0
 10
6.2133510148
 20
6.085156004
 30
0.0
 10
6.2138917338
 20
6.0852434524
 30
0.0
 10
6.2143495217
 20
6.0853305313
 30
0.0
 10
6.2147245947
 20
6.0854168343
 30
0.0
 10
6.2150169963
 20
6.0855027664
 30
0.0
 10
6.2152080535
 20
6.0855779944
 30
0.0
 10
6.2153172045
 20
6.0856426333
 30
0.0
 10
6.2153817812
 20
6.0856938981
 30
0.0
 10
6.2154137328
 20
6.0857467052
 30
0.0
 10
6.2154135676
 20
6.0857790656
 30
0.0
  0
SPLINE
  5
380
100
AcDbEntity
  8
0
100
AcDbSpline
 62
7
  6
CONTINUOUS
 70
0
 71
3
 72
18
 73
14
 74
0
 42
0.0000001
 43
0.0000001
 44
0.0000000001
 40
0.0
 40
0.0
 40
0.0
 40
0.0
 40
0.0154728706
 40
0.0371340715
 40
0.0650566711
 40
0.0992704627
 40
0.1397886774
 40
0.1866168798
 40
0.2992060897
 40
0.437002636
 40
0.5998552194
 40
0.7875826592
 40
1.0
 40
1.0
 40
1.0
 40
1.0
 10
6.21506274
 20
5.5513330029
 30
0.0
 10
6.2149042161
 20
5.551275273
 30
0.0
 10
6.2145115648
 20
5.5511718722
 30
0.0
 10
6.2138152096
 20
5.5510371194
 30
0.0
 10
6.2129114065
 20
5.5509010103
 30
0.0
 10
6.2118005627
 20
5.5507634789
 30
0.0
 10
6.210482294
 20
5.5506251425
 30
0.0
 10
6.2083112402
 20
5.5504273955
 30
0.0
 10
6.2050794065
 20
5.5501857184
 30
0.0
 10
6.2005822553
 20
5.549906608
 30
0.0
 10
6.1952646439
 20
5.5496247159
 30
0.0
 10
6.189132561
 20
5.5493402933
 30
0.0
 10
6.1847732731
 20
5.5491603644
 30
0.0
 10
6.1824589718
 20
5.5490692538
 30
0.0
  0
SPLINE
  5
381
100
AcDbEntity
  8
0
100
AcDbSpline
 62
7
  6
CONTINUOUS
 70
0
 71
3
 72
32
 73
28
 74
0
 42
0.0000001
 43
0.0000001
 44
0.0000000001
 40
0.0
 40
0.0
 40
0.0
 40
0.0
 40
0.0129551061
 40
0.0290292454
 40
0.0481152377
 40
0.0700971759
 40
0.0948310753
 40
0.1221618798
 40
0.1519156392
 40
0.1839012194
 40
0.2537464326
 40
0.3299214463
 40
0.4104889872
 40
0.4517825141
 40
0.4934005779
 40
0.5765483611
 40
0.6578185052
 40
0.7351447752
 40
0.8065606492
 40
0.8394767199
 40
0.8702499554
 40
0.8986827414
 40
0.9245941325
 40
0.9478215116
 40
0.9682131006
 40
0.9856445469
 40
1.0
 40
1.0
 40
1.0
 40
1.0
 10
6.1824589718
 20
5.5490692538
 30
0.0
 10
6.1752639527
 20
5.5487859967
 30
0.0
 10
6.1591381476
 20
5.5482414181
 30
0.0
 10
6.1324053966
 20
5.5474990897
 30
0.0
 10
6.1006538451
 20
5.5467542183
 30
0.0
 10
6.0640878707
 20
5.5460155053
 30
0.0
 10
6.0229383635
 20
5.5452853519
 30
0.0
 10
5.9774683983
 20
5.5445671227
 30
0.0
 10
5.9279673056
 20
5.5438565431
 30
0.0
 10
5.8548377026
 20
5.542876372
 30
0.0
 10
5.75590775
 20
5.5416438016
 30
0.0
 10
5.629976701
 20
5.5401408745
 30
0.0
 10
5.5199129469
 20
5.5389061998
 30
0.0
 10
5.4290545824
 20
5.5379374042
 30
0.0
 10
5.3367618433
 20
5.5369846856
 30
0.0
 10
5.2222506755
 20
5.5358185555
 30
0.0
 10
5.087894356
 20
5.5343683955
 30
0.0
 10
4.9600599018
 20
5.5328544709
 30
0.0
 10
4.8591002364
 20
5.531582778
 30
0.0
 10
4.7840137959
 20
5.5305924395
 30
0.0
 10
4.7328162064
 20
5.5298837534
 30
0.0
 10
4.6855122648
 20
5.529176882
 30
0.0
 10
4.6424030043
 20
5.5284634851
 30
0.0
 10
4.6037640241
 20
5.5277378386
 30
0.0
 10
4.5698395833
 20
5.52699467
 30
0.0
 10
4.5408478006
 20
5.5262456766
 30
0.0
 10
4.5231886426
 20
5.5256971122
 30
0.0
 10
4.5152147483
 20
5.5254139254
 30
0.0
  0
SPLINE
  5
382
100
AcDbEntity
  8
0
100
AcDbSpline
 62
7
  6
CONTINUOUS
 70
0
 71
3
 72
25
 73
21
 74
0
 42
0.0000001
 43
0.0000001
 44
0.0000000001
 40
0.0
 40
0.0
 40
0.0
 40
0.0
 40
0.2318852735
 40
0.4336495132
 40
0.6049617268
 40
0.6790974409
 40
0.7455158845
 40
0.8042060652
 40
0.8551589297
 40
0.8983682468
 40
0.9338330848
 40
0.9486643941
 40
0.9615652783
 40
0.9725417498
 40
0.9816048063
 40
0.9887757157
 40
0.994100443
 40
0.9961056022
 40
0.9977105277
 40
1.0
 40
1.0
 40
1.0
 40
1.0
 10
4.5152147483
 20
5.5254139254
 30
0.0
 10
4.511959689
 20
5.5252983244
 30
0.0
 10
4.5058727814
 20
5.5250706911
 30
0.0
 10
4.4973830098
 20
5.5247092018
 30
0.0
 10
4.4911089461
 20
5.5243990098
 30
0.0
 10
4.4867355382
 20
5.5241487049
 30
0.0
 10
4.4839425087
 20
5.5239713766
 30
0.0
 10
4.4814757595
 20
5.5237952642
 30
0.0
 10
4.4793358335
 20
5.5236204489
 30
0.0
 10
4.4775232937
 20
5.5234469199
 30
0.0
 10
4.4762183922
 20
5.5232962964
 30
0.0
 10
4.4753392766
 20
5.523172977
 30
0.0
 10
4.4748024447
 20
5.5230864188
 30
0.0
 10
4.4743477938
 20
5.5230002169
 30
0.0
 10
4.4739750912
 20
5.5229147641
 30
0.0
 10
4.4736842941
 20
5.5228296645
 30
0.0
 10
4.4734941182
 20
5.5227551685
 30
0.0
 10
4.4733852824
 20
5.5226911478
 30
0.0
 10
4.4733208594
 20
5.5226404018
 30
0.0
 10
4.4732887159
 20
5.5225881068
 30
0.0
 10
4.4732887159
 20
5.5225559484
 30
0.0
  0
SPLINE
  5
383
100
AcDbEntity
  8
0
100
AcDbSpline
 62
7
  6
CONTINUOUS
 70
0
 71
3
 72
18
 73
14
 74
0
 42
0.0000001
 43
0.0000001
 44
0.0000000001
 40
0.0
 40
0.0
 40
0.0
 40
0.0
 40
0.0153736553
 40
0.0369627591
 40
0.0648344379
 40
0.0990129464
 40
0.1395062531
 40
0.1863148216
 40
0.29886065
 40
0.4366018802
 40
0.5994719432
 40
0.787347747
 40
1.0
 40
1.0
 40
1.0
 40
1.0
 10
6.215063057
 20
6.1320458226
 30
0.0
 10
6.2149015728
 20
6.1319873451
 30
0.0
 10
6.2145008836
 20
6.1318828062
 30
0.0
 10
6.2137896206
 20
6.1317464782
 30
0.0
 10
6.2128651539
 20
6.1316086328
 30
0.0
 10
6.2117280821
 20
6.1314692009
 30
0.0
 10
6.2103781683
 20
6.1313288577
 30
0.0
 10
6.2081545766
 20
6.1311281339
 30
0.0
 10
6.2048444852
 20
6.1308827046
 30
0.0
 10
6.2002375737
 20
6.1305991735
 30
0.0
 10
6.1947879324
 20
6.1303124778
 30
0.0
 10
6.1885005948
 20
6.130022683
 30
0.0
 10
6.184029856
 20
6.1298391604
 30
0.0
 10
6.1816560378
 20
6.1297462015
 30
0.0
  0
SPLINE
  5
384
100
AcDbEntity
  8
0
100
AcDbSpline
 62
7
  6
CONTINUOUS
 70
0
 71
3
 72
33
 73
29
 74
0
 42
0.0000001
 43
0.0000001
 44
0.0000000001
 40
0.0
 40
0.0
 40
0.0
 40
0.0
 40
0.0131968609
 40
0.0295610594
 40
0.0489909499
 40
0.0713531349
 40
0.0965083706
 40
0.1242906228
 40
0.1545169283
 40
0.1869959335
 40
0.2578395436
 40
0.3349809651
 40
0.4164139555
 40
0.4580799978
 40
0.5000195631
 40
0.5419589525
 40
0.5836244673
 40
0.665055367
 40
0.7421933677
 40
0.8130323143
 40
0.8455085585
 40
0.8757318397
 40
0.9035108243
 40
0.9286625709
 40
0.9510210668
 40
0.9704470932
 40
0.9868072773
 40
1.0
 40
1.0
 40
1.0
 40
1.0
 10
6.1816560378
 20
6.1297462015
 30
0.0
 10
6.1742941898
 20
6.1294579109
 30
0.0
 10
6.1578000519
 20
6.1289035228
 30
0.0
 10
6.130459899
 20
6.1281496496
 30
0.0
 10
6.0980013343
 20
6.1273948803
 30
0.0
 10
6.0606336671
 20
6.1266482055
 30
0.0
 10
6.0186019006
 20
6.1259220153
 30
0.0
 10
5.9721790166
 20
6.1252085811
 30
0.0
 10
5.9216670514
 20
6.1244924818
 30
0.0
 10
5.8471166369
 20
6.1234895258
 30
0.0
 10
5.7463758585
 20
6.1222216482
 30
0.0
 10
5.6183062369
 20
6.1207066113
 30
0.0
 10
5.5065236805
 20
6.1194650975
 30
0.0
 10
5.4143916906
 20
6.1184957496
 30
0.0
 10
5.3443065701
 20
6.1177816676
 30
0.0
 10
5.2742217437
 20
6.1170676302
 30
0.0
 10
5.1820913117
 20
6.1160984791
 30
0.0
 10
5.0703121233
 20
6.1148572912
 30
0.0
 10
4.9422481851
 20
6.1133420321
 30
0.0
 10
4.8415134621
 20
6.1120741409
 30
0.0
 10
4.7669688807
 20
6.1110712424
 30
0.0
 10
4.7164619698
 20
6.110355158
 30
0.0
 10
4.6700445471
 20
6.1096417175
 30
0.0
 10
4.6280186133
 20
6.108915509
 30
0.0
 10
4.5906571124
 20
6.1081688131
 30
0.0
 10
4.5582050076
 20
6.1074140301
 30
0.0
 10
4.5308715657
 20
6.1066601631
 30
0.0
 10
4.5143819816
 20
6.1061057757
 30
0.0
 10
4.5070224459
 20
6.1058174779
 30
0.0
  0
SPLINE
  5
385
100
AcDbEntity
  8
0
100
AcDbSpline
 62
7
  6
CONTINUOUS
 70
0
 71
3
 72
24
 73
20
 74
0
 42
0.0000001
 43
0.0000001
 44
0.0000000001
 40
0.0
 40
0.0
 40
0.0
 40
0.0
 40
0.2320196135
 40
0.4337161891
 40
0.6047986886
 40
0.6788151188
 40
0.7451330747
 40
0.8037426954
 40
0.8546361469
 40
0.8978090806
 40
0.933263684
 40
0.948101436
 40
0.9610178552
 40
0.9720207252
 40
0.9811238879
 40
0.9883535533
 40
0.9937651659
 40
0.9974989297
 40
1.0
 40
1.0
 40
1.0
 40
1.0
 10
4.5070224459
 20
6.1058174779
 30
0.0
 10
4.5043994616
 20
6.1057147268
 30
0.0
 10
4.4994966783
 20
6.1055124774
 30
0.0
 10
4.4926616878
 20
6.1051911766
 30
0.0
 10
4.4876142335
 20
6.1049152536
 30
0.0
 10
4.4840980167
 20
6.1046920529
 30
0.0
 10
4.481852785
 20
6.1045336438
 30
0.0
 10
4.4798698218
 20
6.1043760751
 30
0.0
 10
4.4781495514
 20
6.1042194637
 30
0.0
 10
4.4766924168
 20
6.1040638591
 30
0.0
 10
4.4756434881
 20
6.1039287024
 30
0.0
 10
4.4749369249
 20
6.1038180655
 30
0.0
 10
4.4745053423
 20
6.1037403297
 30
0.0
 10
4.4741397212
 20
6.103663049
 30
0.0
 10
4.4738401096
 20
6.1035860028
 30
0.0
 10
4.4736056971
 20
6.1035103333
 30
0.0
 10
4.4734364214
 20
6.1034338458
 30
0.0
 10
4.4733257133
 20
6.1033607372
 30
0.0
 10
4.4732887159
 20
6.1032929061
 30
0.0
 10
4.4732887159
 20
6.1032646098
 30
0.0
  0
SPLINE
  5
386
100
AcDbEntity
  8
0
100
AcDbSpline
 62
7
  6
CONTINUOUS
 70
0
 71
3
 72
18
 73
14
 74
0
 42
0.0000001
 43
0.0000001
 44
0.0000000001
 40
0.0
 40
0.0
 40
0.0
 40
0.0
 40
0.0153736553
 40
0.0369627591
 40
0.0648344379
 40
0.0990129464
 40
0.1395062531
 40
0.1863148216
 40
0.29886065
 40
0.4366018802
 40
0.5994719432
 40
0.787347747
 40
1.0
 40
1.0
 40
1.0
 40
1.0
 10
6.215063057
 20
6.1901166887
 30
0.0
 10
6.2149015728
 20
6.1900582112
 30
0.0
 10
6.2145008836
 20
6.1899536724
 30
0.0
 10
6.2137896206
 20
6.1898173443
 30
0.0
 10
6.2128651539
 20
6.1896794989
 30
0.0
 10
6.2117280821
 20
6.189540067
 30
0.0
 10
6.2103781683
 20
6.1893997238
 30
0.0
 10
6.2081545766
 20
6.189199
 30
0.0
 10
6.2048444852
 20
6.1889535708
 30
0.0
 10
6.2002375737
 20
6.1886700397
 30
0.0
 10
6.1947879324
 20
6.188383344
 30
0.0
 10
6.1885005948
 20
6.1880935491
 30
0.0
 10
6.184029856
 20
6.1879100266
 30
0.0
 10
6.1816560378
 20
6.1878170676
 30
0.0
  0
SPLINE
  5
387
100
AcDbEntity
  8
0
100
AcDbSpline
 62
7
  6
CONTINUOUS
 70
0
 71
3
 72
33
 73
29
 74
0
 42
0.0000001
 43
0.0000001
 44
0.0000000001
 40
0.0
 40
0.0
 40
0.0
 40
0.0
 40
0.0131968609
 40
0.0295610594
 40
0.0489909499
 40
0.0713531349
 40
0.0965083706
 40
0.1242906228
 40
0.1545169283
 40
0.1869959335
 40
0.2578395436
 40
0.3349809651
 40
0.4164139555
 40
0.4580799978
 40
0.5000195631
 40
0.5419589525
 40
0.5836244673
 40
0.665055367
 40
0.7421933677
 40
0.8130323143
 40
0.8455085585
 40
0.8757318397
 40
0.9035108243
 40
0.9286625709
 40
0.9510210668
 40
0.9704470932
 40
0.9868072773
 40
1.0
 40
1.0
 40
1.0
 40
1.0
 10
6.1816560378
 20
6.1878170676
 30
0.0
 10
6.1742941898
 20
6.187528777
 30
0.0
 10
6.1578000519
 20
6.1869743889
 30
0.0
 10
6.130459899
 20
6.1862205157
 30
0.0
 10
6.0980013343
 20
6.1854657465
 30
0.0
 10
6.0606336671
 20
6.1847190716
 30
0.0
 10
6.0186019006
 20
6.1839928815
 30
0.0
 10
5.9721790166
 20
6.1832794473
 30
0.0
 10
5.9216670514
 20
6.1825633479
 30
0.0
 10
5.8471166369
 20
6.181560392
 30
0.0
 10
5.7463758585
 20
6.1802925144
 30
0.0
 10
5.6183062369
 20
6.1787774774
 30
0.0
 10
5.5065236805
 20
6.1775359637
 30
0.0
 10
5.4143916906
 20
6.1765666158
 30
0.0
 10
5.3443065701
 20
6.1758525337
 30
0.0
 10
5.2742217437
 20
6.1751384963
 30
0.0
 10
5.1820913117
 20
6.1741693452
 30
0.0
 10
5.0703121233
 20
6.1729281573
 30
0.0
 10
4.9422481851
 20
6.1714128982
 30
0.0
 10
4.8415134621
 20
6.1701450071
 30
0.0
 10
4.7669688807
 20
6.1691421085
 30
0.0
 10
4.7164619698
 20
6.1684260242
 30
0.0
 10
4.6700445471
 20
6.1677125836
 30
0.0
 10
4.6280186133
 20
6.1669863752
 30
0.0
 10
4.5906571124
 20
6.1662396792
 30
0.0
 10
4.5582050076
 20
6.1654848962
 30
0.0
 10
4.5308715657
 20
6.1647310292
 30
0.0
 10
4.5143819816
 20
6.1641766418
 30
0.0
 10
4.5070224459
 20
6.1638883441
 30
0.0
  0
SPLINE
  5
388
100
AcDbEntity
  8
0
100
AcDbSpline
 62
7
  6
CONTINUOUS
 70
0
 71
3
 72
24
 73
20
 74
0
 42
0.0000001
 43
0.0000001
 44
0.0000000001
 40
0.0
 40
0.0
 40
0.0
 40
0.0
 40
0.2320196135
 40
0.4337161891
 40
0.6047986886
 40
0.6788151188
 40
0.7451330747
 40
0.8037426954
 40
0.8546361469
 40
0.8978090806
 40
0.933263684
 40
0.948101436
 40
0.9610178552
 40
0.9720207252
 40
0.9811238879
 40
0.9883535533
 40
0.9937651659
 40
0.9974989297
 40
1.0
 40
1.0
 40
1.0
 40
1.0
 10
4.5070224459
 20
6.1638883441
 30
0.0
 10
4.5043994616
 20
6.163785593
 30
0.0
 10
4.4994966783
 20
6.1635833436
 30
0.0
 10
4.4926616878
 20
6.1632620427
 30
0.0
 10
4.4876142335
 20
6.1629861198
 30
0.0
 10
4.4840980167
 20
6.162762919
 30
0.0
 10
4.481852785
 20
6.1626045099
 30
0.0
 10
4.4798698218
 20
6.1624469412
 30
0.0
 10
4.4781495514
 20
6.1622903299
 30
0.0
 10
4.4766924168
 20
6.1621347253
 30
0.0
 10
4.4756434881
 20
6.1619995685
 30
0.0
 10
4.4749369249
 20
6.1618889317
 30
0.0
 10
4.4745053423
 20
6.1618111959
 30
0.0
 10
4.4741397212
 20
6.1617339152
 30
0.0
 10
4.4738401096
 20
6.1616568689
 30
0.0
 10
4.4736056971
 20
6.1615811995
 30
0.0
 10
4.4734364214
 20
6.1615047119
 30
0.0
 10
4.4733257133
 20
6.1614316034
 30
0.0
 10
4.4732887159
 20
6.1613637723
 30
0.0
 10
4.4732887159
 20
6.161335476
 30
0.0
  0
SPLINE
  5
389
100
AcDbEntity
  8
0
100
AcDbSpline
 62
7
  6
CONTINUOUS
 70
0
 71
3
 72
18
 73
14
 74
0
 42
0.0000001
 43
0.0000001
 44
0.0000000001
 40
0.0
 40
0.0
 40
0.0
 40
0.0
 40
0.0153736553
 40
0.0369627591
 40
0.0648344379
 40
0.0990129464
 40
0.1395062531
 40
0.1863148216
 40
0.29886065
 40
0.4366018802
 40
0.5994719432
 40
0.787347747
 40
1.0
 40
1.0
 40
1.0
 40
1.0
 10
6.215063057
 20
6.2481875548
 30
0.0
 10
6.2149015728
 20
6.2481290774
 30
0.0
 10
6.2145008836
 20
6.2480245385
 30
0.0
 10
6.2137896206
 20
6.2478882104
 30
0.0
 10
6.2128651539
 20
6.247750365
 30
0.0
 10
6.2117280821
 20
6.2476109331
 30
0.0
 10
6.2103781683
 20
6.24747059
 30
0.0
 10
6.2081545766
 20
6.2472698662
 30
0.0
 10
6.2048444852
 20
6.2470244369
 30
0.0
 10
6.2002375737
 20
6.2467409058
 30
0.0
 10
6.1947879324
 20
6.2464542101
 30
0.0
 10
6.1885005948
 20
6.2461644152
 30
0.0
 10
6.184029856
 20
6.2459808927
 30
0.0
 10
6.1816560378
 20
6.2458879338
 30
0.0
  0
SPLINE
  5
38A
100
AcDbEntity
  8
0
100
AcDbSpline
 62
7
  6
CONTINUOUS
 70
0
 71
3
 72
33
 73
29
 74
0
 42
0.0000001
 43
0.0000001
 44
0.0000000001
 40
0.0
 40
0.0
 40
0.0
 40
0.0
 40
0.0131968609
 40
0.0295610594
 40
0.0489909499
 40
0.0713531349
 40
0.0965083706
 40
0.1242906228
 40
0.1545169283
 40
0.1869959335
 40
0.2578395436
 40
0.3349809651
 40
0.4164139555
 40
0.4580799978
 40
0.5000195631
 40
0.5419589525
 40
0.5836244673
 40
0.665055367
 40
0.7421933677
 40
0.8130323143
 40
0.8455085585
 40
0.8757318397
 40
0.9035108243
 40
0.9286625709
 40
0.9510210668
 40
0.9704470932
 40
0.9868072773
 40
1.0
 40
1.0
 40
1.0
 40
1.0
 10
6.1816560378
 20
6.2458879338
 30
0.0
 10
6.1742941898
 20
6.2455996432
 30
0.0
 10
6.1578000519
 20
6.2450452551
 30
0.0
 10
6.130459899
 20
6.2442913819
 30
0.0
 10
6.0980013343
 20
6.2435366126
 30
0.0
 10
6.0606336671
 20
6.2427899378
 30
0.0
 10
6.0186019006
 20
6.2420637476
 30
0.0
 10
5.9721790166
 20
6.2413503134
 30
0.0
 10
5.9216670514
 20
6.2406342141
 30
0.0
 10
5.8471166369
 20
6.2396312581
 30
0.0
 10
5.7463758585
 20
6.2383633805
 30
0.0
 10
5.6183062369
 20
6.2368483436
 30
0.0
 10
5.5065236805
 20
6.2356068298
 30
0.0
 10
5.4143916906
 20
6.2346374819
 30
0.0
 10
5.3443065701
 20
6.2339233999
 30
0.0
 10
5.2742217437
 20
6.2332093625
 30
0.0
 10
5.1820913117
 20
6.2322402114
 30
0.0
 10
5.0703121233
 20
6.2309990235
 30
0.0
 10
4.9422481851
 20
6.2294837644
 30
0.0
 10
4.8415134621
 20
6.2282158732
 30
0.0
 10
4.7669688807
 20
6.2272129746
 30
0.0
 10
4.7164619698
 20
6.2264968903
 30
0.0
 10
4.6700445471
 20
6.2257834497
 30
0.0
 10
4.6280186133
 20
6.2250572413
 30
0.0
 10
4.5906571124
 20
6.2243105454
 30
0.0
 10
4.5582050076
 20
6.2235557624
 30
0.0
 10
4.5308715657
 20
6.2228018954
 30
0.0
 10
4.5143819816
 20
6.2222475079
 30
0.0
 10
4.5070224459
 20
6.2219592102
 30
0.0
  0
SPLINE
  5
38B
100
AcDbEntity
  8
0
100
AcDbSpline
 62
7
  6
CONTINUOUS
 70
0
 71
3
 72
24
 73
20
 74
0
 42
0.0000001
 43
0.0000001
 44
0.0000000001
 40
0.0
 40
0.0
 40
0.0
 40
0.0
 40
0.2320196135
 40
0.4337161891
 40
0.6047986886
 40
0.6788151188
 40
0.7451330747
 40
0.8037426954
 40
0.8546361469
 40
0.8978090806
 40
0.933263684
 40
0.948101436
 40
0.9610178552
 40
0.9720207252
 40
0.9811238879
 40
0.9883535533
 40
0.9937651659
 40
0.9974989297
 40
1.0
 40
1.0
 40
1.0
 40
1.0
 10
4.5070224459
 20
6.2219592102
 30
0.0
 10
4.5043994616
 20
6.2218564591
 30
0.0
 10
4.4994966783
 20
6.2216542097
 30
0.0
 10
4.4926616878
 20
6.2213329089
 30
0.0
 10
4.4876142335
 20
6.2210569859
 30
0.0
 10
4.4840980167
 20
6.2208337852
 30
0.0
 10
4.481852785
 20
6.220675376
 30
0.0
 10
4.4798698218
 20
6.2205178074
 30
0.0
 10
4.4781495514
 20
6.220361196
 30
0.0
 10
4.4766924168
 20
6.2202055914
 30
0.0
 10
4.4756434881
 20
6.2200704347
 30
0.0
 10
4.4749369249
 20
6.2199597978
 30
0.0
 10
4.4745053423
 20
6.219882062
 30
0.0
 10
4.4741397212
 20
6.2198047813
 30
0.0
 10
4.4738401096
 20
6.2197277351
 30
0.0
 10
4.4736056971
 20
6.2196520656
 30
0.0
 10
4.4734364214
 20
6.219575578
 30
0.0
 10
4.4733257133
 20
6.2195024695
 30
0.0
 10
4.4732887159
 20
6.2194346384
 30
0.0
 10
4.4732887159
 20
6.2194063421
 30
0.0
  0
LINE
  5
38C
100
AcDbEntity
  8
0
100
AcDbLine
 62
9
  6
CONTINUOUS
 10
6.389609347
 20
4.8623076277
 11
6.3974573115
 21
4.8623173292
  0
SPLINE
  5
38D
100
AcDbEntity
  8
0
100
AcDbSpline
 62
7
  6
CONTINUOUS
 70
0
 71
3
 72
18
 73
14
 74
0
 42
0.0000001
 43
0.0000001
 44
0.0000000001
 40
0.0
 40
0.0
 40
0.0
 40
0.0
 40
0.0153736553
 40
0.0369627591
 40
0.0648344379
 40
0.0990129464
 40
0.1395062531
 40
0.1863148216
 40
0.29886065
 40
0.4366018802
 40
0.5994719432
 40
0.787347747
 40
1.0
 40
1.0
 40
1.0
 40
1.0
 10
6.215063057
 20
6.306258421
 30
0.0
 10
6.2149015728
 20
6.3061999435
 30
0.0
 10
6.2145008836
 20
6.3060954046
 30
0.0
 10
6.2137896206
 20
6.3059590766
 30
0.0
 10
6.2128651539
 20
6.3058212312
 30
0.0
 10
6.2117280821
 20
6.3056817993
 30
0.0
 10
6.2103781683
 20
6.3055414561
 30
0.0
 10
6.2081545766
 20
6.3053407323
 30
0.0
 10
6.2048444852
 20
6.305095303
 30
0.0
 10
6.2002375737
 20
6.304811772
 30
0.0
 10
6.1947879324
 20
6.3045250763
 30
0.0
 10
6.1885005948
 20
6.3042352814
 30
0.0
 10
6.184029856
 20
6.3040517588
 30
0.0
 10
6.1816560378
 20
6.3039587999
 30
0.0
  0
SPLINE
  5
38E
100
AcDbEntity
  8
0
100
AcDbSpline
 62
7
  6
CONTINUOUS
 70
0
 71
3
 72
17
 73
13
 74
0
 42
0.0000001
 43
0.0000001
 44
0.0000000001
 40
0.0
 40
0.0
 40
0.0
 40
0.0
 40
0.0286269907
 40
0.0626155638
 40
0.1018555014
 40
0.1461973316
 40
0.2494954125
 40
0.3710154395
 40
0.5089526049
 40
0.6612881564
 40
0.8257788196
 40
1.0
 40
1.0
 40
1.0
 40
1.0
 10
6.1816560378
 20
6.3039587999
 30
0.0
 10
6.1762875445
 20
6.3037485693
 30
0.0
 10
6.1645431781
 20
6.3033375148
 30
0.0
 10
6.1454357547
 20
6.3027678665
 30
0.0
 10
6.1233779546
 20
6.3021958842
 30
0.0
 10
6.0883141733
 20
6.3013934915
 30
0.0
 10
6.037808161
 20
6.3004340099
 30
0.0
 10
5.9697357813
 20
6.2993743573
 30
0.0
 10
5.8924594727
 20
6.2983011716
 30
0.0
 10
5.8071183378
 20
6.2971936111
 30
0.0
 10
5.7149673348
 20
6.2960604706
 30
0.0
 10
5.6514035173
 20
6.2953146224
 30
0.0
 10
5.6187084767
 20
6.2949398406
 30
0.0
  0
LINE
  5
38F
100
AcDbEntity
  8
0
100
AcDbLine
 62
7
  6
CONTINUOUS
 10
5.6187084767
 20
6.2949398406
 11
5.6134780712
 21
6.2948799597
  0
SPLINE
  5
390
100
AcDbEntity
  8
0
100
AcDbSpline
 62
7
  6
CONTINUOUS
 70
0
 71
3
 72
23
 73
19
 74
0
 42
0.0000001
 43
0.0000001
 44
0.0000000001
 40
0.0
 40
0.0
 40
0.0
 40
0.0
 40
0.1541506237
 40
0.2329620735
 40
0.3118770359
 40
0.390100116
 40
0.466847078
 40
0.5413417926
 40
0.6128394245
 40
0.6806155795
 40
0.7439932192
 40
0.8023303293
 40
0.8550434962
 40
0.9016008042
 40
0.9415347195
 40
0.974445664
 40
0.9881584226
 40
1.0
 40
1.0
 40
1.0
 40
1.0
 10
5.6134780712
 20
6.2948799597
 30
0.0
 10
5.5566223892
 20
6.2942298561
 30
0.0
 10
5.4706980674
 20
6.2932864154
 30
0.0
 10
5.3556663443
 20
6.2921089392
 30
0.0
 10
5.2686394224
 20
6.2912249588
 30
0.0
 10
5.1823743529
 20
6.2903105613
 30
0.0
 10
5.0977400739
 20
6.2893723297
 30
0.0
 10
5.0155867847
 20
6.2884245064
 30
0.0
 10
4.9367426472
 20
6.2874779111
 30
0.0
 10
4.8619992543
 20
6.2865446239
 30
0.0
 10
4.7921103648
 20
6.2856293792
 30
0.0
 10
4.727777745
 20
6.2847368091
 30
0.0
 10
4.6696498755
 20
6.2838557903
 30
0.0
 10
4.618311313
 20
6.2829543767
 30
0.0
 10
4.5742788024
 20
6.2820256081
 30
0.0
 10
4.5423617396
 20
6.2812085602
 30
0.0
 10
4.5208068497
 20
6.2805378173
 30
0.0
 10
4.5113869365
 20
6.2802010481
 30
0.0
 10
4.5070224459
 20
6.2800300764
 30
0.0
  0
SPLINE
  5
391
100
AcDbEntity
  8
0
100
AcDbSpline
 62
7
  6
CONTINUOUS
 70
0
 71
3
 72
24
 73
20
 74
0
 42
0.0000001
 43
0.0000001
 44
0.0000000001
 40
0.0
 40
0.0
 40
0.0
 40
0.0
 40
0.2320196135
 40
0.4337161891
 40
0.6047986886
 40
0.6788151188
 40
0.7451330747
 40
0.8037426954
 40
0.8546361469
 40
0.8978090806
 40
0.933263684
 40
0.948101436
 40
0.9610178552
 40
0.9720207252
 40
0.9811238879
 40
0.9883535533
 40
0.9937651659
 40
0.9974989297
 40
1.0
 40
1.0
 40
1.0
 40
1.0
 10
4.5070224459
 20
6.2800300764
 30
0.0
 10
4.5043994616
 20
6.2799273253
 30
0.0
 10
4.4994966783
 20
6.2797250759
 30
0.0
 10
4.4926616878
 20
6.279403775
 30
0.0
 10
4.4876142335
 20
6.2791278521
 30
0.0
 10
4.4840980167
 20
6.2789046513
 30
0.0
 10
4.481852785
 20
6.2787462422
 30
0.0
 10
4.4798698218
 20
6.2785886735
 30
0.0
 10
4.4781495514
 20
6.2784320622
 30
0.0
 10
4.4766924168
 20
6.2782764576
 30
0.0
 10
4.4756434881
 20
6.2781413008
 30
0.0
 10
4.4749369249
 20
6.2780306639
 30
0.0
 10
4.4745053423
 20
6.2779529281
 30
0.0
 10
4.4741397212
 20
6.2778756474
 30
0.0
 10
4.4738401096
 20
6.2777986012
 30
0.0
 10
4.4736056971
 20
6.2777229318
 30
0.0
 10
4.4734364214
 20
6.2776464442
 30
0.0
 10
4.4733257133
 20
6.2775733357
 30
0.0
 10
4.4732887159
 20
6.2775055046
 30
0.0
 10
4.4732887159
 20
6.2774772083
 30
0.0
  0
SPLINE
  5
392
100
AcDbEntity
  8
0
100
AcDbSpline
 62
9
  6
CONTINUOUS
 70
0
 71
3
 72
19
 73
15
 74
0
 42
0.0000001
 43
0.0000001
 44
0.0000000001
 40
0.0
 40
0.0
 40
0.0
 40
0.0
 40
0.1762170148
 40
0.3470988071
 40
0.5058020715
 40
0.6473171048
 40
0.7103479648
 40
0.7677541884
 40
0.8193552721
 40
0.8651183834
 40
0.9052678221
 40
0.9403850932
 40
0.9714526202
 40
1.0
 40
1.0
 40
1.0
 40
1.0
 10
4.5228289315
 20
4.8623076277
 30
0.0
 10
4.5228289315
 20
4.8607993971
 30
0.0
 10
4.5229263766
 20
4.8578278461
 30
0.0
 10
4.5233399197
 20
4.8535154448
 30
0.0
 10
4.5240028407
 20
4.8495348558
 30
0.0
 10
4.5247607935
 20
4.8465141276
 30
0.0
 10
4.5254882806
 20
4.8443920484
 30
0.0
 10
4.5260576635
 20
4.8430326874
 30
0.0
 10
4.5266683375
 20
4.8418551375
 30
0.0
 10
4.5273177898
 20
4.8408701592
 30
0.0
 10
4.5280048729
 20
4.8400894034
 30
0.0
 10
4.5287212499
 20
4.8395183316
 30
0.0
 10
4.529459459
 20
4.8391635802
 30
0.0
 10
4.5299721382
 20
4.8390792812
 30
0.0
 10
4.5302164735
 20
4.8390792812
 30
0.0
  0
SPLINE
  5
393
100
AcDbEntity
  8
0
100
AcDbSpline
 62
7
  6
CONTINUOUS
 70
0
 71
3
 72
23
 73
19
 74
0
 42
0.0000001
 43
0.0000001
 44
0.0000000001
 40
0.0
 40
0.0
 40
0.0
 40
0.0
 40
0.0043820761
 40
0.0105290557
 40
0.0184545109
 40
0.0281618641
 40
0.0396506815
 40
0.0529187484
 40
0.0847792693
 40
0.1237132788
 40
0.1696864109
 40
0.222657948
 40
0.2825539968
 40
0.3492864535
 40
0.4227668907
 40
0.5896170715
 40
0.7823567076
 40
1.0
 40
1.0
 40
1.0
 40
1.0
 10
4.5062463447
 20
4.6160413838
 30
0.0
 10
4.5064462084
 20
4.6161070982
 30
0.0
 10
4.5069391356
 20
4.6162244562
 30
0.0
 10
4.507811727
 20
4.6163776765
 30
0.0
 10
4.508943189
 20
4.6165326098
 30
0.0
 10
4.5103325735
 20
4.6166893665
 30
0.0
 10
4.5119797857
 20
4.6168471766
 30
0.0
 10
4.514688728
 20
4.6170728358
 30
0.0
 10
4.5187154253
 20
4.6173489528
 30
0.0
 10
4.5243125659
 20
4.6176682708
 30
0.0
 10
4.5309244864
 20
4.6179914526
 30
0.0
 10
4.5385436671
 20
4.6183186255
 30
0.0
 10
4.5471602249
 20
4.6186488075
 30
0.0
 10
4.5567620135
 20
4.6189810802
 30
0.0
 10
4.5714972537
 20
4.6194455519
 30
0.0
 10
4.5922817963
 20
4.6200173955
 30
0.0
 10
4.6199878762
 20
4.6206730317
 30
0.0
 10
4.6396867433
 20
4.6210814949
 30
0.0
 10
4.650134093
 20
4.6212868494
 30
0.0
  0
LINE
  5
394
100
AcDbEntity
  8
0
100
AcDbLine
 62
7
  6
CONTINUOUS
 10
4.650134093
 20
4.6212868494
 11
4.6561656929
 21
4.6214041546
  0
SPLINE
  5
395
100
AcDbEntity
  8
0
100
AcDbSpline
 62
7
  6
CONTINUOUS
 70
0
 71
3
 72
21
 73
17
 74
0
 42
0.0000001
 43
0.0000001
 44
0.0000000001
 40
0.0
 40
0.0
 40
0.0
 40
0.0
 40
0.0453105144
 40
0.0971670541
 40
0.1548247502
 40
0.2174500795
 40
0.2841430522
 40
0.3539455949
 40
0.498866479
 40
0.5719056638
 40
0.6439369891
 40
0.780883797
 40
0.8438364993
 40
0.9018788413
 40
0.9541850489
 40
1.0
 40
1.0
 40
1.0
 40
1.0
 10
4.6561656929
 20
4.6214041546
 30
0.0
 10
4.6768874209
 20
4.6218029406
 30
0.0
 10
4.7213262842
 20
4.6225679956
 30
0.0
 10
4.7921371595
 20
4.6236201562
 30
0.0
 10
4.8708684566
 20
4.62469866
 30
0.0
 10
4.9563863007
 20
4.6258078107
 30
0.0
 10
5.0474594879
 20
4.6269406724
 30
0.0
 10
5.1761736922
 20
4.6284624903
 30
0.0
 10
5.3077921089
 20
4.6298792086
 30
0.0
 10
5.4404300618
 20
4.631293254
 30
0.0
 10
5.5694201542
 20
4.632727095
 30
0.0
 10
5.6937955191
 20
4.6342279213
 30
0.0
 10
5.8117712266
 20
4.6357599873
 30
0.0
 10
5.8910339937
 20
4.6368347125
 30
0.0
 10
5.9624572339
 20
4.6378911672
 30
0.0
 10
6.0073326085
 20
4.638653911
 30
0.0
 10
6.0282851679
 20
4.6390498557
 30
0.0
  0
LINE
  5
396
100
AcDbEntity
  8
0
100
AcDbLine
 62
7
  6
CONTINUOUS
 10
6.0282851679
 20
4.6390498557
 11
6.0385099146
 21
4.6392465091
  0
LINE
  5
397
100
AcDbEntity
  8
0
100
AcDbLine
 62
7
  6
CONTINUOUS
 10
6.0385099146
 20
4.6392465091
 11
6.0610800657
 21
4.6397084341
  0
SPLINE
  5
398
100
AcDbEntity
  8
0
100
AcDbSpline
 62
7
  6
CONTINUOUS
 70
0
 71
3
 72
28
 73
24
 74
0
 42
0.0000001
 43
0.0000001
 44
0.0000000001
 40
0.0
 40
0.0
 40
0.0
 40
0.0
 40
0.2300414674
 40
0.3343368819
 40
0.4313427528
 40
0.5209546987
 40
0.6030705605
 40
0.677614706
 40
0.7445297062
 40
0.8037588966
 40
0.8552462951
 40
0.8989370997
 40
0.9347787442
 40
0.9627270033
 40
0.9737402784
 40
0.9827857905
 40
0.9865737337
 40
0.9898742901
 40
0.9926906821
 40
0.9950281588
 40
0.9968960399
 40
0.998312981
 40
1.0
 40
1.0
 40
1.0
 40
1.0
 10
6.0808354316
 20
4.6401519366
 30
0.0
 10
6.088679261
 20
4.6403365537
 30
0.0
 10
6.1000789503
 20
4.6406204311
 30
0.0
 10
6.1147850737
 20
4.641028096
 30
0.0
 10
6.1247028273
 20
4.6413236812
 30
0.0
 10
6.133863764
 20
4.6416186182
 30
0.0
 10
6.1422582132
 20
4.6419123326
 30
0.0
 10
6.1498780841
 20
4.6422044548
 30
0.0
 10
6.1567168057
 20
4.6424947436
 30
0.0
 10
6.1627684513
 20
4.642782863
 30
0.0
 10
6.1680270976
 20
4.6430685096
 30
0.0
 10
6.1724869617
 20
4.6433508257
 30
0.0
 10
6.1761422464
 20
4.6436296373
 30
0.0
 10
6.1786824223
 20
4.6438718278
 30
0.0
 10
6.1803075123
 20
4.6440728577
 30
0.0
 10
6.1811120447
 20
4.6441932188
 30
0.0
 10
6.1816535193
 20
4.6442917656
 30
0.0
 10
6.1819841414
 20
4.6443609248
 30
0.0
 10
6.1822644609
 20
4.6444300989
 30
0.0
 10
6.1824933577
 20
4.6444980397
 30
0.0
 10
6.1826747599
 20
4.6445678541
 30
0.0
 10
6.1828204153
 20
4.6446412244
 30
0.0
 10
6.1829149255
 20
4.6447276621
 30
0.0
 10
6.1829149231
 20
4.644785201
 30
0.0
  0
SPLINE
  5
399
100
AcDbEntity
  8
0
100
AcDbSpline
 62
7
  6
CONTINUOUS
 70
0
 71
3
 72
35
 73
31
 74
0
 42
0.0000001
 43
0.0000001
 44
0.0000000001
 40
0.0
 40
0.0
 40
0.0
 40
0.0
 40
0.0003738406
 40
0.0008905542
 40
0.0015516242
 40
0.0023577284
 40
0.0044060705
 40
0.0070353297
 40
0.0102435956
 40
0.0140286303
 40
0.0183880451
 40
0.023319371
 40
0.0288200932
 40
0.0348876679
 40
0.0487097743
 40
0.0647501911
 40
0.0829708108
 40
0.1033334521
 40
0.1257943114
 40
0.1502971265
 40
0.1767839437
 40
0.2354698051
 40
0.301291238
 40
0.3736249071
 40
0.4517884623
 40
0.5350613795
 40
0.622667378
 40
0.7138044032
 40
0.8076623337
 40
1.0
 40
1.0
 40
1.0
 40
1.0
 10
4.4844066622
 20
4.6088024551
 30
0.0
 10
4.4845085212
 20
4.608835793
 30
0.0
 10
4.4847571954
 20
4.608895997
 30
0.0
 10
4.4851949986
 20
4.608974686
 30
0.0
 10
4.4857583296
 20
4.6090541378
 30
0.0
 10
4.4867594804
 20
4.6091705153
 30
0.0
 10
4.4883256126
 20
4.6093102245
 30
0.0
 10
4.4905807501
 20
4.6094704005
 30
0.0
 10
4.4933347487
 20
4.6096320903
 30
0.0
 10
4.4965853654
 20
4.6097953625
 30
0.0
 10
4.5003304481
 20
4.6099599004
 30
0.0
 10
4.5045677599
 20
4.6101257057
 30
0.0
 10
4.5092950703
 20
4.610292781
 30
0.0
 10
4.5165704273
 20
4.6105276182
 30
0.0
 10
4.5268670592
 20
4.6108200478
 30
0.0
 10
4.5406477318
 20
4.6111616338
 30
0.0
 10
4.5563039603
 20
4.6115052812
 30
0.0
 10
4.5738012446
 20
4.6118490801
 30
0.0
 10
4.5930999038
 20
4.6121912478
 30
0.0
 10
4.6141545865
 20
4.6125308285
 30
0.0
 10
4.6455938778
 20
4.6129947992
 30
0.0
 10
4.688878599
 20
4.613552547
 30
0.0
 10
4.7453070592
 20
4.6141897242
 30
0.0
 10
4.8073198321
 20
4.6148305657
 30
0.0
 10
4.8743358712
 20
4.6154834954
 30
0.0
 10
4.9457303083
 20
4.6161577272
 30
0.0
 10
5.0208441481
 20
4.6168430995
 30
0.0
 10
5.0989927406
 20
4.6175251454
 30
0.0
 10
5.2071659227
 20
4.6184265922
 30
0.0
 10
5.2892124751
 20
4.6190602664
 30
0.0
 10
5.3443518309
 20
4.6194864463
 30
0.0
  0
SPLINE
  5
39A
100
AcDbEntity
  8
0
100
AcDbSpline
 62
9
  6
CONTINUOUS
 70
0
 71
3
 72
17
 73
13
 74
0
 42
0.0000001
 43
0.0000001
 44
0.0000000001
 40
0.0
 40
0.0
 40
0.0
 40
0.0
 40
0.1231091201
 40
0.2473580635
 40
0.3097134834
 40
0.3720693597
 40
0.4967763685
 40
0.6219745613
 40
0.6849285609
 40
0.7480908793
 40
0.8744387242
 40
1.0
 40
1.0
 40
1.0
 40
1.0
 10
4.5302164735
 20
4.8390792812
 30
0.0
 10
4.5287361983
 20
4.8390792812
 30
0.0
 10
4.5257549259
 20
4.8393901073
 30
0.0
 10
4.5221735829
 20
4.8404960547
 30
0.0
 10
4.5194690112
 20
4.8417895809
 30
0.0
 10
4.5169039359
 20
4.8433522455
 30
0.0
 10
4.5140068836
 20
4.845781459
 30
0.0
 10
4.5116333855
 20
4.8487329374
 30
0.0
 10
4.5101054314
 20
4.851345065
 30
0.0
 10
4.5088367873
 20
4.8541076873
 30
0.0
 10
4.5077544391
 20
4.857762274
 30
0.0
 10
4.5074508587
 20
4.8607978675
 30
0.0
 10
4.5074508587
 20
4.8623076277
 30
0.0
  0
LINE
  5
39B
100
AcDbEntity
  8
0
100
AcDbLine
 62
9
  6
CONTINUOUS
 10
4.5074508587
 20
4.8623076277
 11
4.5228289315
 21
4.8623076277
  0
SPLINE
  5
39C
100
AcDbEntity
  8
0
100
AcDbSpline
 62
7
  6
CONTINUOUS
 70
0
 71
3
 72
23
 73
19
 74
0
 42
0.0000001
 43
0.0000001
 44
0.0000000001
 40
0.0
 40
0.0
 40
0.0
 40
0.0
 40
0.0044229914
 40
0.0105972336
 40
0.0185393887
 40
0.0282560703
 40
0.0397500196
 40
0.0530221764
 40
0.0848998682
 40
0.1238630155
 40
0.1698518778
 40
0.2228027909
 40
0.2826512211
 40
0.3493321359
 40
0.4227801164
 40
0.5896292062
 40
0.7823380404
 40
1.0
 40
1.0
 40
1.0
 40
1.0
 10
4.5062408411
 20
4.6741126141
 30
0.0
 10
4.5064355715
 20
4.6741766611
 30
0.0
 10
4.5069142697
 20
4.6742914779
 30
0.0
 10
4.5077602644
 20
4.674441431
 30
0.0
 10
4.5088547107
 20
4.6745930216
 30
0.0
 10
4.5101971573
 20
4.6747463726
 30
0.0
 10
4.5117879252
 20
4.6749008319
 30
0.0
 10
4.5144039154
 20
4.6751218957
 30
0.0
 10
4.5182930507
 20
4.6753929665
 30
0.0
 10
4.5236986989
 20
4.6757071203
 30
0.0
 10
4.5300822414
 20
4.6760250361
 30
0.0
 10
4.5374346287
 20
4.67634614
 30
0.0
 10
4.5457467432
 20
4.6766695838
 30
0.0
 10
4.5550094108
 20
4.6769948245
 30
0.0
 10
4.5692296809
 20
4.6774496211
 30
0.0
 10
4.5892904659
 20
4.6780104143
 30
0.0
 10
4.6160351317
 20
4.6786568737
 30
0.0
 10
4.6350503784
 20
4.6790592079
 30
0.0
 10
4.6451363528
 20
4.6792607895
 30
0.0
  0
LINE
  5
39D
100
AcDbEntity
  8
0
100
AcDbLine
 62
7
  6
CONTINUOUS
 10
4.6451363528
 20
4.6792607895
 11
4.656745011
 21
4.6794877532
  0
LINE
  5
39E
100
AcDbEntity
  8
0
100
AcDbLine
 62
7
  6
CONTINUOUS
 10
4.656745011
 20
4.6794877532
 11
4.6798435905
 21
4.6799132171
  0
SPLINE
  5
39F
100
AcDbEntity
  8
0
100
AcDbSpline
 62
7
  6
CONTINUOUS
 70
0
 71
3
 72
23
 73
19
 74
0
 42
0.0000001
 43
0.0000001
 44
0.0000000001
 40
0.0
 40
0.0
 40
0.0
 40
0.0
 40
0.0467450839
 40
0.0992255779
 40
0.1567870881
 40
0.2187214259
 40
0.2842553778
 40
0.3525814655
 40
0.4228510674
 40
0.4941975871
 40
0.5657375277
 40
0.6365853672
 40
0.7058648055
 40
0.772716196
 40
0.8363203518
 40
0.8958872896
 40
0.9506766284
 40
1.0
 40
1.0
 40
1.0
 40
1.0
 10
4.6798435905
 20
4.6799132171
 30
0.0
 10
4.7001515711
 20
4.6802739584
 30
0.0
 10
4.7432603959
 20
4.680973914
 30
0.0
 10
4.811378733
 20
4.6819615965
 30
0.0
 10
4.8860973437
 20
4.6829664864
 30
0.0
 10
4.9664878399
 20
4.68400572
 30
0.0
 10
5.0515558285
 20
4.6850605325
 30
0.0
 10
5.1402459569
 20
4.6861050912
 30
0.0
 10
5.2314621014
 20
4.6871293572
 30
0.0
 10
5.3240751159
 20
4.688122709
 30
0.0
 10
5.4169394379
 20
4.689111872
 30
0.0
 10
5.5089053036
 20
4.6901231813
 30
0.0
 10
5.5988335718
 20
4.6911569017
 30
0.0
 10
5.6856139151
 20
4.6922122287
 30
0.0
 10
5.7681738514
 20
4.6932598061
 30
0.0
 10
5.8454926469
 20
4.694278813
 30
0.0
 10
5.916606044
 20
4.6952749551
 30
0.0
 10
5.9618387294
 20
4.6959681696
 30
0.0
 10
5.9832672574
 20
4.6963235684
 30
0.0
  0
LINE
  5
3A0
100
AcDbEntity
  8
0
100
AcDbLine
 62
7
  6
CONTINUOUS
 10
5.9832672574
 20
4.6963235684
 11
5.990478871
 21
4.6964442554
  0
SPLINE
  5
3A1
100
AcDbEntity
  8
0
100
AcDbSpline
 62
7
  6
CONTINUOUS
 70
0
 71
3
 72
29
 73
25
 74
0
 42
0.0000001
 43
0.0000001
 44
0.0000000001
 40
0.0
 40
0.0
 40
0.0
 40
0.0
 40
0.2291812276
 40
0.3332786431
 40
0.430193961
 40
0.5197947785
 40
0.6019836496
 40
0.6766734325
 40
0.7437771831
 40
0.8032082605
 40
0.8548805191
 40
0.8987150182
 40
0.9346728487
 40
0.9496914782
 40
0.9627338115
 40
0.9737989207
 40
0.9828876632
 40
0.9866922949
 40
0.9900051837
 40
0.992828484
 40
0.9951659965
 40
0.9970248721
 40
0.9984201342
 40
1.0
 40
1.0
 40
1.0
 40
1.0
 10
6.0535498342
 20
4.6976206862
 30
0.0
 10
6.0634476581
 20
4.6978268522
 30
0.0
 10
6.077840871
 20
4.6981441118
 30
0.0
 10
6.0964184041
 20
4.698601056
 30
0.0
 10
6.1089676763
 20
4.6989336876
 30
0.0
 10
6.1205701867
 20
4.6992669463
 30
0.0
 10
6.1312121934
 20
4.6996000697
 30
0.0
 10
6.1408819029
 20
4.6999322695
 30
0.0
 10
6.1495679689
 20
4.7002627361
 30
0.0
 10
6.157259048
 20
4.7005906292
 30
0.0
 10
6.1639441142
 20
4.7009149112
 30
0.0
 10
6.1696140499
 20
4.7012347571
 30
0.0
 10
6.1737004734
 20
4.7015107383
 30
0.0
 10
6.1764567664
 20
4.7017359059
 30
0.0
 10
6.1781395894
 20
4.7018935153
 30
0.0
 10
6.1795650699
 20
4.7020501297
 30
0.0
 10
6.1805911591
 20
4.7021861711
 30
0.0
 10
6.1812824085
 20
4.7022976521
 30
0.0
 10
6.1817045252
 20
4.7023758618
 30
0.0
 10
6.1820626885
 20
4.7024541219
 30
0.0
 10
6.1823547335
 20
4.702530837
 30
0.0
 10
6.1825872942
 20
4.7026098738
 30
0.0
 10
6.1827684521
 20
4.7026909539
 30
0.0
 10
6.1828951076
 20
4.702787832
 30
0.0
 10
6.1828952086
 20
4.7028560776
 30
0.0
  0
SPLINE
  5
3A2
100
AcDbEntity
  8
0
100
AcDbSpline
 62
7
  6
CONTINUOUS
 70
0
 71
3
 72
18
 73
14
 74
0
 42
0.0000001
 43
0.0000001
 44
0.0000000001
 40
0.0
 40
0.0
 40
0.0
 40
0.0
 40
0.0163503912
 40
0.0388021066
 40
0.0674092073
 40
0.1021915992
 40
0.1431555504
 40
0.1903008413
 40
0.3031177354
 40
0.4405939903
 40
0.6026646843
 40
0.789207708
 40
1.0
 40
1.0
 40
1.0
 40
1.0
 10
4.4737178529
 20
4.6633204869
 30
0.0
 10
4.4738909924
 20
4.6633772655
 30
0.0
 10
4.4743118524
 20
4.6634803665
 30
0.0
 10
4.475050809
 20
4.6636155133
 30
0.0
 10
4.4759978835
 20
4.6637520939
 30
0.0
 10
4.4771526426
 20
4.6638900646
 30
0.0
 10
4.4785151774
 20
4.6640289
 30
0.0
 10
4.4807455887
 20
4.6642270625
 30
0.0
 10
4.4840515766
 20
4.6644696504
 30
0.0
 10
4.4886385265
 20
4.6647500554
 30
0.0
 10
4.4940482349
 20
4.6650335287
 30
0.0
 10
4.5002757992
 20
4.6653199931
 30
0.0
 10
4.5047000703
 20
4.6655015187
 30
0.0
 10
4.5070473783
 20
4.6655934396
 30
0.0
  0
SPLINE
  5
3A3
100
AcDbEntity
  8
0
100
AcDbSpline
 62
7
  6
CONTINUOUS
 70
0
 71
3
 72
11
 73
7
 74
0
 42
0.0000001
 43
0.0000001
 44
0.0000000001
 40
0.0
 40
0.0
 40
0.0
 40
0.0
 40
0.1905698613
 40
0.4215046444
 40
0.6917833762
 40
1.0
 40
1.0
 40
1.0
 40
1.0
 10
4.5070473783
 20
4.6655934396
 30
0.0
 10
4.513310556
 20
4.6658387063
 30
0.0
 10
4.5271661121
 20
4.6663148554
 30
0.0
 10
4.5499100211
 20
4.6669687773
 30
0.0
 10
4.5765247326
 20
4.667624773
 30
0.0
 10
4.5955474944
 20
4.6680334307
 30
0.0
 10
4.6056828767
 20
4.6682388476
 30
0.0
  0
LINE
  5
3A4
100
AcDbEntity
  8
0
100
AcDbLine
 62
7
  6
CONTINUOUS
 10
4.6396800791
 20
4.6688852331
 11
4.649809791
 21
4.6690631945
  0
SPLINE
  5
3A5
100
AcDbEntity
  8
0
100
AcDbSpline
 62
7
  6
CONTINUOUS
 70
0
 71
3
 72
23
 73
19
 74
0
 42
0.0000001
 43
0.0000001
 44
0.0000000001
 40
0.0
 40
0.0
 40
0.0
 40
0.0
 40
0.0464433541
 40
0.0987142661
 40
0.1561616148
 40
0.2180583901
 40
0.2836287424
 40
0.3520462647
 40
0.4224511226
 40
0.4939571068
 40
0.5656654874
 40
0.63667273
 40
0.7060879964
 40
0.7730345958
 40
0.8366748388
 40
0.896202992
 40
0.9508756333
 40
1.0
 40
1.0
 40
1.0
 40
1.0
 10
4.649809791
 20
4.6690631945
 30
0.0
 10
4.6708909788
 20
4.6694274906
 30
0.0
 10
4.7156998271
 20
4.6701275461
 30
0.0
 10
4.7865870832
 20
4.6711192897
 30
0.0
 10
4.8644901228
 20
4.6721406463
 30
0.0
 10
4.948431037
 20
4.673184467
 30
0.0
 10
5.0373523739
 20
4.6742431445
 30
0.0
 10
5.1301364921
 20
4.6752997661
 30
0.0
 10
5.2256156227
 20
4.676339541
 30
0.0
 10
5.3225892506
 20
4.6773383752
 30
0.0
 10
5.4198365037
 20
4.6783232184
 30
0.0
 10
5.5161341669
 20
4.6793466602
 30
0.0
 10
5.6102696477
 20
4.6803977527
 30
0.0
 10
5.7010603454
 20
4.6814574084
 30
0.0
 10
5.7873622591
 20
4.6825100402
 30
0.0
 10
5.8680918789
 20
4.683541639
 30
0.0
 10
5.9422313556
 20
4.6845471436
 30
0.0
 10
5.9893479932
 20
4.6852416493
 30
0.0
 10
6.0116465942
 20
4.6855987553
 30
0.0
  0
LINE
  5
3A6
100
AcDbEntity
  8
0
100
AcDbLine
 62
7
  6
CONTINUOUS
 10
6.0116465942
 20
4.6855987553
 11
6.0490779995
 21
4.6862303628
  0
SPLINE
  5
3A7
100
AcDbEntity
  8
0
100
AcDbSpline
 62
7
  6
CONTINUOUS
 70
0
 71
3
 72
11
 73
7
 74
0
 42
0.0000001
 43
0.0000001
 44
0.0000000001
 40
0.0
 40
0.0
 40
0.0
 40
0.0
 40
0.3162177388
 40
0.5896498047
 40
0.818143869
 40
1.0
 40
1.0
 40
1.0
 40
1.0
 10
6.0490779995
 20
4.6862303628
 30
0.0
 10
6.0630574088
 20
4.6864801939
 30
0.0
 10
6.0891241772
 20
4.686979203
 30
0.0
 10
6.1252895611
 20
4.687792446
 30
0.0
 10
6.1555122882
 20
4.6886058952
 30
0.0
 10
6.1736463212
 20
4.6892074192
 30
0.0
 10
6.1816809703
 20
4.6895221632
 30
0.0
  0
SPLINE
  5
3A8
100
AcDbEntity
  8
0
100
AcDbSpline
 62
7
  6
CONTINUOUS
 70
0
 71
3
 72
19
 73
15
 74
0
 42
0.0000001
 43
0.0000001
 44
0.0000000001
 40
0.0
 40
0.0
 40
0.0
 40
0.0
 40
0.2317035353
 40
0.43288227
 40
0.6034687356
 40
0.7434071731
 40
0.8526667751
 40
0.9312808595
 40
0.9591672009
 40
0.9702893634
 40
0.9795596188
 40
0.9870223974
 40
0.9927655929
 40
1.0
 40
1.0
 40
1.0
 40
1.0
 10
6.1963861263
 20
4.6901740893
 30
0.0
 10
6.1978685278
 20
4.6902499561
 30
0.0
 10
6.2006376582
 20
4.690399292
 30
0.0
 10
6.2044963605
 20
4.6906368971
 30
0.0
 10
6.2077660132
 20
4.690872327
 30
0.0
 10
6.2104454568
 20
4.6911044418
 30
0.0
 10
6.2125329371
 20
4.6913336598
 30
0.0
 10
6.2139016054
 20
4.691533912
 30
0.0
 10
6.2146385637
 20
4.6916926835
 30
0.0
 10
6.2149365443
 20
4.6917766918
 30
0.0
 10
6.2151051813
 20
4.6918340059
 30
0.0
 10
6.215238389
 20
4.6918926101
 30
0.0
 10
6.2153486943
 20
4.6919562085
 30
0.0
 10
6.2154147002
 20
4.6920286826
 30
0.0
 10
6.2154147002
 20
4.6920750277
 30
0.0
  0
SPLINE
  5
3A9
100
AcDbEntity
  8
0
100
AcDbSpline
 62
7
  6
CONTINUOUS
 70
0
 71
3
 72
12
 73
8
 74
0
 42
0.0000001
 43
0.0000001
 44
0.0000000001
 40
0.0
 40
0.0
 40
0.0
 40
0.0
 40
0.0601955988
 40
0.1387065873
 40
0.3513565625
 40
0.6384809888
 40
1.0
 40
1.0
 40
1.0
 40
1.0
 10
4.5062385313
 20
4.7321828357
 30
0.0
 10
4.5063730784
 20
4.7322270984
 30
0.0
 10
4.506689179
 20
4.7323102346
 30
0.0
 10
4.5074995727
 20
4.7324744863
 30
0.0
 10
4.5088473871
 20
4.7326677228
 30
0.0
 10
4.5108618402
 20
4.7328893643
 30
0.0
 10
4.512382378
 20
4.7330232779
 30
0.0
 10
4.5132302046
 20
4.7330926159
 30
0.0
  0
SPLINE
  5
3AA
100
AcDbEntity
  8
0
100
AcDbSpline
 62
7
  6
CONTINUOUS
 70
0
 71
3
 72
14
 73
10
 74
0
 42
0.0000001
 43
0.0000001
 44
0.0000000001
 40
0.0
 40
0.0
 40
0.0
 40
0.0
 40
0.0635150832
 40
0.1449852723
 40
0.2442747299
 40
0.3612273437
 40
0.4955821896
 40
0.6470336531
 40
1.0
 40
1.0
 40
1.0
 40
1.0
 10
4.5132302046
 20
4.7330926159
 30
0.0
 10
4.5151726973
 20
4.7332514791
 30
0.0
 10
4.519611802
 20
4.7335519829
 30
0.0
 10
4.5270965391
 20
4.7339573221
 30
0.0
 10
4.5362227461
 20
4.7343691259
 30
0.0
 10
4.546972826
 20
4.7347871453
 30
0.0
 10
4.5593244251
 20
4.7352092433
 30
0.0
 10
4.5789162956
 20
4.7358056924
 30
0.0
 10
4.5943894732
 20
4.7362038225
 30
0.0
 10
4.6052172755
 20
4.7364616182
 30
0.0
  0
LINE
  5
3AB
100
AcDbEntity
  8
0
100
AcDbLine
 62
7
  6
CONTINUOUS
 10
4.6052172755
 20
4.7364616182
 11
4.609822136
 21
4.7365699602
  0
LINE
  5
3AC
100
AcDbEntity
  8
0
100
AcDbLine
 62
7
  6
CONTINUOUS
 10
4.6355526476
 20
4.7371340412
 11
4.64990025
 21
4.7374235272
  0
SPLINE
  5
3AD
100
AcDbEntity
  8
0
100
AcDbSpline
 62
7
  6
CONTINUOUS
 70
0
 71
3
 72
22
 73
18
 74
0
 42
0.0000001
 43
0.0000001
 44
0.0000000001
 40
0.0
 40
0.0
 40
0.0
 40
0.0
 40
0.0448678373
 40
0.0965063967
 40
0.1541408742
 40
0.2169169735
 40
0.2838944276
 40
0.3540783635
 40
0.4998756181
 40
0.5733241594
 40
0.6456872746
 40
0.7158929871
 40
0.7828982587
 40
0.845709655
 40
0.9033856895
 40
0.9550742514
 40
1.0
 40
1.0
 40
1.0
 40
1.0
 10
4.64990025
 20
4.7374235272
 30
0.0
 10
4.6706634242
 20
4.7378314509
 30
0.0
 10
4.7153248569
 20
4.7386149575
 30
0.0
 10
4.7866613089
 20
4.7396854285
 30
0.0
 10
4.8662871618
 20
4.740777962
 30
0.0
 10
4.9530127797
 20
4.7419082412
 30
0.0
 10
5.0455471567
 20
4.7430587072
 30
0.0
 10
5.1765060294
 20
4.7446106237
 30
0.0
 10
5.3104615597
 20
4.7460474746
 30
0.0
 10
5.4454256933
 20
4.7474904456
 30
0.0
 10
5.5454036532
 20
4.7486021383
 30
0.0
 10
5.6423987106
 20
4.7497507347
 30
0.0
 10
5.7349723866
 20
4.7509009709
 30
0.0
 10
5.8217464329
 20
4.7520329685
 30
0.0
 10
5.9014310325
 20
4.7531236838
 30
0.0
 10
5.9728366516
 20
4.7541957456
 30
0.0
 10
6.0175480504
 20
4.7549785159
 30
0.0
 10
6.038338046
 20
4.7553858383
 30
0.0
  0
LINE
  5
3AE
100
AcDbEntity
  8
0
100
AcDbLine
 62
7
  6
CONTINUOUS
 10
6.038338046
 20
4.7553858383
 11
6.0436789514
 21
4.7554914951
  0
LINE
  5
3AF
100
AcDbEntity
  8
0
100
AcDbLine
 62
7
  6
CONTINUOUS
 10
6.0685936812
 20
4.7560147859
 11
6.0751115813
 21
4.7561613632
  0
LINE
  5
3B0
100
AcDbEntity
  8
0
100
AcDbLine
 62
7
  6
CONTINUOUS
 10
6.0751115813
 20
4.7561613632
 11
6.0806582075
 21
4.75628983
  0
SPLINE
  5
3B1
100
AcDbEntity
  8
0
100
AcDbSpline
 62
7
  6
CONTINUOUS
 70
0
 71
3
 72
28
 73
24
 74
0
 42
0.0000001
 43
0.0000001
 44
0.0000000001
 40
0.0
 40
0.0
 40
0.0
 40
0.0
 40
0.2299961205
 40
0.3342657714
 40
0.4312533668
 40
0.5208616843
 40
0.6029936132
 40
0.6775529315
 40
0.7444653765
 40
0.8036820193
 40
0.8551559959
 40
0.8988416414
 40
0.9346955554
 40
0.9626791859
 40
0.9737111989
 40
0.9827701983
 40
0.9865630023
 40
0.9898673437
 40
0.9926865774
 40
0.9950260809
 40
0.9968952962
 40
0.9983129856
 40
1.0
 40
1.0
 40
1.0
 40
1.0
 10
6.0806582075
 20
4.75628983
 30
0.0
 10
6.0885139432
 20
4.7564743347
 30
0.0
 10
6.0999307551
 20
4.7567582579
 30
0.0
 10
6.1146590399
 20
4.7571663621
 30
0.0
 10
6.124592167
 20
4.7574623962
 30
0.0
 10
6.1337686068
 20
4.757757874
 30
0.0
 10
6.142178386
 20
4.758052195
 30
0.0
 10
6.1498123038
 20
4.7583446975
 30
0.0
 10
6.1566627715
 20
4.7586349841
 30
0.0
 10
6.1627238481
 20
4.758922898
 30
0.0
 10
6.1679904837
 20
4.7592082937
 30
0.0
 10
6.1724578148
 20
4.7594904908
 30
0.0
 10
6.1761208457
 20
4.7597694716
 30
0.0
 10
6.1786676504
 20
4.7600121201
 30
0.0
 10
6.1802978372
 20
4.7602136231
 30
0.0
 10
6.1811050162
 20
4.7603342809
 30
0.0
 10
6.1816481776
 20
4.7604330526
 30
0.0
 10
6.181979762
 20
4.7605023542
 30
0.0
 10
6.1822608642
 20
4.7605716606
 30
0.0
 10
6.1824903704
 20
4.7606397211
 30
0.0
 10
6.1826722436
 20
4.7607096472
 30
0.0
 10
6.1828182253
 20
4.7607831149
 30
0.0
 10
6.1829130074
 20
4.7608696435
 30
0.0
 10
6.1829130284
 20
4.7609272809
 30
0.0
  0
SPLINE
  5
3B2
100
AcDbEntity
  8
0
100
AcDbSpline
 62
7
  6
CONTINUOUS
 70
0
 71
3
 72
18
 73
14
 74
0
 42
0.0000001
 43
0.0000001
 44
0.0000000001
 40
0.0
 40
0.0
 40
0.0
 40
0.0
 40
0.0163503912
 40
0.0388021066
 40
0.0674092073
 40
0.1021915992
 40
0.1431555504
 40
0.1903008413
 40
0.3031177354
 40
0.4405939903
 40
0.6026646843
 40
0.789207708
 40
1.0
 40
1.0
 40
1.0
 40
1.0
 10
4.4737178529
 20
4.721391353
 30
0.0
 10
4.4738909924
 20
4.7214481316
 30
0.0
 10
4.4743118524
 20
4.7215512326
 30
0.0
 10
4.475050809
 20
4.7216863795
 30
0.0
 10
4.4759978835
 20
4.72182296
 30
0.0
 10
4.4771526426
 20
4.7219609308
 30
0.0
 10
4.4785151774
 20
4.7220997662
 30
0.0
 10
4.4807455887
 20
4.7222979286
 30
0.0
 10
4.4840515766
 20
4.7225405165
 30
0.0
 10
4.4886385265
 20
4.7228209216
 30
0.0
 10
4.4940482349
 20
4.7231043948
 30
0.0
 10
4.5002757992
 20
4.7233908592
 30
0.0
 10
4.5047000703
 20
4.7235723849
 30
0.0
 10
4.5070473783
 20
4.7236643057
 30
0.0
  0
SPLINE
  5
3B3
100
AcDbEntity
  8
0
100
AcDbSpline
 62
7
  6
CONTINUOUS
 70
0
 71
3
 72
11
 73
7
 74
0
 42
0.0000001
 43
0.0000001
 44
0.0000000001
 40
0.0
 40
0.0
 40
0.0
 40
0.0
 40
0.1818735083
 40
0.4103734036
 40
0.6837996681
 40
1.0
 40
1.0
 40
1.0
 40
1.0
 10
4.5070473783
 20
4.7236643057
 30
0.0
 10
4.5150845997
 20
4.7239790442
 30
0.0
 10
4.5332237266
 20
4.7245805745
 30
0.0
 10
4.5634539999
 20
4.7253940339
 30
0.0
 10
4.5996267223
 20
4.7262072652
 30
0.0
 10
4.6256983066
 20
4.7267062706
 30
0.0
 10
4.6396800791
 20
4.7269560993
 30
0.0
  0
LINE
  5
3B4
100
AcDbEntity
  8
0
100
AcDbLine
 62
7
  6
CONTINUOUS
 10
4.6396800791
 20
4.7269560993
 11
4.6501482266
 21
4.7271399059
  0
SPLINE
  5
3B5
100
AcDbEntity
  8
0
100
AcDbSpline
 62
7
  6
CONTINUOUS
 70
0
 71
3
 72
23
 73
19
 74
0
 42
0.0000001
 43
0.0000001
 44
0.0000000001
 40
0.0
 40
0.0
 40
0.0
 40
0.0
 40
0.0469152581
 40
0.099841964
 40
0.1580826997
 40
0.2208615331
 40
0.2873457744
 40
0.356653239
 40
0.4278627112
 40
0.500029735
 40
0.57219576
 40
0.6434022546
 40
0.7127047959
 40
0.7791822479
 40
0.8419524963
 40
0.9001829881
 40
0.9530979007
 40
1.0
 40
1.0
 40
1.0
 40
1.0
 10
4.6501482266
 20
4.7271399059
 30
0.0
 10
4.6718611041
 20
4.7275147187
 30
0.0
 10
4.7180703651
 20
4.7282339379
 30
0.0
 10
4.7912365124
 20
4.7292534618
 30
0.0
 10
4.8717458352
 20
4.7303041831
 30
0.0
 10
4.9585308665
 20
4.7313783651
 30
0.0
 10
5.0504386686
 20
4.732466324
 30
0.0
 10
5.1462491514
 20
4.7335499664
 30
0.0
 10
5.244690479
 20
4.7346120382
 30
0.0
 10
5.3444555126
 20
4.735629435
 30
0.0
 10
5.4442191685
 20
4.7366467772
 30
0.0
 10
5.5426563788
 20
4.7377086177
 30
0.0
 10
5.638460063
 20
4.7387921244
 30
0.0
 10
5.7303584677
 20
4.7398802078
 30
0.0
 10
5.8171316393
 20
4.7409544344
 30
0.0
 10
5.8976267879
 20
4.7420050526
 30
0.0
 10
5.9707766431
 20
4.7430245038
 30
0.0
 10
6.0169743523
 20
4.7437437678
 30
0.0
 10
6.0386811373
 20
4.7441186215
 30
0.0
  0
LINE
  5
3B6
100
AcDbEntity
  8
0
100
AcDbLine
 62
7
  6
CONTINUOUS
 10
6.0386811373
 20
4.7441186215
 11
6.0490779995
 21
4.7443012289
  0
LINE
  5
3B7
100
AcDbEntity
  8
0
100
AcDbLine
 62
7
  6
CONTINUOUS
 10
6.0490779995
 20
4.7443012289
 11
6.0562275051
 21
4.7444306061
  0
LINE
  5
3B8
100
AcDbEntity
  8
0
100
AcDbLine
 62
7
  6
CONTINUOUS
 10
6.0562275051
 20
4.7444306061
 11
6.0610656082
 21
4.7445200319
  0
LINE
  5
3B9
100
AcDbEntity
  8
0
100
AcDbLine
 62
7
  6
CONTINUOUS
 10
6.0610656082
 20
4.7445200319
 11
6.0689604915
 21
4.7446693763
  0
LINE
  5
3BA
100
AcDbEntity
  8
0
100
AcDbLine
 62
7
  6
CONTINUOUS
 10
6.0689604915
 20
4.7446693763
 11
6.0805516485
 21
4.7448968447
  0
LINE
  5
3BB
100
AcDbEntity
  8
0
100
AcDbLine
 62
7
  6
CONTINUOUS
 10
6.0805516485
 20
4.7448968447
 11
6.0830698364
 21
4.7449476363
  0
SPLINE
  5
3BC
100
AcDbEntity
  8
0
100
AcDbSpline
 62
7
  6
CONTINUOUS
 70
0
 71
3
 72
11
 73
7
 74
0
 42
0.0000001
 43
0.0000001
 44
0.0000000001
 40
0.0
 40
0.0
 40
0.0
 40
0.0
 40
0.3082326923
 40
0.5785167774
 40
0.8094461771
 40
1.0
 40
1.0
 40
1.0
 40
1.0
 10
6.0830698364
 20
4.7449476363
 30
0.0
 10
6.0932032444
 20
4.745153055
 30
0.0
 10
6.1122220132
 20
4.7455617137
 30
0.0
 10
6.1388306788
 20
4.7462177111
 30
0.0
 10
6.1615684412
 20
4.7468716182
 30
0.0
 10
6.1754198688
 20
4.7473477611
 30
0.0
 10
6.1816809703
 20
4.7475930293
 30
0.0
  0
SPLINE
  5
3BD
100
AcDbEntity
  8
0
100
AcDbSpline
 62
7
  6
CONTINUOUS
 70
0
 71
3
 72
19
 73
15
 74
0
 42
0.0000001
 43
0.0000001
 44
0.0000000001
 40
0.0
 40
0.0
 40
0.0
 40
0.0
 40
0.2317035353
 40
0.43288227
 40
0.6034687356
 40
0.7434071731
 40
0.8526667751
 40
0.9312808595
 40
0.9591672009
 40
0.9702893634
 40
0.9795596188
 40
0.9870223974
 40
0.9927655929
 40
1.0
 40
1.0
 40
1.0
 40
1.0
 10
6.1963861263
 20
4.7482449554
 30
0.0
 10
6.1978685278
 20
4.7483208222
 30
0.0
 10
6.2006376582
 20
4.7484701582
 30
0.0
 10
6.2044963605
 20
4.7487077633
 30
0.0
 10
6.2077660132
 20
4.7489431932
 30
0.0
 10
6.2104454568
 20
4.749175308
 30
0.0
 10
6.2125329371
 20
4.7494045259
 30
0.0
 10
6.2139016054
 20
4.7496047781
 30
0.0
 10
6.2146385637
 20
4.7497635496
 30
0.0
 10
6.2149365443
 20
4.7498475579
 30
0.0
 10
6.2151051813
 20
4.7499048721
 30
0.0
 10
6.215238389
 20
4.7499634763
 30
0.0
 10
6.2153486943
 20
4.7500270747
 30
0.0
 10
6.2154147002
 20
4.7500995487
 30
0.0
 10
6.2154147002
 20
4.7501458938
 30
0.0
  0
LINE
  5
3BE
100
AcDbEntity
  8
0
100
AcDbLine
 62
7
  6
CONTINUOUS
 10
4.5062482626
 20
4.7902544644
 11
4.5108978495
 21
4.7909545479
  0
SPLINE
  5
3BF
100
AcDbEntity
  8
0
100
AcDbSpline
 62
7
  6
CONTINUOUS
 70
0
 71
3
 72
15
 73
11
 74
0
 42
0.0000001
 43
0.0000001
 44
0.0000000001
 40
0.0
 40
0.0
 40
0.0
 40
0.0
 40
0.0256748599
 40
0.0563783456
 40
0.132842469
 40
0.2292255166
 40
0.3452580886
 40
0.4806638684
 40
0.6351645365
 40
1.0
 40
1.0
 40
1.0
 40
1.0
 10
4.5108978495
 20
4.7909545479
 30
0.0
 10
4.5117257075
 20
4.7910357835
 30
0.0
 10
4.5135455286
 20
4.7911941296
 30
0.0
 10
4.5178379739
 20
4.7915093464
 30
0.0
 10
4.5244218757
 20
4.7918934754
 30
0.0
 10
4.5337707063
 20
4.7923385347
 30
0.0
 10
4.545030746
 20
4.7927898736
 30
0.0
 10
4.5581748078
 20
4.7932459203
 30
0.0
 10
4.5793778143
 20
4.7938932463
 30
0.0
 10
4.5961983517
 20
4.7943209513
 30
0.0
 10
4.6080153098
 20
4.7945988127
 30
0.0
  0
LINE
  5
3C0
100
AcDbEntity
  8
0
100
AcDbLine
 62
7
  6
CONTINUOUS
 10
4.6080153098
 20
4.7945988127
 11
4.6242964227
 21
4.7949672751
  0
LINE
  5
3C1
100
AcDbEntity
  8
0
100
AcDbLine
 62
7
  6
CONTINUOUS
 10
4.6242964227
 20
4.7949672751
 11
4.6323851037
 21
4.7951406239
  0
SPLINE
  5
3C2
100
AcDbEntity
  8
0
100
AcDbSpline
 62
7
  6
CONTINUOUS
 70
0
 71
3
 72
24
 73
20
 74
0
 42
0.0000001
 43
0.0000001
 44
0.0000000001
 40
0.0
 40
0.0
 40
0.0
 40
0.0
 40
0.0433505225
 40
0.0940279747
 40
0.1512271977
 40
0.1819852477
 40
0.2140210746
 40
0.3164764182
 40
0.4255381126
 40
0.5372932561
 40
0.6477035452
 40
0.7011561244
 40
0.7527937092
 40
0.8021513988
 40
0.8487768762
 40
0.8922543287
 40
0.9321823663
 40
0.9682076313
 40
1.0
 40
1.0
 40
1.0
 40
1.0
 10
4.6323851037
 20
4.7951406239
 30
0.0
 10
4.6529587543
 20
4.7955740633
 30
0.0
 10
4.6975858177
 20
4.7963955206
 30
0.0
 10
4.7693637987
 20
4.7975087905
 30
0.0
 10
4.8351664326
 20
4.7984268084
 30
0.0
 10
4.892121361
 20
4.7991836735
 30
0.0
 10
4.9705575088
 20
4.8002013391
 30
0.0
 10
5.0861616361
 20
4.8016342978
 30
0.0
 10
5.2396070491
 20
4.8033731462
 30
0.0
 10
5.3968297258
 20
4.8050293416
 30
0.0
 10
5.5276559267
 20
4.8064690743
 30
0.0
 10
5.6299455313
 20
4.8076732814
 30
0.0
 10
5.7032553844
 20
4.8085760813
 30
0.0
 10
5.7733243004
 20
4.8094708447
 30
0.0
 10
5.8395196256
 20
4.8103427738
 30
0.0
 10
5.9012385742
 20
4.8111981298
 30
0.0
 10
5.9579253188
 20
4.8120424792
 30
0.0
 10
6.0090645484
 20
4.8128874429
 30
0.0
 10
6.0412513388
 20
4.813502321
 30
0.0
 10
6.0563396247
 20
4.8138202056
 30
0.0
  0
LINE
  5
3C3
100
AcDbEntity
  8
0
100
AcDbLine
 62
7
  6
CONTINUOUS
 10
6.0563396247
 20
4.8138202056
 11
6.0625782874
 21
4.8139533783
  0
LINE
  5
3C4
100
AcDbEntity
  8
0
100
AcDbLine
 62
7
  6
CONTINUOUS
 10
6.0625782874
 20
4.8139533783
 11
6.0693402041
 21
4.8141018284
  0
SPLINE
  5
3C5
100
AcDbEntity
  8
0
100
AcDbSpline
 62
7
  6
CONTINUOUS
 70
0
 71
3
 72
29
 73
25
 74
0
 42
0.0000001
 43
0.0000001
 44
0.0000000001
 40
0.0
 40
0.0
 40
0.0
 40
0.0
 40
0.2297491004
 40
0.3339829435
 40
0.430954927
 40
0.5205524463
 40
0.6026942825
 40
0.677303861
 40
0.7443048362
 40
0.8036212172
 40
0.8551775893
 40
0.8989024813
 40
0.9347587624
 40
0.9497321311
 40
0.9627343604
 40
0.9737657899
 40
0.9828287861
 40
0.9866241417
 40
0.9899305712
 40
0.9927506821
 40
0.9950889292
 40
0.9969535001
 40
0.9983612395
 40
1.0
 40
1.0
 40
1.0
 40
1.0
 10
6.0693402041
 20
4.8141018284
 30
0.0
 10
6.0780533003
 20
4.8142960038
 30
0.0
 10
6.0907190577
 20
4.8145945281
 30
0.0
 10
6.1070611943
 20
4.8150237345
 30
0.0
 10
6.1180880763
 20
4.8153355072
 30
0.0
 10
6.1282765643
 20
4.815647256
 30
0.0
 10
6.1376163515
 20
4.8159583887
 30
0.0
 10
6.1460984895
 20
4.8162683298
 30
0.0
 10
6.1537142079
 20
4.8165764666
 30
0.0
 10
6.1604547394
 20
4.8168821588
 30
0.0
 10
6.1663114727
 20
4.8171845778
 30
0.0
 10
6.1712771147
 20
4.8174830579
 30
0.0
 10
6.1748548366
 20
4.8177406886
 30
0.0
 10
6.1772671243
 20
4.8179509402
 30
0.0
 10
6.1787395264
 20
4.8180981265
 30
0.0
 10
6.1799865317
 20
4.8182444123
 30
0.0
 10
6.1808839478
 20
4.8183715078
 30
0.0
 10
6.1814883312
 20
4.8184756564
 30
0.0
 10
6.1818574657
 20
4.8185487516
 30
0.0
 10
6.1821705922
 20
4.81862189
 30
0.0
 10
6.1824261683
 20
4.818693669
 30
0.0
 10
6.1826291744
 20
4.8187675333
 30
0.0
 10
6.1827900641
 20
4.8188443014
 30
0.0
 10
6.1828981005
 20
4.8189354328
 30
0.0
 10
6.1828982228
 20
4.8189975971
 30
0.0
  0
SPLINE
  5
3C6
100
AcDbEntity
  8
0
100
AcDbSpline
 62
7
  6
CONTINUOUS
 70
0
 71
3
 72
18
 73
14
 74
0
 42
0.0000001
 43
0.0000001
 44
0.0000000001
 40
0.0
 40
0.0
 40
0.0
 40
0.0
 40
0.0163503912
 40
0.0388021066
 40
0.0674092073
 40
0.1021915992
 40
0.1431555504
 40
0.1903008413
 40
0.3031177354
 40
0.4405939903
 40
0.6026646843
 40
0.789207708
 40
1.0
 40
1.0
 40
1.0
 40
1.0
 10
4.4737178529
 20
4.7794622192
 30
0.0
 10
4.4738909924
 20
4.7795189977
 30
0.0
 10
4.4743118524
 20
4.7796220988
 30
0.0
 10
4.475050809
 20
4.7797572456
 30
0.0
 10
4.4759978835
 20
4.7798938262
 30
0.0
 10
4.4771526426
 20
4.7800317969
 30
0.0
 10
4.4785151774
 20
4.7801706323
 30
0.0
 10
4.4807455887
 20
4.7803687947
 30
0.0
 10
4.4840515766
 20
4.7806113827
 30
0.0
 10
4.4886385265
 20
4.7808917877
 30
0.0
 10
4.4940482349
 20
4.7811752609
 30
0.0
 10
4.5002757992
 20
4.7814617254
 30
0.0
 10
4.5047000703
 20
4.781643251
 30
0.0
 10
4.5070473783
 20
4.7817351719
 30
0.0
  0
SPLINE
  5
3C7
100
AcDbEntity
  8
0
100
AcDbSpline
 62
7
  6
CONTINUOUS
 70
0
 71
3
 72
11
 73
7
 74
0
 42
0.0000001
 43
0.0000001
 44
0.0000000001
 40
0.0
 40
0.0
 40
0.0
 40
0.0
 40
0.1905698613
 40
0.4215046444
 40
0.6917833762
 40
1.0
 40
1.0
 40
1.0
 40
1.0
 10
4.5070473783
 20
4.7817351719
 30
0.0
 10
4.513310556
 20
4.7819804386
 30
0.0
 10
4.5271661121
 20
4.7824565877
 30
0.0
 10
4.5499100211
 20
4.7831105096
 30
0.0
 10
4.5765247326
 20
4.7837665053
 30
0.0
 10
4.5955474944
 20
4.784175163
 30
0.0
 10
4.6056828767
 20
4.7843805799
 30
0.0
  0
LINE
  5
3C8
100
AcDbEntity
  8
0
100
AcDbLine
 62
7
  6
CONTINUOUS
 10
4.6056828767
 20
4.7843805799
 11
4.6083918504
 21
4.7844351879
  0
LINE
  5
3C9
100
AcDbEntity
  8
0
100
AcDbLine
 62
7
  6
CONTINUOUS
 10
4.6083918504
 20
4.7844351879
 11
4.632666971
 21
4.7849001103
  0
LINE
  5
3CA
100
AcDbEntity
  8
0
100
AcDbLine
 62
7
  6
CONTINUOUS
 10
4.632666971
 20
4.7849001103
 11
4.6396800791
 21
4.7850269654
  0
LINE
  5
3CB
100
AcDbEntity
  8
0
100
AcDbLine
 62
7
  6
CONTINUOUS
 10
4.6396800791
 20
4.7850269654
 11
4.6497767238
 21
4.7852043553
  0
SPLINE
  5
3CC
100
AcDbEntity
  8
0
100
AcDbSpline
 62
7
  6
CONTINUOUS
 70
0
 71
3
 72
23
 73
19
 74
0
 42
0.0000001
 43
0.0000001
 44
0.0000000001
 40
0.0
 40
0.0
 40
0.0
 40
0.0
 40
0.0470737321
 40
0.1002440547
 40
0.1587940769
 40
0.2219267152
 40
0.2887850102
 40
0.3584624349
 40
0.4300113823
 40
0.502461894
 40
0.5748295072
 40
0.6461318704
 40
0.7154010149
 40
0.7816969268
 40
0.844117955
 40
0.901820077
 40
0.9540142748
 40
1.0
 40
1.0
 40
1.0
 40
1.0
 10
4.6497767238
 20
4.7852043553
 30
0.0
 10
4.6717319069
 20
4.7855837942
 30
0.0
 10
4.7184871039
 20
4.7863112665
 30
0.0
 10
4.7925525317
 20
4.7873422814
 30
0.0
 10
4.8741092048
 20
4.7884051904
 30
0.0
 10
4.9620511048
 20
4.7894920033
 30
0.0
 10
5.0551838162
 20
4.790592204
 30
0.0
 10
5.1522428001
 20
4.7916872521
 30
0.0
 10
5.2519108045
 20
4.7927585645
 30
0.0
 10
5.3528342378
 20
4.7937845129
 30
0.0
 10
5.4536425812
 20
4.7948164162
 30
0.0
 10
5.5529663584
 20
4.7958935994
 30
0.0
 10
5.6494574771
 20
4.7969903948
 30
0.0
 10
5.7418054119
 20
4.7980899458
 30
0.0
 10
5.8287574838
 20
4.7991730055
 30
0.0
 10
5.9091313201
 20
4.8002313128
 30
0.0
 10
5.9818383095
 20
4.8012575016
 30
0.0
 10
6.0276304846
 20
4.8019887987
 30
0.0
 10
6.0490779995
 20
4.8023720951
 30
0.0
  0
LINE
  5
3CD
100
AcDbEntity
  8
0
100
AcDbLine
 62
7
  6
CONTINUOUS
 10
6.0490779995
 20
4.8023720951
 11
6.0565421346
 21
4.8025072409
  0
LINE
  5
3CE
100
AcDbEntity
  8
0
100
AcDbLine
 62
7
  6
CONTINUOUS
 10
6.0565421346
 20
4.8025072409
 11
6.080275332
 21
4.8029621685
  0
LINE
  5
3CF
100
AcDbEntity
  8
0
100
AcDbLine
 62
7
  6
CONTINUOUS
 10
6.080275332
 20
4.8029621685
 11
6.0830698364
 21
4.8030185024
  0
SPLINE
  5
3D0
100
AcDbEntity
  8
0
100
AcDbSpline
 62
7
  6
CONTINUOUS
 70
0
 71
3
 72
11
 73
7
 74
0
 42
0.0000001
 43
0.0000001
 44
0.0000000001
 40
0.0
 40
0.0
 40
0.0
 40
0.0
 40
0.3082326923
 40
0.5785167774
 40
0.8094461771
 40
1.0
 40
1.0
 40
1.0
 40
1.0
 10
6.0830698364
 20
4.8030185024
 30
0.0
 10
6.0932032444
 20
4.8032239212
 30
0.0
 10
6.1122220132
 20
4.8036325798
 30
0.0
 10
6.1388306788
 20
4.8042885772
 30
0.0
 10
6.1615684412
 20
4.8049424843
 30
0.0
 10
6.1754198688
 20
4.8054186273
 30
0.0
 10
6.1816809703
 20
4.8056638955
 30
0.0
  0
SPLINE
  5
3D1
100
AcDbEntity
  8
0
100
AcDbSpline
 62
7
  6
CONTINUOUS
 70
0
 71
3
 72
19
 73
15
 74
0
 42
0.0000001
 43
0.0000001
 44
0.0000000001
 40
0.0
 40
0.0
 40
0.0
 40
0.0
 40
0.2317035353
 40
0.43288227
 40
0.6034687356
 40
0.7434071731
 40
0.8526667751
 40
0.9312808595
 40
0.9591672009
 40
0.9702893634
 40
0.9795596188
 40
0.9870223974
 40
0.9927655929
 40
1.0
 40
1.0
 40
1.0
 40
1.0
 10
6.1963861263
 20
4.8063158215
 30
0.0
 10
6.1978685278
 20
4.8063916883
 30
0.0
 10
6.2006376582
 20
4.8065410243
 30
0.0
 10
6.2044963605
 20
4.8067786294
 30
0.0
 10
6.2077660132
 20
4.8070140593
 30
0.0
 10
6.2104454568
 20
4.8072461741
 30
0.0
 10
6.2125329371
 20
4.8074753921
 30
0.0
 10
6.2139016054
 20
4.8076756443
 30
0.0
 10
6.2146385637
 20
4.8078344158
 30
0.0
 10
6.2149365443
 20
4.807918424
 30
0.0
 10
6.2151051813
 20
4.8079757382
 30
0.0
 10
6.215238389
 20
4.8080343424
 30
0.0
 10
6.2153486943
 20
4.8080979408
 30
0.0
 10
6.2154147002
 20
4.8081704148
 30
0.0
 10
6.2154147002
 20
4.80821676
 30
0.0
  0
SPLINE
  5
3D2
100
AcDbEntity
  8
0
100
AcDbSpline
 62
7
  6
CONTINUOUS
 70
0
 71
3
 72
15
 73
11
 74
0
 42
0.0000001
 43
0.0000001
 44
0.0000000001
 40
0.0
 40
0.0
 40
0.0
 40
0.0
 40
0.020457067
 40
0.0464443248
 40
0.11518681
 40
0.2064133722
 40
0.3201612274
 40
0.4564238124
 40
0.6151756621
 40
1.0
 40
1.0
 40
1.0
 40
1.0
 10
4.4737178529
 20
4.8375330853
 30
0.0
 10
4.473829695
 20
4.8375697623
 30
0.0
 10
4.4740879665
 20
4.8376395609
 30
0.0
 10
4.4747363213
 20
4.8377774878
 30
0.0
 10
4.4757943462
 20
4.8379410122
 30
0.0
 10
4.4773580879
 20
4.8381281445
 30
0.0
 10
4.4793124956
 20
4.8383170708
 30
0.0
 10
4.4816566372
 20
4.8385080299
 30
0.0
 10
4.4855586056
 20
4.8387823947
 30
0.0
 10
4.4886811357
 20
4.8389614871
 30
0.0
 10
4.490892158
 20
4.8390788632
 30
0.0
  0
SPLINE
  5
3D3
100
AcDbEntity
  8
0
100
AcDbSpline
 62
9
  6
CONTINUOUS
 70
0
 71
3
 72
15
 73
11
 74
0
 42
0.0000001
 43
0.0000001
 44
0.0000000001
 40
0.0
 40
0.0
 40
0.0
 40
0.0
 40
0.1252590698
 40
0.2513370328
 40
0.3773048031
 40
0.5025780316
 40
0.6272993247
 40
0.7516903191
 40
0.8760173147
 40
1.0
 40
1.0
 40
1.0
 40
1.0
 10
4.2917065271
 20
4.8623076277
 30
0.0
 10
4.2917065271
 20
4.8609849675
 30
0.0
 10
4.2919397543
 20
4.8583260627
 30
0.0
 10
4.292941747
 20
4.8544526561
 30
0.0
 10
4.2945677755
 20
4.8507939266
 30
0.0
 10
4.296795245
 20
4.8474835679
 30
0.0
 10
4.29954344
 20
4.8446151975
 30
0.0
 10
4.3027359883
 20
4.8422655898
 30
0.0
 10
4.3062857381
 20
4.8405220304
 30
0.0
 10
4.3088163009
 20
4.8397803651
 30
0.0
 10
4.3100995912
 20
4.8395212812
 30
0.0
  0
SPLINE
  5
3D4
100
AcDbEntity
  8
0
100
AcDbSpline
 62
9
  6
CONTINUOUS
 70
0
 71
3
 72
9
 73
5
 74
0
 42
0.0000001
 43
0.0000001
 44
0.0000000001
 40
0.0
 40
0.0
 40
0.0
 40
0.0
 40
0.2512687636
 40
1.0
 40
1.0
 40
1.0
 40
1.0
 10
4.3100995912
 20
4.8395212812
 30
0.0
 10
4.3104607385
 20
4.8394483691
 30
0.0
 10
4.3119048105
 20
4.8391930957
 30
0.0
 10
4.3133742816
 20
4.8390792812
 30
0.0
 10
4.3144721419
 20
4.8390792812
 30
0.0
  0
SPLINE
  5
3D5
100
AcDbEntity
  8
0
100
AcDbSpline
 62
7
  6
CONTINUOUS
 70
0
 71
3
 72
40
 73
36
 74
0
 42
0.0000001
 43
0.0000001
 44
0.0000000001
 40
0.0
 40
0.0
 40
0.0
 40
0.0
 40
0.1044467054
 40
0.2060966037
 40
0.3042335218
 40
0.39817802
 40
0.4872610796
 40
0.57086424
 40
0.6483911489
 40
0.7192876227
 40
0.7830750415
 40
0.8121561601
 40
0.839292287
 40
0.8644409797
 40
0.887560159
 40
0.9086077714
 40
0.9275419482
 40
0.9443280434
 40
0.9589417716
 40
0.9713598206
 40
0.9767382872
 40
0.9815592725
 40
0.9858200283
 40
0.9895179523
 40
0.9926518029
 40
0.9952220508
 40
0.9962962223
 40
0.9972301082
 40
0.9980241935
 40
0.9986793025
 40
0.9991969614
 40
0.999580391
 40
0.9997242119
 40
0.9998387545
 40
1.0
 40
1.0
 40
1.0
 40
1.0
 10
5.5344338805
 20
5.1549855391
 30
0.0
 10
5.5570200877
 20
5.1552435608
 30
0.0
 10
5.6015875974
 20
5.1557619891
 30
0.0
 10
5.6673764538
 20
5.156556139
 30
0.0
 10
5.7308939192
 20
5.1573509772
 30
0.0
 10
5.7916935649
 20
5.1581371903
 30
0.0
 10
5.8493501182
 20
5.158904127
 30
0.0
 10
5.9034560681
 20
5.1596566893
 30
0.0
 10
5.9536286632
 20
5.1604035552
 30
0.0
 10
5.9995153495
 20
5.1611526315
 30
0.0
 10
6.0349253181
 20
5.1618018755
 30
0.0
 10
6.0608720794
 20
5.1623361477
 30
0.0
 10
6.0784639351
 20
5.1627287444
 30
0.0
 10
6.0947660494
 20
5.1631240552
 30
0.0
 10
6.1097510022
 20
5.1635208418
 30
0.0
 10
6.1233914853
 20
5.1639177386
 30
0.0
 10
6.1356617738
 20
5.1643133989
 30
0.0
 10
6.1465399559
 20
5.1647066001
 30
0.0
 10
6.1560080398
 20
5.165096558
 30
0.0
 10
6.163009163
 20
5.1654317486
 30
0.0
 10
6.1678929432
 20
5.1657027159
 30
0.0
 10
6.1710142277
 20
5.1658948785
 30
0.0
 10
6.1737713993
 20
5.1660856801
 30
0.0
 10
6.176162862
 20
5.1662748545
 30
0.0
 10
6.1781875433
 20
5.1664623515
 30
0.0
 10
6.1796445476
 20
5.1666249167
 30
0.0
 10
6.1806257246
 20
5.1667579266
 30
0.0
 10
6.1812245491
 20
5.1668512263
 30
0.0
 10
6.1817315421
 20
5.1669441189
 30
0.0
 10
6.1821469933
 20
5.1670361596
 30
0.0
 10
6.1824710179
 20
5.1671278343
 30
0.0
 10
6.182682889
 20
5.1672079903
 30
0.0
 10
6.182804294
 20
5.1672770681
 30
0.0
 10
6.1828756781
 20
5.1673313487
 30
0.0
 10
6.1829119806
 20
5.1673879681
 30
0.0
 10
6.1829119789
 20
5.1674228391
 30
0.0
  0
SPLINE
  5
3D6
100
AcDbEntity
  8
0
100
AcDbSpline
 62
7
  6
CONTINUOUS
 70
0
 71
3
 72
20
 73
16
 74
0
 42
0.0000001
 43
0.0000001
 44
0.0000000001
 40
0.0
 40
0.0
 40
0.0
 40
0.0
 40
0.2313566307
 40
0.4321953572
 40
0.6024742481
 40
0.7421665732
 40
0.8005440736
 40
0.8512823094
 40
0.8943956484
 40
0.9299130001
 40
0.957893551
 40
0.9784707992
 40
0.9860896576
 40
0.9920499746
 40
1.0
 40
1.0
 40
1.0
 40
1.0
 10
6.2008204919
 20
5.15498483
 30
0.0
 10
6.2019582975
 20
5.1550508759
 30
0.0
 10
6.2040834503
 20
5.155180853
 30
0.0
 10
6.2070442325
 20
5.1553876374
 30
0.0
 10
6.2095523107
 20
5.1555925604
 30
0.0
 10
6.21135834
 20
5.1557702006
 30
0.0
 10
6.2125754278
 20
5.1559155532
 30
0.0
 10
6.2133184377
 20
5.1560174845
 30
0.0
 10
6.2139476873
 20
5.1561189763
 30
0.0
 10
6.2144633186
 20
5.1562194115
 30
0.0
 10
6.2148655181
 20
5.1563195554
 30
0.0
 10
6.2151285037
 20
5.1564066475
 30
0.0
 10
6.2152801671
 20
5.1564824904
 30
0.0
 10
6.2153669332
 20
5.1565399973
 30
0.0
 10
6.2154147002
 20
5.156602793
 30
0.0
 10
6.2154147002
 20
5.1566419568
 30
0.0
  0
SPLINE
  5
3D7
100
AcDbEntity
  8
0
100
AcDbSpline
 62
7
  6
CONTINUOUS
 70
0
 71
3
 72
12
 73
8
 74
0
 42
0.0000001
 43
0.0000001
 44
0.0000000001
 40
0.0
 40
0.0
 40
0.0
 40
0.0
 40
0.0592745389
 40
0.137106932
 40
0.3490988467
 40
0.6366657452
 40
1.0
 40
1.0
 40
1.0
 40
1.0
 10
4.5062348036
 20
5.19675016
 30
0.0
 10
4.5063747563
 20
5.1967961951
 30
0.0
 10
4.5067050247
 20
5.1968822903
 30
0.0
 10
4.5075560288
 20
5.1970523165
 30
0.0
 10
4.508978167
 20
5.1972519038
 30
0.0
 10
4.5111106191
 20
5.1974809878
 30
0.0
 10
4.5127227045
 20
5.1976193543
 30
0.0
 10
4.5136229314
 20
5.1976911288
 30
0.0
  0
SPLINE
  5
3D8
100
AcDbEntity
  8
0
100
AcDbSpline
 62
7
  6
CONTINUOUS
 70
0
 71
3
 72
59
 73
55
 74
0
 42
0.0000001
 43
0.0000001
 44
0.0000000001
 40
0.0
 40
0.0
 40
0.0
 40
0.0
 40
0.0037750324
 40
0.0086371343
 40
0.01457395
 40
0.0215728131
 40
0.0296207831
 40
0.0387005154
 40
0.0598645526
 40
0.0848809218
 40
0.1135334521
 40
0.1455663926
 40
0.1807050276
 40
0.2186333161
 40
0.2590226077
 40
0.3015120807
 40
0.3457291763
 40
0.437774406
 40
0.531922739
 40
0.5787499802
 40
0.6248633839
 40
0.6698550939
 40
0.7133327667
 40
0.7549115821
 40
0.7942256933
 40
0.8309266601
 40
0.8646860874
 40
0.8803710109
 40
0.8952112679
 40
0.9091723811
 40
0.9222261326
 40
0.9343458223
 40
0.9455047594
 40
0.9556764295
 40
0.9648386353
 40
0.972973835
 40
0.9800647529
 40
0.9832132282
 40
0.9860941875
 40
0.9887055969
 40
0.9910462709
 40
0.9931154732
 40
0.994912514
 40
0.996436778
 40
0.99768779
 40
0.9982107669
 40
0.9986654129
 40
0.9990518318
 40
0.9993702611
 40
0.9996212175
 40
0.9998059009
 40
0.9998743597
 40
0.9999280039
 40
1.0
 40
1.0
 40
1.0
 40
1.0
 10
4.5136229314
 20
5.1976911288
 30
0.0
 10
4.515717373
 20
5.1978581171
 30
0.0
 10
4.5205145623
 20
5.1981739866
 30
0.0
 10
4.5286149171
 20
5.1986002177
 30
0.0
 10
4.5385113671
 20
5.1990331066
 30
0.0
 10
4.5501821576
 20
5.199471293
 30
0.0
 10
4.56360317
 20
5.1999130038
 30
0.0
 10
4.5849062894
 20
5.2005368617
 30
0.0
 10
4.6156534152
 20
5.2012981654
 30
0.0
 10
4.65729474
 20
5.2021580062
 30
0.0
 10
4.7049868613
 20
5.202999137
 30
0.0
 10
4.7583136323
 20
5.2038339896
 30
0.0
 10
4.8168036
 20
5.2046705565
 30
0.0
 10
4.8799447527
 20
5.2055207391
 30
0.0
 10
4.947177222
 20
5.2063959886
 30
0.0
 10
5.0179099989
 20
5.207284629
 30
0.0
 10
5.1173915066
 20
5.2084854159
 30
0.0
 10
5.2456241136
 20
5.2099343905
 30
0.0
 10
5.3753104397
 20
5.2112999274
 30
0.0
 10
5.4794332703
 20
5.2124349131
 30
0.0
 10
5.5561980837
 20
5.2132992174
 30
0.0
 10
5.6310982573
 20
5.2141836128
 30
0.0
 10
5.7034743177
 20
5.2150754952
 30
0.0
 10
5.7726902531
 20
5.215956816
 30
0.0
 10
5.8381343593
 20
5.216820439
 30
0.0
 10
5.8992262264
 20
5.2176668374
 30
0.0
 10
5.9471673046
 20
5.2183765167
 30
0.0
 10
5.982941888
 20
5.2189512212
 30
0.0
 10
6.0076982222
 20
5.2193747508
 30
0.0
 10
6.0309897895
 20
5.2198035758
 30
0.0
 10
6.0527667947
 20
5.2202369471
 30
0.0
 10
6.0729837671
 20
5.2206741239
 30
0.0
 10
6.091596171
 20
5.2211143068
 30
0.0
 10
6.1085619497
 20
5.2215569392
 30
0.0
 10
6.123844131
 20
5.22200073
 30
0.0
 10
6.1374108658
 20
5.2224435145
 30
0.0
 10
6.1476307027
 20
5.222823295
 30
0.0
 10
6.154926776
 20
5.2231288952
 30
0.0
 10
6.1597310916
 20
5.2233475508
 30
0.0
 10
6.1640853774
 20
5.2235645669
 30
0.0
 10
6.1679873341
 20
5.2237799175
 30
0.0
 10
6.1714353606
 20
5.2239936512
 30
0.0
 10
6.1744281405
 20
5.2242056538
 30
0.0
 10
6.1769643331
 20
5.2244159557
 30
0.0
 10
6.1787911458
 20
5.2245983784
 30
0.0
 10
6.1800225751
 20
5.2247476983
 30
0.0
 10
6.1807745597
 20
5.2248524445
 30
0.0
 10
6.1814115
 20
5.2249567485
 30
0.0
 10
6.1819335069
 20
5.2250599834
 30
0.0
 10
6.1823406954
 20
5.2251629003
 30
0.0
 10
6.1826069544
 20
5.225252449
 30
0.0
 10
6.1827603551
 20
5.2253303376
 30
0.0
 10
6.1828483752
 20
5.2253896339
 30
0.0
 10
6.1828963109
 20
5.2254540719
 30
0.0
 10
6.1828962791
 20
5.2254941431
 30
0.0
  0
SPLINE
  5
3D9
100
AcDbEntity
  8
0
100
AcDbSpline
 62
7
  6
CONTINUOUS
 70
0
 71
3
 72
18
 73
14
 74
0
 42
0.0000001
 43
0.0000001
 44
0.0000000001
 40
0.0
 40
0.0
 40
0.0
 40
0.0
 40
0.0163503912
 40
0.0388021066
 40
0.0674092073
 40
0.1021915992
 40
0.1431555504
 40
0.1903008413
 40
0.3031177354
 40
0.4405939903
 40
0.6026646843
 40
0.789207708
 40
1.0
 40
1.0
 40
1.0
 40
1.0
 10
4.4737178529
 20
5.1859582822
 30
0.0
 10
4.4738909924
 20
5.1860150607
 30
0.0
 10
4.4743118524
 20
5.1861181617
 30
0.0
 10
4.475050809
 20
5.1862533086
 30
0.0
 10
4.4759978835
 20
5.1863898892
 30
0.0
 10
4.4771526426
 20
5.1865278599
 30
0.0
 10
4.4785151774
 20
5.1866666953
 30
0.0
 10
4.4807455887
 20
5.1868648577
 30
0.0
 10
4.4840515766
 20
5.1871074457
 30
0.0
 10
4.4886385265
 20
5.1873878507
 30
0.0
 10
4.4940482349
 20
5.1876713239
 30
0.0
 10
4.5002757992
 20
5.1879577884
 30
0.0
 10
4.5047000703
 20
5.188139314
 30
0.0
 10
4.5070473783
 20
5.1882312349
 30
0.0
  0
SPLINE
  5
3DA
100
AcDbEntity
  8
0
100
AcDbSpline
 62
7
  6
CONTINUOUS
 70
0
 71
3
 72
33
 73
29
 74
0
 42
0.0000001
 43
0.0000001
 44
0.0000000001
 40
0.0
 40
0.0
 40
0.0
 40
0.0
 40
0.0131968609
 40
0.0295610594
 40
0.0489909499
 40
0.0713531348
 40
0.0965083705
 40
0.1242906228
 40
0.1545169283
 40
0.1869959335
 40
0.2578395436
 40
0.3349809651
 40
0.4164139555
 40
0.4580799978
 40
0.5000195631
 40
0.5419589525
 40
0.5836244673
 40
0.665055367
 40
0.7421933677
 40
0.8130323143
 40
0.8455085585
 40
0.8757318397
 40
0.9035108243
 40
0.9286625709
 40
0.9510210668
 40
0.9704470932
 40
0.9868072773
 40
1.0
 40
1.0
 40
1.0
 40
1.0
 10
4.5070473783
 20
5.1882312349
 30
0.0
 10
4.5144092264
 20
5.1885195257
 30
0.0
 10
4.5309033642
 20
5.1890739139
 30
0.0
 10
4.5582435172
 20
5.1898277869
 30
0.0
 10
4.5907020818
 20
5.1905825557
 30
0.0
 10
4.6280697491
 20
5.1913292299
 30
0.0
 10
4.6701015156
 20
5.1920554191
 30
0.0
 10
4.7165243996
 20
5.1927688524
 30
0.0
 10
4.7670363648
 20
5.1934849516
 30
0.0
 10
4.8415867792
 20
5.194487909
 30
0.0
 10
4.9423275576
 20
5.1957557889
 30
0.0
 10
5.0703971793
 20
5.1972708254
 30
0.0
 10
5.1821797357
 20
5.1985123375
 30
0.0
 10
5.2743117256
 20
5.1994816844
 30
0.0
 10
5.3443968461
 20
5.2001957662
 30
0.0
 10
5.4144816725
 20
5.2009098038
 30
0.0
 10
5.5066121044
 20
5.2018789559
 30
0.0
 10
5.6183912929
 20
5.2031201456
 30
0.0
 10
5.7464552311
 20
5.2046354051
 30
0.0
 10
5.8471899541
 20
5.2059032939
 30
0.0
 10
5.9217345355
 20
5.2069061911
 30
0.0
 10
5.9722414464
 20
5.2076222755
 30
0.0
 10
6.0186588691
 20
5.208335717
 30
0.0
 10
6.0606848028
 20
5.2090619263
 30
0.0
 10
6.0980463038
 20
5.209808623
 30
0.0
 10
6.1304984085
 20
5.2105634064
 30
0.0
 10
6.1578318504
 20
5.2113172736
 30
0.0
 10
6.1743214346
 20
5.2118716609
 30
0.0
 10
6.1816809703
 20
5.2121599585
 30
0.0
  0
SPLINE
  5
3DB
100
AcDbEntity
  8
0
100
AcDbSpline
 62
7
  6
CONTINUOUS
 70
0
 71
3
 72
19
 73
15
 74
0
 42
0.0000001
 43
0.0000001
 44
0.0000000001
 40
0.0
 40
0.0
 40
0.0
 40
0.0
 40
0.2317035353
 40
0.43288227
 40
0.6034687356
 40
0.7434071731
 40
0.8526667751
 40
0.9312808595
 40
0.9591672009
 40
0.9702893634
 40
0.9795596188
 40
0.9870223974
 40
0.9927655929
 40
1.0
 40
1.0
 40
1.0
 40
1.0
 10
6.1963861263
 20
5.2128118845
 30
0.0
 10
6.1978685278
 20
5.2128877513
 30
0.0
 10
6.2006376582
 20
5.2130370873
 30
0.0
 10
6.2044963605
 20
5.2132746924
 30
0.0
 10
6.2077660132
 20
5.2135101223
 30
0.0
 10
6.2104454568
 20
5.2137422371
 30
0.0
 10
6.2125329371
 20
5.213971455
 30
0.0
 10
6.2139016054
 20
5.2141717073
 30
0.0
 10
6.2146385637
 20
5.2143304788
 30
0.0
 10
6.2149365443
 20
5.214414487
 30
0.0
 10
6.2151051813
 20
5.2144718012
 30
0.0
 10
6.215238389
 20
5.2145304054
 30
0.0
 10
6.2153486943
 20
5.2145940038
 30
0.0
 10
6.2154147002
 20
5.2146664778
 30
0.0
 10
6.2154147002
 20
5.214712823
 30
0.0
  0
SPLINE
  5
3DC
100
AcDbEntity
  8
0
100
AcDbSpline
 62
7
  6
CONTINUOUS
 70
0
 71
3
 72
12
 73
8
 74
0
 42
0.0000001
 43
0.0000001
 44
0.0000000001
 40
0.0
 40
0.0
 40
0.0
 40
0.0
 40
0.0638186541
 40
0.1449357517
 40
0.3596536868
 40
0.6446697714
 40
1.0
 40
1.0
 40
1.0
 40
1.0
 10
4.5062421698
 20
5.2548207501
 30
0.0
 10
4.5063578317
 20
5.2548587937
 30
0.0
 10
4.5066250434
 20
5.2549311948
 30
0.0
 10
4.5072962665
 20
5.2550742612
 30
0.0
 10
4.5083921059
 20
5.2552438433
 30
0.0
 10
4.5100118943
 20
5.255437982
 30
0.0
 10
4.5112280412
 20
5.2555556758
 30
0.0
 10
4.5119032392
 20
5.2556164237
 30
0.0
  0
SPLINE
  5
3DD
100
AcDbEntity
  8
0
100
AcDbSpline
 62
7
  6
CONTINUOUS
 70
0
 71
3
 72
60
 73
56
 74
0
 42
0.0000001
 43
0.0000001
 44
0.0000000001
 40
0.0
 40
0.0
 40
0.0
 40
0.0
 40
0.0034172095
 40
0.0079321773
 40
0.0135370372
 40
0.0202217282
 40
0.0279690913
 40
0.0367601752
 40
0.0573973372
 40
0.0819582799
 40
0.1102201919
 40
0.1419435061
 40
0.1768394849
 40
0.2146016525
 40
0.254889158
 40
0.3415791418
 40
0.3872080507
 40
0.4338248873
 40
0.4810135179
 40
0.5283552625
 40
0.5754286437
 40
0.6218122654
 40
0.6670958165
 40
0.7108764411
 40
0.752764195
 40
0.7923855207
 40
0.8293805857
 40
0.8634259003
 40
0.8792439281
 40
0.8942120398
 40
0.9082991933
 40
0.9214743798
 40
0.9337066218
 40
0.9449678541
 40
0.9552358267
 40
0.9644889953
 40
0.9727058372
 40
0.9798654737
 40
0.9830439788
 40
0.9859530172
 40
0.9885911701
 40
0.9909570355
 40
0.9930492376
 40
0.9948664426
 40
0.9964073901
 40
0.9976709703
 40
0.9981986279
 40
0.9986570072
 40
0.9990463186
 40
0.9993669064
 40
0.9996193935
 40
0.9998050855
 40
0.9998738854
 40
0.9999277775
 40
1.0
 40
1.0
 40
1.0
 40
1.0
 10
4.5119032392
 20
5.2556164237
 30
0.0
 10
4.5137994996
 20
5.2557870313
 30
0.0
 10
4.5182081024
 20
5.2561041677
 30
0.0
 10
4.5257384673
 20
5.2565282088
 30
0.0
 10
4.5350914032
 20
5.256959974
 30
0.0
 10
4.5462464879
 20
5.2573993626
 30
0.0
 10
4.5591778362
 20
5.2578433076
 30
0.0
 10
4.5798809425
 20
5.2584724618
 30
0.0
 10
4.6099517942
 20
5.2592376569
 30
0.0
 10
4.6508714295
 20
5.2601029144
 30
0.0
 10
4.6979691989
 20
5.2609557457
 30
0.0
 10
4.7508262591
 20
5.2617930048
 30
0.0
 10
4.8089770209
 20
5.2626310549
 30
0.0
 10
4.871899575
 20
5.2634878949
 30
0.0
 10
4.9636775129
 20
5.2646848936
 30
0.0
 10
5.0598389177
 20
5.2658743855
 30
0.0
 10
5.159527345
 20
5.2670343947
 30
0.0
 10
5.2372093174
 20
5.2678956229
 30
0.0
 10
5.3158458064
 20
5.2687436023
 30
0.0
 10
5.394736744
 20
5.2695852672
 30
0.0
 10
5.4731790738
 20
5.2704332253
 30
0.0
 10
5.5504743503
 20
5.2713038596
 30
0.0
 10
5.625934709
 20
5.2721931892
 30
0.0
 10
5.6988899255
 20
5.2730874868
 30
0.0
 10
5.7686902215
 20
5.2739761449
 30
0.0
 10
5.8347097961
 20
5.2748483163
 30
0.0
 10
5.8963598455
 20
5.2756956269
 30
0.0
 10
5.9447483047
 20
5.2764097021
 30
0.0
 10
5.9808649178
 20
5.2769890348
 30
0.0
 10
6.0058627239
 20
5.2774155113
 30
0.0
 10
6.0293877696
 20
5.2778452097
 30
0.0
 10
6.0513881623
 20
5.2782788021
 30
0.0
 10
6.0718136488
 20
5.2787171056
 30
0.0
 10
6.0906188446
 20
5.2791603878
 30
0.0
 10
6.1077636604
 20
5.2796062798
 30
0.0
 10
6.1232116321
 20
5.2800526665
 30
0.0
 10
6.1369270148
 20
5.2804974843
 30
0.0
 10
6.1472580761
 20
5.2808783907
 30
0.0
 10
6.1546324684
 20
5.2811849851
 30
0.0
 10
6.1594890951
 20
5.281404604
 30
0.0
 10
6.1638925075
 20
5.2816230244
 30
0.0
 10
6.1678402699
 20
5.2818401449
 30
0.0
 10
6.1713299495
 20
5.2820558328
 30
0.0
 10
6.1743591612
 20
5.282269794
 30
0.0
 10
6.1769255003
 20
5.2824818794
 30
0.0
 10
6.178773109
 20
5.2826656083
 30
0.0
 10
6.1800175123
 20
5.282815813
 30
0.0
 10
6.1807765887
 20
5.2829210545
 30
0.0
 10
6.1814191025
 20
5.2830257835
 30
0.0
 10
6.1819453398
 20
5.2831293841
 30
0.0
 10
6.1823556012
 20
5.2832326344
 30
0.0
 10
6.1826237618
 20
5.2833224505
 30
0.0
 10
6.1827782551
 20
5.2834005843
 30
0.0
 10
6.1828668318
 20
5.2834600042
 30
0.0
 10
6.182915229
 20
5.2835246355
 30
0.0
 10
6.1829152275
 20
5.2835648747
 30
0.0
  0
SPLINE
  5
3DE
100
AcDbEntity
  8
0
100
AcDbSpline
 62
7
  6
CONTINUOUS
 70
0
 71
3
 72
18
 73
14
 74
0
 42
0.0000001
 43
0.0000001
 44
0.0000000001
 40
0.0
 40
0.0
 40
0.0
 40
0.0
 40
0.0163503912
 40
0.0388021066
 40
0.0674092073
 40
0.1021915992
 40
0.1431555504
 40
0.1903008413
 40
0.3031177354
 40
0.4405939903
 40
0.6026646843
 40
0.789207708
 40
1.0
 40
1.0
 40
1.0
 40
1.0
 10
4.4737178529
 20
5.2440291483
 30
0.0
 10
4.4738909924
 20
5.2440859269
 30
0.0
 10
4.4743118524
 20
5.2441890279
 30
0.0
 10
4.475050809
 20
5.2443241747
 30
0.0
 10
4.4759978835
 20
5.2444607553
 30
0.0
 10
4.4771526426
 20
5.244598726
 30
0.0
 10
4.4785151774
 20
5.2447375614
 30
0.0
 10
4.4807455887
 20
5.2449357239
 30
0.0
 10
4.4840515766
 20
5.2451783118
 30
0.0
 10
4.4886385265
 20
5.2454587168
 30
0.0
 10
4.4940482349
 20
5.2457421901
 30
0.0
 10
4.5002757992
 20
5.2460286545
 30
0.0
 10
4.5047000703
 20
5.2462101802
 30
0.0
 10
4.5070473783
 20
5.246302101
 30
0.0
  0
SPLINE
  5
3DF
100
AcDbEntity
  8
0
100
AcDbSpline
 62
7
  6
CONTINUOUS
 70
0
 71
3
 72
33
 73
29
 74
0
 42
0.0000001
 43
0.0000001
 44
0.0000000001
 40
0.0
 40
0.0
 40
0.0
 40
0.0
 40
0.0131968609
 40
0.0295610594
 40
0.0489909499
 40
0.0713531348
 40
0.0965083705
 40
0.1242906228
 40
0.1545169283
 40
0.1869959335
 40
0.2578395436
 40
0.3349809651
 40
0.4164139555
 40
0.4580799978
 40
0.5000195631
 40
0.5419589525
 40
0.5836244673
 40
0.665055367
 40
0.7421933677
 40
0.8130323143
 40
0.8455085585
 40
0.8757318397
 40
0.9035108243
 40
0.9286625709
 40
0.9510210668
 40
0.9704470932
 40
0.9868072773
 40
1.0
 40
1.0
 40
1.0
 40
1.0
 10
4.5070473783
 20
5.246302101
 30
0.0
 10
4.5144092264
 20
5.2465903918
 30
0.0
 10
4.5309033642
 20
5.24714478
 30
0.0
 10
4.5582435172
 20
5.247898653
 30
0.0
 10
4.5907020818
 20
5.2486534219
 30
0.0
 10
4.6280697491
 20
5.249400096
 30
0.0
 10
4.6701015156
 20
5.2501262852
 30
0.0
 10
4.7165243996
 20
5.2508397186
 30
0.0
 10
4.7670363648
 20
5.2515558178
 30
0.0
 10
4.8415867792
 20
5.2525587751
 30
0.0
 10
4.9423275576
 20
5.253826655
 30
0.0
 10
5.0703971793
 20
5.2553416916
 30
0.0
 10
5.1821797357
 20
5.2565832036
 30
0.0
 10
5.2743117256
 20
5.2575525506
 30
0.0
 10
5.3443968461
 20
5.2582666323
 30
0.0
 10
5.4144816725
 20
5.2589806699
 30
0.0
 10
5.5066121044
 20
5.259949822
 30
0.0
 10
5.6183912929
 20
5.2611910117
 30
0.0
 10
5.7464552311
 20
5.2627062712
 30
0.0
 10
5.8471899541
 20
5.26397416
 30
0.0
 10
5.9217345355
 20
5.2649770572
 30
0.0
 10
5.9722414464
 20
5.2656931417
 30
0.0
 10
6.0186588691
 20
5.2664065831
 30
0.0
 10
6.0606848028
 20
5.2671327925
 30
0.0
 10
6.0980463038
 20
5.2678794891
 30
0.0
 10
6.1304984085
 20
5.2686342725
 30
0.0
 10
6.1578318504
 20
5.2693881397
 30
0.0
 10
6.1743214346
 20
5.2699425271
 30
0.0
 10
6.1816809703
 20
5.2702308246
 30
0.0
  0
SPLINE
  5
3E0
100
AcDbEntity
  8
0
100
AcDbSpline
 62
7
  6
CONTINUOUS
 70
0
 71
3
 72
19
 73
15
 74
0
 42
0.0000001
 43
0.0000001
 44
0.0000000001
 40
0.0
 40
0.0
 40
0.0
 40
0.0
 40
0.2317035353
 40
0.43288227
 40
0.6034687356
 40
0.7434071731
 40
0.8526667751
 40
0.9312808595
 40
0.9591672009
 40
0.9702893634
 40
0.9795596188
 40
0.9870223974
 40
0.9927655929
 40
1.0
 40
1.0
 40
1.0
 40
1.0
 10
6.1963861263
 20
5.2708827507
 30
0.0
 10
6.1978685278
 20
5.2709586175
 30
0.0
 10
6.2006376582
 20
5.2711079535
 30
0.0
 10
6.2044963605
 20
5.2713455586
 30
0.0
 10
6.2077660132
 20
5.2715809884
 30
0.0
 10
6.2104454568
 20
5.2718131033
 30
0.0
 10
6.2125329371
 20
5.2720423212
 30
0.0
 10
6.2139016054
 20
5.2722425734
 30
0.0
 10
6.2146385637
 20
5.2724013449
 30
0.0
 10
6.2149365443
 20
5.2724853532
 30
0.0
 10
6.2151051813
 20
5.2725426674
 30
0.0
 10
6.215238389
 20
5.2726012716
 30
0.0
 10
6.2153486943
 20
5.2726648699
 30
0.0
 10
6.2154147002
 20
5.272737344
 30
0.0
 10
6.2154147002
 20
5.2727836891
 30
0.0
  0
SPLINE
  5
3E1
100
AcDbEntity
  8
0
100
AcDbSpline
 62
7
  6
CONTINUOUS
 70
0
 71
3
 72
27
 73
23
 74
0
 42
0.0000001
 43
0.0000001
 44
0.0000000001
 40
0.0
 40
0.0
 40
0.0
 40
0.0
 40
0.0015440962
 40
0.0035520244
 40
0.0089750637
 40
0.0162853397
 40
0.0254865553
 40
0.0365789676
 40
0.0495609887
 40
0.0644247402
 40
0.081157927
 40
0.1201819995
 40
0.1665311725
 40
0.2201022409
 40
0.2807798044
 40
0.3483988955
 40
0.422781372
 40
0.5037489802
 40
0.5911203852
 40
0.6846764439
 40
0.7841721909
 40
1.0
 40
1.0
 40
1.0
 40
1.0
 10
4.5062431691
 20
5.3128922074
 30
0.0
 10
4.50637586
 20
5.3129358436
 30
0.0
 10
4.5066870066
 20
5.3130178797
 30
0.0
 10
4.5074827176
 20
5.3131798459
 30
0.0
 10
4.5088034191
 20
5.3133704411
 30
0.0
 10
4.5107755919
 20
5.3135888616
 30
0.0
 10
4.5132631152
 20
5.3138097258
 30
0.0
 10
4.5162649868
 20
5.3140336311
 30
0.0
 10
4.51978019
 20
5.3142598315
 30
0.0
 10
4.5238064345
 20
5.3144882491
 30
0.0
 10
4.530186759
 20
5.3148120176
 30
0.0
 10
4.5394149303
 20
5.3152121535
 30
0.0
 10
4.551975538
 20
5.3156768904
 30
0.0
 10
4.5664960086
 20
5.3161448989
 30
0.0
 10
4.5829414185
 20
5.3166143343
 30
0.0
 10
4.6012701601
 20
5.3170832987
 30
0.0
 10
4.6214349718
 20
5.3175498567
 30
0.0
 10
4.6433871391
 20
5.3180121946
 30
0.0
 10
4.6670742632
 20
5.3184679943
 30
0.0
 10
4.6924378639
 20
5.3189181173
 30
0.0
 10
4.7294207859
 20
5.3195303933
 30
0.0
 10
4.7579422833
 20
5.3199611725
 30
0.0
 10
4.7774643867
 20
5.3202453042
 30
0.0
  0
SPLINE
  5
3E2
100
AcDbEntity
  8
0
100
AcDbSpline
 62
7
  6
CONTINUOUS
 70
0
 71
3
 72
18
 73
14
 74
0
 42
0.0000001
 43
0.0000001
 44
0.0000000001
 40
0.0
 40
0.0
 40
0.0
 40
0.0
 40
0.0163503912
 40
0.0388021066
 40
0.0674092073
 40
0.1021915992
 40
0.1431555504
 40
0.1903008413
 40
0.3031177354
 40
0.4405939903
 40
0.6026646843
 40
0.789207708
 40
1.0
 40
1.0
 40
1.0
 40
1.0
 10
4.4737178529
 20
5.3021000144
 30
0.0
 10
4.4738909924
 20
5.302156793
 30
0.0
 10
4.4743118524
 20
5.302259894
 30
0.0
 10
4.475050809
 20
5.3023950409
 30
0.0
 10
4.4759978835
 20
5.3025316214
 30
0.0
 10
4.4771526426
 20
5.3026695922
 30
0.0
 10
4.4785151774
 20
5.3028084276
 30
0.0
 10
4.4807455887
 20
5.30300659
 30
0.0
 10
4.4840515766
 20
5.3032491779
 30
0.0
 10
4.4886385265
 20
5.303529583
 30
0.0
 10
4.4940482349
 20
5.3038130562
 30
0.0
 10
4.5002757992
 20
5.3040995206
 30
0.0
 10
4.5047000703
 20
5.3042810463
 30
0.0
 10
4.5070473783
 20
5.3043729672
 30
0.0
  0
SPLINE
  5
3E3
100
AcDbEntity
  8
0
100
AcDbSpline
 62
7
  6
CONTINUOUS
 70
0
 71
3
 72
24
 73
20
 74
0
 42
0.0000001
 43
0.0000001
 44
0.0000000001
 40
0.0
 40
0.0
 40
0.0
 40
0.0
 40
0.0117755247
 40
0.0255234112
 40
0.0587887075
 40
0.0994090939
 40
0.1469268648
 40
0.2007911827
 40
0.2603921205
 40
0.32504047
 40
0.3940012939
 40
0.4664794144
 40
0.5416484535
 40
0.6186441719
 40
0.6965860846
 40
0.7745807188
 40
0.8517333935
 40
0.9271625098
 40
1.0
 40
1.0
 40
1.0
 40
1.0
 10
4.5070473783
 20
5.3043729672
 30
0.0
 10
4.5117315619
 20
5.3045564003
 30
0.0
 10
4.5218859681
 20
5.3049169349
 30
0.0
 10
4.5452784931
 20
5.3056344648
 30
0.0
 10
4.5801543144
 20
5.3065057777
 30
0.0
 10
4.6284744183
 20
5.307491942
 30
0.0
 10
4.6849969334
 20
5.3084433971
 30
0.0
 10
4.7490765619
 20
5.30938225
 30
0.0
 10
4.8199761377
 20
5.310343349
 30
0.0
 10
4.8968857613
 20
5.3113278225
 30
0.0
 10
4.9789218806
 20
5.3123316601
 30
0.0
 10
5.0651464362
 20
5.3133434196
 30
0.0
 10
5.154569919
 20
5.314349293
 30
0.0
 10
5.246168866
 20
5.3153347866
 30
0.0
 10
5.3388931269
 20
5.3162820404
 30
0.0
 10
5.431679907
 20
5.317226038
 30
0.0
 10
5.5234659181
 20
5.3182072083
 30
0.0
 10
5.613198521
 20
5.3192114113
 30
0.0
 10
5.6722186496
 20
5.3199005279
 30
0.0
 10
5.701212803
 20
5.3202465457
 30
0.0
  0
SPLINE
  5
3E4
100
AcDbEntity
  8
0
100
AcDbSpline
 62
7
  6
CONTINUOUS
 70
0
 71
3
 72
50
 73
46
 74
0
 42
0.0000001
 43
0.0000001
 44
0.0000000001
 40
0.0
 40
0.0
 40
0.0
 40
0.0
 40
0.0250524987
 40
0.0528855589
 40
0.1161736051
 40
0.1882322075
 40
0.2671965286
 40
0.3510314807
 40
0.4375825746
 40
0.5246247078
 40
0.5676293819
 40
0.6099174304
 40
0.6512196115
 40
0.6912700307
 40
0.7298094783
 40
0.7665919614
 40
0.8013742211
 40
0.8339326185
 40
0.8640596967
 40
0.8915551454
 40
0.9162507333
 40
0.9274990504
 40
0.9379881643
 40
0.9477016967
 40
0.9566259985
 40
0.964747516
 40
0.9720527108
 40
0.9785280738
 40
0.9841619454
 40
0.9889471599
 40
0.9910195345
 40
0.9928773844
 40
0.9945199685
 40
0.9959465917
 40
0.9971566387
 40
0.9981496439
 40
0.9985647062
 40
0.9989255434
 40
0.9992323877
 40
0.9994856227
 40
0.999685924
 40
0.9998346677
 40
0.9998907228
 40
0.9999356487
 40
1.0
 40
1.0
 40
1.0
 40
1.0
 10
4.6393397193
 20
5.3759916403
 30
0.0
 10
4.6522302815
 20
5.3762548816
 30
0.0
 10
4.6794429536
 20
5.3767700179
 30
0.0
 10
4.7392232086
 20
5.3777742827
 30
0.0
 10
4.823194923
 20
5.3789818398
 30
0.0
 10
4.9334802054
 20
5.3804440116
 30
0.0
 10
5.0543402424
 20
5.3819522597
 30
0.0
 10
5.182659494
 20
5.3834504588
 30
0.0
 10
5.3151370229
 20
5.384878769
 30
0.0
 10
5.4266026463
 20
5.3860661847
 30
0.0
 10
5.5152892439
 20
5.387045782
 30
0.0
 10
5.5804369064
 20
5.3877954111
 30
0.0
 10
5.6440639358
 20
5.3885555364
 30
0.0
 10
5.7057615897
 20
5.3893171518
 30
0.0
 10
5.7651330804
 20
5.3900725047
 30
0.0
 10
5.8217932224
 20
5.3908176287
 30
0.0
 10
5.8753751661
 20
5.3915463575
 30
0.0
 10
5.9255317597
 20
5.392262286
 30
0.0
 10
5.9719378318
 20
5.3929760528
 30
0.0
 10
6.0142966575
 20
5.3936980923
 30
0.0
 10
6.0469396823
 20
5.3943256811
 30
0.0
 10
6.0708308888
 20
5.394839377
 30
0.0
 10
6.0870127342
 20
5.3952158733
 30
0.0
 10
6.1019981122
 20
5.3955950319
 30
0.0
 10
6.1157645531
 20
5.3959754001
 30
0.0
 10
6.1282910323
 20
5.3963556709
 30
0.0
 10
6.1395565747
 20
5.3967344947
 30
0.0
 10
6.1495411594
 20
5.3971103889
 30
0.0
 10
6.1582279613
 20
5.3974822305
 30
0.0
 10
6.1646488381
 20
5.3978015553
 30
0.0
 10
6.169126814
 20
5.3980598176
 30
0.0
 10
6.1719890164
 20
5.3982431282
 30
0.0
 10
6.1745181957
 20
5.3984253826
 30
0.0
 10
6.1767131182
 20
5.3986064039
 30
0.0
 10
6.1785725248
 20
5.3987861065
 30
0.0
 10
6.1799110591
 20
5.3989420313
 30
0.0
 10
6.1808124843
 20
5.3990696264
 30
0.0
 10
6.1813625412
 20
5.3991591279
 30
0.0
 10
6.1818281075
 20
5.3992482173
 30
0.0
 10
6.1822095315
 20
5.3993365026
 30
0.0
 10
6.1825069596
 20
5.3994243868
 30
0.0
 10
6.1827013716
 20
5.3995013345
 30
0.0
 10
6.1828125169
 20
5.399567399
 30
0.0
 10
6.1828784094
 20
5.3996198947
 30
0.0
 10
6.1829110594
 20
5.3996737861
 30
0.0
 10
6.1829110551
 20
5.3997069044
 30
0.0
  0
SPLINE
  5
3E5
100
AcDbEntity
  8
0
100
AcDbSpline
 62
7
  6
CONTINUOUS
 70
0
 71
3
 72
19
 73
15
 74
0
 42
0.0000001
 43
0.0000001
 44
0.0000000001
 40
0.0
 40
0.0
 40
0.0
 40
0.0
 40
0.1718827135
 40
0.3361142793
 40
0.4895061994
 40
0.6290806791
 40
0.6928195102
 40
0.7521138597
 40
0.8066747011
 40
0.8562253909
 40
0.9005379829
 40
0.9393966433
 40
0.9725995005
 40
1.0
 40
1.0
 40
1.0
 40
1.0
 10
5.4962467124
 20
5.3759899386
 30
0.0
 10
5.5355209585
 20
5.3764137211
 30
0.0
 10
5.6123209406
 20
5.3772672159
 30
0.0
 10
5.7241691912
 20
5.3785811813
 30
0.0
 10
5.8286344501
 20
5.3798762702
 30
0.0
 10
5.9101372541
 20
5.3809538378
 30
0.0
 10
5.9701390907
 20
5.3818063276
 30
0.0
 10
6.0107160035
 20
5.3824244484
 30
0.0
 10
6.0480503032
 20
5.3830494922
 30
0.0
 10
6.0819603338
 20
5.3836908718
 30
0.0
 10
6.1122813597
 20
5.3843426328
 30
0.0
 10
6.1388657278
 20
5.3849981905
 30
0.0
 10
6.161584234
 20
5.3856516661
 30
0.0
 10
6.1754245423
 20
5.3861274718
 30
0.0
 10
6.1816809703
 20
5.3863725569
 30
0.0
  0
SPLINE
  5
3E6
100
AcDbEntity
  8
0
100
AcDbSpline
 62
7
  6
CONTINUOUS
 70
0
 71
3
 72
19
 73
15
 74
0
 42
0.0000001
 43
0.0000001
 44
0.0000000001
 40
0.0
 40
0.0
 40
0.0
 40
0.0
 40
0.2317035353
 40
0.43288227
 40
0.6034687356
 40
0.7434071731
 40
0.8526667751
 40
0.9312808595
 40
0.9591672009
 40
0.9702893634
 40
0.9795596188
 40
0.9870223974
 40
0.9927655929
 40
1.0
 40
1.0
 40
1.0
 40
1.0
 10
6.1963861263
 20
5.387024483
 30
0.0
 10
6.1978685278
 20
5.3871003498
 30
0.0
 10
6.2006376582
 20
5.3872496857
 30
0.0
 10
6.2044963605
 20
5.3874872908
 30
0.0
 10
6.2077660132
 20
5.3877227207
 30
0.0
 10
6.2104454568
 20
5.3879548355
 30
0.0
 10
6.2125329371
 20
5.3881840535
 30
0.0
 10
6.2139016054
 20
5.3883843057
 30
0.0
 10
6.2146385637
 20
5.3885430772
 30
0.0
 10
6.2149365443
 20
5.3886270855
 30
0.0
 10
6.2151051813
 20
5.3886843996
 30
0.0
 10
6.215238389
 20
5.3887430038
 30
0.0
 10
6.2153486943
 20
5.3888066022
 30
0.0
 10
6.2154147002
 20
5.3888790763
 30
0.0
 10
6.2154147002
 20
5.3889254214
 30
0.0
  0
SPLINE
  5
3E7
100
AcDbEntity
  8
0
100
AcDbSpline
 62
7
  6
CONTINUOUS
 70
0
 71
3
 72
12
 73
8
 74
0
 42
0.0000001
 43
0.0000001
 44
0.0000000001
 40
0.0
 40
0.0
 40
0.0
 40
0.0
 40
0.0627014378
 40
0.14301145
 40
0.3570319737
 40
0.6426558872
 40
1.0
 40
1.0
 40
1.0
 40
1.0
 10
4.5062513584
 20
5.4290340802
 30
0.0
 10
4.5063731159
 20
5.429074102
 30
0.0
 10
4.506655818
 20
5.4291499332
 30
0.0
 10
4.5073702236
 20
5.4292996673
 30
0.0
 10
4.5085431726
 20
5.4294766203
 30
0.0
 10
4.5102831884
 20
5.4296791487
 30
0.0
 10
4.5115918709
 20
5.429801744
 30
0.0
 10
4.5123195565
 20
5.429865094
 30
0.0
  0
SPLINE
  5
3E8
100
AcDbEntity
  8
0
100
AcDbSpline
 62
7
  6
CONTINUOUS
 70
0
 71
3
 72
61
 73
57
 74
0
 42
0.0000001
 43
0.0000001
 44
0.0000000001
 40
0.0
 40
0.0
 40
0.0
 40
0.0
 40
0.0035025167
 40
0.0081032638
 40
0.0137927817
 40
0.0205557894
 40
0.0283765873
 40
0.0372393939
 40
0.058016083
 40
0.0826944004
 40
0.1110635842
 40
0.1428698729
 40
0.1778320619
 40
0.2156409327
 40
0.2559553527
 40
0.2984202768
 40
0.3426533483
 40
0.3882652164
 40
0.4348494866
 40
0.4819937611
 40
0.5292803145
 40
0.5762881518
 40
0.6226012265
 40
0.6678090472
 40
0.7115097231
 40
0.7533180816
 40
0.7928579061
 40
0.829781881
 40
0.8637549718
 40
0.8795411044
 40
0.8944806193
 40
0.9085388033
 40
0.921683137
 40
0.9338869674
 40
0.9451246215
 40
0.9553704378
 40
0.9645991861
 40
0.9727912063
 40
0.9799308336
 40
0.9831011526
 40
0.9860025653
 40
0.988633153
 40
0.9909910153
 40
0.9930746706
 40
0.9948835458
 40
0.9964172576
 40
0.9976755628
 40
0.998201451
 40
0.998658557
 40
0.9990470136
 40
0.9993670879
 40
0.9996193255
 40
0.9998049557
 40
0.9998737709
 40
0.9999276965
 40
1.0
 40
1.0
 40
1.0
 40
1.0
 10
4.5123195565
 20
5.429865094
 30
0.0
 10
4.5142631448
 20
5.4300342966
 30
0.0
 10
4.5187661437
 20
5.4303504626
 30
0.0
 10
4.5264371642
 20
5.4307753597
 30
0.0
 10
4.5359262722
 20
5.4312087336
 30
0.0
 10
4.5472102112
 20
5.431648472
 30
0.0
 10
4.5602627427
 20
5.4320919275
 30
0.0
 10
4.581119139
 20
5.4327191577
 30
0.0
 10
4.6113652793
 20
5.4334822705
 30
0.0
 10
4.6524770592
 20
5.4343501825
 30
0.0
 10
4.6997340041
 20
5.4351973353
 30
0.0
 10
4.7527201431
 20
5.436032783
 30
0.0
 10
4.8109648011
 20
5.4368732197
 30
0.0
 10
4.8739488402
 20
5.437727765
 30
0.0
 10
4.9411121045
 20
5.438600743
 30
0.0
 10
5.011853765
 20
5.4394929266
 30
0.0
 10
5.0855463656
 20
5.4403869671
 30
0.0
 10
5.1615338155
 20
5.4412668176
 30
0.0
 10
5.239143119
 20
5.4421309298
 30
0.0
 10
5.3176854973
 20
5.4429765487
 30
0.0
 10
5.396463902
 20
5.4438144697
 30
0.0
 10
5.4747791585
 20
5.444665027
 30
0.0
 10
5.5519362498
 20
5.4455353548
 30
0.0
 10
5.6272509237
 20
5.446420566
 30
0.0
 10
5.7000561241
 20
5.447315497
 30
0.0
 10
5.7697040252
 20
5.4482036458
 30
0.0
 10
5.8355772031
 20
5.4490696251
 30
0.0
 10
5.8970858859
 20
5.4499187136
 30
0.0
 10
5.9453640954
 20
5.4506328632
 30
0.0
 10
5.9813973764
 20
5.4512097912
 30
0.0
 10
6.006338846
 20
5.4516343061
 30
0.0
 10
6.0298085022
 20
5.4520631584
 30
0.0
 10
6.0517539642
 20
5.4524980439
 30
0.0
 10
6.0721279337
 20
5.4529374329
 30
0.0
 10
6.0908869171
 20
5.4533800606
 30
0.0
 10
6.1079881971
 20
5.4538245634
 30
0.0
 10
6.1233923799
 20
5.4542697234
 30
0.0
 10
6.1370656014
 20
5.4547139903
 30
0.0
 10
6.1473643978
 20
5.455095241
 30
0.0
 10
6.154716871
 20
5.4554023011
 30
0.0
 10
6.1595591804
 20
5.4556221711
 30
0.0
 10
6.1639485039
 20
5.455840596
 30
0.0
 10
6.1678818005
 20
5.4560573182
 30
0.0
 10
6.1713567327
 20
5.456272146
 30
0.0
 10
6.1743717616
 20
5.4564850137
 30
0.0
 10
6.1769258682
 20
5.4566960041
 30
0.0
 10
6.1787650755
 20
5.4568789382
 30
0.0
 10
6.1800045421
 20
5.4570286476
 30
0.0
 10
6.1807612577
 20
5.4571336516
 30
0.0
 10
6.1814021355
 20
5.4572382146
 30
0.0
 10
6.1819273313
 20
5.4573417145
 30
0.0
 10
6.1823370176
 20
5.457444915
 30
0.0
 10
6.1826049285
 20
5.4575347248
 30
0.0
 10
6.1827593595
 20
5.4576128624
 30
0.0
 10
6.1828479634
 20
5.4576723237
 30
0.0
 10
6.1828963985
 20
5.4577369712
 30
0.0
 10
6.1828964272
 20
5.457777245
 30
0.0
  0
SPLINE
  5
3E9
100
AcDbEntity
  8
0
100
AcDbSpline
 62
7
  6
CONTINUOUS
 70
0
 71
3
 72
18
 73
14
 74
0
 42
0.0000001
 43
0.0000001
 44
0.0000000001
 40
0.0
 40
0.0
 40
0.0
 40
0.0
 40
0.0163503912
 40
0.0388021066
 40
0.0674092073
 40
0.1021915992
 40
0.1431555504
 40
0.1903008413
 40
0.3031177354
 40
0.4405939903
 40
0.6026646843
 40
0.789207708
 40
1.0
 40
1.0
 40
1.0
 40
1.0
 10
4.4737178529
 20
5.4182417467
 30
0.0
 10
4.4738909924
 20
5.4182985253
 30
0.0
 10
4.4743118524
 20
5.4184016263
 30
0.0
 10
4.475050809
 20
5.4185367732
 30
0.0
 10
4.4759978835
 20
5.4186733537
 30
0.0
 10
4.4771526426
 20
5.4188113245
 30
0.0
 10
4.4785151774
 20
5.4189501599
 30
0.0
 10
4.4807455887
 20
5.4191483223
 30
0.0
 10
4.4840515766
 20
5.4193909102
 30
0.0
 10
4.4886385265
 20
5.4196713153
 30
0.0
 10
4.4940482349
 20
5.4199547885
 30
0.0
 10
4.5002757992
 20
5.4202412529
 30
0.0
 10
4.5047000703
 20
5.4204227786
 30
0.0
 10
4.5070473783
 20
5.4205146994
 30
0.0
  0
SPLINE
  5
3EA
100
AcDbEntity
  8
0
100
AcDbSpline
 62
7
  6
CONTINUOUS
 70
0
 71
3
 72
33
 73
29
 74
0
 42
0.0000001
 43
0.0000001
 44
0.0000000001
 40
0.0
 40
0.0
 40
0.0
 40
0.0
 40
0.0131968609
 40
0.0295610594
 40
0.0489909499
 40
0.0713531348
 40
0.0965083705
 40
0.1242906228
 40
0.1545169283
 40
0.1869959335
 40
0.2578395436
 40
0.3349809651
 40
0.4164139555
 40
0.4580799978
 40
0.5000195631
 40
0.5419589525
 40
0.5836244673
 40
0.665055367
 40
0.7421933677
 40
0.8130323143
 40
0.8455085585
 40
0.8757318397
 40
0.9035108243
 40
0.9286625709
 40
0.9510210668
 40
0.9704470932
 40
0.9868072773
 40
1.0
 40
1.0
 40
1.0
 40
1.0
 10
4.5070473783
 20
5.4205146994
 30
0.0
 10
4.5144092264
 20
5.4208029902
 30
0.0
 10
4.5309033642
 20
5.4213573785
 30
0.0
 10
4.5582435172
 20
5.4221112515
 30
0.0
 10
4.5907020818
 20
5.4228660203
 30
0.0
 10
4.6280697491
 20
5.4236126944
 30
0.0
 10
4.6701015156
 20
5.4243388837
 30
0.0
 10
4.7165243996
 20
5.425052317
 30
0.0
 10
4.7670363648
 20
5.4257684162
 30
0.0
 10
4.8415867792
 20
5.4267713736
 30
0.0
 10
4.9423275576
 20
5.4280392535
 30
0.0
 10
5.0703971793
 20
5.42955429
 30
0.0
 10
5.1821797357
 20
5.430795802
 30
0.0
 10
5.2743117256
 20
5.431765149
 30
0.0
 10
5.3443968461
 20
5.4324792308
 30
0.0
 10
5.4144816725
 20
5.4331932684
 30
0.0
 10
5.5066121044
 20
5.4341624205
 30
0.0
 10
5.6183912929
 20
5.4354036101
 30
0.0
 10
5.7464552311
 20
5.4369188696
 30
0.0
 10
5.8471899541
 20
5.4381867584
 30
0.0
 10
5.9217345355
 20
5.4391896556
 30
0.0
 10
5.9722414464
 20
5.4399057401
 30
0.0
 10
6.0186588691
 20
5.4406191815
 30
0.0
 10
6.0606848028
 20
5.4413453909
 30
0.0
 10
6.0980463038
 20
5.4420920875
 30
0.0
 10
6.1304984085
 20
5.442846871
 30
0.0
 10
6.1578318504
 20
5.4436007382
 30
0.0
 10
6.1743214346
 20
5.4441551255
 30
0.0
 10
6.1816809703
 20
5.444443423
 30
0.0
  0
SPLINE
  5
3EB
100
AcDbEntity
  8
0
100
AcDbSpline
 62
7
  6
CONTINUOUS
 70
0
 71
3
 72
19
 73
15
 74
0
 42
0.0000001
 43
0.0000001
 44
0.0000000001
 40
0.0
 40
0.0
 40
0.0
 40
0.0
 40
0.2317035353
 40
0.43288227
 40
0.6034687356
 40
0.7434071731
 40
0.8526667751
 40
0.9312808595
 40
0.9591672009
 40
0.9702893634
 40
0.9795596188
 40
0.9870223974
 40
0.9927655929
 40
1.0
 40
1.0
 40
1.0
 40
1.0
 10
6.1963861263
 20
5.4450953491
 30
0.0
 10
6.1978685278
 20
5.4451712159
 30
0.0
 10
6.2006376582
 20
5.4453205519
 30
0.0
 10
6.2044963605
 20
5.445558157
 30
0.0
 10
6.2077660132
 20
5.4457935869
 30
0.0
 10
6.2104454568
 20
5.4460257017
 30
0.0
 10
6.2125329371
 20
5.4462549196
 30
0.0
 10
6.2139016054
 20
5.4464551718
 30
0.0
 10
6.2146385637
 20
5.4466139433
 30
0.0
 10
6.2149365443
 20
5.4466979516
 30
0.0
 10
6.2151051813
 20
5.4467552658
 30
0.0
 10
6.215238389
 20
5.44681387
 30
0.0
 10
6.2153486943
 20
5.4468774684
 30
0.0
 10
6.2154147002
 20
5.4469499424
 30
0.0
 10
6.2154147002
 20
5.4469962875
 30
0.0
  0
SPLINE
  5
3EC
100
AcDbEntity
  8
0
100
AcDbSpline
 62
7
  6
CONTINUOUS
 70
0
 71
3
 72
12
 73
8
 74
0
 42
0.0000001
 43
0.0000001
 44
0.0000000001
 40
0.0
 40
0.0
 40
0.0
 40
0.0
 40
0.0578369666
 40
0.1346531462
 40
0.3459428846
 40
0.6344414682
 40
1.0
 40
1.0
 40
1.0
 40
1.0
 10
4.5062356843
 20
5.487104082
 30
0.0
 10
4.5063847009
 20
5.4871530953
 30
0.0
 10
4.5067389974
 20
5.4872441911
 30
0.0
 10
4.5076599725
 20
5.4874242218
 30
0.0
 10
4.5092106815
 20
5.4876349176
 30
0.0
 10
4.5115451559
 20
5.4878770413
 30
0.0
 10
4.5133133132
 20
5.488023025
 30
0.0
 10
4.5143019131
 20
5.4880987777
 30
0.0
  0
SPLINE
  5
3ED
100
AcDbEntity
  8
0
100
AcDbSpline
 62
7
  6
CONTINUOUS
 70
0
 71
3
 72
60
 73
56
 74
0
 42
0.0000001
 43
0.0000001
 44
0.0000000001
 40
0.0
 40
0.0
 40
0.0
 40
0.0
 40
0.0039011375
 40
0.0088820635
 40
0.014933636
 40
0.022044779
 40
0.0301976447
 40
0.0393726473
 40
0.0607104449
 40
0.0858799456
 40
0.1146558096
 40
0.1467968849
 40
0.18201613
 40
0.2200090827
 40
0.2604373611
 40
0.3471515404
 40
0.3926773579
 40
0.4391244713
 40
0.4860828511
 40
0.5331403657
 40
0.5798849458
 40
0.6259053511
 40
0.6707999169
 40
0.7141735591
 40
0.7556447349
 40
0.7948507247
 40
0.831441246
 40
0.8651003673
 40
0.8807344145
 40
0.8955253849
 40
0.9094433355
 40
0.9224583955
 40
0.9345407062
 40
0.9456625046
 40
0.9558020275
 40
0.9649385953
 40
0.9730515501
 40
0.9801205444
 40
0.9832585171
 40
0.986130304
 40
0.9887345798
 40
0.9910700361
 40
0.9931353909
 40
0.9949294048
 40
0.9964509113
 40
0.997698883
 40
0.9982200821
 40
0.9986728361
 40
0.999057365
 40
0.9993740226
 40
0.9996234415
 40
0.9998069367
 40
0.9998749664
 40
0.9999283051
 40
1.0
 40
1.0
 40
1.0
 40
1.0
 10
4.5143019131
 20
5.4880987777
 30
0.0
 10
4.5164659821
 20
5.4882646022
 30
0.0
 10
4.5213978598
 20
5.4885791526
 30
0.0
 10
4.5296954275
 20
5.4890043193
 30
0.0
 10
4.5397805694
 20
5.4894363001
 30
0.0
 10
4.5516315152
 20
5.4898745513
 30
0.0
 10
4.5652211083
 20
5.4903164723
 30
0.0
 10
4.5867239113
 20
5.4909394855
 30
0.0
 10
4.6176938571
 20
5.4916970681
 30
0.0
 10
4.6595692588
 20
5.4925527283
 30
0.0
 10
4.7074564018
 20
5.4933963388
 30
0.0
 10
4.7609357097
 20
5.4942272244
 30
0.0
 10
4.8195434908
 20
5.49506085
 30
0.0
 10
4.882762046
 20
5.4959147476
 30
0.0
 10
4.9746280405
 20
5.4971066914
 30
0.0
 10
5.0706854546
 20
5.4982881244
 30
0.0
 10
5.1700920776
 20
5.4994376062
 30
0.0
 10
5.2473823525
 20
5.5002899542
 30
0.0
 10
5.3255249737
 20
5.5011301098
 30
0.0
 10
5.4038331432
 20
5.5019663266
 30
0.0
 10
5.4816193571
 20
5.5028100851
 30
0.0
 10
5.5582018846
 20
5.5036763914
 30
0.0
 10
5.6329086427
 20
5.5045607483
 30
0.0
 10
5.7050841913
 20
5.5054486856
 30
0.0
 10
5.7740947194
 20
5.5063295192
 30
0.0
 10
5.839331326
 20
5.5071939729
 30
0.0
 10
5.9002215962
 20
5.5080342757
 30
0.0
 10
5.9479980813
 20
5.5087429464
 30
0.0
 10
5.9836469
 20
5.5093184482
 30
0.0
 10
6.0083136446
 20
5.5097423685
 30
0.0
 10
6.0315230183
 20
5.5101695727
 30
0.0
 10
6.0532250722
 20
5.5106006037
 30
0.0
 10
6.0733710552
 20
5.5110359965
 30
0.0
 10
6.0919167064
 20
5.5114761994
 30
0.0
 10
6.1088229114
 20
5.5119189826
 30
0.0
 10
6.1240544926
 20
5.512362209
 30
0.0
 10
6.1375770146
 20
5.5128038366
 30
0.0
 10
6.1477624125
 20
5.5131819435
 30
0.0
 10
6.1550324788
 20
5.5134861518
 30
0.0
 10
6.1598199887
 20
5.513704022
 30
0.0
 10
6.1641605699
 20
5.5139206884
 30
0.0
 10
6.1680519455
 20
5.5141360725
 30
0.0
 10
6.1714918419
 20
5.514350064
 30
0.0
 10
6.1744780326
 20
5.5145623929
 30
0.0
 10
6.177008265
 20
5.5147729319
 30
0.0
 10
6.1788301064
 20
5.5149553843
 30
0.0
 10
6.1800572953
 20
5.51510457
 30
0.0
 10
6.1808058823
 20
5.5152091026
 30
0.0
 10
6.1814394785
 20
5.5153131209
 30
0.0
 10
6.181958389
 20
5.5154160202
 30
0.0
 10
6.1823629172
 20
5.5155185585
 30
0.0
 10
6.1826273257
 20
5.5156077782
 30
0.0
 10
6.1827795983
 20
5.515685343
 30
0.0
 10
6.1828670367
 20
5.5157444464
 30
0.0
 10
6.1829146028
 20
5.5158085693
 30
0.0
 10
6.1829146039
 20
5.5158484571
 30
0.0
  0
SPLINE
  5
3EE
100
AcDbEntity
  8
0
100
AcDbSpline
 62
7
  6
CONTINUOUS
 70
0
 71
3
 72
18
 73
14
 74
0
 42
0.0000001
 43
0.0000001
 44
0.0000000001
 40
0.0
 40
0.0
 40
0.0
 40
0.0
 40
0.0163503912
 40
0.0388021066
 40
0.0674092073
 40
0.1021915992
 40
0.1431555504
 40
0.1903008413
 40
0.3031177354
 40
0.4405939903
 40
0.6026646843
 40
0.789207708
 40
1.0
 40
1.0
 40
1.0
 40
1.0
 10
4.4737178529
 20
5.4763126129
 30
0.0
 10
4.4738909924
 20
5.4763693914
 30
0.0
 10
4.4743118524
 20
5.4764724925
 30
0.0
 10
4.475050809
 20
5.4766076393
 30
0.0
 10
4.4759978835
 20
5.4767442199
 30
0.0
 10
4.4771526426
 20
5.4768821906
 30
0.0
 10
4.4785151774
 20
5.477021026
 30
0.0
 10
4.4807455887
 20
5.4772191884
 30
0.0
 10
4.4840515766
 20
5.4774617764
 30
0.0
 10
4.4886385265
 20
5.4777421814
 30
0.0
 10
4.4940482349
 20
5.4780256546
 30
0.0
 10
4.5002757992
 20
5.4783121191
 30
0.0
 10
4.5047000703
 20
5.4784936447
 30
0.0
 10
4.5070473783
 20
5.4785855656
 30
0.0
  0
SPLINE
  5
3EF
100
AcDbEntity
  8
0
100
AcDbSpline
 62
7
  6
CONTINUOUS
 70
0
 71
3
 72
33
 73
29
 74
0
 42
0.0000001
 43
0.0000001
 44
0.0000000001
 40
0.0
 40
0.0
 40
0.0
 40
0.0
 40
0.0131968609
 40
0.0295610594
 40
0.0489909499
 40
0.0713531348
 40
0.0965083705
 40
0.1242906228
 40
0.1545169283
 40
0.1869959335
 40
0.2578395436
 40
0.3349809651
 40
0.4164139555
 40
0.4580799978
 40
0.5000195631
 40
0.5419589525
 40
0.5836244673
 40
0.665055367
 40
0.7421933677
 40
0.8130323143
 40
0.8455085585
 40
0.8757318397
 40
0.9035108243
 40
0.9286625709
 40
0.9510210668
 40
0.9704470932
 40
0.9868072773
 40
1.0
 40
1.0
 40
1.0
 40
1.0
 10
4.5070473783
 20
5.4785855656
 30
0.0
 10
4.5144092264
 20
5.4788738564
 30
0.0
 10
4.5309033642
 20
5.4794282446
 30
0.0
 10
4.5582435172
 20
5.4801821176
 30
0.0
 10
4.5907020818
 20
5.4809368864
 30
0.0
 10
4.6280697491
 20
5.4816835606
 30
0.0
 10
4.6701015156
 20
5.4824097498
 30
0.0
 10
4.7165243996
 20
5.4831231831
 30
0.0
 10
4.7670363648
 20
5.4838392823
 30
0.0
 10
4.8415867792
 20
5.4848422397
 30
0.0
 10
4.9423275576
 20
5.4861101196
 30
0.0
 10
5.0703971793
 20
5.4876251561
 30
0.0
 10
5.1821797357
 20
5.4888666682
 30
0.0
 10
5.2743117256
 20
5.4898360151
 30
0.0
 10
5.3443968461
 20
5.4905500969
 30
0.0
 10
5.4144816725
 20
5.4912641345
 30
0.0
 10
5.5066121044
 20
5.4922332866
 30
0.0
 10
5.6183912929
 20
5.4934744763
 30
0.0
 10
5.7464552311
 20
5.4949897358
 30
0.0
 10
5.8471899541
 20
5.4962576246
 30
0.0
 10
5.9217345355
 20
5.4972605218
 30
0.0
 10
5.9722414464
 20
5.4979766062
 30
0.0
 10
6.0186588691
 20
5.4986900477
 30
0.0
 10
6.0606848028
 20
5.499416257
 30
0.0
 10
6.0980463038
 20
5.5001629537
 30
0.0
 10
6.1304984085
 20
5.5009177371
 30
0.0
 10
6.1578318504
 20
5.5016716043
 30
0.0
 10
6.1743214346
 20
5.5022259916
 30
0.0
 10
6.1816809703
 20
5.5025142892
 30
0.0
  0
SPLINE
  5
3F0
100
AcDbEntity
  8
0
100
AcDbSpline
 62
7
  6
CONTINUOUS
 70
0
 71
3
 72
19
 73
15
 74
0
 42
0.0000001
 43
0.0000001
 44
0.0000000001
 40
0.0
 40
0.0
 40
0.0
 40
0.0
 40
0.2317035353
 40
0.43288227
 40
0.6034687356
 40
0.7434071731
 40
0.8526667751
 40
0.9312808595
 40
0.9591672009
 40
0.9702893634
 40
0.9795596188
 40
0.9870223974
 40
0.9927655929
 40
1.0
 40
1.0
 40
1.0
 40
1.0
 10
6.1963861263
 20
5.5031662152
 30
0.0
 10
6.1978685278
 20
5.503242082
 30
0.0
 10
6.2006376582
 20
5.503391418
 30
0.0
 10
6.2044963605
 20
5.5036290231
 30
0.0
 10
6.2077660132
 20
5.503864453
 30
0.0
 10
6.2104454568
 20
5.5040965678
 30
0.0
 10
6.2125329371
 20
5.5043257858
 30
0.0
 10
6.2139016054
 20
5.504526038
 30
0.0
 10
6.2146385637
 20
5.5046848095
 30
0.0
 10
6.2149365443
 20
5.5047688177
 30
0.0
 10
6.2151051813
 20
5.5048261319
 30
0.0
 10
6.215238389
 20
5.5048847361
 30
0.0
 10
6.2153486943
 20
5.5049483345
 30
0.0
 10
6.2154147002
 20
5.5050208085
 30
0.0
 10
6.2154147002
 20
5.5050671537
 30
0.0
  0
SPLINE
  5
3F1
100
AcDbEntity
  8
0
100
AcDbSpline
 62
9
  6
CONTINUOUS
 70
0
 71
3
 72
12
 73
8
 74
0
 42
0.0000001
 43
0.0000001
 44
0.0000000001
 40
0.0
 40
0.0
 40
0.0
 40
0.0
 40
0.2477777243
 40
0.4978887132
 40
0.6233539655
 40
0.7488366628
 40
1.0
 40
1.0
 40
1.0
 40
1.0
 10
4.2689409122
 20
5.0667170765
 30
0.0
 10
4.2705861635
 20
5.0667170765
 30
0.0
 10
4.2739015204
 20
5.0663329641
 30
0.0
 10
4.2778464205
 20
5.0649741021
 30
0.0
 10
4.2807778589
 20
5.0633867456
 30
0.0
 10
4.283516623
 20
5.0614765758
 30
0.0
 10
4.2853233659
 20
5.0597096794
 30
0.0
 10
4.2863826331
 20
5.058421548
 30
0.0
  0
SPLINE
  5
3F2
100
AcDbEntity
  8
0
100
AcDbSpline
 62
9
  6
CONTINUOUS
 70
0
 71
3
 72
11
 73
7
 74
0
 42
0.0000001
 43
0.0000001
 44
0.0000000001
 40
0.0
 40
0.0
 40
0.0
 40
0.0
 40
0.2492142716
 40
0.4998366845
 40
0.750731469
 40
1.0
 40
1.0
 40
1.0
 40
1.0
 10
4.2863826331
 20
5.058421548
 30
0.0
 10
4.2872345721
 20
5.0573855398
 30
0.0
 10
4.2887652629
 20
5.0551532231
 30
0.0
 10
4.2904362874
 20
5.0514530576
 30
0.0
 10
4.291466595
 20
5.0475273741
 30
0.0
 10
4.291706527
 20
5.0448303323
 30
0.0
 10
4.291706527
 20
5.04348873
 30
0.0
  0
SPLINE
  5
3F3
100
AcDbEntity
  8
0
100
AcDbSpline
 62
7
  6
CONTINUOUS
 70
0
 71
3
 72
36
 73
32
 74
0
 42
0.0000001
 43
0.0000001
 44
0.0000000001
 40
0.0
 40
0.0
 40
0.0
 40
0.0
 40
0.000455529
 40
0.0010666848
 40
0.0018349587
 40
0.0027609883
 40
0.005087196
 40
0.0080459348
 40
0.0116366517
 40
0.0158579865
 40
0.0207058747
 40
0.0261751667
 40
0.0322606541
 40
0.0389570931
 40
0.0541617312
 40
0.0717449484
 40
0.0916454226
 40
0.1137925888
 40
0.1381157468
 40
0.1645391534
 40
0.192969557
 40
0.2233098667
 40
0.2554627822
 40
0.3247698398
 40
0.3999511887
 40
0.4800050048
 40
0.5638605737
 40
0.6503956093
 40
0.738444786
 40
0.8268581334
 40
1.0
 40
1.0
 40
1.0
 40
1.0
 10
4.5062480999
 20
5.5451757671
 30
0.0
 10
4.506406296
 20
5.5452277828
 30
0.0
 10
4.5067849756
 20
5.5453237124
 30
0.0
 10
4.5074438185
 20
5.5454500753
 30
0.0
 10
4.5082771167
 20
5.5455776335
 30
0.0
 10
4.5097351698
 20
5.5457635022
 30
0.0
 10
4.5119949829
 20
5.5459877831
 30
0.0
 10
4.51522947
 20
5.5462456206
 30
0.0
 10
4.5191583961
 20
5.5465066477
 30
0.0
 10
4.5237789747
 20
5.5467711408
 30
0.0
 10
4.5290871453
 20
5.5470383468
 30
0.0
 10
4.5350774465
 20
5.5473077941
 30
0.0
 10
4.5417440613
 20
5.5475790256
 30
0.0
 10
4.5519681002
 20
5.5479587542
 30
0.0
 10
4.5663948267
 20
5.5484286698
 30
0.0
 10
4.5856484797
 20
5.5489733173
 30
0.0
 10
4.6074410355
 20
5.5495169517
 30
0.0
 10
4.6316982756
 20
5.5500569748
 30
0.0
 10
4.6583407756
 20
5.5505904416
 30
0.0
 10
4.6872808268
 20
5.551114894
 30
0.0
 10
4.718420993
 20
5.5516339919
 30
0.0
 10
4.7516560057
 20
5.5521508197
 30
0.0
 10
4.7998331406
 20
5.5528591621
 30
0.0
 10
4.86440199
 20
5.5537450141
 30
0.0
 10
4.9464811245
 20
5.5548133574
 30
0.0
 10
5.0338788527
 20
5.5559094298
 30
0.0
 10
5.1254275596
 20
5.5569980494
 30
0.0
 10
5.2198995854
 20
5.5580647914
 30
0.0
 10
5.3160382324
 20
5.5591015083
 30
0.0
 10
5.4438361822
 20
5.5604591465
 30
0.0
 10
5.53944722
 20
5.56152506
 30
0.0
 10
5.6027383771
 20
5.5622762208
 30
0.0
  0
SPLINE
  5
3F4
100
AcDbEntity
  8
0
100
AcDbSpline
 62
7
  6
CONTINUOUS
 70
0
 71
3
 72
47
 73
43
 74
0
 42
0.0000001
 43
0.0000001
 44
0.0000000001
 40
0.0
 40
0.0
 40
0.0
 40
0.0
 40
0.0002150778
 40
0.0004899984
 40
0.0012212915
 40
0.0021958662
 40
0.0034140999
 40
0.0048759046
 40
0.0065809932
 40
0.0085289798
 40
0.0107194221
 40
0.0158238825
 40
0.0218828199
 40
0.0288834218
 40
0.0368128003
 40
0.0456578886
 40
0.0554018934
 40
0.066023977
 40
0.0775030871
 40
0.1029474087
 40
0.1315408654
 40
0.1630590724
 40
0.19726468
 40
0.2338885652
 40
0.2726527455
 40
0.3132558046
 40
0.3553853648
 40
0.3987175316
 40
0.4429166032
 40
0.5325525053
 40
0.6215338017
 40
0.6649197338
 40
0.7071217148
 40
0.7866824751
 40
0.8234296271
 40
0.8577677464
 40
0.8894375162
 40
0.9181905723
 40
0.9438078159
 40
0.9660917507
 40
0.9848681069
 40
1.0
 40
1.0
 40
1.0
 40
1.0
 10
4.4737176902
 20
5.5343833056
 30
0.0
 10
4.4738337272
 20
5.5344213275
 30
0.0
 10
4.4741027598
 20
5.5344934548
 30
0.0
 10
4.474781463
 20
5.5346359221
 30
0.0
 10
4.4758940405
 20
5.5348044608
 30
0.0
 10
4.4775429404
 20
5.5349973541
 30
0.0
 10
4.4796088101
 20
5.5351921515
 30
0.0
 10
4.4820906392
 20
5.5353891505
 30
0.0
 10
4.4849877969
 20
5.5355877041
 30
0.0
 10
4.4882993567
 20
5.5357878592
 30
0.0
 10
4.4935392424
 20
5.536071436
 30
0.0
 10
4.5011126716
 20
5.5364225509
 30
0.0
 10
4.5114169815
 20
5.5368312573
 30
0.0
 10
4.5233260547
 20
5.5372438032
 30
0.0
 10
4.5368176753
 20
5.537658769
 30
0.0
 10
4.5518674595
 20
5.538074518
 30
0.0
 10
4.5684465276
 20
5.5384897617
 30
0.0
 10
4.5865214914
 20
5.538903344
 30
0.0
 10
4.6135088669
 20
5.5394707375
 30
0.0
 10
4.650698895
 20
5.5401586362
 30
0.0
 10
4.6992658683
 20
5.5409416648
 30
0.0
 10
4.7528075797
 20
5.5417205297
 30
0.0
 10
4.810908826
 20
5.5425045167
 30
0.0
 10
4.8731240536
 20
5.5433017335
 30
0.0
 10
4.9389713508
 20
5.5441215601
 30
0.0
 10
5.007944485
 20
5.5449553948
 30
0.0
 10
5.0795112043
 20
5.5457901717
 30
0.0
 10
5.1531197413
 20
5.546616519
 30
0.0
 10
5.2536981595
 20
5.5477008613
 30
0.0
 10
5.3801925542
 20
5.5489877086
 30
0.0
 10
5.5062250651
 20
5.5502955475
 30
0.0
 10
5.6053282979
 20
5.5513943846
 30
0.0
 10
5.6990828932
 20
5.5524850236
 30
0.0
 10
5.7890679885
 20
5.5535894517
 30
0.0
 10
5.8745880377
 20
5.5546999531
 30
0.0
 10
5.9329205045
 20
5.5554884512
 30
0.0
 10
5.9867141517
 20
5.5562657976
 30
0.0
 10
6.0355560244
 20
5.5570470582
 30
0.0
 10
6.0790682748
 20
5.5578386749
 30
0.0
 10
6.1169151051
 20
5.5586428306
 30
0.0
 10
6.148807092
 20
5.5594595848
 30
0.0
 10
6.1680487054
 20
5.5600671592
 30
0.0
 10
6.1766337469
 20
5.5603851484
 30
0.0
  0
SPLINE
  5
3F5
100
AcDbEntity
  8
0
100
AcDbSpline
 62
7
  6
CONTINUOUS
 70
0
 71
3
 72
12
 73
8
 74
0
 42
0.0000001
 43
0.0000001
 44
0.0000000001
 40
0.0
 40
0.0
 40
0.0
 40
0.0
 40
0.3443088195
 40
0.6261872726
 40
0.8449615946
 40
0.9304845884
 40
1.0
 40
1.0
 40
1.0
 40
1.0
 10
6.1766337469
 20
5.5603851484
 30
0.0
 10
6.1806228367
 20
5.5605329039
 30
0.0
 10
6.187877076
 20
5.5608204738
 30
0.0
 10
6.1976622384
 20
5.5612879411
 30
0.0
 10
6.2044466153
 20
5.5616916619
 30
0.0
 10
6.2087678274
 20
5.5620239834
 30
0.0
 10
6.2105577488
 20
5.5621903399
 30
0.0
 10
6.2113591033
 20
5.5622762208
 30
0.0
  0
SPLINE
  5
3F6
100
AcDbEntity
  8
0
100
AcDbSpline
 62
7
  6
CONTINUOUS
 70
0
 71
3
 72
69
 73
65
 74
0
 42
0.0000001
 43
0.0000001
 44
0.0000000001
 40
0.0
 40
0.0
 40
0.0
 40
0.0
 40
0.0002431729
 40
0.0005580885
 40
0.0014058792
 40
0.0025463894
 40
0.0039796802
 40
0.0057047956
 40
0.0077205526
 40
0.0100256582
 40
0.012618759
 40
0.0186633554
 40
0.0258428202
 40
0.0341402923
 40
0.043533342
 40
0.05399923
 40
0.0655151919
 40
0.0780566386
 40
0.0915921973
 40
0.1215137506
 40
0.1550087416
 40
0.1917570726
 40
0.2314154098
 40
0.2736064166
 40
0.3179303747
 40
0.3639695239
 40
0.4112870016
 40
0.4594390263
 40
0.5079706427
 40
0.5564258202
 40
0.6043489934
 40
0.6512873091
 40
0.6968009952
 40
0.7404566811
 40
0.7818442331
 40
0.8205682641
 40
0.8562633405
 40
0.8728697133
 40
0.8885934061
 40
0.9033990414
 40
0.9172542279
 40
0.9301266065
 40
0.9419839663
 40
0.9527984756
 40
0.9625475132
 40
0.9712087823
 40
0.9787600217
 40
0.9821126899
 40
0.9851809542
 40
0.9879634527
 40
0.9904588402
 40
0.9926657981
 40
0.99458305
 40
0.9962093931
 40
0.9975437627
 40
0.9981012128
 40
0.9985854337
 40
0.998996555
 40
0.9993349383
 40
0.9996012286
 40
0.9997967567
 40
0.9998690008
 40
0.999925375
 40
1.0
 40
1.0
 40
1.0
 40
1.0
 10
4.5062330981
 20
6.1258835551
 30
0.0
 10
4.5063622383
 20
6.1259260421
 30
0.0
 10
4.5066642339
 20
6.12600614
 30
0.0
 10
4.507434248
 20
6.1261643949
 30
0.0
 10
4.5087091375
 20
6.1263510405
 30
0.0
 10
4.51061003
 20
6.1265650314
 30
0.0
 10
4.5130038486
 20
6.1267814654
 30
0.0
 10
4.5158882726
 20
6.1270006271
 30
0.0
 10
4.5192612033
 20
6.1272215514
 30
0.0
 10
4.5231201791
 20
6.1274441497
 30
0.0
 10
4.5292298458
 20
6.1277591825
 30
0.0
 10
4.5380642329
 20
6.1281482959
 30
0.0
 10
4.5500877193
 20
6.1286011677
 30
0.0
 10
4.5639842129
 20
6.1290584767
 30
0.0
 10
4.5797188394
 20
6.1295177801
 30
0.0
 10
4.5972535104
 20
6.1299766056
 30
0.0
 10
4.6165489554
 20
6.1304325411
 30
0.0
 10
4.637561097
 20
6.1308833369
 30
0.0
 10
4.6688619617
 20
6.1314991768
 30
0.0
 10
4.711876814
 20
6.1322487507
 30
0.0
 10
4.7678690245
 20
6.1331099185
 30
0.0
 10
4.8293052641
 20
6.1339749289
 30
0.0
 10
4.8956032861
 20
6.1348631494
 30
0.0
 10
4.966136677
 20
6.1357723225
 30
0.0
 10
5.0402375216
 20
6.1366916466
 30
0.0
 10
5.1172046253
 20
6.1376102342
 30
0.0
 10
5.1963122192
 20
6.1385116226
 30
0.0
 10
5.2768136306
 20
6.1393879816
 30
0.0
 10
5.357951228
 20
6.1402549547
 30
0.0
 10
5.4389608474
 20
6.1411245113
 30
0.0
 10
5.5190795096
 20
6.1420075205
 30
0.0
 10
5.597553288
 20
6.1429163377
 30
0.0
 10
5.6736409449
 20
6.1438373291
 30
0.0
 10
5.7466251756
 20
6.1447538551
 30
0.0
 10
5.8158134006
 20
6.1456569336
 30
0.0
 10
5.8805510273
 20
6.1465370287
 30
0.0
 10
5.9314350237
 20
6.1472714925
 30
0.0
 10
5.9694609621
 20
6.1478651769
 30
0.0
 10
5.9958093191
 20
6.1483027036
 30
0.0
 10
6.0206192902
 20
6.1487439825
 30
0.0
 10
6.0438348452
 20
6.1491891898
 30
0.0
 10
6.0654017096
 20
6.1496385358
 30
0.0
 10
6.0852681309
 20
6.1500925787
 30
0.0
 10
6.1033878002
 20
6.1505506333
 30
0.0
 10
6.1197199806
 20
6.1510099837
 30
0.0
 10
6.134226999
 20
6.1514683626
 30
0.0
 10
6.1451582255
 20
6.1518612948
 30
0.0
 10
6.1529632161
 20
6.1521772667
 30
0.0
 10
6.1581035836
 20
6.1524034492
 30
0.0
 10
6.1627642318
 20
6.1526282873
 30
0.0
 10
6.1669428107
 20
6.1528517281
 30
0.0
 10
6.1706369738
 20
6.1530736887
 30
0.0
 10
6.1738444216
 20
6.1532939206
 30
0.0
 10
6.1765628287
 20
6.1535123224
 30
0.0
 10
6.1785207585
 20
6.153701623
 30
0.0
 10
6.1798401195
 20
6.1538564312
 30
0.0
 10
6.1806451031
 20
6.153964903
 30
0.0
 10
6.181326426
 20
6.1540728339
 30
0.0
 10
6.1818843336
 20
6.1541795513
 30
0.0
 10
6.1823192209
 20
6.1542859179
 30
0.0
 10
6.1826034091
 20
6.1543783173
 30
0.0
 10
6.1827673533
 20
6.1544588741
 30
0.0
 10
6.1828607314
 20
6.1545196346
 30
0.0
 10
6.1829126781
 20
6.1545863618
 30
0.0
 10
6.1829126917
 20
6.1546280821
 30
0.0
  0
SPLINE
  5
3F7
100
AcDbEntity
  8
0
100
AcDbSpline
 62
7
  6
CONTINUOUS
 70
0
 71
3
 72
18
 73
14
 74
0
 42
0.0000001
 43
0.0000001
 44
0.0000000001
 40
0.0
 40
0.0
 40
0.0
 40
0.0
 40
0.0163503912
 40
0.0388021066
 40
0.0674092073
 40
0.1021915992
 40
0.1431555504
 40
0.1903008413
 40
0.3031177354
 40
0.4405939903
 40
0.6026646843
 40
0.789207708
 40
1.0
 40
1.0
 40
1.0
 40
1.0
 10
4.4737178529
 20
6.1150921404
 30
0.0
 10
4.4738909924
 20
6.115148919
 30
0.0
 10
4.4743118524
 20
6.11525202
 30
0.0
 10
4.475050809
 20
6.1153871669
 30
0.0
 10
4.4759978835
 20
6.1155237474
 30
0.0
 10
4.4771526426
 20
6.1156617182
 30
0.0
 10
4.4785151774
 20
6.1158005536
 30
0.0
 10
4.4807455887
 20
6.115998716
 30
0.0
 10
4.4840515766
 20
6.1162413039
 30
0.0
 10
4.4886385265
 20
6.116521709
 30
0.0
 10
4.4940482349
 20
6.1168051822
 30
0.0
 10
4.5002757992
 20
6.1170916466
 30
0.0
 10
4.5047000703
 20
6.1172731723
 30
0.0
 10
4.5070473783
 20
6.1173650931
 30
0.0
  0
SPLINE
  5
3F8
100
AcDbEntity
  8
0
100
AcDbSpline
 62
7
  6
CONTINUOUS
 70
0
 71
3
 72
33
 73
29
 74
0
 42
0.0000001
 43
0.0000001
 44
0.0000000001
 40
0.0
 40
0.0
 40
0.0
 40
0.0
 40
0.0131968609
 40
0.0295610594
 40
0.0489909499
 40
0.0713531348
 40
0.0965083705
 40
0.1242906228
 40
0.1545169283
 40
0.1869959335
 40
0.2578395436
 40
0.3349809651
 40
0.4164139555
 40
0.4580799978
 40
0.5000195631
 40
0.5419589525
 40
0.5836244673
 40
0.665055367
 40
0.7421933677
 40
0.8130323143
 40
0.8455085585
 40
0.8757318397
 40
0.9035108243
 40
0.9286625709
 40
0.9510210668
 40
0.9704470932
 40
0.9868072773
 40
1.0
 40
1.0
 40
1.0
 40
1.0
 10
4.5070473783
 20
6.1173650931
 30
0.0
 10
4.5144092264
 20
6.1176533839
 30
0.0
 10
4.5309033642
 20
6.1182077722
 30
0.0
 10
4.5582435172
 20
6.1189616452
 30
0.0
 10
4.5907020818
 20
6.119716414
 30
0.0
 10
4.6280697491
 20
6.1204630881
 30
0.0
 10
4.6701015156
 20
6.1211892774
 30
0.0
 10
4.7165243996
 20
6.1219027107
 30
0.0
 10
4.7670363648
 20
6.1226188099
 30
0.0
 10
4.8415867792
 20
6.1236217673
 30
0.0
 10
4.9423275576
 20
6.1248896472
 30
0.0
 10
5.0703971793
 20
6.1264046837
 30
0.0
 10
5.1821797357
 20
6.1276461957
 30
0.0
 10
5.2743117256
 20
6.1286155427
 30
0.0
 10
5.3443968461
 20
6.1293296245
 30
0.0
 10
5.4144816725
 20
6.1300436621
 30
0.0
 10
5.5066121044
 20
6.1310128142
 30
0.0
 10
5.6183912929
 20
6.1322540038
 30
0.0
 10
5.7464552311
 20
6.1337692633
 30
0.0
 10
5.8471899541
 20
6.1350371521
 30
0.0
 10
5.9217345355
 20
6.1360400493
 30
0.0
 10
5.9722414464
 20
6.1367561338
 30
0.0
 10
6.0186588691
 20
6.1374695752
 30
0.0
 10
6.0606848028
 20
6.1381957846
 30
0.0
 10
6.0980463038
 20
6.1389424812
 30
0.0
 10
6.1304984085
 20
6.1396972647
 30
0.0
 10
6.1578318504
 20
6.1404511319
 30
0.0
 10
6.1743214346
 20
6.1410055192
 30
0.0
 10
6.1816809703
 20
6.1412938167
 30
0.0
  0
SPLINE
  5
3F9
100
AcDbEntity
  8
0
100
AcDbSpline
 62
7
  6
CONTINUOUS
 70
0
 71
3
 72
19
 73
15
 74
0
 42
0.0000001
 43
0.0000001
 44
0.0000000001
 40
0.0
 40
0.0
 40
0.0
 40
0.0
 40
0.2317035353
 40
0.43288227
 40
0.6034687356
 40
0.7434071731
 40
0.8526667751
 40
0.9312808595
 40
0.9591672009
 40
0.9702893634
 40
0.9795596188
 40
0.9870223974
 40
0.9927655929
 40
1.0
 40
1.0
 40
1.0
 40
1.0
 10
6.1963861263
 20
6.1419457428
 30
0.0
 10
6.1978685278
 20
6.1420216096
 30
0.0
 10
6.2006376582
 20
6.1421709456
 30
0.0
 10
6.2044963605
 20
6.1424085507
 30
0.0
 10
6.2077660132
 20
6.1426439806
 30
0.0
 10
6.2104454568
 20
6.1428760954
 30
0.0
 10
6.2125329371
 20
6.1431053133
 30
0.0
 10
6.2139016054
 20
6.1433055655
 30
0.0
 10
6.2146385637
 20
6.143464337
 30
0.0
 10
6.2149365443
 20
6.1435483453
 30
0.0
 10
6.2151051813
 20
6.1436056595
 30
0.0
 10
6.215238389
 20
6.1436642637
 30
0.0
 10
6.2153486943
 20
6.1437278621
 30
0.0
 10
6.2154147002
 20
6.1438003361
 30
0.0
 10
6.2154147002
 20
6.1438466812
 30
0.0
  0
SPLINE
  5
3FA
100
AcDbEntity
  8
0
100
AcDbSpline
 62
9
  6
CONTINUOUS
 70
0
 71
3
 72
17
 73
13
 74
0
 42
0.0000001
 43
0.0000001
 44
0.0000000001
 40
0.0
 40
0.0
 40
0.0
 40
0.0
 40
0.1231091201
 40
0.2473580635
 40
0.3097134835
 40
0.3720693597
 40
0.4967763686
 40
0.6219745613
 40
0.6849285609
 40
0.7480908793
 40
0.8744387242
 40
1.0
 40
1.0
 40
1.0
 40
1.0
 10
4.4846852438
 20
5.0667170765
 30
0.0
 10
4.4861655191
 20
5.0667170765
 30
0.0
 10
4.4891467914
 20
5.0664062504
 30
0.0
 10
4.4927281345
 20
5.065300303
 30
0.0
 10
4.4954327061
 20
5.0640067767
 30
0.0
 10
4.4979977814
 20
5.0624441121
 30
0.0
 10
4.5008948338
 20
5.0600148987
 30
0.0
 10
4.5032683318
 20
5.0570634203
 30
0.0
 10
4.504796286
 20
5.0544512927
 30
0.0
 10
4.50606493
 20
5.0516886704
 30
0.0
 10
4.5071472782
 20
5.0480340837
 30
0.0
 10
4.5074508587
 20
5.0449984902
 30
0.0
 10
4.5074508587
 20
5.04348873
 30
0.0
  0
SPLINE
  5
3FB
100
AcDbEntity
  8
0
100
AcDbSpline
 62
9
  6
CONTINUOUS
 70
0
 71
3
 72
16
 73
12
 74
0
 42
0.0000001
 43
0.0000001
 44
0.0000000001
 40
0.0
 40
0.0
 40
0.0
 40
0.0
 40
0.0986731921
 40
0.2026499169
 40
0.2575672036
 40
0.3146921737
 40
0.4359967586
 40
0.5669390012
 40
0.7066081761
 40
0.8523072626
 40
1.0
 40
1.0
 40
1.0
 40
1.0
 10
6.3742312742
 20
4.8390792812
 30
0.0
 10
6.3752373245
 20
4.8390792812
 30
0.0
 10
6.3773130607
 20
4.8394070157
 30
0.0
 10
6.3797195744
 20
4.8405313931
 30
0.0
 10
6.3815175551
 20
4.8418107308
 30
0.0
 10
6.3832842614
 20
4.8434117329
 30
0.0
 10
6.3852578704
 20
4.8459010958
 30
0.0
 10
6.3871549065
 20
4.8494379342
 30
0.0
 10
6.3885497476
 20
4.8534639022
 30
0.0
 10
6.3894085678
 20
4.8578070953
 30
0.0
 10
6.389609347
 20
4.8608017849
 30
0.0
 10
6.389609347
 20
4.8623076277
 30
0.0
  0
SPLINE
  5
3FC
100
AcDbEntity
  8
0
100
AcDbSpline
 62
7
  6
CONTINUOUS
 70
0
 71
3
 72
12
 73
8
 74
0
 42
0.0000001
 43
0.0000001
 44
0.0000000001
 40
0.0
 40
0.0
 40
0.0
 40
0.0
 40
0.0590792842
 40
0.1368092827
 40
0.3488023243
 40
0.6365188539
 40
1.0
 40
1.0
 40
1.0
 40
1.0
 10
4.5062532072
 20
6.1839552152
 30
0.0
 10
4.5063955351
 20
6.1840019827
 30
0.0
 10
4.5067318407
 20
6.184089322
 30
0.0
 10
4.5075994955
 20
6.1842617496
 30
0.0
 10
4.5090507324
 20
6.1844639086
 30
0.0
 10
4.5112272772
 20
6.1846957537
 30
0.0
 10
4.5128728411
 20
6.1848355994
 30
0.0
 10
4.5137917102
 20
6.1849080945
 30
0.0
  0
SPLINE
  5
3FD
100
AcDbEntity
  8
0
100
AcDbSpline
 62
7
  6
CONTINUOUS
 70
0
 71
3
 72
60
 73
56
 74
0
 42
0.0000001
 43
0.0000001
 44
0.0000000001
 40
0.0
 40
0.0
 40
0.0
 40
0.0
 40
0.0037981278
 40
0.0086831767
 40
0.0146449953
 40
0.0216678818
 40
0.0297357656
 40
0.0388325086
 40
0.0600363389
 40
0.0850856873
 40
0.1137682062
 40
0.1458303669
 40
0.1809905785
 40
0.2189408796
 40
0.2593404624
 40
0.3460498786
 40
0.3915960527
 40
0.4380741205
 40
0.4850775396
 40
0.5321929319
 40
0.579002598
 40
0.6250947597
 40
0.6700652207
 40
0.7135171359
 40
0.7550716042
 40
0.7943575343
 40
0.8310333062
 40
0.8647707096
 40
0.8804441384
 40
0.8952758202
 40
0.9092322343
 40
0.922280443
 40
0.9343930179
 40
0.9455456033
 40
0.9557138872
 40
0.9648735812
 40
0.9730030181
 40
0.9800869529
 40
0.9832324156
 40
0.9861111819
 40
0.9887214961
 40
0.9910616189
 40
0.99312984
 40
0.9949249315
 40
0.9964465731
 40
0.9976946768
 40
0.9982162137
 40
0.9986694938
 40
0.9990546696
 40
0.9993720274
 40
0.9996221326
 40
0.9998062326
 40
0.9998745131
 40
0.9999280569
 40
1.0
 40
1.0
 40
1.0
 40
1.0
 10
4.5137917102
 20
6.1849080945
 30
0.0
 10
4.5158988978
 20
6.1850743431
 30
0.0
 10
4.5207213749
 20
6.1853888354
 30
0.0
 10
4.5288605629
 20
6.1858142991
 30
0.0
 10
4.5387961093
 20
6.1862477116
 30
0.0
 10
4.550504117
 20
6.186686795
 30
0.0
 10
4.5639577339
 20
6.1871290834
 30
0.0
 10
4.5853014941
 20
6.187752573
 30
0.0
 10
4.6160956715
 20
6.188510602
 30
0.0
 10
4.6577900671
 20
6.1893728338
 30
0.0
 10
4.7055288226
 20
6.1902150114
 30
0.0
 10
4.7588953996
 20
6.1910461365
 30
0.0
 10
4.8174201528
 20
6.1918837963
 30
0.0
 10
4.8805850774
 20
6.1927370952
 30
0.0
 10
4.9724362411
 20
6.1939268546
 30
0.0
 10
5.0685150504
 20
6.1951139843
 30
0.0
 10
5.1679773664
 20
6.1962610811
 30
0.0
 10
5.2453443351
 20
6.1971195331
 30
0.0
 10
5.3235848458
 20
6.1979606603
 30
0.0
 10
5.4020099777
 20
6.1987952159
 30
0.0
 10
5.4799278083
 20
6.1996428178
 30
0.0
 10
5.5566516386
 20
6.2005111295
 30
0.0
 10
5.6315065279
 20
6.2013932899
 30
0.0
 10
5.703835813
 20
6.2022839326
 30
0.0
 10
5.7730013729
 20
6.2031679812
 30
0.0
 10
5.8383958488
 20
6.2040293532
 30
0.0
 10
5.8994398128
 20
6.2048731151
 30
0.0
 10
5.9473434964
 20
6.2055846241
 30
0.0
 10
5.9830911463
 20
6.2061596331
 30
0.0
 10
6.0078312815
 20
6.2065825933
 30
0.0
 10
6.0311101345
 20
6.207009344
 30
0.0
 10
6.0528753641
 20
6.2074419644
 30
0.0
 10
6.0730797647
 20
6.2078797379
 30
0.0
 10
6.0916809433
 20
6.2083208756
 30
0.0
 10
6.1086382324
 20
6.2087638511
 30
0.0
 10
6.1239124431
 20
6.2092070298
 30
0.0
 10
6.1374693806
 20
6.2096489979
 30
0.0
 10
6.1476794622
 20
6.2100282249
 30
0.0
 10
6.1549680355
 20
6.2103337406
 30
0.0
 10
6.1597683618
 20
6.2105525855
 30
0.0
 10
6.1641200567
 20
6.2107701051
 30
0.0
 10
6.1680201317
 20
6.2109860806
 30
0.0
 10
6.1714658503
 20
6.2112002605
 30
0.0
 10
6.1744552311
 20
6.2114123512
 30
0.0
 10
6.1769870125
 20
6.2116224579
 30
0.0
 10
6.1788097786
 20
6.2118045515
 30
0.0
 10
6.1800379231
 20
6.2119535346
 30
0.0
 10
6.1807875952
 20
6.2120580103
 30
0.0
 10
6.1814224415
 20
6.212162037
 30
0.0
 10
6.1819426522
 20
6.2122650052
 30
0.0
 10
6.1823484237
 20
6.2123676673
 30
0.0
 10
6.1826137708
 20
6.2124570309
 30
0.0
 10
6.1827666942
 20
6.2125347467
 30
0.0
 10
6.1828545372
 20
6.212593977
 30
0.0
 10
6.1829024372
 20
6.2126582426
 30
0.0
 10
6.1829025069
 20
6.2126982804
 30
0.0
  0
SPLINE
  5
3FE
100
AcDbEntity
  8
0
100
AcDbSpline
 62
7
  6
CONTINUOUS
 70
0
 71
3
 72
18
 73
14
 74
0
 42
0.0000001
 43
0.0000001
 44
0.0000000001
 40
0.0
 40
0.0
 40
0.0
 40
0.0
 40
0.0163503912
 40
0.0388021066
 40
0.0674092073
 40
0.1021915992
 40
0.1431555504
 40
0.1903008413
 40
0.3031177354
 40
0.4405939903
 40
0.6026646843
 40
0.789207708
 40
1.0
 40
1.0
 40
1.0
 40
1.0
 10
4.4737178529
 20
6.1731630066
 30
0.0
 10
4.4738909924
 20
6.1732197851
 30
0.0
 10
4.4743118524
 20
6.1733228862
 30
0.0
 10
4.475050809
 20
6.173458033
 30
0.0
 10
4.4759978835
 20
6.1735946136
 30
0.0
 10
4.4771526426
 20
6.1737325843
 30
0.0
 10
4.4785151774
 20
6.1738714197
 30
0.0
 10
4.4807455887
 20
6.1740695821
 30
0.0
 10
4.4840515766
 20
6.1743121701
 30
0.0
 10
4.4886385265
 20
6.1745925751
 30
0.0
 10
4.4940482349
 20
6.1748760484
 30
0.0
 10
4.5002757992
 20
6.1751625128
 30
0.0
 10
4.5047000703
 20
6.1753440384
 30
0.0
 10
4.5070473783
 20
6.1754359593
 30
0.0
  0
SPLINE
  5
3FF
100
AcDbEntity
  8
0
100
AcDbSpline
 62
7
  6
CONTINUOUS
 70
0
 71
3
 72
33
 73
29
 74
0
 42
0.0000001
 43
0.0000001
 44
0.0000000001
 40
0.0
 40
0.0
 40
0.0
 40
0.0
 40
0.0131968609
 40
0.0295610594
 40
0.0489909499
 40
0.0713531348
 40
0.0965083705
 40
0.1242906228
 40
0.1545169283
 40
0.1869959335
 40
0.2578395436
 40
0.3349809651
 40
0.4164139555
 40
0.4580799978
 40
0.5000195631
 40
0.5419589525
 40
0.5836244673
 40
0.665055367
 40
0.7421933677
 40
0.8130323143
 40
0.8455085585
 40
0.8757318397
 40
0.9035108243
 40
0.9286625709
 40
0.9510210668
 40
0.9704470932
 40
0.9868072773
 40
1.0
 40
1.0
 40
1.0
 40
1.0
 10
4.5070473783
 20
6.1754359593
 30
0.0
 10
4.5144092264
 20
6.1757242501
 30
0.0
 10
4.5309033642
 20
6.1762786383
 30
0.0
 10
4.5582435172
 20
6.1770325113
 30
0.0
 10
4.5907020818
 20
6.1777872801
 30
0.0
 10
4.6280697491
 20
6.1785339543
 30
0.0
 10
4.6701015156
 20
6.1792601435
 30
0.0
 10
4.7165243996
 20
6.1799735768
 30
0.0
 10
4.7670363648
 20
6.180689676
 30
0.0
 10
4.8415867792
 20
6.1816926334
 30
0.0
 10
4.9423275576
 20
6.1829605133
 30
0.0
 10
5.0703971793
 20
6.1844755498
 30
0.0
 10
5.1821797357
 20
6.1857170619
 30
0.0
 10
5.2743117256
 20
6.1866864088
 30
0.0
 10
5.3443968461
 20
6.1874004906
 30
0.0
 10
5.4144816725
 20
6.1881145282
 30
0.0
 10
5.5066121044
 20
6.1890836803
 30
0.0
 10
5.6183912929
 20
6.19032487
 30
0.0
 10
5.7464552311
 20
6.1918401295
 30
0.0
 10
5.8471899541
 20
6.1931080183
 30
0.0
 10
5.9217345355
 20
6.1941109155
 30
0.0
 10
5.9722414464
 20
6.1948269999
 30
0.0
 10
6.0186588691
 20
6.1955404414
 30
0.0
 10
6.0606848028
 20
6.1962666507
 30
0.0
 10
6.0980463038
 20
6.1970133474
 30
0.0
 10
6.1304984085
 20
6.1977681308
 30
0.0
 10
6.1578318504
 20
6.198521998
 30
0.0
 10
6.1743214346
 20
6.1990763853
 30
0.0
 10
6.1816809703
 20
6.1993646829
 30
0.0
  0
SPLINE
  5
400
100
AcDbEntity
  8
0
100
AcDbSpline
 62
7
  6
CONTINUOUS
 70
0
 71
3
 72
19
 73
15
 74
0
 42
0.0000001
 43
0.0000001
 44
0.0000000001
 40
0.0
 40
0.0
 40
0.0
 40
0.0
 40
0.2317035353
 40
0.43288227
 40
0.6034687356
 40
0.7434071731
 40
0.8526667751
 40
0.9312808595
 40
0.9591672009
 40
0.9702893634
 40
0.9795596188
 40
0.9870223974
 40
0.9927655929
 40
1.0
 40
1.0
 40
1.0
 40
1.0
 10
6.1963861263
 20
6.2000166089
 30
0.0
 10
6.1978685278
 20
6.2000924757
 30
0.0
 10
6.2006376582
 20
6.2002418117
 30
0.0
 10
6.2044963605
 20
6.2004794168
 30
0.0
 10
6.2077660132
 20
6.2007148467
 30
0.0
 10
6.2104454568
 20
6.2009469615
 30
0.0
 10
6.2125329371
 20
6.2011761795
 30
0.0
 10
6.2139016054
 20
6.2013764317
 30
0.0
 10
6.2146385637
 20
6.2015352032
 30
0.0
 10
6.2149365443
 20
6.2016192114
 30
0.0
 10
6.2151051813
 20
6.2016765256
 30
0.0
 10
6.215238389
 20
6.2017351298
 30
0.0
 10
6.2153486943
 20
6.2017987282
 30
0.0
 10
6.2154147002
 20
6.2018712022
 30
0.0
 10
6.2154147002
 20
6.2019175474
 30
0.0
  0
SPLINE
  5
401
100
AcDbEntity
  8
0
100
AcDbSpline
 62
9
  6
CONTINUOUS
 70
0
 71
3
 72
19
 73
15
 74
0
 42
0.0000001
 43
0.0000001
 44
0.0000000001
 40
0.0
 40
0.0
 40
0.0
 40
0.0
 40
0.0283345599
 40
0.0591514344
 40
0.0940887385
 40
0.1341432687
 40
0.179866052
 40
0.2315247998
 40
0.2890780007
 40
0.3522587252
 40
0.4939816892
 40
0.6532291838
 40
0.8242790717
 40
1.0
 40
1.0
 40
1.0
 40
1.0
 10
4.515441389
 20
5.0667170765
 30
0.0
 10
4.5156837937
 20
5.0667170765
 30
0.0
 10
4.5161923776
 20
5.0666318256
 30
0.0
 10
4.5169223722
 20
5.0662734057
 30
0.0
 10
4.5176304451
 20
5.0657002449
 30
0.0
 10
4.5183137021
 20
5.0649208984
 30
0.0
 10
4.518968012
 20
5.0639408098
 30
0.0
 10
4.5195856388
 20
5.0627658814
 30
0.0
 10
4.5201624626
 20
5.0614070729
 30
0.0
 10
4.5209002756
 20
5.059285043
 30
0.0
 10
4.5216690398
 20
5.0562601265
 30
0.0
 10
4.5223270478
 20
5.0522722819
 30
0.0
 10
4.5227339094
 20
5.0479594425
 30
0.0
 10
4.522828931
 20
5.0449920385
 30
0.0
 10
4.522828931
 20
5.04348873
 30
0.0
  0
SPLINE
  5
402
100
AcDbEntity
  8
0
100
AcDbSpline
 62
7
  6
CONTINUOUS
 70
0
 71
3
 72
69
 73
65
 74
0
 42
0.0000001
 43
0.0000001
 44
0.0000000001
 40
0.0
 40
0.0
 40
0.0
 40
0.0
 40
0.0002430847
 40
0.000557851
 40
0.0014051026
 40
0.0025447864
 40
0.0039774975
 40
0.0057023067
 40
0.0077179459
 40
0.0100230375
 40
0.0126161438
 40
0.0186604727
 40
0.025838898
 40
0.0341355878
 40
0.0435282099
 40
0.0539937266
 40
0.0655090748
 40
0.0780499972
 40
0.0915855357
 40
0.1215071262
 40
0.1550016006
 40
0.1917498377
 40
0.23140703
 40
0.2735972827
 40
0.3179197998
 40
0.3639579619
 40
0.4112748482
 40
0.4594270859
 40
0.5079597252
 40
0.5564161892
 40
0.6043398998
 40
0.6512766937
 40
0.6967883287
 40
0.7404445959
 40
0.7818351492
 40
0.8205640383
 40
0.8562629408
 40
0.8728712815
 40
0.8885968854
 40
0.9034030357
 40
0.9172579173
 40
0.9301299511
 40
0.9419875727
 40
0.9528016034
 40
0.9625494053
 40
0.9712094751
 40
0.9787603448
 40
0.9821131582
 40
0.9851812861
 40
0.9879634261
 40
0.990458338
 40
0.9926648082
 40
0.9945816659
 40
0.9962078135
 40
0.9975422923
 40
0.9980999446
 40
0.9985844796
 40
0.9989959412
 40
0.9993345796
 40
0.9996010429
 40
0.9997966767
 40
0.9998689534
 40
0.9999253495
 40
1.0
 40
1.0
 40
1.0
 40
1.0
 10
4.5062314395
 20
6.2420253841
 30
0.0
 10
4.5063605349
 20
6.242067849
 30
0.0
 10
4.5066624045
 20
6.2421479016
 30
0.0
 10
4.5074319966
 20
6.2423060487
 30
0.0
 10
4.5087060484
 20
6.2424925543
 30
0.0
 10
4.510605861
 20
6.2427063992
 30
0.0
 10
4.5129987232
 20
6.2429227475
 30
0.0
 10
4.5158825812
 20
6.2431419115
 30
0.0
 10
4.5192552585
 20
6.2433629017
 30
0.0
 10
4.5231141535
 20
6.2435856046
 30
0.0
 10
4.529223651
 20
6.243900796
 30
0.0
 10
4.5380572941
 20
6.244290062
 30
0.0
 10
4.5500796026
 20
6.244742849
 30
0.0
 10
4.563974827
 20
6.2452000439
 30
0.0
 10
4.5797085546
 20
6.2456592784
 30
0.0
 10
4.5972424174
 20
6.2461180926
 30
0.0
 10
4.6165369948
 20
6.2465741637
 30
0.0
 10
4.6375484652
 20
6.2470250333
 30
0.0
 10
4.6688490177
 20
6.2476406604
 30
0.0
 10
4.7118635496
 20
6.2483899703
 30
0.0
 10
4.7678553736
 20
6.2492515883
 30
0.0
 10
4.8292905678
 20
6.2501165793
 30
0.0
 10
4.8955874134
 20
6.2510042314
 30
0.0
 10
4.9661188566
 20
6.2519138766
 30
0.0
 10
5.0402178442
 20
6.2528332072
 30
0.0
 10
5.1171831826
 20
6.2537514689
 30
0.0
 10
5.1962899241
 20
6.2546533702
 30
0.0
 10
5.2767916128
 20
6.2555296018
 30
0.0
 10
5.3579305388
 20
6.2563962287
 30
0.0
 10
5.4389416593
 20
6.2572663017
 30
0.0
 10
5.5190604054
 20
6.2581493731
 30
0.0
 10
5.5975324111
 20
6.2590575953
 30
0.0
 10
5.673618312
 20
6.2599788797
 30
0.0
 10
5.7466033229
 20
6.2608953426
 30
0.0
 10
5.8157962008
 20
6.261797946
 30
0.0
 10
5.8805402836
 20
6.2626787403
 30
0.0
 10
5.9314301819
 20
6.2634132307
 30
0.0
 10
5.9694603915
 20
6.2640067209
 30
0.0
 10
5.9958111812
 20
6.2644440353
 30
0.0
 10
6.0206223076
 20
6.2648855931
 30
0.0
 10
6.0438377561
 20
6.2653311561
 30
0.0
 10
6.0654043748
 20
6.2657807809
 30
0.0
 10
6.085270468
 20
6.2662345128
 30
0.0
 10
6.1033893124
 20
6.2666923201
 30
0.0
 10
6.1197198477
 20
6.2671516229
 30
0.0
 10
6.1342252793
 20
6.2676100943
 30
0.0
 10
6.1451556906
 20
6.2680032281
 30
0.0
 10
6.1529604639
 20
6.2683193758
 30
0.0
 10
6.1581006301
 20
6.2685455609
 30
0.0
 10
6.1627607341
 20
6.268770316
 30
0.0
 10
6.1669385761
 20
6.2689936151
 30
0.0
 10
6.1706319849
 20
6.2692154098
 30
0.0
 10
6.1738388362
 20
6.2694354854
 30
0.0
 10
6.1765569801
 20
6.2696537741
 30
0.0
 10
6.1785149772
 20
6.2698430315
 30
0.0
 10
6.1798346875
 20
6.2699978529
 30
0.0
 10
6.1806401475
 20
6.2701063688
 30
0.0
 10
6.1813219758
 20
6.2702143542
 30
0.0
 10
6.181880308
 20
6.2703211361
 30
0.0
 10
6.1823154868
 20
6.2704275656
 30
0.0
 10
6.1825998415
 20
6.2705200167
 30
0.0
 10
6.1827638646
 20
6.2706006176
 30
0.0
 10
6.182857277
 20
6.2706614058
 30
0.0
 10
6.1829092334
 20
6.2707281673
 30
0.0
 10
6.1829092384
 20
6.2707699018
 30
0.0
  0
SPLINE
  5
403
100
AcDbEntity
  8
0
100
AcDbSpline
 62
7
  6
CONTINUOUS
 70
0
 71
3
 72
18
 73
14
 74
0
 42
0.0000001
 43
0.0000001
 44
0.0000000001
 40
0.0
 40
0.0
 40
0.0
 40
0.0
 40
0.0163503912
 40
0.0388021066
 40
0.0674092073
 40
0.1021915992
 40
0.1431555504
 40
0.1903008413
 40
0.3031177354
 40
0.4405939903
 40
0.6026646843
 40
0.789207708
 40
1.0
 40
1.0
 40
1.0
 40
1.0
 10
4.4737178529
 20
6.2312338727
 30
0.0
 10
4.4738909924
 20
6.2312906513
 30
0.0
 10
4.4743118524
 20
6.2313937523
 30
0.0
 10
4.475050809
 20
6.2315288992
 30
0.0
 10
4.4759978835
 20
6.2316654797
 30
0.0
 10
4.4771526426
 20
6.2318034505
 30
0.0
 10
4.4785151774
 20
6.2319422858
 30
0.0
 10
4.4807455887
 20
6.2321404483
 30
0.0
 10
4.4840515766
 20
6.2323830362
 30
0.0
 10
4.4886385265
 20
6.2326634412
 30
0.0
 10
4.4940482349
 20
6.2329469145
 30
0.0
 10
4.5002757992
 20
6.2332333789
 30
0.0
 10
4.5047000703
 20
6.2334149046
 30
0.0
 10
4.5070473783
 20
6.2335068254
 30
0.0
  0
SPLINE
  5
404
100
AcDbEntity
  8
0
100
AcDbSpline
 62
7
  6
CONTINUOUS
 70
0
 71
3
 72
33
 73
29
 74
0
 42
0.0000001
 43
0.0000001
 44
0.0000000001
 40
0.0
 40
0.0
 40
0.0
 40
0.0
 40
0.0131968609
 40
0.0295610594
 40
0.0489909499
 40
0.0713531348
 40
0.0965083705
 40
0.1242906228
 40
0.1545169283
 40
0.1869959335
 40
0.2578395436
 40
0.3349809651
 40
0.4164139555
 40
0.4580799978
 40
0.5000195631
 40
0.5419589525
 40
0.5836244673
 40
0.665055367
 40
0.7421933677
 40
0.8130323143
 40
0.8455085585
 40
0.8757318397
 40
0.9035108243
 40
0.9286625709
 40
0.9510210668
 40
0.9704470932
 40
0.9868072773
 40
1.0
 40
1.0
 40
1.0
 40
1.0
 10
4.5070473783
 20
6.2335068254
 30
0.0
 10
4.5144092264
 20
6.2337951162
 30
0.0
 10
4.5309033642
 20
6.2343495044
 30
0.0
 10
4.5582435172
 20
6.2351033774
 30
0.0
 10
4.5907020818
 20
6.2358581463
 30
0.0
 10
4.6280697491
 20
6.2366048204
 30
0.0
 10
4.6701015156
 20
6.2373310097
 30
0.0
 10
4.7165243996
 20
6.238044443
 30
0.0
 10
4.7670363648
 20
6.2387605422
 30
0.0
 10
4.8415867792
 20
6.2397634996
 30
0.0
 10
4.9423275576
 20
6.2410313795
 30
0.0
 10
5.0703971793
 20
6.242546416
 30
0.0
 10
5.1821797357
 20
6.243787928
 30
0.0
 10
5.2743117256
 20
6.244757275
 30
0.0
 10
5.3443968461
 20
6.2454713568
 30
0.0
 10
5.4144816725
 20
6.2461853944
 30
0.0
 10
5.5066121044
 20
6.2471545464
 30
0.0
 10
5.6183912929
 20
6.2483957361
 30
0.0
 10
5.7464552311
 20
6.2499109956
 30
0.0
 10
5.8471899541
 20
6.2511788844
 30
0.0
 10
5.9217345355
 20
6.2521817816
 30
0.0
 10
5.9722414464
 20
6.2528978661
 30
0.0
 10
6.0186588691
 20
6.2536113075
 30
0.0
 10
6.0606848028
 20
6.2543375169
 30
0.0
 10
6.0980463038
 20
6.2550842135
 30
0.0
 10
6.1304984085
 20
6.2558389969
 30
0.0
 10
6.1578318504
 20
6.2565928641
 30
0.0
 10
6.1743214346
 20
6.2571472515
 30
0.0
 10
6.1816809703
 20
6.257435549
 30
0.0
  0
SPLINE
  5
405
100
AcDbEntity
  8
0
100
AcDbSpline
 62
7
  6
CONTINUOUS
 70
0
 71
3
 72
19
 73
15
 74
0
 42
0.0000001
 43
0.0000001
 44
0.0000000001
 40
0.0
 40
0.0
 40
0.0
 40
0.0
 40
0.2317035353
 40
0.43288227
 40
0.6034687356
 40
0.7434071731
 40
0.8526667751
 40
0.9312808595
 40
0.9591672009
 40
0.9702893634
 40
0.9795596188
 40
0.9870223974
 40
0.9927655929
 40
1.0
 40
1.0
 40
1.0
 40
1.0
 10
6.1963861263
 20
6.2580874751
 30
0.0
 10
6.1978685278
 20
6.2581633419
 30
0.0
 10
6.2006376582
 20
6.2583126779
 30
0.0
 10
6.2044963605
 20
6.258550283
 30
0.0
 10
6.2077660132
 20
6.2587857128
 30
0.0
 10
6.2104454568
 20
6.2590178277
 30
0.0
 10
6.2125329371
 20
6.2592470456
 30
0.0
 10
6.2139016054
 20
6.2594472978
 30
0.0
 10
6.2146385637
 20
6.2596060693
 30
0.0
 10
6.2149365443
 20
6.2596900776
 30
0.0
 10
6.2151051813
 20
6.2597473918
 30
0.0
 10
6.215238389
 20
6.259805996
 30
0.0
 10
6.2153486943
 20
6.2598695943
 30
0.0
 10
6.2154147002
 20
6.2599420684
 30
0.0
 10
6.2154147002
 20
6.2599884135
 30
0.0
  0
SPLINE
  5
406
100
AcDbEntity
  8
0
100
AcDbSpline
 62
9
  6
CONTINUOUS
 70
0
 71
3
 72
19
 73
15
 74
0
 42
0.0000001
 43
0.0000001
 44
0.0000000001
 40
0.0
 40
0.0
 40
0.0
 40
0.0
 40
0.0283345599
 40
0.0591514344
 40
0.0940887385
 40
0.1341432687
 40
0.179866052
 40
0.2315247998
 40
0.2890780007
 40
0.3522587252
 40
0.4939816892
 40
0.6532291838
 40
0.8242790717
 40
1.0
 40
1.0
 40
1.0
 40
1.0
 10
5.5453209559
 20
5.0667170765
 30
0.0
 10
5.5455633606
 20
5.0667170765
 30
0.0
 10
5.5460719445
 20
5.0666318256
 30
0.0
 10
5.5468019391
 20
5.0662734057
 30
0.0
 10
5.5475100119
 20
5.0657002449
 30
0.0
 10
5.5481932689
 20
5.0649208984
 30
0.0
 10
5.5488475789
 20
5.0639408098
 30
0.0
 10
5.5494652056
 20
5.0627658814
 30
0.0
 10
5.5500420295
 20
5.0614070729
 30
0.0
 10
5.5507798425
 20
5.059285043
 30
0.0
 10
5.5515486066
 20
5.0562601265
 30
0.0
 10
5.5522066147
 20
5.0522722819
 30
0.0
 10
5.5526134763
 20
5.0479594425
 30
0.0
 10
5.5527084979
 20
5.0449920385
 30
0.0
 10
5.5527084979
 20
5.04348873
 30
0.0
  0
SPLINE
  5
407
100
AcDbEntity
  8
0
100
AcDbSpline
 62
7
  6
CONTINUOUS
 70
0
 71
3
 72
23
 73
19
 74
0
 42
0.0000001
 43
0.0000001
 44
0.0000000001
 40
0.0
 40
0.0
 40
0.0
 40
0.0
 40
0.0045588162
 40
0.0108548008
 40
0.0189041169
 40
0.0287129738
 40
0.0402836555
 40
0.0536165931
 40
0.0855661923
 40
0.1245520247
 40
0.1705525102
 40
0.2235069398
 40
0.2833417873
 40
0.3499830102
 40
0.4233562533
 40
0.5899999311
 40
0.7825530058
 40
1.0
 40
1.0
 40
1.0
 40
1.0
 10
4.5062483598
 20
6.3000959012
 30
0.0
 10
4.5064314346
 20
6.3001563305
 30
0.0
 10
4.5068783194
 20
6.3002655434
 30
0.0
 10
4.5076648687
 20
6.3004084226
 30
0.0
 10
4.5086763579
 20
6.3005527691
 30
0.0
 10
4.5099123542
 20
6.3006986052
 30
0.0
 10
4.5113730422
 20
6.3008453723
 30
0.0
 10
4.5137682204
 20
6.301055042
 30
0.0
 10
4.5173228001
 20
6.3013118852
 30
0.0
 10
4.5222590681
 20
6.3016093379
 30
0.0
 10
4.528084776
 20
6.3019109067
 30
0.0
 10
4.5347930167
 20
6.3022160213
 30
0.0
 10
4.5423748317
 20
6.3025237459
 30
0.0
 10
4.5508207097
 20
6.3028333902
 30
0.0
 10
4.5637819253
 20
6.3032664675
 30
0.0
 10
4.5820673945
 20
6.3038003817
 30
0.0
 10
4.6064456702
 20
6.3044155758
 30
0.0
 10
4.6237801336
 20
6.3048005636
 30
0.0
 10
4.6329738251
 20
6.3049942974
 30
0.0
  0
LINE
  5
408
100
AcDbEntity
  8
0
100
AcDbLine
 62
7
  6
CONTINUOUS
 10
4.6329738251
 20
6.3049942974
 11
4.6391573029
 21
6.3051230302
  0
SPLINE
  5
409
100
AcDbEntity
  8
0
100
AcDbSpline
 62
7
  6
CONTINUOUS
 70
0
 71
3
 72
24
 73
20
 74
0
 42
0.0000001
 43
0.0000001
 44
0.0000000001
 40
0.0
 40
0.0
 40
0.0
 40
0.0
 40
0.004103234
 40
0.0099915589
 40
0.0176792338
 40
0.0271701684
 40
0.0384645174
 40
0.051560752
 40
0.0831486033
 40
0.1219099488
 40
0.1678036552
 40
0.220758771
 40
0.2807000791
 40
0.3475519628
 40
0.4212385634
 40
0.5016804759
 40
0.5887496417
 40
0.7821109515
 40
1.0
 40
1.0
 40
1.0
 40
1.0
 10
4.4737148727
 20
6.2893035571
 30
0.0
 10
4.4739306582
 20
6.2893745055
 30
0.0
 10
4.4744711639
 20
6.2894987728
 30
0.0
 10
4.4754361839
 20
6.2896606042
 30
0.0
 10
4.4767030032
 20
6.2898243066
 30
0.0
 10
4.4782704721
 20
6.2899903068
 30
0.0
 10
4.4801387271
 20
6.2901575599
 30
0.0
 10
4.4832283683
 20
6.2903973864
 30
0.0
 10
4.4878386567
 20
6.2906909776
 30
0.0
 10
4.4942647775
 20
6.2910311294
 30
0.0
 10
4.5018749522
 20
6.2913760832
 30
0.0
 10
4.5106584915
 20
6.2917247023
 30
0.0
 10
4.5206029684
 20
6.2920756583
 30
0.0
 10
4.5316957079
 20
6.2924278465
 30
0.0
 10
4.5439238449
 20
6.292780224
 30
0.0
 10
4.5572716348
 20
6.2931315772
 30
0.0
 10
4.5772432273
 20
6.2936155415
 30
0.0
 10
4.6048231948
 20
6.2942107965
 30
0.0
 10
4.6275853423
 20
6.2946467272
 30
0.0
 10
4.6396453909
 20
6.294867281
 30
0.0
  0
SPLINE
  5
40A
100
AcDbEntity
  8
0
100
AcDbSpline
 62
7
  6
CONTINUOUS
 70
0
 71
3
 72
28
 73
24
 74
0
 42
0.0000001
 43
0.0000001
 44
0.0000000001
 40
0.0
 40
0.0
 40
0.0
 40
0.0
 40
0.0016912162
 40
0.0031104219
 40
0.0049811482
 40
0.0073223332
 40
0.0101435395
 40
0.013450239
 40
0.017245866
 40
0.0263119653
 40
0.0373502544
 40
0.0653400456
 40
0.1011936127
 40
0.1448747385
 40
0.1963423091
 40
0.2555529212
 40
0.3224619592
 40
0.3970189094
 40
0.4791422838
 40
0.5687392146
 40
0.665716656
 40
0.7699814494
 40
1.0
 40
1.0
 40
1.0
 40
1.0
 10
4.5057930868
 20
4.6395782268
 30
0.0
 10
4.5057930814
 20
4.6396355951
 30
0.0
 10
4.5058870566
 20
4.6397218747
 30
0.0
 10
4.5060321439
 20
4.639795161
 30
0.0
 10
4.5062127659
 20
4.6398648689
 30
0.0
 10
4.5064407403
 20
4.639932723
 30
0.0
 10
4.5067199733
 20
4.6400018168
 30
0.0
 10
4.5070493791
 20
4.6400709077
 30
0.0
 10
4.5075890104
 20
4.6401693805
 30
0.0
 10
4.5083909098
 20
4.6402896557
 30
0.0
 10
4.5100100282
 20
4.6404904738
 30
0.0
 10
4.5125389793
 20
4.6407322149
 30
0.0
 10
4.5161758272
 20
4.6410100542
 30
0.0
 10
4.5206108181
 20
4.6412910383
 30
0.0
 10
4.5258392181
 20
4.6415752031
 30
0.0
 10
4.5318564256
 20
4.6418619245
 30
0.0
 10
4.5386575229
 20
4.6421511104
 30
0.0
 10
4.5462363883
 20
4.6424426243
 30
0.0
 10
4.5545853077
 20
4.6427359127
 30
0.0
 10
4.5636951513
 20
4.6430303323
 30
0.0
 10
4.5735564066
 20
4.6433252758
 30
0.0
 10
4.5881797106
 20
4.6437318602
 30
0.0
 10
4.5995155543
 20
4.6440146538
 30
0.0
 10
4.6073159299
 20
4.6441983984
 30
0.0
  0
LINE
  5
40B
100
AcDbEntity
  8
0
100
AcDbLine
 62
7
  6
CONTINUOUS
 10
4.6073159299
 20
4.6441983984
 11
4.6085006335
 21
4.6442262203
  0
SPLINE
  5
40C
100
AcDbEntity
  8
0
100
AcDbSpline
 62
7
  6
CONTINUOUS
 70
0
 71
3
 72
23
 73
19
 74
0
 42
0.0000001
 43
0.0000001
 44
0.0000000001
 40
0.0
 40
0.0
 40
0.0
 40
0.0
 40
0.0449044921
 40
0.0965753379
 40
0.1542373886
 40
0.2170373106
 40
0.2669450865
 40
0.3187996794
 40
0.3721647039
 40
0.4265981386
 40
0.5368394988
 40
0.6458505978
 40
0.7500033007
 40
0.8458193293
 40
0.8895836294
 40
0.9300901038
 40
0.9669985587
 40
1.0
 40
1.0
 40
1.0
 40
1.0
 10
4.6501872291
 20
4.6451161343
 30
0.0
 10
4.6709680637
 20
4.6455238645
 30
0.0
 10
4.7156628909
 20
4.6463072349
 30
0.0
 10
4.7870463755
 20
4.6473781011
 30
0.0
 10
4.8667136043
 20
4.6484703084
 30
0.0
 10
4.9455655445
 20
4.6494982015
 30
0.0
 10
5.0217301444
 20
4.6504505788
 30
0.0
 10
5.0935283567
 20
4.6513174743
 30
0.0
 10
5.1674216297
 20
4.6521731838
 30
0.0
 10
5.2683390389
 20
4.6532883277
 30
0.0
 10
5.3950122481
 20
4.6546314338
 30
0.0
 10
5.544697109
 20
4.6562660223
 30
0.0
 10
5.6877035685
 20
4.657983738
 30
0.0
 10
5.8005103944
 20
4.6594332162
 30
0.0
 10
5.8838589889
 20
4.6605702232
 30
0.0
 10
5.939943067
 20
4.6613818545
 30
0.0
 10
5.9910447744
 20
4.6621953393
 30
0.0
 10
6.0233985659
 20
4.6627797197
 30
0.0
 10
6.0386709239
 20
4.6630793883
 30
0.0
  0
LINE
  5
40D
100
AcDbEntity
  8
0
100
AcDbLine
 62
7
  6
CONTINUOUS
 10
6.0386709239
 20
4.6630793883
 11
6.0462912445
 21
4.6632310047
  0
LINE
  5
40E
100
AcDbEntity
  8
0
100
AcDbLine
 62
7
  6
CONTINUOUS
 10
6.0462912445
 20
4.6632310047
 11
6.0689278348
 21
4.6637093162
  0
LINE
  5
40F
100
AcDbEntity
  8
0
100
AcDbLine
 62
7
  6
CONTINUOUS
 10
6.0689278348
 20
4.6637093162
 11
6.0771367607
 21
4.6638949491
  0
LINE
  5
410
100
AcDbEntity
  8
0
100
AcDbLine
 62
7
  6
CONTINUOUS
 10
6.0771367607
 20
4.6638949491
 11
6.0800111083
 21
4.6639617336
  0
SPLINE
  5
411
100
AcDbEntity
  8
0
100
AcDbSpline
 62
7
  6
CONTINUOUS
 70
0
 71
3
 72
23
 73
19
 74
0
 42
0.0000001
 43
0.0000001
 44
0.0000000001
 40
0.0
 40
0.0
 40
0.0
 40
0.0
 40
0.218215106
 40
0.4109033263
 40
0.5774182974
 40
0.6506592604
 40
0.7171217205
 40
0.7767581097
 40
0.8295278386
 40
0.8753910108
 40
0.9143089268
 40
0.9462451479
 40
0.9595851798
 40
0.9711687335
 40
0.9809941513
 40
0.989065242
 40
0.9953929482
 40
1.0
 40
1.0
 40
1.0
 40
1.0
 10
6.0800111083
 20
4.6639617336
 30
0.0
 10
6.0874778695
 20
4.664136485
 30
0.0
 10
6.1015375105
 20
4.6644839907
 30
0.0
 10
6.1212929326
 20
4.6650391969
 30
0.0
 10
6.1360864432
 20
4.6655179075
 30
0.0
 10
6.1465602173
 20
4.6659041707
 30
0.0
 10
6.1533774425
 20
4.6661794665
 30
0.0
 10
6.1594934641
 20
4.6664527496
 30
0.0
 10
6.1649037547
 20
4.6667239372
 30
0.0
 10
6.1696040603
 20
4.6669927177
 30
0.0
 10
6.1735900978
 20
4.6672589608
 30
0.0
 10
6.1764627386
 20
4.6674894645
 30
0.0
 10
6.1783997761
 20
4.667677796
 30
0.0
 10
6.1795818548
 20
4.6678096855
 30
0.0
 10
6.1805823625
 20
4.6679407001
 30
0.0
 10
6.1814015338
 20
4.6680703762
 30
0.0
 10
6.1820392614
 20
4.6681986728
 30
0.0
 10
6.1824014393
 20
4.6682966447
 30
0.0
 10
6.1825496396
 20
4.6683505068
 30
0.0
  0
SPLINE
  5
412
100
AcDbEntity
  8
0
100
AcDbSpline
 62
9
  6
CONTINUOUS
 70
0
 71
3
 72
16
 73
12
 74
0
 42
0.0000001
 43
0.0000001
 44
0.0000000001
 40
0.0
 40
0.0
 40
0.0
 40
0.0
 40
0.0986731921
 40
0.2026499169
 40
0.2575672036
 40
0.3146921737
 40
0.4359967586
 40
0.5669390013
 40
0.7066081761
 40
0.8523072626
 40
1.0
 40
1.0
 40
1.0
 40
1.0
 10
5.5908521849
 20
5.0667170765
 30
0.0
 10
5.5898461346
 20
5.0667170765
 30
0.0
 10
5.5877703984
 20
5.066389342
 30
0.0
 10
5.5853638847
 20
5.0652649645
 30
0.0
 10
5.583565904
 20
5.0639856269
 30
0.0
 10
5.5817991977
 20
5.0623846248
 30
0.0
 10
5.5798255887
 20
5.0598952618
 30
0.0
 10
5.5779285526
 20
5.0563584235
 30
0.0
 10
5.5765337115
 20
5.0523324555
 30
0.0
 10
5.5756748913
 20
5.0479892623
 30
0.0
 10
5.5754741121
 20
5.0449945728
 30
0.0
 10
5.5754741121
 20
5.04348873
 30
0.0
  0
SPLINE
  5
413
100
AcDbEntity
  8
0
100
AcDbSpline
 62
9
  6
CONTINUOUS
 70
0
 71
3
 72
9
 73
5
 74
0
 42
0.0000001
 43
0.0000001
 44
0.0000000001
 40
0.0
 40
0.0
 40
0.0
 40
0.0
 40
0.4890400818
 40
1.0
 40
1.0
 40
1.0
 40
1.0
 10
6.40498742
 20
5.0667170765
 30
0.0
 10
6.4040930852
 20
5.0667170765
 30
0.0
 10
6.4022577211
 20
5.0664603917
 30
0.0
 10
6.4005499005
 20
5.0657550579
 30
0.0
 10
6.3997301135
 20
5.0653066255
 30
0.0
  0
SPLINE
  5
414
100
AcDbEntity
  8
0
100
AcDbSpline
 62
9
  6
CONTINUOUS
 70
0
 71
3
 72
15
 73
11
 74
0
 42
0.0000001
 43
0.0000001
 44
0.0000000001
 40
0.0
 40
0.0
 40
0.0
 40
0.0
 40
0.1033105189
 40
0.2131834945
 40
0.3302014051
 40
0.454283525
 40
0.5849396051
 40
0.7209264429
 40
0.8600714914
 40
1.0
 40
1.0
 40
1.0
 40
1.0
 10
6.3997301135
 20
5.0653066255
 30
0.0
 10
6.398971449
 20
5.0648916278
 30
0.0
 10
6.3974896274
 20
5.0638745248
 30
0.0
 10
6.3955227924
 20
5.0619150151
 30
0.0
 10
6.3937835254
 20
5.0595344038
 30
0.0
 10
6.3923033711
 20
5.0567872702
 30
0.0
 10
6.3911209042
 20
5.0537296037
 30
0.0
 10
6.3902608063
 20
5.0504368549
 30
0.0
 10
6.3897314988
 20
5.0469975866
 30
0.0
 10
6.3896093472
 20
5.0446599888
 30
0.0
 10
6.3896093472
 20
5.04348873
 30
0.0
  0
SPLINE
  5
415
100
AcDbEntity
  8
0
100
AcDbSpline
 62
7
  6
CONTINUOUS
 70
0
 71
3
 72
32
 73
28
 74
0
 42
0.0000001
 43
0.0000001
 44
0.0000000001
 40
0.0
 40
0.0
 40
0.0
 40
0.0
 40
0.0006194841
 40
0.0010429015
 40
0.0015667633
 40
0.0029472403
 40
0.0047978812
 40
0.0071319292
 40
0.0099556096
 40
0.0132722002
 40
0.0170835409
 40
0.0261940377
 40
0.0372913164
 40
0.0503758852
 40
0.0654467109
 40
0.0825019387
 40
0.1015392365
 40
0.1455391995
 40
0.1973708699
 40
0.2569453887
 40
0.3241731499
 40
0.3989641185
 40
0.4812277081
 40
0.570852291
 40
0.6676915303
 40
0.7715957441
 40
1.0
 40
1.0
 40
1.0
 40
1.0
 10
4.5058061416
 20
4.6976496958
 30
0.0
 10
4.5058061655
 20
4.6976808444
 30
0.0
 10
4.505834914
 20
4.6977315658
 30
0.0
 10
4.5058946815
 20
4.6977819343
 30
0.0
 10
4.5059944235
 20
4.6978444379
 30
0.0
 10
4.5061692011
 20
4.6979175261
 30
0.0
 10
4.5064365105
 20
4.6980008111
 30
0.0
 10
4.5067790201
 20
4.6980844514
 30
0.0
 10
4.5071967627
 20
4.698168755
 30
0.0
 10
4.5076899943
 20
4.6982533884
 30
0.0
 10
4.5084975887
 20
4.6983739097
 30
0.0
 10
4.5096964822
 20
4.6985210765
 30
0.0
 10
4.5113619318
 20
4.698690551
 30
0.0
 10
4.5133282833
 20
4.6988612096
 30
0.0
 10
4.5155950677
 20
4.6990330671
 30
0.0
 10
4.5181618407
 20
4.6992060531
 30
0.0
 10
4.52218163
 20
4.6994501626
 30
0.0
 10
4.527949575
 20
4.699752706
 30
0.0
 10
4.5357557163
 20
4.700105283
 30
0.0
 10
4.5447306853
 20
4.700461215
 30
0.0
 10
4.5548607886
 20
4.7008195422
 30
0.0
 10
4.5661323259
 20
4.7011792281
 30
0.0
 10
4.5785305148
 20
4.7015393029
 30
0.0
 10
4.5920377628
 20
4.7018989095
 30
0.0
 10
4.6066335146
 20
4.7022574859
 30
0.0
 10
4.6282061252
 20
4.7027489404
 30
0.0
 10
4.6449116627
 20
4.7030893473
 30
0.0
 10
4.6563940566
 20
4.7033099791
 30
0.0
  0
LINE
  5
416
100
AcDbEntity
  8
0
100
AcDbLine
 62
7
  6
CONTINUOUS
 10
4.6563940566
 20
4.7033099791
 11
4.6633894087
 21
4.7034427369
  0
LINE
  5
417
100
AcDbEntity
  8
0
100
AcDbLine
 62
7
  6
CONTINUOUS
 10
4.6633894087
 20
4.7034427369
 11
4.6984263408
 21
4.7040645946
  0
LINE
  5
418
100
AcDbEntity
  8
0
100
AcDbLine
 62
7
  6
CONTINUOUS
 10
4.6984263408
 20
4.7040645946
 11
4.6999747368
 21
4.7040906763
  0
SPLINE
  5
419
100
AcDbEntity
  8
0
100
AcDbSpline
 62
7
  6
CONTINUOUS
 70
0
 71
3
 72
23
 73
19
 74
0
 42
0.0000001
 43
0.0000001
 44
0.0000000001
 40
0.0
 40
0.0
 40
0.0
 40
0.0
 40
0.0485466825
 40
0.1025213347
 40
0.1612684187
 40
0.2240817488
 40
0.2902005735
 40
0.3588330291
 40
0.4291539633
 40
0.50032121
 40
0.5714792875
 40
0.6417705745
 40
0.7103515662
 40
0.7763933792
 40
0.8391107028
 40
0.8977456115
 40
0.9515955248
 40
1.0
 40
1.0
 40
1.0
 40
1.0
 10
4.6999747368
 20
4.7040906763
 30
0.0
 10
4.7208516174
 20
4.7044416398
 30
0.0
 10
4.7649405636
 20
4.7051257569
 30
0.0
 10
4.8342948755
 20
4.7061053831
 30
0.0
 10
4.9097855284
 20
4.707106096
 30
0.0
 10
4.9904994218
 20
4.7081360674
 30
0.0
 10
5.0754651922
 20
4.7091770046
 30
0.0
 10
5.1636604066
 20
4.7102004212
 30
0.0
 10
5.2540273204
 20
4.7112021777
 30
0.0
 10
5.3454808256
 20
4.7121795941
 30
0.0
 10
5.4369215949
 20
4.7131555226
 30
0.0
 10
5.5272496614
 20
4.7141587169
 30
0.0
 10
5.6153768466
 20
4.7151834957
 30
0.0
 10
5.7002460752
 20
4.7162232401
 30
0.0
 10
5.7808372839
 20
4.7172542876
 30
0.0
 10
5.8561847574
 20
4.718253326
 30
0.0
 10
5.9253760111
 20
4.7192317984
 30
0.0
 10
5.9693501115
 20
4.7199171804
 30
0.0
 10
5.9901658148
 20
4.7202684712
 30
0.0
  0
LINE
  5
41A
100
AcDbEntity
  8
0
100
AcDbLine
 62
7
  6
CONTINUOUS
 10
5.9901658148
 20
4.7202684712
 11
6.0014846192
 21
4.7204623413
  0
LINE
  5
41B
100
AcDbEntity
  8
0
100
AcDbLine
 62
7
  6
CONTINUOUS
 10
6.0014846192
 20
4.7204623413
 11
6.0318162215
 21
4.7210148311
  0
LINE
  5
41C
100
AcDbEntity
  8
0
100
AcDbLine
 62
7
  6
CONTINUOUS
 10
6.0318162215
 20
4.7210148311
 11
6.0369418381
 21
4.7211138744
  0
SPLINE
  5
41D
100
AcDbEntity
  8
0
100
AcDbSpline
 62
7
  6
CONTINUOUS
 70
0
 71
3
 72
23
 73
19
 74
0
 42
0.0000001
 43
0.0000001
 44
0.0000000001
 40
0.0
 40
0.0
 40
0.0
 40
0.0
 40
0.218674774
 40
0.4122088033
 40
0.5796275377
 40
0.6532465363
 40
0.7200192459
 40
0.7798745276
 40
0.8327415482
 40
0.8785499741
 40
0.917230352
 40
0.948721596
 40
0.9617639893
 40
0.9730035779
 40
0.982441125
 40
0.990079422
 40
0.9959257852
 40
1.0
 40
1.0
 40
1.0
 40
1.0
 10
6.0369418381
 20
4.7211138744
 30
0.0
 10
6.0475636952
 20
4.7213210803
 30
0.0
 10
6.0675857954
 20
4.7217347191
 30
0.0
 10
6.0957380266
 20
4.7224000044
 30
0.0
 10
6.1168430007
 20
4.7229778646
 30
0.0
 10
6.1317900107
 20
4.7234471788
 30
0.0
 10
6.1415128381
 20
4.7237828305
 30
0.0
 10
6.150226879
 20
4.724116688
 30
0.0
 10
6.1579216776
 20
4.7244480955
 30
0.0
 10
6.1645868381
 20
4.7247760562
 30
0.0
 10
6.170212242
 20
4.7250998936
 30
0.0
 10
6.1742455619
 20
4.7253793179
 30
0.0
 10
6.1769456071
 20
4.7256075228
 30
0.0
 10
6.178576153
 20
4.7257666108
 30
0.0
 10
6.1799427154
 20
4.7259245302
 30
0.0
 10
6.1810458086
 20
4.7260803578
 30
0.0
 10
6.1818846191
 20
4.7262344749
 30
0.0
 10
6.1823533924
 20
4.7263530511
 30
0.0
 10
6.1825394341
 20
4.7264206367
 30
0.0
  0
SPLINE
  5
41E
100
AcDbEntity
  8
0
100
AcDbSpline
 62
7
  6
CONTINUOUS
 70
0
 71
3
 72
29
 73
25
 74
0
 42
0.0000001
 43
0.0000001
 44
0.0000000001
 40
0.0
 40
0.0
 40
0.0
 40
0.0
 40
0.0016183961
 40
0.0030185636
 40
0.0048767013
 40
0.0072095714
 40
0.010025471
 40
0.0133290598
 40
0.0171232013
 40
0.0261898144
 40
0.0372349759
 40
0.0502632836
 40
0.065273082
 40
0.1012141529
 40
0.1450081334
 40
0.196600149
 40
0.25593337
 40
0.3229499334
 40
0.3975906978
 40
0.4797740032
 40
0.5693914711
 40
0.6663330221
 40
0.7704884789
 40
1.0
 40
1.0
 40
1.0
 40
1.0
 10
4.5057881298
 20
4.7557203347
 30
0.0
 10
4.5057881304
 20
4.7557837063
 30
0.0
 10
4.505899967
 20
4.7558761454
 30
0.0
 10
4.5060650724
 20
4.7559537537
 30
0.0
 10
4.5062743635
 20
4.7560287419
 30
0.0
 10
4.5065378333
 20
4.756101592
 30
0.0
 10
4.5068608501
 20
4.7561758763
 30
0.0
 10
4.5072417846
 20
4.7562501402
 30
0.0
 10
4.5078659162
 20
4.7563560334
 30
0.0
 10
4.5087931662
 20
4.7564853431
 30
0.0
 10
4.510082329
 20
4.7566343147
 30
0.0
 10
4.511605394
 20
4.7567843701
 30
0.0
 10
4.514101472
 20
4.7569989031
 30
0.0
 10
4.5178022436
 20
4.7572618157
 30
0.0
 10
4.5229356816
 20
4.7575658984
 30
0.0
 10
4.5289862883
 20
4.7578731452
 30
0.0
 10
4.5359470852
 20
4.7581832685
 30
0.0
 10
4.5438110941
 20
4.7584957695
 30
0.0
 10
4.5525703947
 20
4.7588103923
 30
0.0
 10
4.5622151407
 20
4.7591266492
 30
0.0
 10
4.5727335203
 20
4.7594437745
 30
0.0
 10
4.5841126196
 20
4.7597610497
 30
0.0
 10
4.6009683236
 20
4.7601975643
 30
0.0
 10
4.6140302443
 20
4.760500575
 30
0.0
 10
4.6230150823
 20
4.7606971171
 30
0.0
  0
LINE
  5
41F
100
AcDbEntity
  8
0
100
AcDbLine
 62
7
  6
CONTINUOUS
 10
4.6230150823
 20
4.7606971171
 11
4.6323165781
 21
4.7608964279
  0
LINE
  5
420
100
AcDbEntity
  8
0
100
AcDbLine
 62
7
  6
CONTINUOUS
 10
4.6323165781
 20
4.7608964279
 11
4.6503706976
 21
4.761262214
  0
LINE
  5
421
100
AcDbEntity
  8
0
100
AcDbLine
 62
7
  6
CONTINUOUS
 10
4.6503706976
 20
4.761262214
 11
4.6552150159
 21
4.7613562298
  0
SPLINE
  5
422
100
AcDbEntity
  8
0
100
AcDbSpline
 62
7
  6
CONTINUOUS
 70
0
 71
3
 72
21
 73
17
 74
0
 42
0.0000001
 43
0.0000001
 44
0.0000000001
 40
0.0
 40
0.0
 40
0.0
 40
0.0
 40
0.0452246021
 40
0.0970186096
 40
0.1546320819
 40
0.2172425278
 40
0.3537673741
 40
0.4257174592
 40
0.4987583574
 40
0.6439143446
 40
0.7139447436
 40
0.7809290355
 40
0.8438984048
 40
0.9019461777
 40
0.9542308311
 40
1.0
 40
1.0
 40
1.0
 40
1.0
 10
4.6552150159
 20
4.7613562298
 30
0.0
 10
4.6759214897
 20
4.7617546834
 30
0.0
 10
4.7203439868
 20
4.7625215033
 30
0.0
 10
4.7911488567
 20
4.7635787486
 30
0.0
 10
4.8699160171
 20
4.7646527993
 30
0.0
 10
4.9874824332
 20
4.7661849655
 30
0.0
 10
5.1116151121
 20
4.7676893498
 30
0.0
 10
5.2405253987
 20
4.7691282763
 30
0.0
 10
5.3733887044
 20
4.7705472716
 30
0.0
 10
5.5053729125
 20
4.7719625722
 30
0.0
 10
5.6345821601
 20
4.7734841753
 30
0.0
 10
5.7261565035
 20
4.7746195041
 30
0.0
 10
5.8122433219
 20
4.7757328022
 30
0.0
 10
5.8915983591
 20
4.7768153504
 30
0.0
 10
5.9630762948
 20
4.7778696777
 30
0.0
 10
6.007972967
 20
4.7786343626
 30
0.0
 10
6.0289288705
 20
4.7790326449
 30
0.0
  0
LINE
  5
423
100
AcDbEntity
  8
0
100
AcDbLine
 62
7
  6
CONTINUOUS
 10
6.0289288705
 20
4.7790326449
 11
6.0386857482
 21
4.7792212117
  0
LINE
  5
424
100
AcDbEntity
  8
0
100
AcDbLine
 62
7
  6
CONTINUOUS
 10
6.0386857482
 20
4.7792212117
 11
6.0562389351
 21
4.7795777954
  0
LINE
  5
425
100
AcDbEntity
  8
0
100
AcDbLine
 62
7
  6
CONTINUOUS
 10
6.0562389351
 20
4.7795777954
 11
6.0615752072
 21
4.7796911763
  0
SPLINE
  5
426
100
AcDbEntity
  8
0
100
AcDbSpline
 62
7
  6
CONTINUOUS
 70
0
 71
3
 72
15
 73
11
 74
0
 42
0.0000001
 43
0.0000001
 44
0.0000000001
 40
0.0
 40
0.0
 40
0.0
 40
0.0
 40
0.3667521434
 40
0.5219257542
 40
0.6577331438
 40
0.7737717476
 40
0.8696513552
 40
0.9451144575
 40
0.9751387028
 40
1.0
 40
1.0
 40
1.0
 40
1.0
 10
6.0615752072
 20
4.7796911763
 30
0.0
 10
6.0757478673
 20
4.7799956705
 30
0.0
 10
6.0959163228
 20
4.7804655326
 30
0.0
 10
6.1213293343
 20
4.781183779
 30
0.0
 10
6.1370535894
 20
4.7816904871
 30
0.0
 10
6.1504848396
 20
4.7821918914
 30
0.0
 10
6.1615819989
 20
4.7826848467
 30
0.0
 10
6.1693540656
 20
4.7831105033
 30
0.0
 10
6.1743802206
 20
4.7834615014
 30
0.0
 10
6.1764944606
 20
4.7836380821
 30
0.0
 10
6.1774511017
 20
4.7837290262
 30
0.0
  0
SPLINE
  5
427
100
AcDbEntity
  8
0
100
AcDbSpline
 62
7
  6
CONTINUOUS
 70
0
 71
3
 72
12
 73
8
 74
0
 42
0.0000001
 43
0.0000001
 44
0.0000000001
 40
0.0
 40
0.0
 40
0.0
 40
0.0
 40
0.3576083478
 40
0.6433240927
 40
0.8572296972
 40
0.9374179048
 40
1.0
 40
1.0
 40
1.0
 40
1.0
 10
6.1774511017
 20
4.7837290262
 30
0.0
 10
6.1780625437
 20
4.7837871535
 30
0.0
 10
6.1791618607
 20
4.7838996739
 30
0.0
 10
6.180622387
 20
4.7840856632
 30
0.0
 10
6.1816056396
 20
4.7842481937
 30
0.0
 10
6.1822027398
 20
4.7843857007
 30
0.0
 10
6.1824382482
 20
4.7844553289
 30
0.0
 10
6.1825392744
 20
4.7844920293
 30
0.0
  0
SPLINE
  5
428
100
AcDbEntity
  8
0
100
AcDbSpline
 62
7
  6
CONTINUOUS
 70
0
 71
3
 72
28
 73
24
 74
0
 42
0.0000001
 43
0.0000001
 44
0.0000000001
 40
0.0
 40
0.0
 40
0.0
 40
0.0
 40
0.0016481657
 40
0.0030593606
 40
0.0049279723
 40
0.0072710294
 40
0.0100967135
 40
0.0134093924
 40
0.0172115472
 40
0.0262891811
 40
0.0373355403
 40
0.0653356373
 40
0.1012009913
 40
0.1449074366
 40
0.1964262918
 40
0.2557211647
 40
0.3227194551
 40
0.3973343937
 40
0.4794788341
 40
0.5690654053
 40
0.6660065855
 40
0.7702146899
 40
1.0
 40
1.0
 40
1.0
 40
1.0
 10
4.5058066545
 20
4.8137909525
 30
0.0
 10
4.5058065664
 20
4.8138521282
 30
0.0
 10
4.5059117199
 20
4.8139425441
 30
0.0
 10
4.5060695293
 20
4.814018612
 30
0.0
 10
4.5062682876
 20
4.8140917587
 30
0.0
 10
4.5065187029
 20
4.8141628458
 30
0.0
 10
4.5068255126
 20
4.814235291
 30
0.0
 10
4.5071872351
 20
4.8143077016
 30
0.0
 10
4.5077794365
 20
4.8144108716
 30
0.0
 10
4.5086586834
 20
4.8145368178
 30
0.0
 10
4.5104326328
 20
4.814746973
 30
0.0
 10
4.5132020442
 20
4.8149998183
 30
0.0
 10
4.5171843225
 20
4.8152904553
 30
0.0
 10
4.5220412852
 20
4.8155846716
 30
0.0
 10
4.5277689753
 20
4.8158827702
 30
0.0
 10
4.534362056
 20
4.8161843358
 30
0.0
 10
4.5418130681
 20
4.8164887724
 30
0.0
 10
4.5501127535
 20
4.8167952826
 30
0.0
 10
4.5592513279
 20
4.8171031669
 30
0.0
 10
4.5692190038
 20
4.8174117334
 30
0.0
 10
4.5800059875
 20
4.8177203426
 30
0.0
 10
4.5959955756
 20
4.818144908
 30
0.0
 10
4.6083891022
 20
4.8184395989
 30
0.0
 10
4.6169160015
 20
4.8186314194
 30
0.0
  0
LINE
  5
429
100
AcDbEntity
  8
0
100
AcDbLine
 62
7
  6
CONTINUOUS
 10
4.6169160015
 20
4.8186314194
 11
4.6194586814
 21
4.8186882897
  0
SPLINE
  5
42A
100
AcDbEntity
  8
0
100
AcDbSpline
 62
7
  6
CONTINUOUS
 70
0
 71
3
 72
20
 73
16
 74
0
 42
0.0000001
 43
0.0000001
 44
0.0000000001
 40
0.0
 40
0.0
 40
0.0
 40
0.0
 40
0.0390397794
 40
0.0829409755
 40
0.1314207758
 40
0.1841459673
 40
0.3009250498
 40
0.3641910768
 40
0.4301578109
 40
0.4983797563
 40
0.5684050349
 40
0.7120043046
 40
0.8571553211
 40
0.9291061781
 40
1.0
 40
1.0
 40
1.0
 40
1.0
 10
4.6194586814
 20
4.8186882897
 30
0.0
 10
4.6317004257
 20
4.8189605228
 30
0.0
 10
4.6577093507
 20
4.8194925148
 30
0.0
 10
4.6989227351
 20
4.8202292147
 30
0.0
 10
4.7444293305
 20
4.820954122
 30
0.0
 10
4.8127924002
 20
4.8219554383
 30
0.0
 10
4.8857938898
 20
4.822937376
 30
0.0
 10
4.9629487944
 20
4.8239278302
 30
0.0
 10
5.0248753575
 20
4.8247008699
 30
0.0
 10
5.0889220989
 20
4.8254748185
 30
0.0
 10
5.1773168961
 20
4.8265009373
 30
0.0
 10
5.2898396038
 20
4.8277328368
 30
0.0
 10
5.4029666581
 20
4.8289307509
 30
0.0
 10
5.4932906894
 20
4.8299191978
 30
0.0
 10
5.5380908184
 20
4.8304291015
 30
0.0
 10
5.5603250713
 20
4.8306867533
 30
0.0
  0
SPLINE
  5
42B
100
AcDbEntity
  8
0
100
AcDbSpline
 62
7
  6
CONTINUOUS
 70
0
 71
3
 72
14
 73
10
 74
0
 42
0.0000001
 43
0.0000001
 44
0.0000000001
 40
0.0
 40
0.0
 40
0.0
 40
0.0
 40
0.2979265071
 40
0.4378557064
 40
0.5700886208
 40
0.6934604566
 40
0.8068867823
 40
0.9093571532
 40
1.0
 40
1.0
 40
1.0
 40
1.0
 10
5.5603250713
 20
4.8306867533
 30
0.0
 10
5.6094495736
 20
4.8312560109
 30
0.0
 10
5.6816463344
 20
4.8321265676
 30
0.0
 10
5.7756457121
 20
4.833329828
 30
0.0
 10
5.840863189
 20
4.8341922058
 30
0.0
 10
5.9017102608
 20
4.8350331341
 30
0.0
 10
5.9576491317
 20
4.8358666618
 30
0.0
 10
6.0081903059
 20
4.8367038327
 30
0.0
 10
6.0400288252
 20
4.8373078157
 30
0.0
 10
6.0549724819
 20
4.837620133
 30
0.0
  0
LINE
  5
42C
100
AcDbEntity
  8
0
100
AcDbLine
 62
7
  6
CONTINUOUS
 10
6.0549724819
 20
4.837620133
 11
6.0693328565
 21
4.8379298827
  0
LINE
  5
42D
100
AcDbEntity
  8
0
100
AcDbLine
 62
7
  6
CONTINUOUS
 10
6.0693328565
 20
4.8379298827
 11
6.0804212932
 21
4.8381834773
  0
LINE
  5
42E
100
AcDbEntity
  8
0
100
AcDbLine
 62
7
  6
CONTINUOUS
 10
6.0804212932
 20
4.8381834773
 11
6.0847483894
 21
4.8382862549
  0
SPLINE
  5
42F
100
AcDbEntity
  8
0
100
AcDbSpline
 62
9
  6
CONTINUOUS
 70
0
 71
3
 72
15
 73
11
 74
0
 42
0.0000001
 43
0.0000001
 44
0.0000000001
 40
0.0
 40
0.0
 40
0.0
 40
0.0
 40
0.1481791412
 40
0.2937707418
 40
0.4331372308
 40
0.5641819109
 40
0.6857161708
 40
0.7976357747
 40
0.9012762599
 40
1.0
 40
1.0
 40
1.0
 40
1.0
 10
5.5754741124
 20
4.8623076277
 30
0.0
 10
5.5754741124
 20
4.8607970374
 30
0.0
 10
5.5752806155
 20
4.8577989105
 30
0.0
 10
5.5744299132
 20
4.8534527522
 30
0.0
 10
5.5730219747
 20
4.8494355839
 30
0.0
 10
5.5711212004
 20
4.8458996433
 30
0.0
 10
5.5687868556
 20
4.8429793741
 30
0.0
 10
5.5661102857
 20
4.8407759457
 30
0.0
 10
5.5631762842
 20
4.839400241
 30
0.0
 10
5.5611024642
 20
4.8390792812
 30
0.0
 10
5.5600960396
 20
4.8390792812
 30
0.0
  0
SPLINE
  5
430
100
AcDbEntity
  8
0
100
AcDbSpline
 62
9
  6
CONTINUOUS
 70
0
 71
3
 72
19
 73
15
 74
0
 42
0.0000001
 43
0.0000001
 44
0.0000000001
 40
0.0
 40
0.0
 40
0.0
 40
0.0
 40
0.0283345607
 40
0.0591514353
 40
0.0940887393
 40
0.1341432693
 40
0.1798660523
 40
0.2315248
 40
0.2890780007
 40
0.3522587252
 40
0.4939816892
 40
0.6532291838
 40
0.8242790717
 40
1.0
 40
1.0
 40
1.0
 40
1.0
 10
5.5600960396
 20
4.8390792812
 30
0.0
 10
5.5598536349
 20
4.8390792812
 30
0.0
 10
5.559345051
 20
4.8391645321
 30
0.0
 10
5.5586150564
 20
4.839522952
 30
0.0
 10
5.5579069836
 20
4.8400961128
 30
0.0
 10
5.5572237265
 20
4.8408754593
 30
0.0
 10
5.5565694166
 20
4.8418555479
 30
0.0
 10
5.5559517899
 20
4.8430304763
 30
0.0
 10
5.555374966
 20
4.8443892848
 30
0.0
 10
5.554637153
 20
4.8465113147
 30
0.0
 10
5.5538683888
 20
4.8495362312
 30
0.0
 10
5.5532103808
 20
4.8535240758
 30
0.0
 10
5.5528035192
 20
4.8578369153
 30
0.0
 10
5.5527084976
 20
4.8608043192
 30
0.0
 10
5.5527084976
 20
4.8623076277
 30
0.0
  0
SPLINE
  5
431
100
AcDbEntity
  8
0
100
AcDbSpline
 62
7
  6
CONTINUOUS
 70
0
 71
3
 72
69
 73
65
 74
0
 42
0.0000001
 43
0.0000001
 44
0.0000000001
 40
0.0
 40
0.0
 40
0.0
 40
0.0
 40
0.0000746872
 40
0.0001311131
 40
0.0002034222
 40
0.0003990966
 40
0.0006655097
 40
0.0010039353
 40
0.0014149598
 40
0.0018988908
 40
0.0024559016
 40
0.0037895066
 40
0.0054161917
 40
0.0073355595
 40
0.0095461221
 40
0.0120462068
 40
0.0148340993
 40
0.0179080603
 40
0.0212663339
 40
0.0288287359
 40
0.0375062849
 40
0.0472770486
 40
0.0581156289
 40
0.0699965789
 40
0.0828943939
 40
0.09678
 40
0.1116181766
 40
0.1273730838
 40
0.1440088725
 40
0.1797694353
 40
0.2185563108
 40
0.2600081683
 40
0.303727908
 40
0.349300747
 40
0.3962972367
 40
0.4442753316
 40
0.4927842053
 40
0.5413616965
 40
0.589547954
 40
0.6368901567
 40
0.6829407026
 40
0.7272685605
 40
0.7694503373
 40
0.8090897973
 40
0.8458055372
 40
0.8792521196
 40
0.9091125535
 40
0.9226077181
 40
0.9351059661
 40
0.9465777616
 40
0.9569937748
 40
0.9663296092
 40
0.974566127
 40
0.9816844892
 40
0.9876659397
 40
0.9902249065
 40
0.9924944153
 40
0.9944736655
 40
0.9961619222
 40
0.9975585716
 40
0.9986632502
 40
0.9994762065
 40
0.9997739079
 40
1.0
 40
1.0
 40
1.0
 40
1.0
 10
4.505792691
 20
5.162216715
 30
0.0
 10
4.5057926731
 20
5.1622584716
 30
0.0
 10
4.505844678
 20
5.1623252805
 30
0.0
 10
4.5059381558
 20
5.1623860664
 30
0.0
 10
4.5061022606
 20
5.1624666527
 30
0.0
 10
4.5063866588
 20
5.162559043
 30
0.0
 10
4.5068217539
 20
5.1626653661
 30
0.0
 10
4.5073797397
 20
5.1627719923
 30
0.0
 10
4.5080609161
 20
5.1628797853
 30
0.0
 10
4.508865489
 20
5.1629880788
 30
0.0
 10
4.5101840935
 20
5.1631426048
 30
0.0
 10
4.5121416432
 20
5.1633316048
 30
0.0
 10
4.5148611123
 20
5.1635498998
 30
0.0
 10
4.5180720596
 20
5.1637704323
 30
0.0
 10
4.521772163
 20
5.1639929963
 30
0.0
 10
4.5259585287
 20
5.16421722
 30
0.0
 10
4.530628153
 20
5.164442884
 30
0.0
 10
4.5357780292
 20
5.1646698027
 30
0.0
 10
4.5435958612
 20
5.1649864765
 30
0.0
 10
4.5545459937
 20
5.1653794899
 30
0.0
 10
4.5690810765
 20
5.1658376921
 30
0.0
 10
4.5854485989
 20
5.1662971681
 30
0.0
 10
4.6036077512
 20
5.1667558665
 30
0.0
 10
4.6235157699
 20
5.1672117294
 30
0.0
 10
4.6451278596
 20
5.1676624555
 30
0.0
 10
4.668393748
 20
5.168106991
 30
0.0
 10
4.693257348
 20
5.1685472267
 30
0.0
 10
4.7196588167
 20
5.1689844509
 30
0.0
 10
4.7577567053
 20
5.1695796806
 30
0.0
 10
4.8087308104
 20
5.1703171941
 30
0.0
 10
4.8735786593
 20
5.1711949101
 30
0.0
 10
4.9428764295
 20
5.1720988635
 30
0.0
 10
5.0159682524
 20
5.1730190781
 30
0.0
 10
5.0921602538
 20
5.1739387693
 30
0.0
 10
5.1707333439
 20
5.1748476039
 30
0.0
 10
5.250948279
 20
5.1757352812
 30
0.0
 10
5.3320474064
 20
5.176602378
 30
0.0
 10
5.4132629174
 20
5.1774698289
 30
0.0
 10
5.4938259615
 20
5.1783519615
 30
0.0
 10
5.5729759478
 20
5.1792509304
 30
0.0
 10
5.6499683677
 20
5.1801702515
 30
0.0
 10
5.7240754009
 20
5.1810927868
 30
0.0
 10
5.79459799
 20
5.1819993562
 30
0.0
 10
5.8608646156
 20
5.1828873791
 30
0.0
 10
5.9222473039
 20
5.1837564881
 30
0.0
 10
5.9781622084
 20
5.1846163954
 30
0.0
 10
6.0210948879
 20
5.1853655561
 30
0.0
 10
6.0523159594
 20
5.1859849634
 30
0.0
 10
6.0732574184
 20
5.1864376754
 30
0.0
 10
6.092476852
 20
5.1868935676
 30
0.0
 10
6.109927613
 20
5.1873519287
 30
0.0
 10
6.1255688486
 20
5.1878113438
 30
0.0
 10
6.1393655751
 20
5.1882692005
 30
0.0
 10
6.15128586
 20
5.1887233032
 30
0.0
 10
6.1600319018
 20
5.189113519
 30
0.0
 10
6.1660674105
 20
5.1894286217
 30
0.0
 10
6.1698670675
 20
5.1896507168
 30
0.0
 10
6.173179128
 20
5.1898709316
 30
0.0
 10
6.1760020305
 20
5.1900893561
 30
0.0
 10
6.1783346616
 20
5.1903050534
 30
0.0
 10
6.180175255
 20
5.1905186053
 30
0.0
 10
6.1814007153
 20
5.1907049727
 30
0.0
 10
6.1821310825
 20
5.1908640161
 30
0.0
 10
6.1824131978
 20
5.1909445953
 30
0.0
 10
6.1825320216
 20
5.190987714
 30
0.0
  0
SPLINE
  5
432
100
AcDbEntity
  8
0
100
AcDbSpline
 62
7
  6
CONTINUOUS
 70
0
 71
3
 72
71
 73
67
 74
0
 42
0.0000001
 43
0.0000001
 44
0.0000000001
 40
0.0
 40
0.0
 40
0.0
 40
0.0
 40
0.0000747605
 40
0.0001312671
 40
0.0002037024
 40
0.0002930722
 40
0.0003999087
 40
0.0006670757
 40
0.0010066354
 40
0.0014191011
 40
0.0019046637
 40
0.0024633798
 40
0.0038001498
 40
0.0054288991
 40
0.0073487788
 40
0.0095588012
 40
0.0120579049
 40
0.0148449854
 40
0.0179189103
 40
0.021278136
 40
0.0288425405
 40
0.037517638
 40
0.0472826707
 40
0.0581168353
 40
0.0699965508
 40
0.0828917578
 40
0.0967714566
 40
0.1116046367
 40
0.1273593929
 40
0.1439972637
 40
0.1797567107
 40
0.2185479359
 40
0.2600000164
 40
0.3037206579
 40
0.3492966034
 40
0.3962954301
 40
0.4442756993
 40
0.4927824567
 40
0.5413587729
 40
0.5895456725
 40
0.6368865543
 40
0.6829378059
 40
0.7272621314
 40
0.7694433288
 40
0.8090774498
 40
0.8457898204
 40
0.879232881
 40
0.8946267618
 40
0.9090893494
 40
0.922586901
 40
0.935085747
 40
0.9465559692
 40
0.9569734735
 40
0.9663146843
 40
0.9745560521
 40
0.9816755353
 40
0.9876583662
 40
0.9902196661
 40
0.9924921871
 40
0.9944744499
 40
0.9961650395
 40
0.9975626602
 40
0.9986666172
 40
0.9994778974
 40
0.9997746966
 40
1.0
 40
1.0
 40
1.0
 40
1.0
 10
4.5057986072
 20
5.2202868534
 30
0.0
 10
4.5057985832
 20
5.2203286515
 30
0.0
 10
4.5058506538
 20
5.2203955515
 30
0.0
 10
4.505944264
 20
5.2204563732
 30
0.0
 10
4.5060546957
 20
5.2205108054
 30
0.0
 10
4.5061948948
 20
5.2205642438
 30
0.0
 10
4.5064421861
 20
5.2206422431
 30
0.0
 10
4.506830246
 20
5.2207360297
 30
0.0
 10
4.5073899837
 20
5.2208433662
 30
0.0
 10
4.5080735274
 20
5.2209513455
 30
0.0
 10
4.5088807463
 20
5.2210600276
 30
0.0
 10
4.5102029789
 20
5.2212149447
 30
0.0
 10
4.5121644046
 20
5.2214043124
 30
0.0
 10
4.5148871149
 20
5.2216226658
 30
0.0
 10
4.518099259
 20
5.2218427975
 30
0.0
 10
4.5217988716
 20
5.2220646644
 30
0.0
 10
4.52598401
 20
5.2222880902
 30
0.0
 10
4.5306526847
 20
5.2225130558
 30
0.0
 10
4.5358026811
 20
5.2227395774
 30
0.0
 10
4.5436222125
 20
5.2230562823
 30
0.0
 10
4.5545726969
 20
5.2234499736
 30
0.0
 10
4.5691044259
 20
5.2239089459
 30
0.0
 10
4.5854650404
 20
5.2243686086
 30
0.0
 10
4.6036180069
 20
5.2248265147
 30
0.0
 10
4.6235216215
 20
5.2252806024
 30
0.0
 10
4.6451284536
 20
5.2257309601
 30
0.0
 10
4.6683869552
 20
5.2261772443
 30
0.0
 10
4.6932445589
 20
5.2266192845
 30
0.0
 10
4.7196445429
 20
5.2270565953
 30
0.0
 10
4.7577432418
 20
5.2276504271
 30
0.0
 10
4.8087207932
 20
5.2283858056
 30
0.0
 10
4.8735710747
 20
5.2292683277
 30
0.0
 10
4.9428725289
 20
5.2301709483
 30
0.0
 10
5.0159673844
 20
5.2310887678
 30
0.0
 10
5.0921635633
 20
5.2320113132
 30
0.0
 10
5.1707416109
 20
5.2329191136
 30
0.0
 10
5.2509586231
 20
5.2338032484
 30
0.0
 10
5.3320577869
 20
5.2346746364
 30
0.0
 10
5.4132725308
 20
5.2355415129
 30
0.0
 10
5.4938352923
 20
5.2364189905
 30
0.0
 10
5.5729859285
 20
5.2373228722
 30
0.0
 10
5.6499767062
 20
5.238241615
 30
0.0
 10
5.7240825105
 20
5.2391618632
 30
0.0
 10
5.7946003761
 20
5.2400726306
 30
0.0
 10
5.8608623983
 20
5.2409597316
 30
0.0
 10
5.922238828
 20
5.2418255341
 30
0.0
 10
5.9700631517
 20
5.2425634667
 30
0.0
 10
6.0054483332
 20
5.2431657676
 30
0.0
 10
6.0296832131
 20
5.2436083114
 30
0.0
 10
6.0522991332
 20
5.2440549626
 30
0.0
 10
6.0732415858
 20
5.2445067389
 30
0.0
 10
6.0924614526
 20
5.2449636365
 30
0.0
 10
6.1099152997
 20
5.2454230019
 30
0.0
 10
6.1255632198
 20
5.2458825901
 30
0.0
 10
6.1393664309
 20
5.2463399159
 30
0.0
 10
6.1512909798
 20
5.246792755
 30
0.0
 10
6.1600398353
 20
5.2471823352
 30
0.0
 10
6.1660791367
 20
5.2474979452
 30
0.0
 10
6.1698834665
 20
5.2477207523
 30
0.0
 10
6.1732001851
 20
5.2479417853
 30
0.0
 10
6.1760265984
 20
5.2481609324
 30
0.0
 10
6.1783606607
 20
5.248377056
 30
0.0
 10
6.1802004595
 20
5.2485906609
 30
0.0
 10
6.1814240934
 20
5.2487768458
 30
0.0
 10
6.1821525979
 20
5.2489356278
 30
0.0
 10
6.1824337815
 20
5.2490160362
 30
0.0
 10
6.1825521736
 20
5.249059055
 30
0.0
  0
SPLINE
  5
433
100
AcDbEntity
  8
0
100
AcDbSpline
 62
7
  6
CONTINUOUS
 70
0
 71
3
 72
61
 73
57
 74
0
 42
0.0000001
 43
0.0000001
 44
0.0000000001
 40
0.0
 40
0.0
 40
0.0
 40
0.0
 40
0.0000722193
 40
0.0001260672
 40
0.0001947845
 40
0.0003801694
 40
0.0006321144
 40
0.0009518694
 40
0.001340001
 40
0.0017967965
 40
0.0023224094
 40
0.0035803508
 40
0.0051140839
 40
0.0069235287
 40
0.0090082974
 40
0.0113670209
 40
0.0139979838
 40
0.0168994457
 40
0.0200696497
 40
0.0272091989
 40
0.0354024177
 40
0.0446335906
 40
0.0548802334
 40
0.0661178505
 40
0.0783219301
 40
0.091467844
 40
0.1055271144
 40
0.1204664196
 40
0.1362521199
 40
0.1702270035
 40
0.2071513875
 40
0.2466919617
 40
0.2885010325
 40
0.3322033708
 40
0.3774158213
 40
0.4237341189
 40
0.4707471062
 40
0.5180377001
 40
0.5651847731
 40
0.6117707031
 40
0.657382838
 40
0.70161478
 40
0.7440778892
 40
0.7843904453
 40
0.8221973684
 40
0.857157178
 40
0.8889601737
 40
0.9173261184
 40
0.9420007257
 40
0.9627735609
 40
0.9716343477
 40
0.9794528866
 40
0.9862135429
 40
0.9919007645
 40
0.9964994026
 40
1.0
 40
1.0
 40
1.0
 40
1.0
 10
4.5058002303
 20
5.2783584973
 30
0.0
 10
4.505800238
 20
5.2783987245
 30
0.0
 10
4.5058485528
 20
5.2784633304
 30
0.0
 10
4.5059370219
 20
5.2785227489
 30
0.0
 10
4.5060912205
 20
5.2786008223
 30
0.0
 10
4.50635879
 20
5.2786905533
 30
0.0
 10
4.5067680094
 20
5.2787936614
 30
0.0
 10
4.5072926959
 20
5.2788970727
 30
0.0
 10
4.5079330532
 20
5.2790015553
 30
0.0
 10
4.5086892722
 20
5.2791064916
 30
0.0
 10
4.5099282235
 20
5.2792561422
 30
0.0
 10
4.5117671013
 20
5.2794390628
 30
0.0
 10
4.514321348
 20
5.2796501463
 30
0.0
 10
4.5173373362
 20
5.2798632532
 30
0.0
 10
4.5208136926
 20
5.2800784761
 30
0.0
 10
4.5247483173
 20
5.2802954782
 30
0.0
 10
4.5291383886
 20
5.2805140157
 30
0.0
 10
4.5339809113
 20
5.2807338687
 30
0.0
 10
4.5413333713
 20
5.2810407745
 30
0.0
 10
4.5516328247
 20
5.2814217093
 30
0.0
 10
4.5653081445
 20
5.2818656562
 30
0.0
 10
4.5807149325
 20
5.2823108321
 30
0.0
 10
4.5978181325
 20
5.2827557725
 30
0.0
 10
4.6165778405
 20
5.2831987618
 30
0.0
 10
4.6369529747
 20
5.2836382371
 30
0.0
 10
4.6589002589
 20
5.2840722581
 30
0.0
 10
4.6823714862
 20
5.2845005722
 30
0.0
 10
4.7073134056
 20
5.2849252376
 30
0.0
 10
4.7433476148
 20
5.285502721
 30
0.0
 10
4.7916271972
 20
5.2862175579
 30
0.0
 10
4.8531380477
 20
5.2870653557
 30
0.0
 10
4.9190128028
 20
5.2879317853
 30
0.0
 10
4.9886630079
 20
5.2888206397
 30
0.0
 10
5.061472715
 20
5.2897150496
 30
0.0
 10
5.1367944224
 20
5.2906002343
 30
0.0
 10
5.2139604956
 20
5.2914714023
 30
0.0
 10
5.2922844304
 20
5.292321434
 30
0.0
 10
5.3710701599
 20
5.293159439
 30
0.0
 10
5.4496179136
 20
5.2940054521
 30
0.0
 10
5.5272304871
 20
5.2948695295
 30
0.0
 10
5.6032190068
 20
5.295749267
 30
0.0
 10
5.6769107211
 20
5.2966433385
 30
0.0
 10
5.7476502837
 20
5.2975355734
 30
0.0
 10
5.8148109661
 20
5.2984085179
 30
0.0
 10
5.8777920751
 20
5.2992629753
 30
0.0
 10
5.9360329653
 20
5.3001035258
 30
0.0
 10
5.9890145729
 20
5.300939107
 30
0.0
 10
6.0362662048
 20
5.3017860004
 30
0.0
 10
6.0773723034
 20
5.3026539576
 30
0.0
 10
6.1076133493
 20
5.3034171843
 30
0.0
 10
6.1284653858
 20
5.3040443876
 30
0.0
 10
6.1415143307
 20
5.3044878062
 30
0.0
 10
6.1527945141
 20
5.3049275004
 30
0.0
 10
6.1622799348
 20
5.3053608372
 30
0.0
 10
6.169947491
 20
5.3057857203
 30
0.0
 10
6.1744482782
 20
5.3061018881
 30
0.0
 10
6.1763908086
 20
5.3062711012
 30
0.0
  0
SPLINE
  5
434
100
AcDbEntity
  8
0
100
AcDbSpline
 62
7
  6
CONTINUOUS
 70
0
 71
3
 72
12
 73
8
 74
0
 42
0.0000001
 43
0.0000001
 44
0.0000000001
 40
0.0
 40
0.0
 40
0.0
 40
0.0
 40
0.3629975777
 40
0.6504697896
 40
0.8625572052
 40
0.9405165832
 40
1.0
 40
1.0
 40
1.0
 40
1.0
 10
6.1763908086
 20
5.3062711012
 30
0.0
 10
6.1771393492
 20
5.3063363063
 30
0.0
 10
6.1784800435
 20
5.3064621608
 30
0.0
 10
6.1802531867
 20
5.3066709093
 30
0.0
 10
6.1814355906
 20
5.3068531328
 30
0.0
 10
6.1821423486
 20
5.3070084616
 30
0.0
 10
6.1824162784
 20
5.3070871709
 30
0.0
 10
6.1825320157
 20
5.3071291808
 30
0.0
  0
SPLINE
  5
435
100
AcDbEntity
  8
0
100
AcDbSpline
 62
7
  6
CONTINUOUS
 70
0
 71
3
 72
71
 73
67
 74
0
 42
0.0000001
 43
0.0000001
 44
0.0000000001
 40
0.0
 40
0.0
 40
0.0
 40
0.0
 40
0.0000748864
 40
0.0001314938
 40
0.0002040345
 40
0.0002934958
 40
0.000400391
 40
0.0006675028
 40
0.0010066794
 40
0.0014184467
 40
0.0019030513
 40
0.002460606
 40
0.0037946665
 40
0.0054205627
 40
0.0073378915
 40
0.0095461096
 40
0.0120445681
 40
0.0148318558
 40
0.0179058216
 40
0.0212642683
 40
0.0288257594
 40
0.0374985986
 40
0.0472649179
 40
0.0581028517
 40
0.0699842398
 40
0.0828803492
 40
0.0967624346
 40
0.1116004631
 40
0.127357734
 40
0.1439953761
 40
0.1797559724
 40
0.2185480818
 40
0.2599978392
 40
0.3037168618
 40
0.3492883904
 40
0.3962867156
 40
0.4442660922
 40
0.492774179
 40
0.5413527155
 40
0.5895407058
 40
0.6368842491
 40
0.6829359115
 40
0.7272605131
 40
0.7694413074
 40
0.8090750956
 40
0.8457919672
 40
0.8792373511
 40
0.8946360791
 40
0.909103166
 40
0.9226020755
 40
0.9351011353
 40
0.9465737036
 40
0.9569933825
 40
0.9663337956
 40
0.9745711366
 40
0.9816886745
 40
0.9876709699
 40
0.9902316299
 40
0.9925027812
 40
0.9944825997
 40
0.9961699863
 40
0.9975647905
 40
0.9986671648
 40
0.9994778751
 40
0.9997746375
 40
1.0
 40
1.0
 40
1.0
 40
1.0
 10
4.5058081305
 20
5.3944999354
 30
0.0
 10
4.5058081249
 20
5.3945418033
 30
0.0
 10
4.5058603808
 20
5.3946087626
 30
0.0
 10
4.505954171
 20
5.3946696185
 30
0.0
 10
4.5060647781
 20
5.3947240767
 30
0.0
 10
4.506205122
 20
5.3947775264
 30
0.0
 10
4.5064524744
 20
5.3948554988
 30
0.0
 10
4.5068403258
 20
5.3949492172
 30
0.0
 10
4.5073994315
 20
5.3950564395
 30
0.0
 10
4.5080818409
 20
5.3951642385
 30
0.0
 10
4.5088874917
 20
5.3952726891
 30
0.0
 10
4.5102070341
 20
5.3954272308
 30
0.0
 10
4.5121647065
 20
5.3956161098
 30
0.0
 10
4.5148828745
 20
5.3958339468
 30
0.0
 10
4.5180909643
 20
5.3960537285
 30
0.0
 10
4.5217877357
 20
5.3962755251
 30
0.0
 10
4.5259715504
 20
5.3964992837
 30
0.0
 10
4.5306399163
 20
5.3967248886
 30
0.0
 10
4.5357895271
 20
5.3969520323
 30
0.0
 10
4.5436069017
 20
5.3972692546
 30
0.0
 10
4.554553923
 20
5.3976630809
 30
0.0
 10
4.5690833166
 20
5.3981217352
 30
0.0
 10
4.5854453195
 20
5.3985807483
 30
0.0
 10
4.6036018393
 20
5.3990383705
 30
0.0
 10
4.6235087391
 20
5.3994935674
 30
0.0
 10
4.6451180652
 20
5.3999450804
 30
0.0
 10
4.6683808341
 20
5.4003917522
 30
0.0
 10
4.6932436224
 20
5.4008322225
 30
0.0
 10
4.719647296
 20
5.4012686467
 30
0.0
 10
4.7577474649
 20
5.4018623353
 30
0.0
 10
4.8087253872
 20
5.4025999402
 30
0.0
 10
4.8735747529
 20
5.4034813119
 30
0.0
 10
4.9428737036
 20
5.4043815759
 30
0.0
 10
5.0159629842
 20
5.4053019687
 30
0.0
 10
5.092154614
 20
5.4062236303
 30
0.0
 10
5.1707285066
 20
5.407128931
 30
0.0
 10
5.2509444804
 20
5.4080174697
 30
0.0
 10
5.3320441823
 20
5.4088873881
 30
0.0
 10
5.4132605787
 20
5.4097521118
 30
0.0
 10
5.4938256774
 20
5.4106337061
 30
0.0
 10
5.5729777115
 20
5.4115365433
 30
0.0
 10
5.6499694712
 20
5.4124532506
 30
0.0
 10
5.724074527
 20
5.4133756465
 30
0.0
 10
5.7945913044
 20
5.4142858081
 30
0.0
 10
5.8608546836
 20
5.4151700258
 30
0.0
 10
5.9222339705
 20
5.4160389285
 30
0.0
 10
5.9700642503
 20
5.4167768167
 30
0.0
 10
6.0054555671
 20
5.4173773089
 30
0.0
 10
6.0296961619
 20
5.4178189356
 30
0.0
 10
6.0523151936
 20
5.4182663732
 30
0.0
 10
6.0732595531
 20
5.4187197538
 30
0.0
 10
6.0924818339
 20
5.4191768294
 30
0.0
 10
6.1099375656
 20
5.4196358068
 30
0.0
 10
6.1255838351
 20
5.420094793
 30
0.0
 10
6.1393831031
 20
5.4205519101
 30
0.0
 10
6.151303842
 20
5.4210055108
 30
0.0
 10
6.1600508041
 20
5.4213960501
 30
0.0
 10
6.1660885819
 20
5.4217121668
 30
0.0
 10
6.1698903669
 20
5.4219350527
 30
0.0
 10
6.1732031332
 20
5.422155784
 30
0.0
 10
6.1760248133
 20
5.4223743193
 30
0.0
 10
6.1783546363
 20
5.4225898211
 30
0.0
 10
6.1801916691
 20
5.4228029771
 30
0.0
 10
6.1814140854
 20
5.4229889256
 30
0.0
 10
6.1821422878
 20
5.4231476151
 30
0.0
 10
6.1824234825
 20
5.4232280168
 30
0.0
 10
6.1825419065
 20
5.4232710402
 30
0.0
  0
SPLINE
  5
436
100
AcDbEntity
  8
0
100
AcDbSpline
 62
7
  6
CONTINUOUS
 70
0
 71
3
 72
61
 73
57
 74
0
 42
0.0000001
 43
0.0000001
 44
0.0000000001
 40
0.0
 40
0.0
 40
0.0
 40
0.0
 40
0.0000724428
 40
0.0001265663
 40
0.000195688
 40
0.0003822964
 40
0.0006360588
 40
0.0009582738
 40
0.0013495567
 40
0.0018102443
 40
0.0023405395
 40
0.003610404
 40
0.0051592314
 40
0.0069859238
 40
0.0090891772
 40
0.0114676149
 40
0.0141198181
 40
0.017044342
 40
0.020239725
 40
0.0274371544
 40
0.0356976227
 40
0.0450000436
 40
0.0553222937
 40
0.0666422279
 40
0.0789373486
 40
0.0921800275
 40
0.1063386535
 40
0.1213815005
 40
0.1372768335
 40
0.1714847227
 40
0.2086486384
 40
0.2484402361
 40
0.2904985823
 40
0.3344473853
 40
0.3798933178
 40
0.4264278056
 40
0.4736363166
 40
0.5210947948
 40
0.5683788799
 40
0.6150664816
 40
0.6607379023
 40
0.747416517
 40
0.7876450494
 40
0.8253108004
 40
0.8600711561
 40
0.8916196932
 40
0.9196675064
 40
0.9439754881
 40
0.9643219967
 40
0.9729539184
 40
0.9805332249
 40
0.9870412255
 40
0.9924610184
 40
0.9967829931
 40
0.9985300291
 40
1.0
 40
1.0
 40
1.0
 40
1.0
 10
4.5057879752
 20
5.4525707615
 30
0.0
 10
4.5057879702
 20
5.4526111445
 30
0.0
 10
4.5058367115
 20
5.4526759848
 30
0.0
 10
4.5059257575
 20
5.452735531
 30
0.0
 10
4.506081168
 20
5.4528138943
 30
0.0
 10
4.5063508741
 20
5.4529039477
 30
0.0
 10
4.5067634907
 20
5.4530074799
 30
0.0
 10
4.5072927268
 20
5.4531113556
 30
0.0
 10
4.5079388763
 20
5.4532163612
 30
0.0
 10
4.5087022111
 20
5.4533218763
 30
0.0
 10
4.5099535322
 20
5.4534724668
 30
0.0
 10
4.5118114785
 20
5.4536566786
 30
0.0
 10
4.5143923451
 20
5.4538693695
 30
0.0
 10
4.5174389797
 20
5.454083993
 30
0.0
 10
4.5209489363
 20
5.4543003879
 30
0.0
 10
4.5249197573
 20
5.4545182444
 30
0.0
 10
4.5293489379
 20
5.4547374149
 30
0.0
 10
4.5342339697
 20
5.4549577827
 30
0.0
 10
4.5416513166
 20
5.4552653952
 30
0.0
 10
4.5520425662
 20
5.4556474629
 30
0.0
 10
4.5658379526
 20
5.456093559
 30
0.0
 10
4.5813760207
 20
5.4565412358
 30
0.0
 10
4.5986202211
 20
5.4569884335
 30
0.0
 10
4.6175332618
 20
5.4574330753
 30
0.0
 10
4.6380748046
 20
5.457872749
 30
0.0
 10
4.6601992018
 20
5.4583073124
 30
0.0
 10
4.6838556572
 20
5.4587379045
 30
0.0
 10
4.7089911101
 20
5.4591653108
 30
0.0
 10
4.7453019518
 20
5.459746278
 30
0.0
 10
4.793943499
 20
5.4604628894
 30
0.0
 10
4.8559053826
 20
5.4613129578
 30
0.0
 10
4.9222435413
 20
5.4621878298
 30
0.0
 10
4.9923640088
 20
5.4630799947
 30
0.0
 10
5.0656366552
 20
5.4639768829
 30
0.0
 10
5.1414047629
 20
5.4648679771
 30
0.0
 10
5.2189903178
 20
5.4657406358
 30
0.0
 10
5.2976980795
 20
5.4665903144
 30
0.0
 10
5.376823788
 20
5.4674341001
 30
0.0
 10
5.4556590194
 20
5.46828549
 30
0.0
 10
5.5334978545
 20
5.4691504843
 30
0.0
 10
5.6332950731
 20
5.470314493
 30
0.0
 10
5.729491106
 20
5.4715074335
 30
0.0
 10
5.8212239538
 20
5.4727061381
 30
0.0
 10
5.8840170907
 20
5.4735643116
 30
0.0
 10
5.9419713716
 20
5.4744043886
 30
0.0
 10
5.9945635635
 20
5.4752442425
 30
0.0
 10
6.0413280032
 20
5.4761008216
 30
0.0
 10
6.0818464392
 20
5.4769700432
 30
0.0
 10
6.1115410317
 20
5.4777382438
 30
0.0
 10
6.131910293
 20
5.4783697882
 30
0.0
 10
6.1445672879
 20
5.478814531
 30
0.0
 10
6.1554326629
 20
5.4792540137
 30
0.0
 10
6.1644807909
 20
5.4796863086
 30
0.0
 10
6.1708745721
 20
5.480059902
 30
0.0
 10
6.1750659919
 20
5.4803669214
 30
0.0
 10
6.1768527429
 20
5.4805212991
 30
0.0
 10
6.1776683487
 20
5.4806003834
 30
0.0
  0
SPLINE
  5
437
100
AcDbEntity
  8
0
100
AcDbSpline
 62
7
  6
CONTINUOUS
 70
0
 71
3
 72
12
 73
8
 74
0
 42
0.0000001
 43
0.0000001
 44
0.0000000001
 40
0.0
 40
0.0
 40
0.0
 40
0.0
 40
0.3563112499
 40
0.6415841922
 40
0.8559197157
 40
0.9366547346
 40
1.0
 40
1.0
 40
1.0
 40
1.0
 10
6.1776683487
 20
5.4806003834
 30
0.0
 10
6.1782516121
 20
5.4806569388
 30
0.0
 10
6.179301211
 20
5.4807664858
 30
0.0
 10
6.1806972251
 20
5.4809474223
 30
0.0
 10
6.1816392114
 20
5.4811055848
 30
0.0
 10
6.1822134654
 20
5.4812391862
 30
0.0
 10
6.1824409265
 20
5.4813068278
 30
0.0
 10
6.1825388478
 20
5.4813423911
 30
0.0
  0
SPLINE
  5
438
100
AcDbEntity
  8
0
100
AcDbSpline
 62
7
  6
CONTINUOUS
 70
0
 71
3
 72
60
 73
56
 74
0
 42
0.0000001
 43
0.0000001
 44
0.0000000001
 40
0.0
 40
0.0
 40
0.0
 40
0.0
 40
0.0000725271
 40
0.0001267264
 40
0.0001959722
 40
0.0003829708
 40
0.000637234
 40
0.0009599553
 40
0.0013516426
 40
0.0018125246
 40
0.0023426962
 40
0.0036109378
 40
0.005156159
 40
0.0069778133
 40
0.0090752147
 40
0.0114476023
 40
0.0140941726
 40
0.0170139156
 40
0.0202048774
 40
0.0273913915
 40
0.0356355429
 40
0.0449190861
 40
0.0552237023
 40
0.0665277321
 40
0.0788035995
 40
0.0920231069
 40
0.1061580461
 40
0.1211797246
 40
0.1370540808
 40
0.1712110007
 40
0.2083266744
 40
0.2480670656
 40
0.2900736803
 40
0.3339723037
 40
0.3793669373
 40
0.4258552444
 40
0.4730198764
 40
0.567693288
 40
0.6143560253
 40
0.660012935
 40
0.7042551701
 40
0.7466861655
 40
0.7869290843
 40
0.8246184519
 40
0.8594220521
 40
0.8910207783
 40
0.9191401669
 40
0.9435284788
 40
0.9639719946
 40
0.972658058
 40
0.9802907934
 40
0.9868533695
 40
0.9923335787
 40
0.9967195731
 40
1.0
 40
1.0
 40
1.0
 40
1.0
 10
4.5058063441
 20
5.5106412952
 30
0.0
 10
4.5058062673
 20
5.5106817188
 30
0.0
 10
4.5058549844
 20
5.5107467174
 30
0.0
 10
4.5059441308
 20
5.510806367
 30
0.0
 10
4.5060998016
 20
5.510884891
 30
0.0
 10
4.5063700076
 20
5.510975102
 30
0.0
 10
4.50678331
 20
5.5110788246
 30
0.0
 10
4.5073132305
 20
5.5111828655
 30
0.0
 10
4.50795988
 20
5.5112879985
 30
0.0
 10
4.5087233521
 20
5.5113935804
 30
0.0
 10
4.5099736132
 20
5.5115440982
 30
0.0
 10
4.5118283026
 20
5.5117279836
 30
0.0
 10
4.5144030817
 20
5.511939966
 30
0.0
 10
4.5174412066
 20
5.5121536447
 30
0.0
 10
4.5209412166
 20
5.5123690379
 30
0.0
 10
4.5249016771
 20
5.5125860222
 30
0.0
 10
4.5293210065
 20
5.5128046265
 30
0.0
 10
4.5341970037
 20
5.5130248919
 30
0.0
 10
4.5416019589
 20
5.5133328098
 30
0.0
 10
4.5519739103
 20
5.5137155413
 30
0.0
 10
4.56574143
 20
5.5141617969
 30
0.0
 10
4.5812476356
 20
5.5146089892
 30
0.0
 10
4.5984599604
 20
5.5150548856
 30
0.0
 10
4.6173406643
 20
5.5154977732
 30
0.0
 10
4.6378464888
 20
5.5159374712
 30
0.0
 10
4.6599305589
 20
5.5163734009
 30
0.0
 10
4.6835453884
 20
5.5168051738
 30
0.0
 10
4.7086402408
 20
5.5172320151
 30
0.0
 10
4.7448935599
 20
5.5178107676
 30
0.0
 10
4.7934605673
 20
5.5185253665
 30
0.0
 10
4.8553289157
 20
5.5193786666
 30
0.0
 10
4.9215725103
 20
5.5202512053
 30
0.0
 10
4.9915967561
 20
5.521139968
 30
0.0
 10
5.0647725798
 20
5.522038209
 30
0.0
 10
5.1404465985
 20
5.5229284934
 30
0.0
 10
5.2179413346
 20
5.5237965557
 30
0.0
 10
5.3229007812
 20
5.5249358071
 30
0.0
 10
5.4279577769
 20
5.5260451404
 30
0.0
 10
5.5321738153
 20
5.5272064837
 30
0.0
 10
5.6082828111
 20
5.5280942143
 30
0.0
 10
5.6820329412
 20
5.5289897882
 30
0.0
 10
5.7527653243
 20
5.5298831146
 30
0.0
 10
5.8198452841
 20
5.5307618552
 30
0.0
 10
5.8826740018
 20
5.531614993
 30
0.0
 10
5.9406845055
 20
5.5324553707
 30
0.0
 10
5.9933604469
 20
5.5332976796
 30
0.0
 10
6.0402303671
 20
5.5341484585
 30
0.0
 10
6.0808812769
 20
5.5350171168
 30
0.0
 10
6.1107002783
 20
5.5357862181
 30
0.0
 10
6.1311804791
 20
5.5364163512
 30
0.0
 10
6.1439259866
 20
5.5368598549
 30
0.0
 10
6.1548835956
 20
5.5372987811
 30
0.0
 10
6.1640303078
 20
5.53773116
 30
0.0
 10
6.1713454181
 20
5.5381561676
 30
0.0
 10
6.1756071003
 20
5.5384747633
 30
0.0
 10
6.1774273284
 20
5.5386472221
 30
0.0
  0
SPLINE
  5
439
100
AcDbEntity
  8
0
100
AcDbSpline
 62
7
  6
CONTINUOUS
 70
0
 71
3
 72
12
 73
8
 74
0
 42
0.0000001
 43
0.0000001
 44
0.0000000001
 40
0.0
 40
0.0
 40
0.0
 40
0.0
 40
0.3582006
 40
0.6439610005
 40
0.8575964849
 40
0.9376043433
 40
1.0
 40
1.0
 40
1.0
 40
1.0
 10
6.1774273284
 20
5.5386472221
 30
0.0
 10
6.1780441426
 20
5.5387056626
 30
0.0
 10
6.1791523893
 20
5.5388186828
 30
0.0
 10
6.1806239765
 20
5.539005431
 30
0.0
 10
6.1816135823
 20
5.5391685491
 30
0.0
 10
6.1822138881
 20
5.5393065748
 30
0.0
 10
6.1824504764
 20
5.5393764597
 30
0.0
 10
6.1825519128
 20
5.539413318
 30
0.0
  0
SPLINE
  5
43A
100
AcDbEntity
  8
0
100
AcDbSpline
 62
7
  6
CONTINUOUS
 70
0
 71
3
 72
61
 73
57
 74
0
 42
0.0000001
 43
0.0000001
 44
0.0000000001
 40
0.0
 40
0.0
 40
0.0
 40
0.0
 40
0.0000722876
 40
0.0001262021
 40
0.0001950072
 40
0.0003806294
 40
0.0006328915
 40
0.0009530411
 40
0.0013416425
 40
0.001798981
 40
0.0023252081
 40
0.0035845835
 40
0.0051200116
 40
0.0069313966
 40
0.0090183911
 40
0.0113797099
 40
0.0140136222
 40
0.0169183704
 40
0.0200921803
 40
0.0272398318
 40
0.0354422258
 40
0.0446838196
 40
0.0549423433
 40
0.066193017
 40
0.0784110404
 40
0.0915715732
 40
0.1056467255
 40
0.1206029758
 40
0.1364061846
 40
0.1704163477
 40
0.2073782135
 40
0.2469570876
 40
0.2888052608
 40
0.3325450453
 40
0.3777908302
 40
0.4241392924
 40
0.4711791674
 40
0.5184933465
 40
0.5656595241
 40
0.6122586986
 40
0.6578778731
 40
0.7021097233
 40
0.7445654579
 40
0.7848635983
 40
0.8226485757
 40
0.8575792244
 40
0.8893453438
 40
0.917666546
 40
0.942288201
 40
0.9630001595
 40
0.971827649
 40
0.9796110143
 40
0.9863346846
 40
0.9919831743
 40
0.9965414036
 40
1.0
 40
1.0
 40
1.0
 40
1.0
 10
4.5058010878
 20
6.091350605
 30
0.0
 10
4.5058011163
 20
6.0913908751
 30
0.0
 10
4.5058495433
 20
6.0914555197
 30
0.0
 10
4.5059381458
 20
6.0915149724
 30
0.0
 10
4.5060925873
 20
6.0915931003
 30
0.0
 10
4.5063605455
 20
6.0916828937
 30
0.0
 10
4.5067703437
 20
6.091786075
 30
0.0
 10
4.50729575
 20
6.0918895592
 30
0.0
 10
4.507936967
 20
6.0919941148
 30
0.0
 10
4.5086941814
 20
6.0920991232
 30
0.0
 10
4.509934722
 20
6.0922488727
 30
0.0
 10
4.5117759015
 20
6.0924319092
 30
0.0
 10
4.5143332728
 20
6.0926431173
 30
0.0
 10
4.5173528815
 20
6.0928563363
 30
0.0
 10
4.5208334137
 20
6.0930716707
 30
0.0
 10
4.5247728288
 20
6.09328881
 30
0.0
 10
4.5291683339
 20
6.0935075005
 30
0.0
 10
4.5340169059
 20
6.0937275193
 30
0.0
 10
4.5413785796
 20
6.0940346637
 30
0.0
 10
4.5516908725
 20
6.0944158905
 30
0.0
 10
4.5653832253
 20
6.0948601384
 30
0.0
 10
4.580809357
 20
6.0953055288
 30
0.0
 10
4.5979342621
 20
6.0957506527
 30
0.0
 10
4.6167178304
 20
6.0961938713
 30
0.0
 10
4.6371185374
 20
6.0966336579
 30
0.0
 10
4.6590931479
 20
6.0970682273
 30
0.0
 10
4.6825935571
 20
6.0974968434
 30
0.0
 10
4.7075664426
 20
6.0979216729
 30
0.0
 10
4.7436437255
 20
6.0984992996
 30
0.0
 10
4.7919792539
 20
6.0992145424
 30
0.0
 10
4.8535591723
 20
6.1000636567
 30
0.0
 10
4.9195056506
 20
6.1009303728
 30
0.0
 10
4.9892279996
 20
6.1018196165
 30
0.0
 10
5.0621074473
 20
6.1027149911
 30
0.0
 10
5.1374942182
 20
6.1036004899
 30
0.0
 10
5.2147196949
 20
6.1044713774
 30
0.0
 10
5.293097723
 20
6.1053224289
 30
0.0
 10
5.3719314443
 20
6.106160892
 30
0.0
 10
5.4505195654
 20
6.1070069892
 30
0.0
 10
5.5281631672
 20
6.1078722126
 30
0.0
 10
5.6041718323
 20
6.1087528599
 30
0.0
 10
5.677871942
 20
6.1096472879
 30
0.0
 10
5.7486075991
 20
6.1105400011
 30
0.0
 10
5.8157517821
 20
6.1114133362
 30
0.0
 10
5.8787037692
 20
6.1122677738
 30
0.0
 10
5.9369024632
 20
6.1131086571
 30
0.0
 10
5.9898285503
 20
6.1139449058
 30
0.0
 10
6.037010731
 20
6.1147924869
 30
0.0
 10
6.0780332762
 20
6.1156612344
 30
0.0
 10
6.1081958649
 20
6.1164251762
 30
0.0
 10
6.1289782426
 20
6.117052888
 30
0.0
 10
6.1419699326
 20
6.1174964492
 30
0.0
 10
6.1531896144
 20
6.1179362164
 30
0.0
 10
6.1626113957
 20
6.118369527
 30
0.0
 10
6.1702122651
 20
6.1187943252
 30
0.0
 10
6.1746675639
 20
6.1191107334
 30
0.0
 10
6.1765867946
 20
6.1192804165
 30
0.0
  0
SPLINE
  5
43B
100
AcDbEntity
  8
0
100
AcDbSpline
 62
7
  6
CONTINUOUS
 70
0
 71
3
 72
12
 73
8
 74
0
 42
0.0000001
 43
0.0000001
 44
0.0000000001
 40
0.0
 40
0.0
 40
0.0
 40
0.0
 40
0.3620952695
 40
0.6492594825
 40
0.8616448785
 40
0.939983834
 40
1.0
 40
1.0
 40
1.0
 40
1.0
 10
6.1765867946
 20
6.1192804165
 30
0.0
 10
6.1773097794
 20
6.1193443371
 30
0.0
 10
6.1786054911
 20
6.1194677704
 30
0.0
 10
6.1803204344
 20
6.1196723919
 30
0.0
 10
6.1814658473
 20
6.1198510702
 30
0.0
 10
6.1821523699
 20
6.1200031892
 30
0.0
 10
6.1824192801
 20
6.1200802702
 30
0.0
 10
6.1825323603
 20
6.1201213182
 30
0.0
  0
SPLINE
  5
43C
100
AcDbEntity
  8
0
100
AcDbSpline
 62
7
  6
CONTINUOUS
 70
0
 71
3
 72
70
 73
66
 74
0
 42
0.0000001
 43
0.0000001
 44
0.0000000001
 40
0.0
 40
0.0
 40
0.0
 40
0.0
 40
0.0000747456
 40
0.0001312383
 40
0.0002036479
 40
0.0003996599
 40
0.0006666534
 40
0.0010059757
 40
0.0014182655
 40
0.0019037502
 40
0.0024624747
 40
0.0037994731
 40
0.0054286538
 40
0.0073490738
 40
0.0095596515
 40
0.0120592315
 40
0.0148466159
 40
0.0179205804
 40
0.0212798101
 40
0.0288449656
 40
0.0375212573
 40
0.047287245
 40
0.0581214537
 40
0.0700010939
 40
0.0828966626
 40
0.0967764799
 40
0.1116088525
 40
0.1273617937
 40
0.1439982205
 40
0.1797554842
 40
0.2185452899
 40
0.2599980512
 40
0.3037190347
 40
0.3492956202
 40
0.3962944186
 40
0.4442743977
 40
0.4927807213
 40
0.5413564655
 40
0.5895436252
 40
0.6368858326
 40
0.6829384498
 40
0.7272630965
 40
0.769442764
 40
0.8090756897
 40
0.8457864842
 40
0.8792291815
 40
0.8946230467
 40
0.9090856633
 40
0.922583449
 40
0.9350828517
 40
0.9465533864
 40
0.9569709567
 40
0.966312282
 40
0.9745541075
 40
0.9816741035
 40
0.9876569122
 40
0.9902181381
 40
0.9924906209
 40
0.9944729392
 40
0.9961637365
 40
0.9975617754
 40
0.9986661948
 40
0.999477754
 40
0.9997746387
 40
1.0
 40
1.0
 40
1.0
 40
1.0
 10
4.5057947062
 20
6.1494207503
 30
0.0
 10
4.5057947146
 20
6.1494625401
 30
0.0
 10
4.5058468055
 20
6.1495293762
 30
0.0
 10
4.5059403964
 20
6.1495902137
 30
0.0
 10
4.5061047706
 20
6.1496709029
 30
0.0
 10
4.5063897192
 20
6.1497634486
 30
0.0
 10
4.5068258112
 20
6.1498699917
 30
0.0
 10
4.5073853131
 20
6.1499768857
 30
0.0
 10
4.5080685524
 20
6.1500849835
 30
0.0
 10
4.5088756462
 20
6.1501936111
 30
0.0
 10
4.5101979624
 20
6.1503485839
 30
0.0
 10
4.5121597624
 20
6.1505380205
 30
0.0
 10
4.5148831399
 20
6.15075651
 30
0.0
 10
4.5180961369
 20
6.1509767856
 30
0.0
 10
4.5217966297
 20
6.1511987845
 30
0.0
 10
4.5259825201
 20
6.1514222966
 30
0.0
 10
4.5306516628
 20
6.1516472787
 30
0.0
 10
4.5358018685
 20
6.1518737089
 30
0.0
 10
4.5436218687
 20
6.1521902223
 30
0.0
 10
4.5545734707
 20
6.1525837876
 30
0.0
 10
4.5691068532
 20
6.1530427342
 30
0.0
 10
4.585468726
 20
6.1535024799
 30
0.0
 10
4.6036222397
 20
6.1539606823
 30
0.0
 10
4.6235260803
 20
6.1544148017
 30
0.0
 10
4.6451331903
 20
6.1548648604
 30
0.0
 10
4.6683915632
 20
6.1553108445
 30
0.0
 10
4.6932478203
 20
6.1557527903
 30
0.0
 10
4.7196455803
 20
6.1561904136
 30
0.0
 10
4.7577413138
 20
6.1567843766
 30
0.0
 10
4.808716152
 20
6.1575196135
 30
0.0
 10
4.8735649413
 20
6.1584016804
 30
0.0
 10
4.9428663095
 20
6.1593049842
 30
0.0
 10
5.0159622504
 20
6.1602225876
 30
0.0
 10
5.0921591246
 20
6.1611448929
 30
0.0
 10
5.1707375073
 20
6.1620534578
 30
0.0
 10
5.250954271
 20
6.1629372033
 30
0.0
 10
5.3320528842
 20
6.1638081754
 30
0.0
 10
5.4132673755
 20
6.1646755535
 30
0.0
 10
5.493830873
 20
6.1655529464
 30
0.0
 10
5.57298333
 20
6.1664563684
 30
0.0
 10
5.6499759476
 20
6.1673755674
 30
0.0
 10
5.7240819956
 20
6.1682957111
 30
0.0
 10
5.7945986698
 20
6.1692060681
 30
0.0
 10
5.860858418
 20
6.1700937326
 30
0.0
 10
5.922233225
 20
6.1709593851
 30
0.0
 10
5.9700565599
 20
6.1716970458
 30
0.0
 10
6.0054416176
 20
6.1722994784
 30
0.0
 10
6.0296766841
 20
6.1727421572
 30
0.0
 10
6.0522931078
 20
6.1731889138
 30
0.0
 10
6.0732362237
 20
6.1736405637
 30
0.0
 10
6.0924566556
 20
6.1740973863
 30
0.0
 10
6.1099108146
 20
6.1745567678
 30
0.0
 10
6.1255591226
 20
6.1750164191
 30
0.0
 10
6.1393629659
 20
6.175473854
 30
0.0
 10
6.1512880687
 20
6.1759267277
 30
0.0
 10
6.1600371804
 20
6.1763161973
 30
0.0
 10
6.1660764248
 20
6.1766316999
 30
0.0
 10
6.1698807348
 20
6.1768544394
 30
0.0
 10
6.1731975891
 20
6.1770754327
 30
0.0
 10
6.1760243903
 20
6.1772945831
 30
0.0
 10
6.1783590633
 20
6.177510764
 30
0.0
 10
6.1801995099
 20
6.1777244456
 30
0.0
 10
6.1814236046
 20
6.1779106934
 30
0.0
 10
6.1821523436
 20
6.1780695155
 30
0.0
 10
6.1824336069
 20
6.178149939
 30
0.0
 10
6.1825520312
 20
6.1781929646
 30
0.0
  0
SPLINE
  5
43D
100
AcDbEntity
  8
0
100
AcDbSpline
 62
7
  6
CONTINUOUS
 70
0
 71
3
 72
61
 73
57
 74
0
 42
0.0000001
 43
0.0000001
 44
0.0000000001
 40
0.0
 40
0.0
 40
0.0
 40
0.0
 40
0.0000724982
 40
0.0001266227
 40
0.0001957121
 40
0.0003821229
 40
0.0006354591
 40
0.0009569586
 40
0.0013471761
 40
0.0018063875
 40
0.0023347347
 40
0.0035990543
 40
0.0051403024
 40
0.0069583079
 40
0.0090527543
 40
0.0114227814
 40
0.0140666507
 40
0.0169825123
 40
0.0201685008
 40
0.0273433387
 40
0.0355760823
 40
0.0448512165
 40
0.0551476624
 40
0.0664399573
 40
0.0787025034
 40
0.0919096916
 40
0.1060343519
 40
0.1210431648
 40
0.1369012836
 40
0.1710258294
 40
0.2081084178
 40
0.2478104669
 40
0.2897813066
 40
0.3336404392
 40
0.37899851
 40
0.4254514127
 40
0.4725869277
 40
0.5199854315
 40
0.567220241
 40
0.6138689111
 40
0.6595172953
 40
0.7037568303
 40
0.7461965559
 40
0.7864528112
 40
0.8241690144
 40
0.8590037771
 40
0.8906467354
 40
0.9188171587
 40
0.9432603708
 40
0.9637668851
 40
0.9724817678
 40
0.9801461454
 40
0.9867446617
 40
0.9922620541
 40
0.9966834952
 40
1.0
 40
1.0
 40
1.0
 40
1.0
 10
4.5058044749
 20
6.2074922684
 30
0.0
 10
4.5058045263
 20
6.2075326712
 30
0.0
 10
4.5058532732
 20
6.2075974816
 30
0.0
 10
4.5059422907
 20
6.2076570539
 30
0.0
 10
4.5060975171
 20
6.2077353835
 30
0.0
 10
4.5063667697
 20
6.2078253971
 30
0.0
 10
4.5067785183
 20
6.2079288392
 30
0.0
 10
4.5073063763
 20
6.2080325801
 30
0.0
 10
4.507950536
 20
6.2081373916
 30
0.0
 10
4.5087111665
 20
6.2082426503
 30
0.0
 10
4.5099571643
 20
6.2083927395
 30
0.0
 10
4.5118062321
 20
6.2085761637
 30
0.0
 10
4.5143742767
 20
6.208787771
 30
0.0
 10
4.5174061357
 20
6.2090013305
 30
0.0
 10
4.5209007063
 20
6.2092169497
 30
0.0
 10
4.5248561884
 20
6.2094344697
 30
0.0
 10
4.5292699719
 20
6.2096536178
 30
0.0
 10
4.5341389269
 20
6.2098741588
 30
0.0
 10
4.5415315443
 20
6.2101820841
 30
0.0
 10
4.5518866274
 20
6.2105643202
 30
0.0
 10
4.5656349696
 20
6.2110096845
 30
0.0
 10
4.5811237437
 20
6.2114559612
 30
0.0
 10
4.5983182281
 20
6.2119017428
 30
0.0
 10
4.6171781291
 20
6.2123456362
 30
0.0
 10
4.6376606506
 20
6.2127862057
 30
0.0
 10
4.659722063
 20
6.2132220194
 30
0.0
 10
4.6833143422
 20
6.2136516871
 30
0.0
 10
4.7083842665
 20
6.2140772365
 30
0.0
 10
4.7445989925
 20
6.214655698
 30
0.0
 10
4.7931146355
 20
6.2153721078
 30
0.0
 10
4.854917758
 20
6.2162240453
 30
0.0
 10
4.9210937365
 20
6.2170929189
 30
0.0
 10
4.9910462685
 20
6.2179839103
 30
0.0
 10
5.064151033
 20
6.2188813886
 30
0.0
 10
5.1397539282
 20
6.2197684197
 30
0.0
 10
5.2171830269
 20
6.220640099
 30
0.0
 10
5.295749527
 20
6.2214925444
 30
0.0
 10
5.3747519339
 20
6.2223327342
 30
0.0
 10
5.4534829259
 20
6.2231808737
 30
0.0
 10
5.5312383128
 20
6.2240488088
 30
0.0
 10
5.60732417
 20
6.2249321068
 30
0.0
 10
5.6810640878
 20
6.2258285288
 30
0.0
 10
5.7517988013
 20
6.2267227164
 30
0.0
 10
5.81889806
 20
6.2275969479
 30
0.0
 10
5.8817590025
 20
6.2284520833
 30
0.0
 10
5.9398195243
 20
6.2292942735
 30
0.0
 10
5.9925596989
 20
6.2301326429
 30
0.0
 10
6.0395077368
 20
6.2309827623
 30
0.0
 10
6.0802478905
 20
6.2318541846
 30
0.0
 10
6.110145188
 20
6.2326204379
 30
0.0
 10
6.1306917988
 20
6.2332498736
 30
0.0
 10
6.1434895196
 20
6.2336939121
 30
0.0
 10
6.1545042071
 20
6.2341339203
 30
0.0
 10
6.1637103504
 20
6.2345671051
 30
0.0
 10
6.1710852978
 20
6.2349915585
 30
0.0
 10
6.1753865132
 20
6.2353087372
 30
0.0
 10
6.1772268187
 20
6.2354801066
 30
0.0
  0
SPLINE
  5
43E
100
AcDbEntity
  8
0
100
AcDbSpline
 62
7
  6
CONTINUOUS
 70
0
 71
3
 72
12
 73
8
 74
0
 42
0.0000001
 43
0.0000001
 44
0.0000000001
 40
0.0
 40
0.0
 40
0.0
 40
0.0
 40
0.3588512321
 40
0.6449126282
 40
0.8583720801
 40
0.9380739039
 40
1.0
 40
1.0
 40
1.0
 40
1.0
 10
6.1772268187
 20
6.2354801066
 30
0.0
 10
6.1778666553
 20
6.2355396882
 30
0.0
 10
6.1790158999
 20
6.2356549349
 30
0.0
 10
6.1805411423
 20
6.2358456187
 30
0.0
 10
6.1815657046
 20
6.2360122892
 30
0.0
 10
6.182185807
 20
6.2361535866
 30
0.0
 10
6.1824295327
 20
6.2362251688
 30
0.0
 10
6.1825337704
 20
6.2362630066
 30
0.0
  0
SPLINE
  5
43F
100
AcDbEntity
  8
0
100
AcDbSpline
 62
7
  6
CONTINUOUS
 70
0
 71
3
 72
60
 73
56
 74
0
 42
0.0000001
 43
0.0000001
 44
0.0000000001
 40
0.0
 40
0.0
 40
0.0
 40
0.0
 40
0.0000717132
 40
0.0001250696
 40
0.0001931236
 40
0.0003766884
 40
0.0006262075
 40
0.0009429986
 40
0.0013276967
 40
0.0017806585
 40
0.0023021024
 40
0.0035505205
 40
0.0050724043
 40
0.0068667691
 40
0.0089324914
 40
0.0112683744
 40
0.0138731786
 40
0.0167456382
 40
0.0198844705
 40
0.0269556681
 40
0.0350705877
 40
0.0442090873
 40
0.0543509027
 40
0.0654757478
 40
0.0775614963
 40
0.0905798641
 40
0.1045012631
 40
0.1192960955
 40
0.1349345584
 40
0.1686020097
 40
0.2052016918
 40
0.244417784
 40
0.2858988356
 40
0.3292825016
 40
0.3741859153
 40
0.4202146179
 40
0.466966452
 40
0.5140303531
 40
0.560994473
 40
0.607446335
 40
0.652976187
 40
0.7396941361
 40
0.7801211117
 40
0.8181102928
 40
0.8533239209
 40
0.8854562453
 40
0.9142192014
 40
0.9393726002
 40
0.9606924118
 40
0.9698578804
 40
0.9780006925
 40
0.9851011382
 40
0.9911414924
 40
0.9961108383
 40
1.0
 40
1.0
 40
1.0
 40
1.0
 10
4.505789486
 20
6.2655626715
 30
0.0
 10
4.5057894894
 20
6.265602571
 30
0.0
 10
4.5058370808
 20
6.2656667093
 30
0.0
 10
4.5059245542
 20
6.2657258251
 30
0.0
 10
4.5060768946
 20
6.2658034102
 30
0.0
 10
4.5063414203
 20
6.265892653
 30
0.0
 10
4.5067461324
 20
6.2659952191
 30
0.0
 10
4.5072652868
 20
6.2660981468
 30
0.0
 10
4.5078991911
 20
6.2662021944
 30
0.0
 10
4.508648153
 20
6.2663067564
 30
0.0
 10
4.50987589
 20
6.2664559739
 30
0.0
 10
4.5116983982
 20
6.2666384463
 30
0.0
 10
4.5142293858
 20
6.2668489772
 30
0.0
 10
4.5172163063
 20
6.2670612733
 30
0.0
 10
4.5206569775
 20
6.2672752202
 30
0.0
 10
4.5245492436
 20
6.2674905619
 30
0.0
 10
4.5288909015
 20
6.2677072009
 30
0.0
 10
4.5336797448
 20
6.2679250725
 30
0.0
 10
4.5409521709
 20
6.2682293412
 30
0.0
 10
4.5511407552
 20
6.268607657
 30
0.0
 10
4.5646671916
 20
6.2690494626
 30
0.0
 10
4.5799028052
 20
6.2694927962
 30
0.0
 10
4.5968137117
 20
6.2699356098
 30
0.0
 10
4.6153649695
 20
6.2703756852
 30
0.0
 10
4.6355171832
 20
6.2708110496
 30
0.0
 10
4.6572257463
 20
6.2712423126
 30
0.0
 10
4.6804419233
 20
6.2716697773
 30
0.0
 10
4.7051161454
 20
6.2720938972
 30
0.0
 10
4.7407755882
 20
6.2726693196
 30
0.0
 10
4.7885661158
 20
6.2733778619
 30
0.0
 10
4.8494740917
 20
6.2742186718
 30
0.0
 10
4.9147294344
 20
6.2750835224
 30
0.0
 10
4.9837593338
 20
6.2759640499
 30
0.0
 10
5.05595367
 20
6.2768523369
 30
0.0
 10
5.1306784352
 20
6.2777370879
 30
0.0
 10
5.2072775129
 20
6.2786027635
 30
0.0
 10
5.285078942
 20
6.2794469435
 30
0.0
 10
5.3634009235
 20
6.2802836636
 30
0.0
 10
5.4415559657
 20
6.2811234415
 30
0.0
 10
5.5188573146
 20
6.2819759194
 30
0.0
 10
5.6182747603
 20
6.2831265338
 30
0.0
 10
5.7143395199
 20
6.2843074481
 30
0.0
 10
5.806208339
 20
6.2855000693
 30
0.0
 10
5.8694233953
 20
6.2863539184
 30
0.0
 10
5.9280233524
 20
6.287187648
 30
0.0
 10
5.9814895511
 20
6.2880187995
 30
0.0
 10
6.0293575341
 20
6.2888625981
 30
0.0
 10
6.0712084025
 20
6.2897184394
 30
0.0
 10
6.102155265
 20
6.2904762966
 30
0.0
 10
6.1236379838
 20
6.2910994546
 30
0.0
 10
6.1372112443
 20
6.2915414084
 30
0.0
 10
6.1490448518
 20
6.2919796323
 30
0.0
 10
6.1591117347
 20
6.2924115683
 30
0.0
 10
6.1673902526
 20
6.2928367175
 30
0.0
 10
6.1723091873
 20
6.293151362
 30
0.0
 10
6.1744666484
 20
6.2933173117
 30
0.0
  0
SPLINE
  5
440
100
AcDbEntity
  8
0
100
AcDbSpline
 62
7
  6
CONTINUOUS
 70
0
 71
3
 72
13
 73
9
 74
0
 42
0.0000001
 43
0.0000001
 44
0.0000000001
 40
0.0
 40
0.0
 40
0.0
 40
0.0
 40
0.3706161388
 40
0.6607712348
 40
0.7756235607
 40
0.8703414112
 40
0.9450452107
 40
1.0
 40
1.0
 40
1.0
 40
1.0
 10
6.1744666484
 20
6.2933173117
 30
0.0
 10
6.1754712653
 20
6.2933945858
 30
0.0
 10
6.1772615189
 20
6.2935437769
 30
0.0
 10
6.1793592358
 20
6.2937622447
 30
0.0
 10
6.1807057465
 20
6.2939435318
 30
0.0
 10
6.181468811
 20
6.2940675424
 30
0.0
 10
6.1820663698
 20
6.2941902531
 30
0.0
 10
6.1824071
 20
6.2942837353
 30
0.0
 10
6.1825475225
 20
6.2943347562
 30
0.0
  0
SPLINE
  5
441
100
AcDbEntity
  8
0
100
AcDbSpline
 62
7
  6
CONTINUOUS
 70
0
 71
3
 72
31
 73
27
 74
0
 42
0.0000001
 43
0.0000001
 44
0.0000000001
 40
0.0
 40
0.0
 40
0.0
 40
0.0
 40
0.0006508947
 40
0.001615349
 40
0.0030077386
 40
0.0048647006
 40
0.0072008867
 40
0.0100233036
 40
0.0133357106
 40
0.0171402726
 40
0.0262302952
 40
0.0372989891
 40
0.0503478241
 40
0.065376542
 40
0.0823839631
 40
0.1013683714
 40
0.1452585774
 40
0.1969969432
 40
0.2564961574
 40
0.3236661449
 40
0.3984163535
 40
0.4806559382
 40
0.5702931129
 40
0.6672066414
 40
0.7712370552
 40
1.0
 40
1.0
 40
1.0
 40
1.0
 10
4.5058080727
 20
6.3236347914
 30
0.0
 10
4.505808245
 20
6.32366382
 30
0.0
 10
4.5058456633
 20
6.3237330749
 30
0.0
 10
4.5059578761
 20
6.3238083558
 30
0.0
 10
4.5061292368
 20
6.3238867165
 30
0.0
 10
4.5063663059
 20
6.3239642729
 30
0.0
 10
4.5066691891
 20
6.3240431325
 30
0.0
 10
4.5070387158
 20
6.3241222064
 30
0.0
 10
4.5074748575
 20
6.3242017043
 30
0.0
 10
4.5081888149
 20
6.3243148076
 30
0.0
 10
4.509248754
 20
6.324452925
 30
0.0
 10
4.5107212708
 20
6.324611907
 30
0.0
 10
4.5124598505
 20
6.3247719295
 30
0.0
 10
4.5144641502
 20
6.3249329899
 30
0.0
 10
4.5167338463
 20
6.3250950179
 30
0.0
 10
4.5202891633
 20
6.3253235446
 30
0.0
 10
4.5253929926
 20
6.3256066277
 30
0.0
 10
4.5323036376
 20
6.3259368749
 30
0.0
 10
4.5402534113
 20
6.3262705809
 30
0.0
 10
4.5492301716
 20
6.3266068921
 30
0.0
 10
4.559221702
 20
6.3269448158
 30
0.0
 10
4.570215731
 20
6.3272835153
 30
0.0
 10
4.5821986462
 20
6.3276220584
 30
0.0
 10
4.5951537801
 20
6.3279598202
 30
0.0
 10
4.6143125253
 20
6.3284235899
 30
0.0
 10
4.6291511883
 20
6.3287459572
 30
0.0
 10
4.6393515528
 20
6.3289556549
 30
0.0
  0
SPLINE
  5
442
100
AcDbEntity
  8
0
100
AcDbSpline
 62
7
  6
CONTINUOUS
 70
0
 71
3
 72
18
 73
14
 74
0
 42
0.0000001
 43
0.0000001
 44
0.0000000001
 40
0.0
 40
0.0
 40
0.0
 40
0.0
 40
0.0153736553
 40
0.0369627591
 40
0.0648344379
 40
0.0990129464
 40
0.1395062531
 40
0.1863148216
 40
0.29886065
 40
0.4366018802
 40
0.5994719432
 40
0.787347747
 40
1.0
 40
1.0
 40
1.0
 40
1.0
 10
6.215063057
 20
4.680274169
 30
0.0
 10
6.2149015728
 20
4.6802156915
 30
0.0
 10
6.2145008836
 20
4.6801111527
 30
0.0
 10
6.2137896206
 20
4.6799748246
 30
0.0
 10
6.2128651539
 20
4.6798369792
 30
0.0
 10
6.2117280821
 20
4.6796975473
 30
0.0
 10
6.2103781683
 20
4.6795572041
 30
0.0
 10
6.2081545766
 20
4.6793564803
 30
0.0
 10
6.2048444852
 20
4.6791110511
 30
0.0
 10
6.2002375737
 20
4.67882752
 30
0.0
 10
6.1947879324
 20
4.6785408243
 30
0.0
 10
6.1885005948
 20
4.6782510294
 30
0.0
 10
6.184029856
 20
4.6780675069
 30
0.0
 10
6.1816560378
 20
4.677974548
 30
0.0
  0
SPLINE
  5
443
100
AcDbEntity
  8
0
100
AcDbSpline
 62
7
  6
CONTINUOUS
 70
0
 71
3
 72
11
 73
7
 74
0
 42
0.0000001
 43
0.0000001
 44
0.0000000001
 40
0.0
 40
0.0
 40
0.0
 40
0.0
 40
0.1818735082
 40
0.4103734035
 40
0.6837996681
 40
1.0
 40
1.0
 40
1.0
 40
1.0
 10
6.1816560378
 20
4.677974548
 30
0.0
 10
6.1736188164
 20
4.6776598097
 30
0.0
 10
6.1554796896
 20
4.6770582795
 30
0.0
 10
6.1252494162
 20
4.6762448199
 30
0.0
 10
6.0890766939
 20
4.675431588
 30
0.0
 10
6.0630051096
 20
4.6749325821
 30
0.0
 10
6.049023337
 20
4.6746827531
 30
0.0
  0
LINE
  5
444
100
AcDbEntity
  8
0
100
AcDbLine
 62
7
  6
CONTINUOUS
 10
6.049023337
 20
4.6746827531
 11
6.0385325688
 21
4.6744985558
  0
SPLINE
  5
445
100
AcDbEntity
  8
0
100
AcDbSpline
 62
7
  6
CONTINUOUS
 70
0
 71
3
 72
23
 73
19
 74
0
 42
0.0000001
 43
0.0000001
 44
0.0000000001
 40
0.0
 40
0.0
 40
0.0
 40
0.0
 40
0.0469176203
 40
0.0998464451
 40
0.1580890197
 40
0.2208693959
 40
0.287354856
 40
0.3566632051
 40
0.4278732115
 40
0.500040415
 40
0.5722062605
 40
0.6434122212
 40
0.7127138781
 40
0.7791901115
 40
0.8419588171
 40
0.90018747
 40
0.9531002633
 40
1.0
 40
1.0
 40
1.0
 40
1.0
 10
6.0385325688
 20
4.6744985558
 30
0.0
 10
6.0168185976
 20
4.6741237503
 30
0.0
 10
5.9706072621
 20
4.6734045374
 30
0.0
 10
5.8974381895
 20
4.6723850025
 30
0.0
 10
5.8169263205
 20
4.6713342738
 30
0.0
 10
5.7301391599
 20
4.6702600848
 30
0.0
 10
5.6382296702
 20
4.6691721243
 30
0.0
 10
5.5424179665
 20
4.668088485
 30
0.0
 10
5.443975899
 20
4.6670264253
 30
0.0
 10
5.344210618
 20
4.6660090412
 30
0.0
 10
5.2444472094
 20
4.6649916864
 30
0.0
 10
5.146010739
 20
4.6639298337
 30
0.0
 10
5.0502082757
 20
4.6628463239
 30
0.0
 10
4.9583115589
 20
4.661758242
 30
0.0
 10
4.8715405169
 20
4.6606840224
 30
0.0
 10
4.7910479148
 20
4.6596334117
 30
0.0
 10
4.7179009856
 20
4.6586139714
 30
0.0
 10
4.6717053514
 20
4.6578947011
 30
0.0
 10
4.6499996603
 20
4.65751984
 30
0.0
  0
LINE
  5
446
100
AcDbEntity
  8
0
100
AcDbLine
 62
7
  6
CONTINUOUS
 10
4.6499996603
 20
4.65751984
 11
4.6396254167
 21
4.6573376235
  0
LINE
  5
447
100
AcDbEntity
  8
0
100
AcDbLine
 62
7
  6
CONTINUOUS
 10
4.6081963722
 20
4.6567429034
 11
4.6056335798
 21
4.6566912168
  0
SPLINE
  5
448
100
AcDbEntity
  8
0
100
AcDbSpline
 62
7
  6
CONTINUOUS
 70
0
 71
3
 72
11
 73
7
 74
0
 42
0.0000001
 43
0.0000001
 44
0.0000000001
 40
0.0
 40
0.0
 40
0.0
 40
0.0
 40
0.3082326922
 40
0.5785167773
 40
0.809446177
 40
1.0
 40
1.0
 40
1.0
 40
1.0
 10
4.6056335798
 20
4.6566912168
 30
0.0
 10
4.5955001717
 20
4.6564857982
 30
0.0
 10
4.576481403
 20
4.6560771399
 30
0.0
 10
4.5498727373
 20
4.6554211428
 30
0.0
 10
4.527134975
 20
4.6547672358
 30
0.0
 10
4.5132835473
 20
4.6542910928
 30
0.0
 10
4.5070224459
 20
4.6540458244
 30
0.0
  0
SPLINE
  5
449
100
AcDbEntity
  8
0
100
AcDbSpline
 62
7
  6
CONTINUOUS
 70
0
 71
3
 72
24
 73
20
 74
0
 42
0.0000001
 43
0.0000001
 44
0.0000000001
 40
0.0
 40
0.0
 40
0.0
 40
0.0
 40
0.2320196135
 40
0.4337161891
 40
0.6047986886
 40
0.6788151188
 40
0.7451330747
 40
0.8037426954
 40
0.8546361469
 40
0.8978090806
 40
0.933263684
 40
0.948101436
 40
0.9610178552
 40
0.9720207252
 40
0.9811238879
 40
0.9883535533
 40
0.9937651659
 40
0.9974989297
 40
1.0
 40
1.0
 40
1.0
 40
1.0
 10
4.5070224459
 20
4.6540458244
 30
0.0
 10
4.5043994616
 20
4.6539430733
 30
0.0
 10
4.4994966783
 20
4.6537408239
 30
0.0
 10
4.4926616878
 20
4.653419523
 30
0.0
 10
4.4876142335
 20
4.6531436001
 30
0.0
 10
4.4840980167
 20
4.6529203993
 30
0.0
 10
4.481852785
 20
4.6527619902
 30
0.0
 10
4.4798698218
 20
4.6526044215
 30
0.0
 10
4.4781495514
 20
4.6524478102
 30
0.0
 10
4.4766924168
 20
4.6522922056
 30
0.0
 10
4.4756434881
 20
4.6521570488
 30
0.0
 10
4.4749369249
 20
4.652046412
 30
0.0
 10
4.4745053423
 20
4.6519686762
 30
0.0
 10
4.4741397212
 20
4.6518913955
 30
0.0
 10
4.4738401096
 20
4.6518143492
 30
0.0
 10
4.4736056971
 20
4.6517386798
 30
0.0
 10
4.4734364214
 20
4.6516621922
 30
0.0
 10
4.4733257133
 20
4.6515890837
 30
0.0
 10
4.4732887159
 20
4.6515212526
 30
0.0
 10
4.4732887159
 20
4.6514929563
 30
0.0
  0
ENDSEC
  0
SECTION
  2
OBJECTS
  0
DICTIONARY
  5
C
100
AcDbDictionary
280
0
281
1
  3
ACAD_GROUP
350
D
  3
ACAD_MLINESTYLE
350
17
  3
ACAD_LAYOUT
350
1A
  3
ACAD_PLOTSETTINGS
350
19
  3
ACAD_PLOTSTYLENAME
350
E
  0
DICTIONARY
  5
D
102
{ACAD_REACTORS
330
C
102
}
100
AcDbDictionary
280
0
281
1
  0
ACDBDICTIONARYWDFLT
  5
E
102
{ACAD_REACTORS
330
C
102
}
100
AcDbDictionary
281
1
  3
Normal
350
F
100
AcDbDictionaryWithDefault
340
F
  0
DICTIONARY
  5
17
102
{ACAD_REACTORS
330
C
102
}
100
AcDbDictionary
280
0
281
1
  3
Standard
350
18
  0
DICTIONARY
  5
19
102
{ACAD_REACTORS
330
C
102
}
100
AcDbDictionary
281
1
  0
DICTIONARY
  5
1A
102
{ACAD_REACTORS
330
C
102
}
100
AcDbDictionary
281
1
  3
Model
350
44A
  3
Layout1
350
44B
  0
ACDBPLACEHOLDER
  5
F
102
{ACAD_REACTORS
330
E
102
}
  0
MLINESTYLE
  5
18
102
{ACAD_REACTORS
330
17
102
}
100
AcDbMlineStyle
  2
STANDARD
 70
0
  3

 62
256
 51
90.0
 52
90.0
 71
2
 49
0.5
 62
256
  6
BYLAYER
 49
-0.5
 62
256
  6
BYLAYER
  0
LAYOUT
  5
44A
102
{ACAD_REACTORS
330
1A
102
}
100
AcDbPlotSettings
  1

  2
none_device
  4
ANSI_A_(11.00_x_8.50_Inches)
  6

 40
0.0
 41
0.0
 42
0.0
 43
0.0
 44
279.4
 45
215.9
 46
0.0
 47
0.0
 48
0.0
 49
0.0
140
0.0
141
0.0
142
1.0
143
1.0
 70
1024
 72
0
 73
0
 74
0
  7

 75
0
147
1.0
148
0.0
149
0.0
100
AcDbLayout
  1
Model
 70
0
 71
0
 10
0.0
 20
0.0
 11
11.0
 21
8.5
 12
0.0
 22
0.0
 32
0.0
 14
0.0
 24
0.0
 34
0.0
 15
0.0
 25
0.0
 35
0.0
146
0.0
 13
0.0
 23
0.0
 33
0.0
 16
1.0
 26
0.0
 36
0.0
 17
0.0
 27
1.0
 37
0.0
 76
0
330
22B
345
0
346
0
  0
LAYOUT
  5
44B
102
{ACAD_REACTORS
330
1A
102
}
100
AcDbPlotSettings
  1

  2
none_device
  4
ANSI_A_(11.00_x_8.50_Inches)
  6

 40
0.0
 41
0.0
 42
0.0
 43
0.0
 44
279.4
 45
215.9
 46
0.0
 47
0.0
 48
0.0
 49
0.0
140
0.0
141
0.0
142
1.0
143
1.0
 70
0
 72
0
 73
0
 74
0
  7

 75
0
147
1.0
148
0.0
149
0.0
100
AcDbLayout
  1
Layout1
 70
0
 71
1
 10
0.0
 20
0.0
 11
11.0
 21
8.5
 12
0.0
 22
0.0
 32
0.0
 14
0.0
 24
0.0
 34
0.0
 15
0.0
 25
0.0
 35
0.0
146
0.0
 13
0.0
 23
0.0
 33
0.0
 16
1.0
 26
0.0
 36
0.0
 17
0.0
 27
1.0
 37
0.0
 76
0
330
22C
345
0
346
0
  0
ENDSEC
  0
EOF
