999
DXF file: E:\BT Custom\CADOUTPUT\_RIGHT.dxf
999
Pro/ENGINEER 2018400 by Parametric Technology Corporation
  0
SECTION
  2
HEADER
  9
$ACADVER
  1
AC1018
  9
$DWGCODEPAGE
  3
ANSI_1252
  9
$EXTMAX
 10
22.0
 20
17.0
 30
0.0
  9
$EXTMIN
 10
0.0
 20
0.0
 30
0.0
  9
$LIMMIN
 10
0.0
 20
0.0
  9
$LIMMAX
 10
22.0
 20
17.0
  9
$VIEWCTR
 10
11.0
 20
8.5
  9
$VIEWSIZE
 40
17.0
  9
$CLAYER
  8
0
  9
$LTSCALE
 40
1.21
  9
$CELTYPE
  6
BYLAYER
  9
$DIMSCALE
 40
1.0
  9
$DIMASZ
 40
0.1
  9
$DIMEXO
 40
0.0625
  9
$DIMDLI
 40
0.836
  9
$DIMEXE
 40
0.125
  9
$DIMCEN
 40
0.198
  9
$DIMLFAC
 40
1.0
  9
$DIMBLK
  1
_FILLED
  9
$DIMALT
 70
1
  9
$DIMALTD
 70
2
  9
$DIMALTTD
 70
2
  9
$DIMALTF
 40
25.4
  9
$DIMTXT
 40
0.08
  9
$DIMTOL
 70
1
  9
$DIMLIM
 70
0
  9
$DIMTFAC
 40
1.0
  9
$DIMTP
 40
0.001
  9
$DIMTM
 40
0.001
  9
$DIMGAP
 40
0.09
  9
$DIMDSEP
 70
46
  9
$AUNITS
 70
0
  9
$PDMODE
 70
3
  9
$PDSIZE
 40
0.06
  9
$HANDSEED
  5
33E
  9
$TILEMODE
 70
1
  9
$MEASUREMENT
 70
0
  9
$INSUNITS
 70
1
  0
ENDSEC
  0
SECTION
  2
CLASSES
  0
CLASS
  1
ACDBDICTIONARYWDFLT
  2
AcDbDictionaryWithDefault
  3
AutoCAD 2000
 90
0
 91
1
280
0
281
0
  0
CLASS
  1
ACDBPLACEHOLDER
  2
AcDbPlaceHolder
  3
AutoCAD 2000
 90
0
 91
1
280
0
281
0
  0
CLASS
  1
LAYOUT
  2
AcDbLayout
  3
AutoCAD 2000
 90
0
 91
0
280
0
281
0
  0
ENDSEC
  0
SECTION
  2
TABLES
  0
TABLE
  2
VPORT
  5
8
100
AcDbSymbolTable
 70
2
  0
VPORT
  5
1F4
100
AcDbSymbolTableRecord
100
AcDbViewportTableRecord
  2
*ACTIVE
 70
0
 10
0.0
 20
0.0
 11
1.0
 21
1.0
 12
11.0
 22
8.5
 13
0.0
 23
0.0
 14
1.0
 24
1.0
 15
0.0
 25
0.0
 16
0.0
 26
0.0
 36
1.0
 17
0.0
 27
0.0
 37
0.0
 40
17.0
 41
1.2941176471
 42
50.0
 43
0.0
 44
0.0
 50
0.0
 51
0.0
 71
0
 72
100
 73
1
 74
1
 75
0
 76
0
 77
0
 78
0
  0
ENDTAB
  0
TABLE
  2
LTYPE
  5
5
100
AcDbSymbolTable
 70
6
  0
LTYPE
  5
14
100
AcDbSymbolTableRecord
100
AcDbLinetypeTableRecord
  2
BYBLOCK
 70
0
  3

 72
65
 73
0
 40
0.0
  0
LTYPE
  5
15
100
AcDbSymbolTableRecord
100
AcDbLinetypeTableRecord
  2
BYLAYER
 70
0
  3

 72
65
 73
0
 40
0.0
  0
LTYPE
  5
16
100
AcDbSymbolTableRecord
100
AcDbLinetypeTableRecord
  2
CONTINUOUS
 70
64
  3
Solid line
 72
65
 73
0
 40
0.0
  0
LTYPE
  5
1F5
100
AcDbSymbolTableRecord
100
AcDbLinetypeTableRecord
  2
CENTER
 70
64
  3
____ _ ____ _ ____ _ ____ _ ____ _ ____ _ ____
 72
65
 73
4
 40
0.6
 49
0.375
 74
0
 49
-0.075
 74
0
 49
0.075
 74
0
 49
-0.075
 74
0
  0
LTYPE
  5
1F6
100
AcDbSymbolTableRecord
100
AcDbLinetypeTableRecord
  2
HIDDEN
 70
64
  3
- - - - - - - - - - - - - - - - - - - -
 72
65
 73
2
 40
0.2
 49
0.1
 74
0
 49
-0.1
 74
0
  0
LTYPE
  5
1F7
100
AcDbSymbolTableRecord
100
AcDbLinetypeTableRecord
  2
PHANTOM
 70
64
  3
_____ _ _ _____ _ _ _____ _ _ _____
 72
65
 73
6
 40
0.8
 49
0.45
 74
0
 49
-0.05
 74
0
 49
0.1
 74
0
 49
-0.05
 74
0
 49
0.1
 74
0
 49
-0.05
 74
0
  0
LTYPE
  5
1F8
100
AcDbSymbolTableRecord
100
AcDbLinetypeTableRecord
  2
DOT
 70
64
  3
. . . . . . . . . . . . . . . . . . . .
 72
65
 73
2
 40
0.2
 49
0.1
 74
0
 49
-0.1
 74
0
  0
LTYPE
  5
1F9
100
AcDbSymbolTableRecord
100
AcDbLinetypeTableRecord
  2
DASHED
 70
64
  3
- - - - - - - - - - - - - - - - - - - -
 72
65
 73
2
 40
0.2
 49
0.1
 74
0
 49
-0.1
 74
0
  0
ENDTAB
  0
TABLE
  2
LAYER
  5
2
100
AcDbSymbolTable
 70
36
  0
LAYER
  5
10
100
AcDbSymbolTableRecord
100
AcDbLayerTableRecord
  2
0
 70
0
 62
7
  6
CONTINUOUS
370
-3
390
F
  0
LAYER
  5
1FA
100
AcDbSymbolTableRecord
100
AcDbLayerTableRecord
  2
DEFAULT_1
 70
0
 62
7
  6
CENTER
370
-3
390
F
  0
LAYER
  5
1FB
100
AcDbSymbolTableRecord
100
AcDbLayerTableRecord
  2
DEFAULT_2
 70
0
 62
8
  6
HIDDEN
370
-3
390
F
  0
LAYER
  5
1FC
100
AcDbSymbolTableRecord
100
AcDbLayerTableRecord
  2
DEFAULT_3
 70
0
 62
7
  6
PHANTOM
370
-3
390
F
  0
LAYER
  5
1FD
100
AcDbSymbolTableRecord
100
AcDbLayerTableRecord
  2
ALL_FEATURES
 70
0
 62
7
  6
CONTINUOUS
370
-3
390
F
  0
LAYER
  5
1FE
100
AcDbSymbolTableRecord
100
AcDbLayerTableRecord
  2
AXES_FEATURES
 70
0
 62
7
  6
CONTINUOUS
370
-3
390
F
  0
LAYER
  5
1FF
100
AcDbSymbolTableRecord
100
AcDbLayerTableRecord
  2
DEFAULT_COORDINATE_SYSTEM
 70
0
 62
7
  6
CONTINUOUS
370
-3
390
F
  0
LAYER
  5
200
100
AcDbSymbolTableRecord
100
AcDbLayerTableRecord
  2
DEFAULT_DATUM_AXES
 70
0
 62
7
  6
CONTINUOUS
370
-3
390
F
  0
LAYER
  5
201
100
AcDbSymbolTableRecord
100
AcDbLayerTableRecord
  2
DEFAULT_DATUM_PLANES
 70
0
 62
7
  6
CONTINUOUS
370
-3
390
F
  0
LAYER
  5
202
100
AcDbSymbolTableRecord
100
AcDbLayerTableRecord
  2
DIMENSIONS
 70
0
 62
7
  6
CONTINUOUS
370
-3
390
F
  0
ENDTAB
  0
TABLE
  2
STYLE
  5
3
100
AcDbSymbolTable
 70
1
  0
STYLE
  5
11
100
AcDbSymbolTableRecord
100
AcDbTextStyleTableRecord
  2
STANDARD
 70
0
 40
0.0
 41
0.8
 50
0.0
 71
0
 42
0.2
  3
txt
  4

  0
STYLE
  5
203
100
AcDbSymbolTableRecord
100
AcDbTextStyleTableRecord
  2
TEXTSTYLE_1
 70
0
 40
0.0
 41
0.8
 50
0.0
 71
0
 42
0.2
  3
gdt
  4

  0
ENDTAB
  0
TABLE
  2
VIEW
  5
6
100
AcDbSymbolTable
 70
0
  0
ENDTAB
  0
TABLE
  2
UCS
  5
7
100
AcDbSymbolTable
 70
0
  0
ENDTAB
  0
TABLE
  2
APPID
  5
9
100
AcDbSymbolTable
 70
1
  0
APPID
  5
204
100
AcDbSymbolTableRecord
100
AcDbRegAppTableRecord
  2
ACAD
 70
0
  0
ENDTAB
  0
TABLE
  2
BLOCK_RECORD
  5
1
100
AcDbSymbolTable
 70
0
  0
BLOCK_RECORD
  5
205
100
AcDbSymbolTableRecord
100
AcDbBlockTableRecord
  2
*Model_Space
  0
BLOCK_RECORD
  5
206
100
AcDbSymbolTableRecord
100
AcDbBlockTableRecord
  2
*Paper_Space
  0
BLOCK_RECORD
  5
207
100
AcDbSymbolTableRecord
100
AcDbBlockTableRecord
  2
_FILLED
  0
ENDTAB
  0
TABLE
  2
DIMSTYLE
  5
A
100
AcDbSymbolTable
 70
1
100
AcDbDimStyleTable
 71
0
  0
DIMSTYLE
105
208
100
AcDbSymbolTableRecord
100
AcDbDimStyleTableRecord
  2
STANDARD
 70
0
  3

  4

 40
1.0
 41
0.1
 42
0.0625
 43
0.38
 44
0.125
 45
0.0
 46
0.0
 47
0.001
 48
0.001
140
0.08
141
0.09
142
0.0
143
25.4
144
1.0
145
0.0
146
1.0
147
0.09
 71
1.0
 72
0.0
 73
1
 74
1
 75
0
 76
0
 77
0
 78
4
 79
1
170
1
171
2
172
0
173
0
174
0
175
0
176
0
177
0
178
0
270
2
179
3
271
3
272
3
273
2
274
2
275
0
280
0
281
0
282
0
283
1
284
4
285
0
286
0
287
3
288
0
340
11
278
46
341
207
342
207
343
207
344
207
  0
ENDTAB
  0
ENDSEC
  0
SECTION
  2
BLOCKS
  0
BLOCK
  5
20
100
AcDbEntity
  8
0
100
AcDbBlockBegin
  2
*Model_Space
 70
0
 10
0.0
 20
0.0
 30
0.0
  3
*Model_Space
  1

  0
ENDBLK
  5
21
100
AcDbEntity
  8
0
100
AcDbBlockEnd
  0
BLOCK
  5
1C
100
AcDbEntity
  8
0
100
AcDbBlockBegin
  2
*Paper_Space
 70
0
 10
0.0
 20
0.0
 30
0.0
  3
*Paper_Space
  1

  0
ENDBLK
  5
1D
100
AcDbEntity
  8
0
100
AcDbBlockEnd
  0
BLOCK
  5
209
100
AcDbEntity
  8
0
100
AcDbBlockBegin
  2
_FILLED
 70
64
 10
0.0
 20
0.0
  3
_FILLED
  1

  0
SOLID
  5
20A
100
AcDbEntity
  8
0
  6
BYBLOCK
 62
0
100
AcDbTrace
 10
0.0
 20
0.0
 11
-1.0
 21
0.2
 12
-1.0
 22
-0.2
 13
-1.0
 23
-0.2
  0
ENDBLK
  5
20B
100
AcDbEntity
  8
0
  6
BYBLOCK
 62
0
100
AcDbBlockEnd
  0
ENDSEC
  0
SECTION
  2
ENTITIES
  0
LINE
  5
20C
100
AcDbEntity
  8
0
100
AcDbLine
 62
7
  6
CONTINUOUS
 10
16.0469901836
 20
0.3573062587
 11
13.3669901836
 21
0.3573062587
  0
LINE
  5
20D
100
AcDbEntity
  8
0
100
AcDbLine
 62
9
  6
CONTINUOUS
 10
13.3488783404
 20
0.4745073176
 11
16.0651020268
 21
0.4745073176
  0
LINE
  5
20E
100
AcDbEntity
  8
0
100
AcDbLine
 62
9
  6
CONTINUOUS
 10
13.5261451112
 20
0.6253488566
 11
15.8878352559
 21
0.6253488566
  0
LINE
  5
20F
100
AcDbEntity
  8
0
100
AcDbLine
 62
9
  6
CONTINUOUS
 10
13.5180994325
 20
0.7008815952
 11
15.8958809347
 21
0.7008815952
  0
LINE
  5
210
100
AcDbEntity
  8
0
100
AcDbLine
 62
7
  6
CONTINUOUS
 10
15.8569901836
 20
0.7823062587
 11
13.5569938943
 21
0.7823062587
  0
LINE
  5
211
100
AcDbEntity
  8
0
100
AcDbLine
 62
7
  6
CONTINUOUS
 10
5.3137854717
 20
10.6990388578
 11
5.6859593734
 21
12.5068569285
  0
LINE
  5
212
100
AcDbEntity
  8
0
100
AcDbLine
 62
7
  6
CONTINUOUS
 10
5.6470819157
 20
10.5802449762
 11
5.6487420557
 21
10.6059170718
  0
LINE
  5
213
100
AcDbEntity
  8
0
100
AcDbLine
 62
7
  6
CONTINUOUS
 10
5.6740895178
 20
10.6020383651
 11
5.6724293778
 21
10.5763662694
  0
LINE
  5
214
100
AcDbEntity
  8
0
100
AcDbLine
 62
7
  6
CONTINUOUS
 10
5.7470746261
 20
10.5908700741
 11
5.7454144861
 21
10.5651979784
  0
LINE
  5
215
100
AcDbEntity
  8
0
100
AcDbLine
 62
7
  6
CONTINUOUS
 10
5.8588942993
 20
10.5737592596
 11
5.8572341594
 21
10.548087164
  0
LINE
  5
216
100
AcDbEntity
  8
0
100
AcDbLine
 62
7
  6
CONTINUOUS
 10
5.9960614347
 20
10.5527697384
 11
5.9944012948
 21
10.5270976428
  0
LINE
  5
217
100
AcDbEntity
  8
0
100
AcDbLine
 62
7
  6
CONTINUOUS
 10
6.0335486681
 20
13.7185249263
 11
5.9768258605
 21
13.3478397187
  0
LINE
  5
218
100
AcDbEntity
  8
0
100
AcDbLine
 62
7
  6
CONTINUOUS
 10
5.9847338116
 20
13.3466296322
 11
5.980195987
 21
13.3169748155
  0
LINE
  5
219
100
AcDbEntity
  8
0
100
AcDbLine
 62
7
  6
CONTINUOUS
 10
5.8545565643
 20
10.5744230264
 11
5.8484637329
 21
10.5494292278
  0
LINE
  5
21A
100
AcDbEntity
  8
0
100
AcDbLine
 62
7
  6
CONTINUOUS
 10
5.9663762375
 20
10.5573122119
 11
5.9602834062
 21
10.5323184134
  0
LINE
  5
21B
100
AcDbEntity
  8
0
100
AcDbLine
 62
7
  6
CONTINUOUS
 10
6.1035433729
 20
10.5363226907
 11
6.0974505416
 21
10.5113288921
  0
LINE
  5
21C
100
AcDbEntity
  8
0
100
AcDbLine
 62
7
  6
CONTINUOUS
 10
6.2495135895
 20
10.5139861088
 11
6.2434207581
 21
10.4889923102
  0
LINE
  5
21D
100
AcDbEntity
  8
0
100
AcDbLine
 62
7
  6
CONTINUOUS
 10
5.7127764629
 20
12.7085562354
 11
5.6851414089
 21
12.6977817781
  0
LINE
  5
21E
100
AcDbEntity
  8
0
100
AcDbLine
 62
7
  6
CONTINUOUS
 10
6.1420316513
 20
10.5304331565
 11
6.1403715113
 21
10.5047610608
  0
LINE
  5
21F
100
AcDbEntity
  8
0
100
AcDbLine
 62
7
  6
CONTINUOUS
 10
6.2791987867
 20
10.5094436353
 11
6.2775386467
 21
10.4837715396
  0
LINE
  5
220
100
AcDbEntity
  8
0
100
AcDbLine
 62
7
  6
CONTINUOUS
 10
6.3910184599
 20
10.4923328208
 11
6.38935832
 21
10.4666607252
  0
LINE
  5
221
100
AcDbEntity
  8
0
100
AcDbLine
 62
7
  6
CONTINUOUS
 10
7.0912631157
 20
13.1469576536
 11
7.0958009404
 21
13.1766124702
  0
LINE
  5
222
100
AcDbEntity
  8
0
100
AcDbLine
 62
7
  6
CONTINUOUS
 10
7.160431699
 20
13.5460875912
 11
7.1037088915
 21
13.1754023836
  0
LINE
  5
223
100
AcDbEntity
  8
0
100
AcDbLine
 62
7
  6
CONTINUOUS
 10
6.3866807248
 20
10.4929965875
 11
6.3805878935
 21
10.468002789
  0
LINE
  5
224
100
AcDbEntity
  8
0
100
AcDbLine
 62
7
  6
CONTINUOUS
 10
6.4985003981
 20
10.4758857731
 11
6.4924075668
 21
10.4508919745
  0
LINE
  5
225
100
AcDbEntity
  8
0
100
AcDbLine
 62
7
  6
CONTINUOUS
 10
6.5714855064
 20
10.4647174821
 11
6.5653926751
 21
10.4397236836
  0
LINE
  5
226
100
AcDbEntity
  8
0
100
AcDbLine
 62
7
  6
CONTINUOUS
 10
6.5907401372
 20
10.4358449768
 11
6.5968329685
 21
10.4608387754
  0
LINE
  5
227
100
AcDbEntity
  8
0
100
AcDbLine
 62
7
  6
CONTINUOUS
 10
7.365084197
 20
11.5948284316
 11
7.3606906292
 21
11.5903927699
  0
LINE
  5
228
100
AcDbEntity
  8
0
100
AcDbLine
 62
9
  6
CONTINUOUS
 10
14.9020550779
 20
4.5823315188
 11
14.5120550783
 21
4.5823170197
  0
LINE
  5
229
100
AcDbEntity
  8
0
100
AcDbLine
 62
7
  6
CONTINUOUS
 10
14.4835414884
 20
4.9673159599
 11
14.9305400414
 21
4.9673325781
  0
LINE
  5
22A
100
AcDbEntity
  8
0
100
AcDbLine
 62
9
  6
CONTINUOUS
 10
7.3024944801
 20
11.5181782746
 11
7.2978743709
 21
12.4872482225
  0
LINE
  5
22B
100
AcDbEntity
  8
0
100
AcDbLine
 62
7
  6
CONTINUOUS
 10
7.3610062731
 20
11.5241863234
 11
7.3564407524
 21
12.4818063078
  0
LINE
  5
22C
100
AcDbEntity
  8
0
100
AcDbLine
 62
9
  6
CONTINUOUS
 10
7.3645631985
 20
11.7041080961
 11
7.365084197
 21
11.5948284316
  0
LINE
  5
22D
100
AcDbEntity
  8
0
100
AcDbLine
 62
7
  6
CONTINUOUS
 10
7.3685043076
 20
11.603067336
 11
7.3680617109
 21
11.6959021768
  0
LINE
  5
22E
100
AcDbEntity
  8
0
100
AcDbLine
 62
7
  6
CONTINUOUS
 10
7.0921629614
 20
12.9637001775
 11
7.0860155311
 21
12.8948506477
  0
LINE
  5
22F
100
AcDbEntity
  8
0
100
AcDbLine
 62
7
  6
CONTINUOUS
 10
6.9443092619
 20
10.4495336568
 11
7.0095708077
 21
11.0957126418
  0
LINE
  5
230
100
AcDbEntity
  8
0
100
AcDbLine
 62
9
  6
CONTINUOUS
 10
14.3890372519
 20
5.0618124466
 11
15.0250372514
 21
5.0618360913
  0
LINE
  5
231
100
AcDbEntity
  8
0
100
AcDbLine
 62
9
  6
CONTINUOUS
 10
14.3890331066
 20
5.1733124465
 11
15.0250331062
 21
5.1733360912
  0
LINE
  5
232
100
AcDbEntity
  8
0
100
AcDbLine
 62
7
  6
CONTINUOUS
 10
14.399032735
 20
5.1833128183
 11
15.0150319707
 21
5.1833357194
  0
LINE
  5
233
100
AcDbEntity
  8
0
100
AcDbLine
 62
9
  6
CONTINUOUS
 10
14.9663020143
 20
5.1935965766
 11
14.4477626918
 21
5.1935772988
  0
LINE
  5
234
100
AcDbEntity
  8
0
100
AcDbLine
 62
9
  6
CONTINUOUS
 10
15.6199766123
 20
6.6550741733
 11
15.0046493592
 21
6.6550741733
  0
LINE
  5
235
100
AcDbEntity
  8
0
100
AcDbLine
 62
9
  6
CONTINUOUS
 10
14.4093060971
 20
6.6550741733
 11
13.7940037549
 21
6.6550741733
  0
LINE
  5
236
100
AcDbEntity
  8
0
100
AcDbLine
 62
7
  6
CONTINUOUS
 10
15.6819901836
 20
7.0423062587
 11
15.014809845
 21
7.0423062587
  0
LINE
  5
237
100
AcDbEntity
  8
0
100
AcDbLine
 62
7
  6
CONTINUOUS
 10
13.7319901836
 20
7.0423062587
 11
14.399116799
 21
7.0423062587
  0
LINE
  5
238
100
AcDbEntity
  8
0
100
AcDbLine
 62
9
  6
CONTINUOUS
 10
15.7017479774
 20
7.1570133001
 11
15.0178196143
 21
7.1570133001
  0
LINE
  5
239
100
AcDbEntity
  8
0
100
AcDbLine
 62
9
  6
CONTINUOUS
 10
13.7122323898
 20
7.1570133001
 11
14.3960984948
 21
7.1570133001
  0
LINE
  5
23A
100
AcDbEntity
  8
0
100
AcDbLine
 62
9
  6
CONTINUOUS
 10
15.3954209212
 20
7.4679065942
 11
15.0259770657
 21
7.4679065942
  0
LINE
  5
23B
100
AcDbEntity
  8
0
100
AcDbLine
 62
9
  6
CONTINUOUS
 10
14.0185594459
 20
7.4679065942
 11
14.3879179111
 21
7.4679065942
  0
LINE
  5
23C
100
AcDbEntity
  8
0
100
AcDbLine
 62
9
  6
CONTINUOUS
 10
15.0269464268
 20
7.5048504706
 11
14.3869464272
 21
7.5048266772
  0
LINE
  5
23D
100
AcDbEntity
  8
0
100
AcDbLine
 62
9
  6
CONTINUOUS
 10
15.428729314
 20
7.5472794866
 11
15.0313899766
 21
7.5472794866
  0
LINE
  5
23E
100
AcDbEntity
  8
0
100
AcDbLine
 62
9
  6
CONTINUOUS
 10
13.9852510531
 20
7.5472794866
 11
14.3824958992
 21
7.5472794866
  0
LINE
  5
23F
100
AcDbEntity
  8
0
100
AcDbLine
 62
9
  6
CONTINUOUS
 10
15.0579418055
 20
7.6291565948
 11
14.3559418059
 21
7.6291304964
  0
LINE
  5
240
100
AcDbEntity
  8
0
100
AcDbLine
 62
7
  6
CONTINUOUS
 10
15.4069884532
 20
7.6423062587
 11
15.0637817192
 21
7.6423062587
  0
LINE
  5
241
100
AcDbEntity
  8
0
100
AcDbLine
 62
7
  6
CONTINUOUS
 10
14.0069919139
 20
7.6423062587
 11
14.3500891286
 21
7.6423062587
  0
LINE
  5
242
100
AcDbEntity
  8
0
100
AcDbLine
 62
7
  6
CONTINUOUS
 10
14.1369901836
 20
7.6573062587
 11
14.3434261244
 21
7.6573062587
  0
LINE
  5
243
100
AcDbEntity
  8
0
100
AcDbLine
 62
7
  6
CONTINUOUS
 10
15.0704433881
 20
7.6573062587
 11
15.2769901836
 21
7.6573062587
  0
LINE
  5
244
100
AcDbEntity
  8
0
100
AcDbLine
 62
7
  6
CONTINUOUS
 10
15.0939372259
 20
7.7523386547
 11
14.3199372264
 21
7.7523098794
  0
LINE
  5
245
100
AcDbEntity
  8
0
100
AcDbLine
 62
9
  6
CONTINUOUS
 10
14.319934401
 20
7.8283098794
 11
15.0939344004
 21
7.8283386546
  0
LINE
  5
246
100
AcDbEntity
  8
0
100
AcDbLine
 62
7
  6
CONTINUOUS
 10
14.8939329507
 20
7.8673312191
 11
14.519932951
 21
7.8673173148
  0
LINE
  5
247
100
AcDbEntity
  8
0
100
AcDbLine
 62
7
  6
CONTINUOUS
 10
7.3601275368
 20
11.7085016639
 11
7.3645631985
 21
11.7041080961
  0
LINE
  5
248
100
AcDbEntity
  8
0
100
AcDbLine
 62
7
  6
CONTINUOUS
 10
6.3672716855
 20
10.4591333315
 11
6.2875931798
 21
10.4713258562
  0
LINE
  5
249
100
AcDbEntity
  8
0
100
AcDbLine
 62
7
  6
CONTINUOUS
 10
6.2301531474
 20
10.4801154163
 11
6.1503774472
 21
10.4923228138
  0
LINE
  5
24A
100
AcDbEntity
  8
0
100
AcDbLine
 62
7
  6
CONTINUOUS
 10
5.6570817756
 20
10.5678076589
 11
5.8352017848
 21
10.5405514674
  0
LINE
  5
24B
100
AcDbEntity
  8
0
100
AcDbLine
 62
7
  6
CONTINUOUS
 10
5.8672345437
 20
10.5356497665
 11
5.947021347
 21
10.5234406699
  0
LINE
  5
24C
100
AcDbEntity
  8
0
100
AcDbLine
 62
7
  6
CONTINUOUS
 10
6.0044018411
 20
10.5146602205
 11
6.0841883204
 21
10.5024511735
  0
LINE
  5
24D
100
AcDbEntity
  8
0
100
AcDbLine
 62
7
  6
CONTINUOUS
 10
6.3993585938
 20
10.4542233445
 11
6.5774786024
 21
10.4269671531
  0
LINE
  5
24E
100
AcDbEntity
  8
0
100
AcDbLine
 62
9
  6
CONTINUOUS
 10
5.6470819157
 20
10.5802449762
 11
5.8484637329
 21
10.5494292278
  0
LINE
  5
24F
100
AcDbEntity
  8
0
100
AcDbLine
 62
9
  6
CONTINUOUS
 10
5.8572341594
 20
10.548087164
 11
5.9602834062
 21
10.5323184134
  0
LINE
  5
250
100
AcDbEntity
  8
0
100
AcDbLine
 62
9
  6
CONTINUOUS
 10
5.9944012948
 20
10.5270976428
 11
6.0974505416
 21
10.5113288921
  0
LINE
  5
251
100
AcDbEntity
  8
0
100
AcDbLine
 62
9
  6
CONTINUOUS
 10
6.1403715113
 20
10.5047610608
 11
6.2434207581
 21
10.4889923102
  0
LINE
  5
252
100
AcDbEntity
  8
0
100
AcDbLine
 62
9
  6
CONTINUOUS
 10
6.2775386467
 20
10.4837715396
 11
6.3805878935
 21
10.468002789
  0
LINE
  5
253
100
AcDbEntity
  8
0
100
AcDbLine
 62
9
  6
CONTINUOUS
 10
6.38935832
 20
10.4666607252
 11
6.5907401372
 21
10.4358449768
  0
LINE
  5
254
100
AcDbEntity
  8
0
100
AcDbLine
 62
7
  6
CONTINUOUS
 10
5.346391723
 20
10.6521831741
 11
6.8991833011
 21
10.414572673
  0
LINE
  5
255
100
AcDbEntity
  8
0
100
AcDbLine
 62
9
  6
CONTINUOUS
 10
5.3137854717
 20
10.6990388578
 11
6.9443092619
 21
10.4495336568
  0
LWPOLYLINE
  5
256
100
AcDbEntity
  8
0
100
AcDbPolyline
 62
7
  6
CONTINUOUS
 90
12
 70
0
 10
7.2064692319
 20
12.6891023327
 10
7.1873264118
 20
12.7025058509
 10
7.1658230288
 20
12.7198083335
 10
7.1467984037
 20
12.7378896542
 10
7.1304019626
 20
12.7566095259
 10
7.1167548267
 20
12.7757251851
 10
7.1058405784
 20
12.7950002419
 10
7.0974611149
 20
12.8144107591
 10
7.0913759649
 20
12.8341763663
 10
7.0874570594
 20
12.8545913373
 10
7.0857108169
 20
12.8759808991
 10
7.0860155304
 20
12.8948506358
  0
LINE
  5
257
100
AcDbEntity
  8
0
100
AcDbLine
 62
9
  6
CONTINUOUS
 10
7.0095708077
 20
11.0957126418
 11
6.9989530344
 21
11.0973373895
  0
LINE
  5
258
100
AcDbEntity
  8
0
100
AcDbLine
 62
7
  6
CONTINUOUS
 10
7.0816876335
 20
11.4228394211
 11
7.263910333
 21
11.4252985164
  0
LINE
  5
259
100
AcDbEntity
  8
0
100
AcDbLine
 62
9
  6
CONTINUOUS
 10
5.6859593734
 20
12.5068569285
 11
6.9374020305
 21
12.3153592445
  0
LINE
  5
25A
100
AcDbEntity
  8
0
100
AcDbLine
 62
9
  6
CONTINUOUS
 10
5.662238086
 20
12.6226736626
 11
6.9838804843
 21
12.4204339662
  0
LINE
  5
25B
100
AcDbEntity
  8
0
100
AcDbLine
 62
7
  6
CONTINUOUS
 10
14.1369901836
 20
7.6573062587
 11
14.1369901836
 21
13.0153945044
  0
LINE
  5
25C
100
AcDbEntity
  8
0
100
AcDbLine
 62
7
  6
CONTINUOUS
 10
14.1469901836
 20
7.6573062587
 11
14.1469901836
 21
7.6423062587
  0
LINE
  5
25D
100
AcDbEntity
  8
0
100
AcDbLine
 62
9
  6
CONTINUOUS
 10
7.3570324052
 20
12.3577068842
 11
7.3649063314
 21
12.3577444237
  0
LINE
  5
25E
100
AcDbEntity
  8
0
100
AcDbLine
 62
9
  6
CONTINUOUS
 10
7.0345094912
 20
12.491299446
 11
5.6851414089
 21
12.6977817781
  0
LINE
  5
25F
100
AcDbEntity
  8
0
100
AcDbLine
 62
9
  6
CONTINUOUS
 10
6.9464989313
 20
12.5197704445
 11
5.7127764629
 21
12.7085562354
  0
LINE
  5
260
100
AcDbEntity
  8
0
100
AcDbLine
 62
9
  6
CONTINUOUS
 10
6.9131073858
 20
12.601325541
 11
5.7882753076
 21
12.7734533754
  0
LINE
  5
261
100
AcDbEntity
  8
0
100
AcDbLine
 62
9
  6
CONTINUOUS
 10
7.0718139588
 20
12.8970237816
 11
7.0860155309
 21
12.8948506477
  0
LINE
  5
262
100
AcDbEntity
  8
0
100
AcDbLine
 62
9
  6
CONTINUOUS
 10
5.9245358572
 20
13.1423722319
 11
7.0921629614
 21
12.9637001775
  0
LINE
  5
263
100
AcDbEntity
  8
0
100
AcDbLine
 62
9
  6
CONTINUOUS
 10
5.8919921861
 20
13.2391873352
 11
7.1521691099
 21
13.0463531683
  0
LINE
  5
264
100
AcDbEntity
  8
0
100
AcDbLine
 62
7
  6
CONTINUOUS
 10
7.2746445918
 20
12.5783510665
 11
7.2118239654
 21
12.5891194836
  0
LINE
  5
265
100
AcDbEntity
  8
0
100
AcDbLine
 62
7
  6
CONTINUOUS
 10
14.4477626918
 20
5.1935772988
 11
14.3869464272
 21
7.5048266772
  0
LINE
  5
266
100
AcDbEntity
  8
0
100
AcDbLine
 62
7
  6
CONTINUOUS
 10
14.3199372264
 20
7.7523098794
 11
14.319934401
 21
7.8283098794
  0
LINE
  5
267
100
AcDbEntity
  8
0
100
AcDbLine
 62
9
  6
CONTINUOUS
 10
14.3461537393
 20
3.8815631416
 11
14.3461537393
 21
4.1653397329
  0
LINE
  5
268
100
AcDbEntity
  8
0
100
AcDbLine
 62
7
  6
CONTINUOUS
 10
14.3694901836
 20
3.8848062587
 11
14.3694901836
 21
4.0879119059
  0
LINE
  5
269
100
AcDbEntity
  8
0
100
AcDbLine
 62
7
  6
CONTINUOUS
 10
14.3890372519
 20
5.0618124466
 11
14.3890331066
 21
5.1733124465
  0
LINE
  5
26A
100
AcDbEntity
  8
0
100
AcDbLine
 62
7
  6
CONTINUOUS
 10
14.512040765
 20
4.9673170194
 11
14.5120795607
 21
4.2323182323
  0
LINE
  5
26B
100
AcDbEntity
  8
0
100
AcDbLine
 62
9
  6
CONTINUOUS
 10
14.1369901836
 20
13.0153945044
 11
15.2769901836
 21
13.0153945044
  0
LINE
  5
26C
100
AcDbEntity
  8
0
100
AcDbLine
 62
7
  6
CONTINUOUS
 10
5.9325155163
 20
13.3242709528
 11
7.1389435864
 21
13.1396615163
  0
LINE
  5
26D
100
AcDbEntity
  8
0
100
AcDbLine
 62
7
  6
CONTINUOUS
 10
7.1037088915
 20
13.1754023836
 11
5.9768258605
 21
13.3478397187
  0
LINE
  5
26E
100
AcDbEntity
  8
0
100
AcDbLine
 62
9
  6
CONTINUOUS
 10
7.160431699
 20
13.5460875912
 11
6.0335486681
 21
13.7185249263
  0
LINE
  5
26F
100
AcDbEntity
  8
0
100
AcDbLine
 62
7
  6
CONTINUOUS
 10
14.9020407648
 20
4.9673315186
 11
14.9020795603
 21
4.2323327314
  0
LINE
  5
270
100
AcDbEntity
  8
0
100
AcDbLine
 62
7
  6
CONTINUOUS
 10
15.0250372514
 20
5.0618360913
 11
15.0250331062
 21
5.1733360912
  0
LINE
  5
271
100
AcDbEntity
  8
0
100
AcDbLine
 62
7
  6
CONTINUOUS
 10
15.0444901836
 20
4.0874472578
 11
15.0444901836
 21
3.8848062587
  0
LINE
  5
272
100
AcDbEntity
  8
0
100
AcDbLine
 62
9
  6
CONTINUOUS
 10
15.0678266278
 20
4.1643790641
 11
15.0678266278
 21
3.8815631416
  0
LINE
  5
273
100
AcDbEntity
  8
0
100
AcDbLine
 62
7
  6
CONTINUOUS
 10
15.0939372259
 20
7.7523386547
 11
15.0939344004
 21
7.8283386546
  0
LINE
  5
274
100
AcDbEntity
  8
0
100
AcDbLine
 62
7
  6
CONTINUOUS
 10
15.2669901836
 20
7.6573062587
 11
15.2669901836
 21
7.6423062587
  0
LINE
  5
275
100
AcDbEntity
  8
0
100
AcDbLine
 62
7
  6
CONTINUOUS
 10
15.2769901836
 20
7.6573062587
 11
15.2769901836
 21
13.0153945044
  0
LINE
  5
276
100
AcDbEntity
  8
0
100
AcDbLine
 62
7
  6
CONTINUOUS
 10
14.9663020143
 20
5.1935965766
 11
15.0269464268
 21
7.5048504706
  0
ARC
  5
277
100
AcDbEntity
  8
0
100
AcDbCircle
 62
7
  6
CONTINUOUS
 10
-5.6369701833
 20
4.4654125913
 40
19.5539603669
100
AcDbArc
 50
0.7066172296
 51
6.4294933446
  0
ARC
  5
278
100
AcDbEntity
  8
0
100
AcDbCircle
 62
7
  6
CONTINUOUS
 10
-5.6369701833
 20
4.4654125913
 40
19.5539603669
100
AcDbArc
 50
349.143140525
 51
357.9746326834
  0
ARC
  5
279
100
AcDbEntity
  8
0
100
AcDbCircle
 62
7
  6
CONTINUOUS
 10
4.9816717969
 20
-0.4208468131
 40
13.1470002522
100
AcDbArc
 50
79.9976558414
 51
80.3060461872
  0
ARC
  5
27A
100
AcDbEntity
  8
0
100
AcDbCircle
 62
9
  6
CONTINUOUS
 10
14.7058841904
 20
3.8783302853
 40
0.3615270225
100
AcDbArc
 50
339.7674591675
 51
353.0394456151
  0
ARC
  5
27B
100
AcDbEntity
  8
0
100
AcDbCircle
 62
9
  6
CONTINUOUS
 10
14.7069885704
 20
3.881563036
 40
0.3608348311
100
AcDbArc
 50
179.9999832306
 51
187.4914099821
  0
ARC
  5
27C
100
AcDbEntity
  8
0
100
AcDbCircle
 62
9
  6
CONTINUOUS
 10
14.7069886423
 20
4.2701571767
 40
0.3608342996
100
AcDbArc
 50
122.7409358945
 51
172.4360435072
  0
ARC
  5
27D
100
AcDbEntity
  8
0
100
AcDbCircle
 62
7
  6
CONTINUOUS
 10
13.2583191243
 20
0.7605126119
 40
0.3
100
AcDbArc
 50
287.5695969516
 51
333.2212894265
  0
ARC
  5
27E
100
AcDbEntity
  8
0
100
AcDbCircle
 62
7
  6
CONTINUOUS
 10
14.4835372518
 20
5.0618159598
 40
0.0945
100
AcDbArc
 50
180.0021301011
 51
270.0021301011
  0
ARC
  5
27F
100
AcDbEntity
  8
0
100
AcDbCircle
 62
7
  6
CONTINUOUS
 10
13.4636523809
 20
0.6568870662
 40
0.07
100
AcDbArc
 50
333.2212894265
 51
38.9390460747
  0
ARC
  5
280
100
AcDbEntity
  8
0
100
AcDbCircle
 62
7
  6
CONTINUOUS
 10
13.3669901836
 20
0.4173062587
 40
0.06
100
AcDbArc
 50
107.5695969516
 51
270.0
  0
ARC
  5
281
100
AcDbEntity
  8
0
100
AcDbCircle
 62
7
  6
CONTINUOUS
 10
13.5569901836
 20
0.7323062587
 40
0.05
100
AcDbArc
 50
90.0
 51
218.9390460747
  0
ARC
  5
282
100
AcDbEntity
  8
0
100
AcDbCircle
 62
7
  6
CONTINUOUS
 10
14.437766152
 20
5.1933142583
 40
0.01
100
AcDbArc
 50
270.0021301011
 51
1.5072849553
  0
ARC
  5
283
100
AcDbEntity
  8
0
100
AcDbCircle
 62
7
  6
CONTINUOUS
 10
14.3990331066
 20
5.1733128182
 40
0.01
100
AcDbArc
 50
90.0021301011
 51
180.0021301011
  0
ARC
  5
284
100
AcDbEntity
  8
0
100
AcDbCircle
 62
7
  6
CONTINUOUS
 10
5.3523468734
 20
10.6911002563
 40
0.0393700787
100
AcDbArc
 50
168.3670937784
 51
261.3
  0
ARC
  5
285
100
AcDbEntity
  8
0
100
AcDbCircle
 62
7
  6
CONTINUOUS
 10
6.9051384515
 20
10.4534897552
 40
0.0393700787
100
AcDbArc
 50
261.3
 51
354.2329062216
  0
ARC
  5
286
100
AcDbEntity
  8
0
100
AcDbCircle
 62
7
  6
CONTINUOUS
 10
6.2319457685
 20
10.4917896111
 40
0.0118110236
100
AcDbArc
 50
261.3
 51
346.3
  0
ARC
  5
287
100
AcDbEntity
  8
0
100
AcDbCircle
 62
7
  6
CONTINUOUS
 10
6.1521579163
 20
10.5039988682
 40
0.0118110236
100
AcDbArc
 50
176.3
 51
261.3
  0
ARC
  5
288
100
AcDbEntity
  8
0
100
AcDbCircle
 62
7
  6
CONTINUOUS
 10
6.3691129039
 20
10.4708000899
 40
0.0118110236
100
AcDbArc
 50
261.3
 51
346.3
  0
ARC
  5
289
100
AcDbEntity
  8
0
100
AcDbCircle
 62
7
  6
CONTINUOUS
 10
6.2893250516
 20
10.483009347
 40
0.0118110236
100
AcDbArc
 50
176.3
 51
261.3
  0
ARC
  5
28A
100
AcDbEntity
  8
0
100
AcDbCircle
 62
7
  6
CONTINUOUS
 10
6.4809325772
 20
10.4536892755
 40
0.0118110236
100
AcDbArc
 50
261.3
 51
346.3
  0
ARC
  5
28B
100
AcDbEntity
  8
0
100
AcDbCircle
 62
7
  6
CONTINUOUS
 10
6.4011447249
 20
10.4658985325
 40
0.0118110236
100
AcDbArc
 50
176.3
 51
261.3
  0
ARC
  5
28C
100
AcDbEntity
  8
0
100
AcDbCircle
 62
7
  6
CONTINUOUS
 10
6.5539176854
 20
10.4425209845
 40
0.0118110236
100
AcDbArc
 50
261.3
 51
346.3
  0
ARC
  5
28D
100
AcDbEntity
  8
0
100
AcDbCircle
 62
7
  6
CONTINUOUS
 10
5.6842157828
 20
10.5756040768
 40
0.0118110236
100
AcDbArc
 50
176.3
 51
261.3
  0
ARC
  5
28E
100
AcDbEntity
  8
0
100
AcDbCircle
 62
7
  6
CONTINUOUS
 10
5.7572008911
 20
10.5644357858
 40
0.0118110236
100
AcDbArc
 50
176.3
 51
261.3
  0
ARC
  5
28F
100
AcDbEntity
  8
0
100
AcDbCircle
 62
7
  6
CONTINUOUS
 10
5.8369887433
 20
10.5522265288
 40
0.0118110236
100
AcDbArc
 50
261.3
 51
346.3
  0
ARC
  5
290
100
AcDbEntity
  8
0
100
AcDbCircle
 62
7
  6
CONTINUOUS
 10
5.8690205643
 20
10.5473249714
 40
0.0118110236
100
AcDbArc
 50
176.3
 51
261.3
  0
ARC
  5
291
100
AcDbEntity
  8
0
100
AcDbCircle
 62
7
  6
CONTINUOUS
 10
5.9488084166
 20
10.5351157143
 40
0.0118110236
100
AcDbArc
 50
261.3
 51
346.3
  0
ARC
  5
292
100
AcDbEntity
  8
0
100
AcDbCircle
 62
7
  6
CONTINUOUS
 10
6.0061876997
 20
10.5263354501
 40
0.0118110236
100
AcDbArc
 50
176.3
 51
261.3
  0
ARC
  5
293
100
AcDbEntity
  8
0
100
AcDbCircle
 62
7
  6
CONTINUOUS
 10
6.085975552
 20
10.5141261931
 40
0.0118110236
100
AcDbArc
 50
261.3
 51
346.3
  0
ARC
  5
294
100
AcDbEntity
  8
0
100
AcDbCircle
 62
7
  6
CONTINUOUS
 10
5.6588683207
 20
10.5794827835
 40
0.0118110236
100
AcDbArc
 50
176.3000000044
 51
261.3
  0
ARC
  5
295
100
AcDbEntity
  8
0
100
AcDbCircle
 62
7
  6
CONTINUOUS
 10
6.5792651476
 20
10.4386422778
 40
0.0118110236
100
AcDbArc
 50
261.3
 51
346.2999999956
  0
ARC
  5
296
100
AcDbEntity
  8
0
100
AcDbCircle
 62
7
  6
CONTINUOUS
 10
5.5390404327
 20
12.5371030004
 40
0.15
100
AcDbArc
 50
348.3670937784
 51
34.7830822171
  0
ARC
  5
297
100
AcDbEntity
  8
0
100
AcDbCircle
 62
7
  6
CONTINUOUS
 10
5.7033039704
 20
12.6511972167
 40
0.05
100
AcDbArc
 50
111.3
 51
214.7830822171
  0
ARC
  5
298
100
AcDbEntity
  8
0
100
AcDbCircle
 62
7
  6
CONTINUOUS
 10
4.7732886289
 20
13.3579631364
 40
1.1712598425
100
AcDbArc
 50
330.0632529236
 51
349.3932278559
  0
ARC
  5
299
100
AcDbEntity
  8
0
100
AcDbCircle
 62
7
  6
CONTINUOUS
 10
5.6582887783
 20
12.8483099195
 40
0.15
100
AcDbArc
 50
291.3
 51
330.0632529236
  0
ARC
  5
29A
100
AcDbEntity
  8
0
100
AcDbCircle
 62
7
  6
CONTINUOUS
 10
5.8216008109
 20
13.1616485951
 40
0.1047244094
100
AcDbArc
 50
349.3932278559
 51
47.7661414864
  0
ARC
  5
29B
100
AcDbEntity
  8
0
100
AcDbCircle
 62
7
  6
CONTINUOUS
 10
5.9250708399
 20
13.2756247131
 40
0.0492125984
100
AcDbArc
 50
81.3
 51
227.7661414864
  0
ARC
  5
29C
100
AcDbEntity
  8
0
100
AcDbCircle
 62
9
  6
CONTINUOUS
 10
8.4926239436
 20
12.3147270246
 40
1.3431078763
100
AcDbArc
 50
171.5658033175
 51
173.4888990633
  0
ARC
  5
29D
100
AcDbEntity
  8
0
100
AcDbCircle
 62
9
  6
CONTINUOUS
 10
6.827551264
 20
12.4651511609
 40
0.3201448664
100
AcDbArc
 50
340.8835939531
 51
341.9097421312
  0
ARC
  5
29E
100
AcDbEntity
  8
0
100
AcDbCircle
 62
9
  6
CONTINUOUS
 10
6.9104607052
 20
12.4847806467
 40
0.2483564107
100
AcDbArc
 50
350.3574311179
 51
355.9016241858
  0
ARC
  5
29F
100
AcDbEntity
  8
0
100
AcDbCircle
 62
7
  6
CONTINUOUS
 10
7.2580166573
 20
12.4813405971
 40
0.0984251969
100
AcDbArc
 50
0.2731595949
 51
80.2738166472
  0
ARC
  5
2A0
100
AcDbEntity
  8
0
100
AcDbCircle
 62
7
  6
CONTINUOUS
 10
7.262582206
 20
11.5237147521
 40
0.0984251969
100
AcDbArc
 50
270.7731595888
 51
0.2731595949
  0
ARC
  5
2A1
100
AcDbEntity
  8
0
100
AcDbCircle
 62
7
  6
CONTINUOUS
 10
7.0462411417
 20
11.3000365701
 40
0.05
100
AcDbArc
 50
320.0765802508
 51
8.1155331303
  0
ARC
  5
2A2
100
AcDbEntity
  8
0
100
AcDbCircle
 62
7
  6
CONTINUOUS
 10
7.178931022
 20
12.6473692424
 40
0.05
100
AcDbArc
 50
340.635378836
 51
56.5805731055
  0
ARC
  5
2A3
100
AcDbEntity
  8
0
100
AcDbCircle
 62
9
  6
CONTINUOUS
 10
7.1785397387
 20
12.6462227482
 40
0.049989758
100
AcDbArc
 50
340.6661319112
 51
58.4285403936
  0
ARC
  5
2A4
100
AcDbEntity
  8
0
100
AcDbCircle
 62
9
  6
CONTINUOUS
 10
7.0459895845
 20
11.3021760762
 40
0.0499481127
100
AcDbArc
 50
316.1329588487
 51
8.0660827938
  0
ARC
  5
2A5
100
AcDbEntity
  8
0
100
AcDbCircle
 62
7
  6
CONTINUOUS
 10
7.3171935301
 20
12.455943265
 40
0.0472440945
100
AcDbArc
 50
342.4859335412
 51
33.8326021211
  0
ARC
  5
2A6
100
AcDbEntity
  8
0
100
AcDbCircle
 62
7
  6
CONTINUOUS
 10
7.3181320176
 20
12.2590951084
 40
0.0472440945
100
AcDbArc
 50
326.715849833
 51
18.0603856487
  0
ARC
  5
2A7
100
AcDbEntity
  8
0
100
AcDbCircle
 62
7
  6
CONTINUOUS
 10
7.3179945793
 20
12.2879228535
 40
0.0472440945
100
AcDbArc
 50
326.715849833
 51
33.8304693569
  0
ARC
  5
2A8
100
AcDbEntity
  8
0
100
AcDbCircle
 62
7
  6
CONTINUOUS
 10
7.3176627738
 20
12.3575191867
 40
0.0472440945
100
AcDbArc
 50
326.715849833
 51
33.8304693569
  0
ARC
  5
2A9
100
AcDbEntity
  8
0
100
AcDbCircle
 62
7
  6
CONTINUOUS
 10
7.3173309684
 20
12.4271155199
 40
0.0472440945
100
AcDbArc
 50
326.715849833
 51
33.8304693569
  0
ARC
  5
2AA
100
AcDbEntity
  8
0
100
AcDbCircle
 62
7
  6
CONTINUOUS
 10
7.3562514372
 20
11.6957167373
 40
0.0118110236
100
AcDbArc
 50
0.2730396967
 51
45.2730368898
  0
ARC
  5
2AB
100
AcDbEntity
  8
0
100
AcDbCircle
 62
7
  6
CONTINUOUS
 10
7.3566928026
 20
11.603140157
 40
0.0118110236
100
AcDbArc
 50
315.2732823001
 51
0.2732794932
  0
ARC
  5
2AC
100
AcDbEntity
  8
0
100
AcDbCircle
 62
9
  6
CONTINUOUS
 10
7.3553788637
 20
14.3616779956
 40
1.8348224374
100
AcDbArc
 50
263.1750285044
 51
264.1987908446
  0
ARC
  5
2AD
100
AcDbEntity
  8
0
100
AcDbCircle
 62
7
  6
CONTINUOUS
 10
7.1961521527
 20
12.9513126828
 40
0.1047244094
100
AcDbArc
 50
114.8338585136
 51
173.2067721441
  0
ARC
  5
2AE
100
AcDbEntity
  8
0
100
AcDbCircle
 62
7
  6
CONTINUOUS
 10
7.1315003868
 20
13.0910150506
 40
0.0492125984
100
AcDbArc
 50
294.8338585136
 51
81.3
  0
ARC
  5
2AF
100
AcDbEntity
  8
0
100
AcDbCircle
 62
7
  6
CONTINUOUS
 10
12.1419901836
 20
7.0470058021
 40
3.5
100
AcDbArc
 50
353.5705066554
 51
359.9230494847
  0
ARC
  5
2B0
100
AcDbEntity
  8
0
100
AcDbCircle
 62
7
  6
CONTINUOUS
 10
13.5449497357
 20
7.6281995834
 40
0.5
100
AcDbArc
 50
289.5461067356
 51
341.3016339321
  0
ARC
  5
2B1
100
AcDbEntity
  8
0
100
AcDbCircle
 62
7
  6
CONTINUOUS
 10
14.6798987359
 20
7.7906727742
 40
0.362
100
AcDbArc
 50
186.0833345796
 51
206.5033018752
  0
ARC
  5
2B2
100
AcDbEntity
  8
0
100
AcDbCircle
 62
7
  6
CONTINUOUS
 10
14.0910488466
 20
7.4970406781
 40
0.296
100
AcDbArc
 50
1.5072849553
 51
26.5033018752
  0
ARC
  5
2B3
100
AcDbEntity
  8
0
100
AcDbCircle
 62
7
  6
CONTINUOUS
 10
13.9569901836
 20
7.4887446828
 40
0.065
100
AcDbArc
 50
341.3016339321
 51
64.2285382594
  0
ARC
  5
2B4
100
AcDbEntity
  8
0
100
AcDbCircle
 62
7
  6
CONTINUOUS
 10
13.7319901836
 20
7.1013613768
 40
0.0590551181
100
AcDbArc
 50
109.5461067356
 51
270.0
  0
ARC
  5
2B5
100
AcDbEntity
  8
0
100
AcDbCircle
 62
7
  6
CONTINUOUS
 10
14.0069901836
 20
7.5923062587
 40
0.05
100
AcDbArc
 50
90.0
 51
244.2285382595
  0
ARC
  5
2B6
100
AcDbEntity
  8
0
100
AcDbCircle
 62
9
  6
CONTINUOUS
 10
14.159687118
 20
11.2332633843
 40
7.1309313993
100
AcDbArc
 50
173.7421016929
 51
174.0278552959
  0
ARC
  5
2B7
100
AcDbEntity
  8
0
100
AcDbCircle
 62
7
  6
CONTINUOUS
 10
10.6285265515
 20
13.0153945044
 40
4.6484636321
100
AcDbArc
 50
0.0
 51
171.3
  0
ARC
  5
2B8
100
AcDbEntity
  8
0
100
AcDbCircle
 62
7
  6
CONTINUOUS
 10
10.6285265515
 20
13.0153945044
 40
3.5084636321
100
AcDbArc
 50
0.0
 51
171.3
  0
ARC
  5
2B9
100
AcDbEntity
  8
0
100
AcDbCircle
 62
7
  6
CONTINUOUS
 10
9.8676995956
 20
11.7023700053
 40
2.8
100
AcDbArc
 50
160.6353033115
 51
188.1155331303
  0
ARC
  5
2BA
100
AcDbEntity
  8
0
100
AcDbCircle
 62
7
  6
CONTINUOUS
 10
16.1556612428
 20
0.7605126119
 40
0.3
100
AcDbArc
 50
206.7787105735
 51
252.4304030484
  0
ARC
  5
2BB
100
AcDbEntity
  8
0
100
AcDbCircle
 62
7
  6
CONTINUOUS
 10
15.9503279862
 20
0.6568870662
 40
0.07
100
AcDbArc
 50
141.0609539253
 51
206.7787105735
  0
ARC
  5
2BC
100
AcDbEntity
  8
0
100
AcDbCircle
 62
7
  6
CONTINUOUS
 10
16.0469901836
 20
0.4173062587
 40
0.06
100
AcDbArc
 50
270.0
 51
72.4304030484
  0
ARC
  5
2BD
100
AcDbEntity
  8
0
100
AcDbCircle
 62
7
  6
CONTINUOUS
 10
15.8569901836
 20
0.7323062587
 40
0.05
100
AcDbArc
 50
321.0609539253
 51
90.0
  0
ARC
  5
2BE
100
AcDbEntity
  8
0
100
AcDbCircle
 62
7
  6
CONTINUOUS
 10
14.7069901836
 20
4.2323062587
 40
0.925
100
AcDbArc
 50
110.1193674226
 51
69.8746234252
  0
ARC
  5
2BF
100
AcDbEntity
  8
0
100
AcDbCircle
 62
9
  6
CONTINUOUS
 10
14.7069901836
 20
4.2323062587
 40
0.8666666667
100
AcDbArc
 50
111.3316414432
 51
68.6623721773
  0
ARC
  5
2C0
100
AcDbEntity
  8
0
100
AcDbCircle
 62
9
  6
CONTINUOUS
 10
14.7069901836
 20
4.2323062587
 40
0.7923268874
100
AcDbArc
 50
109.6714401102
 51
70.3259280616
  0
ARC
  5
2C1
100
AcDbEntity
  8
0
100
AcDbCircle
 62
9
  6
CONTINUOUS
 10
14.7069901836
 20
4.2323062587
 40
0.74
100
AcDbArc
 50
105.2857104651
 51
247.3974399565
  0
ARC
  5
2C2
100
AcDbEntity
  8
0
100
AcDbCircle
 62
9
  6
CONTINUOUS
 10
14.7069901836
 20
4.2323062587
 40
0.74
100
AcDbArc
 50
292.6025600435
 51
74.7060005059
  0
ARC
  5
2C3
100
AcDbEntity
  8
0
100
AcDbCircle
 62
9
  6
CONTINUOUS
 10
14.7069901836
 20
4.2323062587
 40
0.697151568
100
AcDbArc
 50
106.240715352
 51
242.9295585514
  0
ARC
  5
2C4
100
AcDbEntity
  8
0
100
AcDbCircle
 62
9
  6
CONTINUOUS
 10
14.7069901836
 20
4.2323062587
 40
0.697151568
100
AcDbArc
 50
297.0704414486
 51
73.7502944772
  0
ARC
  5
2C5
100
AcDbEntity
  8
0
100
AcDbCircle
 62
9
  6
CONTINUOUS
 10
14.7069901836
 20
4.2323062587
 40
0.535
100
AcDbArc
 50
311.9670987269
 51
68.6022538199
  0
ARC
  5
2C6
100
AcDbEntity
  8
0
100
AcDbCircle
 62
9
  6
CONTINUOUS
 10
14.7069901836
 20
4.2323062587
 40
0.535
100
AcDbArc
 50
111.384195632
 51
228.0329012731
  0
ARC
  5
2C7
100
AcDbEntity
  8
0
100
AcDbCircle
 62
7
  6
CONTINUOUS
 10
14.7070828377
 20
4.2323258282
 40
0.3675
100
AcDbArc
 50
122.0683093161
 51
57.9412351725
  0
ARC
  5
2C8
100
AcDbEntity
  8
0
100
AcDbCircle
 62
9
  6
CONTINUOUS
 10
14.7081229022
 20
3.8783364756
 40
0.3615543012
100
AcDbArc
 50
186.9610148975
 51
200.2320467611
  0
ARC
  5
2C9
100
AcDbEntity
  8
0
100
AcDbCircle
 62
9
  6
CONTINUOUS
 10
14.7069906647
 20
4.2701556761
 40
0.3608360423
100
AcDbArc
 50
7.9101392858
 51
57.2344006497
  0
ARC
  5
2CA
100
AcDbEntity
  8
0
100
AcDbCircle
 62
9
  6
CONTINUOUS
 10
14.7069917958
 20
3.881563036
 40
0.360834832
100
AcDbArc
 50
352.5085900271
 51
0.0000167601
  0
ARC
  5
2CB
100
AcDbEntity
  8
0
100
AcDbCircle
 62
7
  6
CONTINUOUS
 10
14.7069901836
 20
4.2698062587
 40
0.3375
100
AcDbArc
 50
125.3206354572
 51
129.6825317582
  0
ARC
  5
2CC
100
AcDbEntity
  8
0
100
AcDbCircle
 62
7
  6
CONTINUOUS
 10
14.7069901836
 20
4.2698062587
 40
0.3375
100
AcDbArc
 50
50.4853612462
 51
54.6508552344
  0
ARC
  5
2CD
100
AcDbEntity
  8
0
100
AcDbCircle
 62
7
  6
CONTINUOUS
 10
14.7069901836
 20
3.8848062587
 40
0.3375
100
AcDbArc
 50
180.0
 51
360.0
  0
ARC
  5
2CE
100
AcDbEntity
  8
0
100
AcDbCircle
 62
9
  6
CONTINUOUS
 10
14.7070808714
 20
4.2323256204
 40
0.3075
100
AcDbArc
 50
129.4018099902
 51
50.6081798307
  0
ARC
  5
2CF
100
AcDbEntity
  8
0
100
AcDbCircle
 62
9
  6
CONTINUOUS
 10
14.7070808714
 20
4.2323256204
 40
0.215
100
AcDbArc
 50
155.2805314464
 51
24.7351133142
  0
ARC
  5
2D0
100
AcDbEntity
  8
0
100
AcDbCircle
 62
7
  6
CONTINUOUS
 10
14.7070795605
 20
4.2323254819
 40
0.195
100
AcDbArc
 50
180.0021300946
 51
0.0021300946
  0
ARC
  5
2D1
100
AcDbEntity
  8
0
100
AcDbCircle
 62
7
  6
CONTINUOUS
 10
14.9305372515
 20
5.0618325781
 40
0.0945
100
AcDbArc
 50
270.0021301011
 51
0.0021301011
  0
ARC
  5
2D2
100
AcDbEntity
  8
0
100
AcDbCircle
 62
7
  6
CONTINUOUS
 10
14.9762985737
 20
5.1933342794
 40
0.01
100
AcDbArc
 50
178.496975247
 51
270.0021301011
  0
ARC
  5
2D3
100
AcDbEntity
  8
0
100
AcDbCircle
 62
7
  6
CONTINUOUS
 10
15.0150331062
 20
5.1733357195
 40
0.01
100
AcDbArc
 50
0.0021301011
 51
90.0021301011
  0
ARC
  5
2D4
100
AcDbEntity
  8
0
100
AcDbCircle
 62
7
  6
CONTINUOUS
 10
35.0509505504
 20
4.4654125913
 40
19.5539603669
100
AcDbArc
 50
173.5705066554
 51
179.2933827704
  0
ARC
  5
2D5
100
AcDbEntity
  8
0
100
AcDbCircle
 62
7
  6
CONTINUOUS
 10
35.0509505504
 20
4.4654125913
 40
19.5539603669
100
AcDbArc
 50
182.0253673166
 51
190.856859475
  0
ARC
  5
2D6
100
AcDbEntity
  8
0
100
AcDbCircle
 62
7
  6
CONTINUOUS
 10
17.2719901836
 20
7.0470058021
 40
3.5
100
AcDbArc
 50
180.0769505153
 51
186.4294933446
  0
ARC
  5
2D7
100
AcDbEntity
  8
0
100
AcDbCircle
 62
7
  6
CONTINUOUS
 10
15.8690306315
 20
7.6281995834
 40
0.5
100
AcDbArc
 50
198.6983660679
 51
250.4538932644
  0
ARC
  5
2D8
100
AcDbEntity
  8
0
100
AcDbCircle
 62
7
  6
CONTINUOUS
 10
14.733972865
 20
7.7906747845
 40
0.362
100
AcDbArc
 50
333.5009583271
 51
353.9209256226
  0
ARC
  5
2D9
100
AcDbEntity
  8
0
100
AcDbCircle
 62
7
  6
CONTINUOUS
 10
15.3228445855
 20
7.4970864729
 40
0.296
100
AcDbArc
 50
153.5009583271
 51
178.496975247
  0
ARC
  5
2DA
100
AcDbEntity
  8
0
100
AcDbCircle
 62
7
  6
CONTINUOUS
 10
15.4569901836
 20
7.4887446828
 40
0.065
100
AcDbArc
 50
115.7714617406
 51
198.6983660679
  0
ARC
  5
2DB
100
AcDbEntity
  8
0
100
AcDbCircle
 62
7
  6
CONTINUOUS
 10
15.6819901836
 20
7.1013613768
 40
0.0590551181
100
AcDbArc
 50
270.0
 51
70.4538932644
  0
ARC
  5
2DC
100
AcDbEntity
  8
0
100
AcDbCircle
 62
7
  6
CONTINUOUS
 10
15.4069901836
 20
7.5923062587
 40
0.05
100
AcDbArc
 50
295.7714617405
 51
90.0
  0
SPLINE
  5
2DD
100
AcDbEntity
  8
0
100
AcDbSpline
 62
7
  6
CONTINUOUS
 70
0
 71
3
 72
15
 73
11
 74
0
 42
0.0000001
 43
0.0000001
 44
0.0000000001
 40
0.0
 40
0.0
 40
0.0
 40
0.0
 40
0.1230238095
 40
0.2451494186
 40
0.3671174785
 40
0.4896714967
 40
0.6135444304
 40
0.7394462039
 40
0.8680531475
 40
1.0
 40
1.0
 40
1.0
 40
1.0
 10
7.0095708077
 20
11.0957126418
 30
0.0
 10
7.0103567317
 20
11.1034943697
 30
0.0
 10
7.0125099728
 20
11.1189487228
 30
0.0
 10
7.0175197847
 20
11.1417676378
 30
0.0
 10
7.0242919341
 20
11.1640972676
 30
0.0
 10
7.0328253266
 20
11.1859334698
 30
0.0
 10
7.0431183664
 20
11.2072746505
 30
0.0
 10
7.0551692293
 20
11.2281195937
 30
0.0
 10
7.0689748856
 20
11.2484666431
 30
0.0
 10
7.0792027901
 20
11.2615151684
 30
0.0
 10
7.0845862864
 20
11.2679484122
 30
0.0
  0
SPLINE
  5
2DE
100
AcDbEntity
  8
0
100
AcDbSpline
 62
7
  6
CONTINUOUS
 70
0
 71
3
 72
31
 73
27
 74
0
 42
0.0000001
 43
0.0000001
 44
0.0000000001
 40
0.0
 40
0.0
 40
0.0
 40
0.0
 40
0.0083430326
 40
0.015948329
 40
0.0230331245
 40
0.0297775761
 40
0.0426919181
 40
0.0552305021
 40
0.0676698493
 40
0.0801589224
 40
0.1055425155
 40
0.1316556132
 40
0.1585437898
 40
0.1861521765
 40
0.2144289327
 40
0.2433129217
 40
0.272752174
 40
0.3330887178
 40
0.3951047312
 40
0.458560339
 40
0.5232346969
 40
0.5889764568
 40
0.6556544311
 40
0.7231677033
 40
0.8603559428
 40
1.0
 40
1.0
 40
1.0
 40
1.0
 10
15.0939344004
 20
7.8283386546
 30
0.0
 10
15.0939343785
 20
7.8289290188
 30
0.0
 10
15.0938745208
 20
7.8300589194
 30
0.0
 10
15.0935966434
 20
7.8316685751
 30
0.0
 10
15.0931664912
 20
7.8331264457
 30
0.0
 10
15.0924444714
 20
7.8348782168
 30
0.0
 10
15.0913165204
 20
7.8368698212
 30
0.0
 10
15.0896589839
 20
7.8389870564
 30
0.0
 10
15.087788516
 20
7.8408729849
 30
0.0
 10
15.0850445161
 20
7.8431479257
 30
0.0
 10
15.0812380433
 20
7.8456254246
 30
0.0
 10
15.0762916765
 20
7.8481496332
 30
0.0
 10
15.0710164872
 20
7.8503314688
 30
0.0
 10
15.0654824289
 20
7.85225719
 30
0.0
 10
15.0597298264
 20
7.853962809
 30
0.0
 10
15.0537932875
 20
7.8554869523
 30
0.0
 10
15.0455985515
 20
7.857321542
 30
0.0
 10
15.0350303449
 20
7.8592622097
 30
0.0
 10
15.0220168699
 20
7.8611533684
 30
0.0
 10
15.0086485625
 20
7.8626920024
 30
0.0
 10
14.9949866162
 20
7.8639481946
 30
0.0
 10
14.9810758186
 20
7.8649574162
 30
0.0
 10
14.9669503819
 20
7.8657567601
 30
0.0
 10
14.9477643019
 20
7.8665782276
 30
0.0
 10
14.9234037621
 20
7.8671918061
 30
0.0
 10
14.903814351
 20
7.8673315865
 30
0.0
 10
14.8939329507
 20
7.8673312191
 30
0.0
  0
SPLINE
  5
2DF
100
AcDbEntity
  8
0
100
AcDbSpline
 62
7
  6
CONTINUOUS
 70
0
 71
3
 72
31
 73
27
 74
0
 42
0.0000001
 43
0.0000001
 44
0.0000000001
 40
0.0
 40
0.0
 40
0.0
 40
0.0
 40
0.0083430326
 40
0.015948329
 40
0.0230331245
 40
0.0297775761
 40
0.0426919181
 40
0.0552305021
 40
0.0676698493
 40
0.0801589224
 40
0.1055425155
 40
0.1316556132
 40
0.1585437898
 40
0.1861521765
 40
0.2144289327
 40
0.2433129217
 40
0.272752174
 40
0.3330887178
 40
0.3951047312
 40
0.458560339
 40
0.5232346969
 40
0.5889764568
 40
0.6556544311
 40
0.7231677033
 40
0.8603559428
 40
1.0
 40
1.0
 40
1.0
 40
1.0
 10
14.319934401
 20
7.8283098794
 30
0.0
 10
14.319934379
 20
7.8289002435
 30
0.0
 10
14.3199941527
 20
7.8300301486
 30
0.0
 10
14.3202719104
 20
7.8316398249
 30
0.0
 10
14.3207019542
 20
7.8330977276
 30
0.0
 10
14.3214238438
 20
7.8348495524
 30
0.0
 10
14.3225516466
 20
7.8368412406
 30
0.0
 10
14.3242090258
 20
7.8389585991
 30
0.0
 10
14.3260793534
 20
7.8408446666
 30
0.0
 10
14.3288231841
 20
7.8431198115
 30
0.0
 10
14.3326294727
 20
7.8455975934
 30
0.0
 10
14.3375756518
 20
7.8481221697
 30
0.0
 10
14.3428506789
 20
7.8503043975
 30
0.0
 10
14.348384594
 20
7.8522305302
 30
0.0
 10
14.3541370696
 20
7.853936577
 30
0.0
 10
14.3600734952
 20
7.8554611616
 30
0.0
 10
14.3682680948
 20
7.8572963607
 30
0.0
 10
14.3788361571
 20
7.8592378142
 30
0.0
 10
14.3918494914
 20
7.8611299405
 30
0.0
 10
14.4052176844
 20
7.8626695685
 30
0.0
 10
14.4188795372
 20
7.8639267765
 30
0.0
 10
14.4327902597
 20
7.8649370325
 30
0.0
 10
14.446915637
 20
7.8657374266
 30
0.0
 10
14.4661016558
 20
7.8665603207
 30
0.0
 10
14.4904621499
 20
7.8671757106
 30
0.0
 10
14.5100515506
 20
7.8673169475
 30
0.0
 10
14.5199329509
 20
7.8673173148
 30
0.0
  0
SPLINE
  5
2E0
100
AcDbEntity
  8
0
100
AcDbSpline
 62
9
  6
CONTINUOUS
 70
0
 71
3
 72
15
 73
11
 74
0
 42
0.0000001
 43
0.0000001
 44
0.0000000001
 40
0.0
 40
0.0
 40
0.0
 40
0.0
 40
0.1252927641
 40
0.2505200764
 40
0.3756634418
 40
0.500701542
 40
0.6256360346
 40
0.7504809301
 40
0.8752563153
 40
1.0
 40
1.0
 40
1.0
 40
1.0
 10
7.2651541511
 20
12.5263276202
 30
0.0
 10
7.2674289752
 20
12.5259359343
 30
0.0
 10
7.2719158247
 20
12.5247352578
 30
0.0
 10
7.2782127488
 20
12.5217823327
 30
0.0
 10
7.2838935412
 20
12.51777396
 30
0.0
 10
7.288781097
 20
12.5128385277
 30
0.0
 10
7.2927389206
 20
12.5071376828
 30
0.0
 10
7.2956515622
 20
12.5008437693
 30
0.0
 10
7.2974470566
 20
12.4941512987
 30
0.0
 10
7.2978644042
 20
12.4895463838
 30
0.0
 10
7.2978743709
 20
12.4872482225
 30
0.0
  0
SPLINE
  5
2E1
100
AcDbEntity
  8
0
100
AcDbSpline
 62
9
  6
CONTINUOUS
 70
0
 71
3
 72
17
 73
13
 74
0
 42
0.0000001
 43
0.0000001
 44
0.0000000001
 40
0.0
 40
0.0
 40
0.0
 40
0.0
 40
0.1246757097
 40
0.2493908085
 40
0.3118513674
 40
0.374336348
 40
0.4992425189
 40
0.6242662455
 40
0.68689652
 40
0.7495521535
 40
0.8747579561
 40
1.0
 40
1.0
 40
1.0
 40
1.0
 10
7.3024944801
 20
11.5181782746
 30
0.0
 10
7.3025089104
 20
11.5156104782
 30
0.0
 10
7.3020384983
 20
11.5104586102
 30
0.0
 10
7.3002331308
 20
11.5042522729
 30
0.0
 10
7.2981027442
 20
11.4995644971
 30
0.0
 10
7.2955278392
 20
11.4951009729
 30
0.0
 10
7.2915130937
 20
11.4900174985
 30
0.0
 10
7.2865843987
 20
11.4858081511
 30
0.0
 10
7.2822083446
 20
11.4830688042
 30
0.0
 10
7.2775798981
 20
11.480772699
 30
0.0
 10
7.2714025912
 20
11.4787760612
 30
0.0
 10
7.2662376614
 20
11.4781845474
 30
0.0
 10
7.2636583406
 20
11.4781540413
 30
0.0
  0
LINE
  5
2E2
100
AcDbEntity
  8
0
100
AcDbLine
 62
7
  6
CONTINUOUS
 10
7.2636586021
 20
11.4781334091
 11
7.0775647731
 21
11.4756226031
  0
LINE
  5
2E3
100
AcDbEntity
  8
0
100
AcDbLine
 62
7
  6
CONTINUOUS
 10
7.0775647731
 20
11.4756226031
 11
7.0768965134
 21
11.4756136276
  0
SPLINE
  5
2E4
100
AcDbEntity
  8
0
100
AcDbSpline
 62
9
  6
CONTINUOUS
 70
0
 71
3
 72
33
 73
29
 74
0
 42
0.0000001
 43
0.0000001
 44
0.0000000001
 40
0.0
 40
0.0
 40
0.0
 40
0.0
 40
0.0001140415
 40
0.0003313533
 40
0.0011413976
 40
0.0024760797
 40
0.0043470457
 40
0.0067627052
 40
0.0097305603
 40
0.013257761
 40
0.017351292
 40
0.027264856
 40
0.0395259623
 40
0.0541889123
 40
0.0713078414
 40
0.0909155791
 40
0.1129594929
 40
0.1373654234
 40
0.1640591856
 40
0.2240133783
 40
0.2922283637
 40
0.3679819151
 40
0.4500347899
 40
0.5370176256
 40
0.6275610271
 40
0.7203273546
 40
0.8141072724
 40
1.0
 40
1.0
 40
1.0
 40
1.0
 10
7.2639103322
 20
11.4252987567
 30
0.0
 10
7.2639123408
 20
11.4252987836
 30
0.0
 10
7.2639170205
 20
11.4253037826
 30
0.0
 10
7.2639235583
 20
11.4253221571
 30
0.0
 10
7.2639317235
 20
11.4253637375
 30
0.0
 10
7.2639400013
 20
11.4254336066
 30
0.0
 10
7.2639485133
 20
11.4255324421
 30
0.0
 10
7.2639566899
 20
11.4256599016
 30
0.0
 10
7.2639646304
 20
11.4258166856
 30
0.0
 10
7.2639722308
 20
11.4260030362
 30
0.0
 10
7.2639825693
 20
11.4263117253
 30
0.0
 10
7.2639940079
 20
11.4267742883
 30
0.0
 10
7.2640054996
 20
11.4274230636
 30
0.0
 10
7.2640152815
 20
11.4281987961
 30
0.0
 10
7.2640232379
 20
11.4291039611
 30
0.0
 10
7.2640292386
 20
11.4301391547
 30
0.0
 10
7.2640332799
 20
11.4313027146
 30
0.0
 10
7.2640353293
 20
11.4325910959
 30
0.0
 10
7.264035362
 20
11.4345472464
 30
0.0
 10
7.2640297832
 20
11.4372750647
 30
0.0
 10
7.2640151199
 20
11.4408670174
 30
0.0
 10
7.263992134
 20
11.444848189
 30
0.0
 10
7.2639615113
 20
11.4491599024
 30
0.0
 10
7.2639239303
 20
11.4537320846
 30
0.0
 10
7.2638801148
 20
11.4584929308
 30
0.0
 10
7.2638307639
 20
11.4633734556
 30
0.0
 10
7.263759157
 20
11.4699333622
 30
0.0
 10
7.2637000609
 20
11.4748592816
 30
0.0
 10
7.2636586014
 20
11.4781334119
 30
0.0
  0
SPLINE
  5
2E5
100
AcDbEntity
  8
0
100
AcDbSpline
 62
9
  6
CONTINUOUS
 70
0
 71
3
 72
25
 73
21
 74
0
 42
0.0000001
 43
0.0000001
 44
0.0000000001
 40
0.0
 40
0.0
 40
0.0
 40
0.0
 40
0.1800046116
 40
0.3634945956
 40
0.4533558014
 40
0.5400525923
 40
0.6220694935
 40
0.6978955698
 40
0.7661840407
 40
0.8262208726
 40
0.8774584891
 40
0.919372166
 40
0.9367084322
 40
0.9516850685
 40
0.9644010383
 40
0.9749713214
 40
0.9835405309
 40
0.9903121443
 40
0.9956120761
 40
1.0
 40
1.0
 40
1.0
 40
1.0
 10
7.2978743709
 20
12.4872482218
 30
0.0
 10
7.3014399942
 20
12.4872622081
 30
0.0
 10
7.308640648
 20
12.4872268013
 30
0.0
 10
7.3176193074
 20
12.4870197278
 30
0.0
 10
7.3247458047
 20
12.4867340362
 30
0.0
 10
7.3298609899
 20
12.4864667227
 30
0.0
 10
7.3346946779
 20
12.4861481848
 30
0.0
 10
7.3391592901
 20
12.4857818628
 30
0.0
 10
7.3431824301
 20
12.4853689009
 30
0.0
 10
7.3467113356
 20
12.4849196012
 30
0.0
 10
7.3497086489
 20
12.4844434136
 30
0.0
 10
7.3518553784
 20
12.4840108762
 30
0.0
 10
7.3532799165
 20
12.483645393
 30
0.0
 10
7.3541339388
 20
12.4833868515
 30
0.0
 10
7.3548467114
 20
12.4831276538
 30
0.0
 10
7.3554229244
 20
12.4828686266
 30
0.0
 10
7.3558680653
 20
12.4826104386
 30
0.0
 10
7.3561878627
 20
12.4823521249
 30
0.0
 10
7.3563891623
 20
12.4820894236
 30
0.0
 10
7.3564402249
 20
12.4818967593
 30
0.0
 10
7.3564406393
 20
12.4818098414
 30
0.0
  0
SPLINE
  5
2E6
100
AcDbEntity
  8
0
100
AcDbSpline
 62
9
  6
CONTINUOUS
 70
0
 71
3
 72
25
 73
21
 74
0
 42
0.0000001
 43
0.0000001
 44
0.0000000001
 40
0.0
 40
0.0
 40
0.0
 40
0.0
 40
0.004394372
 40
0.0096997848
 40
0.0164757478
 40
0.0250483676
 40
0.0356213049
 40
0.0483392907
 40
0.0633173711
 40
0.0806545424
 40
0.1225691752
 40
0.1738071001
 40
0.2338434377
 40
0.3021303828
 40
0.3779541125
 40
0.4599682897
 40
0.5466620517
 40
0.6365199812
 40
0.8200027557
 40
1.0
 40
1.0
 40
1.0
 40
1.0
 10
7.3610061594
 20
11.5241839942
 30
0.0
 10
7.3610065779
 20
11.5240969451
 30
0.0
 10
7.3609573891
 20
11.5239035521
 30
0.0
 10
7.3607586271
 20
11.5236385039
 30
0.0
 10
7.3604412972
 20
11.5233767184
 30
0.0
 10
7.3599986266
 20
11.5231138682
 30
0.0
 10
7.3594248997
 20
11.5228489322
 30
0.0
 10
7.358714627
 20
11.522582525
 30
0.0
 10
7.3578631119
 20
11.5223154291
 30
0.0
 10
7.3564421524
 20
11.5219357835
 30
0.0
 10
7.3542996568
 20
11.5214820863
 30
0.0
 10
7.3513070115
 20
11.5209765562
 30
0.0
 10
7.3477825408
 20
11.5204928821
 30
0.0
 10
7.3437635212
 20
11.5200408831
 30
0.0
 10
7.3393026109
 20
11.5196313845
 30
0.0
 10
7.3344721855
 20
11.519266226
 30
0.0
 10
7.3293597821
 20
11.5189496855
 30
0.0
 10
7.3222363376
 20
11.5185955443
 30
0.0
 10
7.313260063
 20
11.5183024676
 30
0.0
 10
7.3060600726
 20
11.5181982933
 30
0.0
 10
7.3024944801
 20
11.5181782761
 30
0.0
  0
SPLINE
  5
2E7
100
AcDbEntity
  8
0
100
AcDbSpline
 62
9
  6
CONTINUOUS
 70
0
 71
3
 72
32
 73
28
 74
0
 42
0.0000001
 43
0.0000001
 44
0.0000000001
 40
0.0
 40
0.0
 40
0.0
 40
0.0
 40
0.0003430567
 40
0.0011579255
 40
0.0024931348
 40
0.0043627938
 40
0.0067761786
 40
0.0097412007
 40
0.0132652401
 40
0.0173554279
 40
0.0272621268
 40
0.0395165837
 40
0.0541734687
 40
0.0712872014
 40
0.0908908431
 40
0.1129318421
 40
0.1373360459
 40
0.1640292628
 40
0.2239858401
 40
0.2922077012
 40
0.3679716206
 40
0.4500362217
 40
0.5370302127
 40
0.6275822528
 40
0.720353083
 40
0.8141320113
 40
1.0
 40
1.0
 40
1.0
 40
1.0
 10
7.2746458248
 20
12.5783506671
 30
0.0
 10
7.274639895
 20
12.5783518591
 30
0.0
 10
7.2746246199
 20
12.5783301934
 30
0.0
 10
7.274609296
 20
12.5782941209
 30
0.0
 10
7.2745846621
 20
12.5782248391
 30
0.0
 10
7.274556863
 20
12.5781309404
 30
0.0
 10
7.2745231139
 20
12.578007216
 30
0.0
 10
7.2744846174
 20
12.5778552124
 30
0.0
 10
7.2744409036
 20
12.5776738241
 30
0.0
 10
7.2743712709
 20
12.5773728845
 30
0.0
 10
7.2742717628
 20
12.5769208438
 30
0.0
 10
7.2741376848
 20
12.5762857046
 30
0.0
 10
7.2739821156
 20
12.5755252417
 30
0.0
 10
7.2738047418
 20
12.5746369974
 30
0.0
 10
7.2736056065
 20
12.5736203456
 30
0.0
 10
7.2733850231
 20
12.5724769199
 30
0.0
 10
7.273143688
 20
12.5712102001
 30
0.0
 10
7.2727809579
 20
12.5692860986
 30
0.0
 10
7.2722818972
 20
12.5666015462
 30
0.0
 10
7.2716335479
 20
12.5630647716
 30
0.0
 10
7.2709230506
 20
12.559143117
 30
0.0
 10
7.270160473
 20
12.5548945453
 30
0.0
 10
7.2693580077
 20
12.5503882417
 30
0.0
 10
7.2685281123
 20
12.5456950954
 30
0.0
 10
7.2676827487
 20
12.5408832064
 30
0.0
 10
7.2665529797
 20
12.5344150337
 30
0.0
 10
7.265711082
 20
12.5295569868
 30
0.0
 10
7.2651541513
 20
12.5263276203
 30
0.0
  0
SPLINE
  5
2E8
100
AcDbEntity
  8
0
100
AcDbSpline
 62
9
  6
CONTINUOUS
 70
0
 71
3
 72
11
 73
7
 74
0
 42
0.0000001
 43
0.0000001
 44
0.0000000001
 40
0.0
 40
0.0
 40
0.0
 40
0.0
 40
0.2650510467
 40
0.5178180999
 40
0.7613825229
 40
1.0
 40
1.0
 40
1.0
 40
1.0
 10
7.3574522485
 20
12.2696445571
 30
0.0
 10
7.3586872241
 20
12.2709736883
 30
0.0
 10
7.3609048098
 20
12.2737633368
 30
0.0
 10
7.3633987421
 20
12.2783724794
 30
0.0
 10
7.3649150446
 20
12.2832027702
 30
0.0
 10
7.365245924
 20
12.286514732
 30
0.0
 10
7.3652381368
 20
12.2881480905
 30
0.0
  0
SPLINE
  5
2E9
100
AcDbEntity
  8
0
100
AcDbSpline
 62
9
  6
CONTINUOUS
 70
0
 71
3
 72
11
 73
7
 74
0
 42
0.0000001
 43
0.0000001
 44
0.0000000001
 40
0.0
 40
0.0
 40
0.0
 40
0.0
 40
0.2650510467
 40
0.5178180999
 40
0.7613825229
 40
1.0
 40
1.0
 40
1.0
 40
1.0
 10
7.3566125618
 20
12.4457692113
 30
0.0
 10
7.3578601545
 20
12.4444519159
 30
0.0
 10
7.3601042384
 20
12.4416835388
 30
0.0
 10
7.3626420051
 20
12.4370983851
 30
0.0
 10
7.3642042951
 20
12.4322827717
 30
0.0
 10
7.3645667388
 20
12.4289741154
 30
0.0
 10
7.364574526
 20
12.4273407569
 30
0.0
  0
SPLINE
  5
2EA
100
AcDbEntity
  8
0
100
AcDbSpline
 62
9
  6
CONTINUOUS
 70
0
 71
3
 72
37
 73
33
 74
0
 42
0.0000001
 43
0.0000001
 44
0.0000000001
 40
0.0
 40
0.0
 40
0.0
 40
0.0
 40
0.045388826
 40
0.0904953749
 40
0.1352009099
 40
0.1794064224
 40
0.2230010918
 40
0.2658613035
 40
0.2869872867
 40
0.3078935751
 40
0.3490202358
 40
0.3892287704
 40
0.4285237037
 40
0.466901143
 40
0.5043491821
 40
0.5763731239
 40
0.6444716135
 40
0.7083601357
 40
0.767666147
 40
0.7954604946
 40
0.8219139125
 40
0.8469478106
 40
0.8704973827
 40
0.8925014574
 40
0.9128935898
 40
0.9316120691
 40
0.9486126927
 40
0.9638789831
 40
0.9774527674
 40
0.9836364644
 40
0.98943835
 40
1.0
 40
1.0
 40
1.0
 40
1.0
 10
6.9131073858
 20
12.601325541
 30
0.0
 10
6.9115566139
 20
12.6067285671
 30
0.0
 10
6.9087807341
 20
12.6175951632
 30
0.0
 10
6.9056654863
 20
12.6340582793
 30
0.0
 10
6.9036726725
 20
12.6505487645
 30
0.0
 10
6.9028441513
 20
12.6669518004
 30
0.0
 10
6.9031981882
 20
12.6831442151
 30
0.0
 10
6.9045109846
 20
12.6964174174
 30
0.0
 10
6.9061574149
 20
12.7068035375
 30
0.0
 10
6.9081644328
 20
12.7169071655
 30
0.0
 10
6.9113361446
 20
12.729178834
 30
0.0
 10
6.9161134223
 20
12.7433460607
 30
0.0
 10
6.9216828591
 20
12.7568514614
 30
0.0
 10
6.9279178444
 20
12.7696822791
 30
0.0
 10
6.9368436558
 20
12.7856789565
 30
0.0
 10
6.9490324614
 20
12.8040278387
 30
0.0
 10
6.9648023435
 20
12.8238010246
 30
0.0
 10
6.9809377808
 20
12.8411738161
 30
0.0
 10
6.9945548323
 20
12.8540094648
 30
0.0
 10
7.0052417269
 20
12.8631536189
 30
0.0
 10
7.012907896
 20
12.8692914313
 30
0.0
 10
7.0203591566
 20
12.8748477722
 30
0.0
 10
7.0275528984
 20
12.8798182435
 30
0.0
 10
7.0344456101
 20
12.8842030551
 30
0.0
 10
7.0410025643
 20
12.887988988
 30
0.0
 10
7.0471911436
 20
12.8911574302
 30
0.0
 10
7.0529804501
 20
12.8936904524
 30
0.0
 10
7.0583451003
 20
12.89556718
 30
0.0
 10
7.0625646399
 20
12.896609983
 30
0.0
 10
7.0656967833
 20
12.8970856941
 30
0.0
 10
7.0684804129
 20
12.8973117748
 30
0.0
 10
7.0705225385
 20
12.8972314199
 30
0.0
 10
7.0718139588
 20
12.8970237816
 30
0.0
  0
LINE
  5
2EB
100
AcDbEntity
  8
0
100
AcDbLine
 62
9
  6
CONTINUOUS
 10
6.9373989522
 20
12.315359908
 11
6.8950596346
 21
12.0186532961
  0
SPLINE
  5
2EC
100
AcDbEntity
  8
0
100
AcDbSpline
 62
9
  6
CONTINUOUS
 70
0
 71
3
 72
12
 73
8
 74
0
 42
0.0000001
 43
0.0000001
 44
0.0000000001
 40
0.0
 40
0.0
 40
0.0
 40
0.0
 40
0.2784328111
 40
0.4066737823
 40
0.5297804785
 40
0.7666882142
 40
1.0
 40
1.0
 40
1.0
 40
1.0
 10
6.8784390753
 20
11.4472392102
 30
0.0
 10
6.8803891201
 20
11.5002598296
 30
0.0
 10
6.8830972782
 20
11.577706058
 30
0.0
 10
6.8863058647
 20
11.6786068668
 30
0.0
 10
6.8890774442
 20
11.7716046098
 30
0.0
 10
6.8921315117
 20
11.8846243115
 30
0.0
 10
6.8941593645
 20
11.9742038863
 30
0.0
 10
6.8950682536
 20
12.0186530737
 30
0.0
  0
SPLINE
  5
2ED
100
AcDbEntity
  8
0
100
AcDbSpline
 62
9
  6
CONTINUOUS
 70
0
 71
3
 72
41
 73
37
 74
0
 42
0.0000001
 43
0.0000001
 44
0.0000000001
 40
0.0
 40
0.0
 40
0.0
 40
0.0
 40
0.0081253882
 40
0.012762863
 40
0.0178298377
 40
0.0233507098
 40
0.0293425358
 40
0.0427789452
 40
0.0581840487
 40
0.0755361846
 40
0.0947904635
 40
0.1158932721
 40
0.1387824868
 40
0.1633893117
 40
0.1896348632
 40
0.2174250387
 40
0.2466756086
 40
0.2773355145
 40
0.309355102
 40
0.342662313
 40
0.4128334869
 40
0.4495616292
 40
0.4873055536
 40
0.5260227479
 40
0.5656636925
 40
0.6061638595
 40
0.6474669916
 40
0.6895389035
 40
0.7323379359
 40
0.7757789721
 40
0.8197790423
 40
0.8642758608
 40
0.9092030816
 40
0.9318052497
 40
0.954484123
 40
1.0
 40
1.0
 40
1.0
 40
1.0
 10
6.9989530344
 20
11.0973373895
 30
0.0
 10
6.9979341666
 20
11.0974934392
 30
0.0
 10
6.9963711513
 20
11.0979935431
 30
0.0
 10
6.994340832
 20
11.0989904415
 30
0.0
 10
6.9926832379
 20
11.0999869616
 30
0.0
 10
6.9909607135
 20
11.1011959666
 30
0.0
 10
6.9884822823
 20
11.1031668536
 30
0.0
 10
6.985245081
 20
11.1061840951
 30
0.0
 10
6.9812639383
 20
11.1104888008
 30
0.0
 10
6.9770628432
 20
11.1155800956
 30
0.0
 10
6.9726606765
 20
11.121431826
 30
0.0
 10
6.9680799243
 20
11.1280206775
 30
0.0
 10
6.9633433007
 20
11.1353223274
 30
0.0
 10
6.9584767778
 20
11.1433126334
 30
0.0
 10
6.953504973
 20
11.1519627818
 30
0.0
 10
6.9484459967
 20
11.1612390482
 30
0.0
 10
6.9433209384
 20
11.1711144458
 30
0.0
 10
6.9381667503
 20
11.1815763985
 30
0.0
 10
6.9330173094
 20
11.192611408
 30
0.0
 10
6.9260712644
 20
11.2083350812
 30
0.0
 10
6.919388605
 20
11.2248241366
 30
0.0
 10
6.9130049869
 20
11.2420276172
 30
0.0
 10
6.9082926576
 20
11.2555922657
 30
0.0
 10
6.9037729662
 20
11.2696111555
 30
0.0
 10
6.8994842747
 20
11.284067647
 30
0.0
 10
6.8954544887
 20
11.2989386332
 30
0.0
 10
6.8917197317
 20
11.3142044182
 30
0.0
 10
6.8883472471
 20
11.3298532642
 30
0.0
 10
6.8853945535
 20
11.3458627389
 30
0.0
 10
6.8828788561
 20
11.3621941637
 30
0.0
 10
6.8808300914
 20
11.3788080686
 30
0.0
 10
6.8793012723
 20
11.3956674852
 30
0.0
 10
6.8785041365
 20
11.4098595116
 30
0.0
 10
6.8781773418
 20
11.421298863
 30
0.0
 10
6.8780649424
 20
11.4328168675
 30
0.0
 10
6.8782220913
 20
11.4414689271
 30
0.0
 10
6.8784337461
 20
11.4472389779
 30
0.0
  0
LINE
  5
2EE
100
AcDbEntity
  8
0
100
AcDbLine
 62
9
  6
CONTINUOUS
 10
7.2064691984
 20
12.6891023273
 11
7.204712721
 21
12.6888138444
  0
SPLINE
  5
2EF
100
AcDbEntity
  8
0
100
AcDbSpline
 62
9
  6
CONTINUOUS
 70
0
 71
3
 72
14
 73
10
 74
0
 42
0.0000001
 43
0.0000001
 44
0.0000000001
 40
0.0
 40
0.0
 40
0.0
 40
0.0
 40
0.1296994135
 40
0.1932612009
 40
0.2561925759
 40
0.380740712
 40
0.5043981903
 40
0.7513908007
 40
1.0
 40
1.0
 40
1.0
 40
1.0
 10
7.1290747562
 20
12.4449360245
 30
0.0
 10
7.1281813583
 20
12.4461959742
 30
0.0
 10
7.1267403511
 20
12.4479978227
 30
0.0
 10
7.1246679948
 20
12.4502374978
 30
0.0
 10
7.1225500209
 20
12.4523485188
 30
0.0
 10
7.119784055
 20
12.4548184076
 30
0.0
 10
7.1151600565
 20
12.4584822409
 30
0.0
 10
7.1090628297
 20
12.4626463652
 30
0.0
 10
7.1039697358
 20
12.4656359043
 30
0.0
 10
7.1013760578
 20
12.4670635028
 30
0.0
  0
SPLINE
  5
2F0
100
AcDbEntity
  8
0
100
AcDbSpline
 62
9
  6
CONTINUOUS
 70
0
 71
3
 72
11
 73
7
 74
0
 42
0.0000001
 43
0.0000001
 44
0.0000000001
 40
0.0
 40
0.0
 40
0.0
 40
0.0
 40
0.2664810312
 40
0.5172690886
 40
0.7603940764
 40
1.0
 40
1.0
 40
1.0
 40
1.0
 10
7.13379442
 20
12.4358071064
 30
0.0
 10
7.133553759
 20
12.436691956
 30
0.0
 10
7.1329393547
 20
12.4383702659
 30
0.0
 10
7.1317764053
 20
12.4407171757
 30
0.0
 10
7.1304826606
 20
12.4428868334
 30
0.0
 10
7.1295517247
 20
12.4442634754
 30
0.0
 10
7.1290747562
 20
12.4449360245
 30
0.0
  0
SPLINE
  5
2F1
100
AcDbEntity
  8
0
100
AcDbSpline
 62
9
  6
CONTINUOUS
 70
0
 71
3
 72
10
 73
6
 74
0
 42
0.0000001
 43
0.0000001
 44
0.0000000001
 40
0.0
 40
0.0
 40
0.0
 40
0.0
 40
0.5284604612
 40
0.7708828932
 40
1.0
 40
1.0
 40
1.0
 40
1.0
 10
7.134153362
 20
12.4306493847
 30
0.0
 10
7.1343026727
 20
12.4315535309
 30
0.0
 10
7.1343318203
 20
12.4329091136
 30
0.0
 10
7.1340856714
 20
12.4346264544
 30
0.0
 10
7.1338983739
 20
12.4354236401
 30
0.0
 10
7.13379442
 20
12.4358071064
 30
0.0
  0
SPLINE
  5
2F2
100
AcDbEntity
  8
0
100
AcDbSpline
 62
9
  6
CONTINUOUS
 70
0
 71
3
 72
13
 73
9
 74
0
 42
0.0000001
 43
0.0000001
 44
0.0000000001
 40
0.0
 40
0.0
 40
0.0
 40
0.0
 40
0.2142234199
 40
0.4428413558
 40
0.5666013639
 40
0.7001615966
 40
0.8456608912
 40
1.0
 40
1.0
 40
1.0
 40
1.0
 10
7.127750414
 20
12.4217499995
 30
0.0
 10
7.1283946056
 20
12.4222284539
 30
0.0
 10
7.1296893163
 20
12.4232687751
 30
0.0
 10
7.1311949447
 20
12.4247747512
 30
0.0
 10
7.132318218
 20
12.4262102232
 30
0.0
 10
7.1331161024
 20
12.4274954518
 30
0.0
 10
7.1337766849
 20
12.4289848719
 30
0.0
 10
7.1340592193
 20
12.4300789804
 30
0.0
 10
7.134153362
 20
12.4306493847
 30
0.0
  0
SPLINE
  5
2F3
100
AcDbEntity
  8
0
100
AcDbSpline
 62
9
  6
CONTINUOUS
 70
0
 71
3
 72
9
 73
5
 74
0
 42
0.0000001
 43
0.0000001
 44
0.0000000001
 40
0.0
 40
0.0
 40
0.0
 40
0.0
 40
0.4845887008
 40
1.0
 40
1.0
 40
1.0
 40
1.0
 10
7.1184778231
 20
12.4170205999
 30
0.0
 10
7.1200646515
 20
12.4175895073
 30
0.0
 10
7.123286419
 20
12.4189159701
 30
0.0
 10
7.1263109609
 20
12.4206810535
 30
0.0
 10
7.127750414
 20
12.4217499995
 30
0.0
  0
LINE
  5
2F4
100
AcDbEntity
  8
0
100
AcDbLine
 62
9
  6
CONTINUOUS
 10
7.1170314809
 20
12.4165281634
 11
7.1184778231
 21
12.4170205999
  0
SPLINE
  5
2F5
100
AcDbEntity
  8
0
100
AcDbSpline
 62
9
  6
CONTINUOUS
 70
0
 71
3
 72
21
 73
17
 74
0
 42
0.0000001
 43
0.0000001
 44
0.0000000001
 40
0.0
 40
0.0
 40
0.0
 40
0.0
 40
0.136744973
 40
0.2698202271
 40
0.3991872134
 40
0.5248892422
 40
0.5864100219
 40
0.6470854092
 40
0.7069687285
 40
0.7661402777
 40
0.8247206796
 40
0.8829080248
 40
0.9119720736
 40
0.9411033542
 40
0.9703991563
 40
1.0
 40
1.0
 40
1.0
 40
1.0
 10
6.9838804843
 20
12.4204339662
 30
0.0
 10
6.9899204657
 20
12.4195097408
 30
0.0
 10
7.0018544584
 20
12.417789443
 30
0.0
 10
7.0195547948
 20
12.415574829
 30
0.0
 10
7.0368077495
 20
12.4137884984
 30
0.0
 10
7.0509142955
 20
12.412696014
 30
0.0
 10
7.0619770405
 20
12.4121226138
 30
0.0
 10
7.0701095147
 20
12.4118621321
 30
0.0
 10
7.0781411064
 20
12.411794495
 30
0.0
 10
7.0860783488
 20
12.4119521049
 30
0.0
 10
7.0939296295
 20
12.4123888369
 30
0.0
 10
7.1004168505
 20
12.4130399048
 30
0.0
 10
7.1055622191
 20
12.413800516
 30
0.0
 10
7.1094082489
 20
12.4145074459
 30
0.0
 10
7.1132428983
 20
12.4153900378
 30
0.0
 10
7.1157730492
 20
12.4161209455
 30
0.0
 10
7.1170314809
 20
12.4165281634
 30
0.0
  0
SPLINE
  5
2F6
100
AcDbEntity
  8
0
100
AcDbSpline
 62
9
  6
CONTINUOUS
 70
0
 71
3
 72
14
 73
10
 74
0
 42
0.0000001
 43
0.0000001
 44
0.0000000001
 40
0.0
 40
0.0
 40
0.0
 40
0.0
 40
0.1222707437
 40
0.2457583944
 40
0.370053215
 40
0.4949663544
 40
0.6204469128
 40
0.7464240158
 40
1.0
 40
1.0
 40
1.0
 40
1.0
 10
7.1013760578
 20
12.4670635028
 30
0.0
 10
7.0988294383
 20
12.4684652484
 30
0.0
 10
7.0936378193
 20
12.4711517004
 30
0.0
 10
7.0856441708
 20
12.4748326274
 30
0.0
 10
7.0774455054
 20
12.4781993282
 30
0.0
 10
7.0690832448
 20
12.4812744627
 30
0.0
 10
7.060589061
 20
12.4840921447
 30
0.0
 10
7.0490930486
 20
12.4875610597
 30
0.0
 10
7.0403638112
 20
12.4898602708
 30
0.0
 10
7.0345094912
 20
12.491299446
 30
0.0
  0
SPLINE
  5
2F7
100
AcDbEntity
  8
0
100
AcDbSpline
 62
9
  6
CONTINUOUS
 70
0
 71
3
 72
14
 73
10
 74
0
 42
0.0000001
 43
0.0000001
 44
0.0000000001
 40
0.0
 40
0.0
 40
0.0
 40
0.0
 40
0.2651999159
 40
0.3952289845
 40
0.5230298604
 40
0.6481327397
 40
0.7699251684
 40
0.8876017445
 40
1.0
 40
1.0
 40
1.0
 40
1.0
 10
7.0345094912
 20
12.491299446
 30
0.0
 10
7.0269834935
 20
12.4945464229
 30
0.0
 10
7.0156894034
 20
12.4992100354
 30
0.0
 10
7.000560527
 20
12.5049083618
 30
0.0
 10
6.9893862138
 20
12.5088125021
 30
0.0
 10
6.9783495773
 20
12.5123261979
 30
0.0
 10
6.9675037298
 20
12.5153904454
 30
0.0
 10
6.9569260386
 20
12.5179296622
 30
0.0
 10
6.9499328842
 20
12.5192451259
 30
0.0
 10
6.9464989313
 20
12.5197704445
 30
0.0
  0
SPLINE
  5
2F8
100
AcDbEntity
  8
0
100
AcDbSpline
 62
9
  6
CONTINUOUS
 70
0
 71
3
 72
19
 73
15
 74
0
 42
0.0000001
 43
0.0000001
 44
0.0000000001
 40
0.0
 40
0.0
 40
0.0
 40
0.0
 40
0.1399526449
 40
0.2783216441
 40
0.4136348766
 40
0.479731203
 40
0.5445766346
 40
0.6699176165
 40
0.7301331658
 40
0.7885069988
 40
0.8448724234
 40
0.8990490045
 40
0.9508396327
 40
1.0
 40
1.0
 40
1.0
 40
1.0
 10
14.7069901836
 20
3.4834850763
 30
0.0
 10
14.6932743509
 20
3.4834850956
 30
0.0
 10
14.6659883594
 20
3.4844318129
 30
0.0
 10
14.6256375641
 20
3.4886061699
 30
0.0
 10
14.5927863478
 20
3.4941992987
 30
0.0
 10
14.5672890528
 20
3.4997619786
 30
0.0
 10
14.5429125205
 20
3.5058262659
 30
0.0
 10
14.5193471744
 20
3.5127201274
 30
0.0
 10
14.4966571665
 20
3.5202515375
 30
0.0
 10
14.4805015798
 20
3.5259988828
 30
0.0
 10
14.4650106286
 20
3.5318385926
 30
0.0
 10
14.4502141493
 20
3.5376851583
 30
0.0
 10
14.4361449784
 20
3.5434469814
 30
0.0
 10
14.4270209451
 20
3.5472725918
 30
0.0
 10
14.42258112
 20
3.5491434051
 30
0.0
  0
SPLINE
  5
2F9
100
AcDbEntity
  8
0
100
AcDbSpline
 62
9
  6
CONTINUOUS
 70
0
 71
3
 72
17
 73
13
 74
0
 42
0.0000001
 43
0.0000001
 44
0.0000000001
 40
0.0
 40
0.0
 40
0.0
 40
0.0
 40
0.1563321081
 40
0.3034590648
 40
0.4407063283
 40
0.5679883966
 40
0.6858905311
 40
0.7957130702
 40
0.8482526898
 40
0.8995872561
 40
0.9500577257
 40
1.0
 40
1.0
 40
1.0
 40
1.0
 10
15.024253817
 20
3.6115292491
 30
0.0
 10
15.0238741302
 20
3.6077011318
 30
0.0
 10
15.0228882304
 20
3.6002913887
 30
0.0
 10
15.0206172787
 20
3.5896744861
 30
0.0
 10
15.0175934188
 20
3.5799890374
 30
0.0
 10
15.0138185379
 20
3.5713442682
 30
0.0
 10
15.0093011832
 20
3.5638348253
 30
0.0
 10
15.0048611185
 20
3.5585118319
 30
0.0
 10
15.0009775775
 20
3.5549568425
 30
0.0
 10
14.9979452849
 20
3.5526600511
 30
0.0
 10
14.9947590712
 20
3.5507019493
 30
0.0
 10
14.992531009
 20
3.5496223742
 30
0.0
 10
14.9913992471
 20
3.5491434051
 30
0.0
  0
SPLINE
  5
2FA
100
AcDbEntity
  8
0
100
AcDbSpline
 62
9
  6
CONTINUOUS
 70
0
 71
3
 72
17
 73
13
 74
0
 42
0.0000001
 43
0.0000001
 44
0.0000000001
 40
0.0
 40
0.0
 40
0.0
 40
0.0
 40
0.0499440567
 40
0.1004152638
 40
0.1517483894
 40
0.2042862454
 40
0.3141095675
 40
0.4320122211
 40
0.559294413
 40
0.696541379
 40
0.8436679889
 40
1.0
 40
1.0
 40
1.0
 40
1.0
 10
14.42258112
 20
3.5491434051
 30
0.0
 10
14.4214493143
 20
3.5496223836
 30
0.0
 10
14.4192211887
 20
3.5507019709
 30
0.0
 10
14.4160349406
 20
3.5526600708
 30
0.0
 10
14.4130027233
 20
3.5549568661
 30
0.0
 10
14.4091193083
 20
3.5585119013
 30
0.0
 10
14.4046791779
 20
3.5638348157
 30
0.0
 10
14.4001617817
 20
3.5713442838
 30
0.0
 10
14.3963868644
 20
3.579989046
 30
0.0
 10
14.3933630609
 20
3.5896745091
 30
0.0
 10
14.3910922933
 20
3.6002914209
 30
0.0
 10
14.3901061222
 20
3.6077011224
 30
0.0
 10
14.3897265501
 20
3.6115292491
 30
0.0
  0
SPLINE
  5
2FB
100
AcDbEntity
  8
0
100
AcDbSpline
 62
9
  6
CONTINUOUS
 70
0
 71
3
 72
23
 73
19
 74
0
 42
0.0000001
 43
0.0000001
 44
0.0000000001
 40
0.0
 40
0.0
 40
0.0
 40
0.0
 40
0.0582125411
 40
0.1154204186
 40
0.1719685546
 40
0.2282140103
 40
0.2845196054
 40
0.3412470055
 40
0.3987499181
 40
0.4573680139
 40
0.5174220436
 40
0.5792103999
 40
0.6430071443
 40
0.7090613446
 40
0.7775974614
 40
0.8488164925
 40
0.9228976007
 40
1.0
 40
1.0
 40
1.0
 40
1.0
 10
7.0718139588
 20
12.8970237816
 30
0.0
 10
7.0715393046
 20
12.8919793711
 30
0.0
 10
7.0713585379
 20
12.8819533474
 30
0.0
 10
7.0722334523
 20
12.8670405421
 30
0.0
 10
7.07425796
 20
12.852410856
 30
0.0
 10
7.0774324312
 20
12.8380670882
 30
0.0
 10
7.0817566049
 20
12.8240107765
 30
0.0
 10
7.0872296769
 20
12.8102436268
 30
0.0
 10
7.0938504037
 20
12.7967668791
 30
0.0
 10
7.101617298
 20
12.783581314
 30
0.0
 10
7.1105288296
 20
12.7706872071
 30
0.0
 10
7.1205835953
 20
12.7580844048
 30
0.0
 10
7.1317804253
 20
12.7457724378
 30
0.0
 10
7.1441184368
 20
12.7337506405
 30
0.0
 10
7.1575969947
 20
12.7220182835
 30
0.0
 10
7.1722158169
 20
12.7105745684
 30
0.0
 10
7.1879743687
 20
12.699419024
 30
0.0
 10
7.1990133222
 20
12.6923194282
 30
0.0
 10
7.204712721
 20
12.6888138444
 30
0.0
  0
SPLINE
  5
2FC
100
AcDbEntity
  8
0
100
AcDbSpline
 62
9
  6
CONTINUOUS
 70
0
 71
3
 72
31
 73
27
 74
0
 42
0.0000001
 43
0.0000001
 44
0.0000000001
 40
0.0
 40
0.0
 40
0.0
 40
0.0
 40
0.0010493322
 40
0.002557768
 40
0.0045972997
 40
0.0071926288
 40
0.010352623
 40
0.0140796031
 40
0.0232266477
 40
0.0346058311
 40
0.0481756818
 40
0.063890513
 40
0.0817035033
 40
0.1015662744
 40
0.1234287679
 40
0.1729583988
 40
0.2299407919
 40
0.2941015742
 40
0.3651654552
 40
0.4426905207
 40
0.5259777064
 40
0.6142972382
 40
0.7067840384
 40
0.8025084213
 40
0.9005658016
 40
1.0
 40
1.0
 40
1.0
 40
1.0
 10
7.20471272
 20
12.6888138451
 30
0.0
 10
7.2046584335
 20
12.6888058905
 30
0.0
 10
7.2045354665
 20
12.6887404443
 30
0.0
 10
7.2043627604
 20
12.688573249
 30
0.0
 10
7.2041644276
 20
12.6883191667
 30
0.0
 10
7.2039434645
 20
12.6879765038
 30
0.0
 10
7.2036996098
 20
12.6875445178
 30
0.0
 10
7.2033195183
 20
12.6867970819
 30
0.0
 10
7.2028009508
 20
12.6856391275
 30
0.0
 10
7.2021335112
 20
12.6839858046
 30
0.0
 10
7.2013909196
 20
12.6819932682
 30
0.0
 10
7.200581488
 20
12.6796673447
 30
0.0
 10
7.1997137035
 20
12.6770138721
 30
0.0
 10
7.1987940833
 20
12.6740396163
 30
0.0
 10
7.1974485422
 20
12.6694617098
 30
0.0
 10
7.1956801315
 20
12.6629858618
 30
0.0
 10
7.193513301
 20
12.6543283969
 30
0.0
 10
7.1912607912
 20
12.6445336365
 30
0.0
 10
7.188937242
 20
12.6336547005
 30
0.0
 10
7.186521134
 20
12.621773765
 30
0.0
 10
7.1839568955
 20
12.6090023408
 30
0.0
 10
7.1812770133
 20
12.5954562654
 30
0.0
 10
7.1784914279
 20
12.5812682269
 30
0.0
 10
7.1756368824
 20
12.5665748569
 30
0.0
 10
7.1727676139
 20
12.5515143798
 30
0.0
 10
7.1708723312
 20
12.5413635884
 30
0.0
 10
7.1699199788
 20
12.536252462
 30
0.0
  0
SPLINE
  5
2FD
100
AcDbEntity
  8
0
100
AcDbSpline
 62
9
  6
CONTINUOUS
 70
0
 71
3
 72
13
 73
9
 74
0
 42
0.0000001
 43
0.0000001
 44
0.0000000001
 40
0.0
 40
0.0
 40
0.0
 40
0.0
 40
0.126138668
 40
0.2525034196
 40
0.3787344247
 40
0.504586301
 40
0.7542692372
 40
1.0
 40
1.0
 40
1.0
 40
1.0
 10
7.1373345725
 20
12.53985746
 30
0.0
 10
7.1328663576
 20
12.5421887479
 30
0.0
 10
7.1238165271
 20
12.5466555382
 30
0.0
 10
7.1100004458
 20
12.552834822
 30
0.0
 10
7.096003624
 20
12.5585617257
 30
0.0
 10
7.0772406511
 20
12.56562933
 30
0.0
 10
7.0536946619
 20
12.573516198
 30
0.0
 10
7.0346662944
 20
12.5789919496
 30
0.0
 10
7.0251761863
 20
12.5815084282
 30
0.0
  0
SPLINE
  5
2FE
100
AcDbEntity
  8
0
100
AcDbSpline
 62
9
  6
CONTINUOUS
 70
0
 71
3
 72
16
 73
12
 74
0
 42
0.0000001
 43
0.0000001
 44
0.0000000001
 40
0.0
 40
0.0
 40
0.0
 40
0.0
 40
0.2650301534
 40
0.3950682478
 40
0.5228864188
 40
0.6479699931
 40
0.709297517
 40
0.7697018512
 40
0.8290744901
 40
0.8873202551
 40
1.0
 40
1.0
 40
1.0
 40
1.0
 10
7.0251761863
 20
12.5815084282
 30
0.0
 10
7.0154283826
 20
12.5840931931
 30
0.0
 10
7.0008794438
 20
12.5878815077
 30
0.0
 10
6.9815199902
 20
12.5924771133
 30
0.0
 10
6.9672721113
 20
12.595536556
 30
0.0
 10
6.9555099296
 20
12.5977001045
 30
0.0
 10
6.9462253392
 20
12.5991183539
 30
0.0
 10
6.9393901634
 20
12.6000006746
 30
0.0
 10
6.9326498202
 20
12.6006860581
 30
0.0
 10
6.9239073395
 20
12.6012975936
 30
0.0
 10
6.9173963168
 20
12.6014158697
 30
0.0
 10
6.9131099425
 20
12.6013140801
 30
0.0
  0
LINE
  5
2FF
100
AcDbEntity
  8
0
100
AcDbLine
 62
9
  6
CONTINUOUS
 10
7.1699200327
 20
12.5362524565
 11
7.1640398769
 21
12.5117254999
  0
SPLINE
  5
300
100
AcDbEntity
  8
0
100
AcDbSpline
 62
9
  6
CONTINUOUS
 70
0
 71
3
 72
13
 73
9
 74
0
 42
0.0000001
 43
0.0000001
 44
0.0000000001
 40
0.0
 40
0.0
 40
0.0
 40
0.0
 40
0.2542044938
 40
0.3801143064
 40
0.5052515391
 40
0.6297270374
 40
0.7536275964
 40
1.0
 40
1.0
 40
1.0
 40
1.0
 10
7.1640398769
 20
12.5117254999
 30
0.0
 10
7.1623204187
 20
12.5145539582
 30
0.0
 10
7.1595216014
 20
12.5186520864
 30
0.0
 10
7.1553668317
 20
12.5237564389
 30
0.0
 10
7.1520716181
 20
12.5273727227
 30
0.0
 10
7.1486060057
 20
12.5307884853
 30
0.0
 10
7.1437869084
 20
12.5350672417
 30
0.0
 10
7.1399548276
 20
12.5380066515
 30
0.0
 10
7.1373344445
 20
12.5398574754
 30
0.0
  0
SPLINE
  5
301
100
AcDbEntity
  8
0
100
AcDbSpline
 62
9
  6
CONTINUOUS
 70
0
 71
3
 72
12
 73
8
 74
0
 42
0.0000001
 43
0.0000001
 44
0.0000000001
 40
0.0
 40
0.0
 40
0.0
 40
0.0
 40
0.2500070746
 40
0.5000122456
 40
0.6250149016
 40
0.7500173069
 40
1.0
 40
1.0
 40
1.0
 40
1.0
 10
7.129907304
 20
12.3599132205
 30
0.0
 10
7.1233951455
 20
12.3311052655
 30
0.0
 10
7.1112259965
 20
12.2732931062
 30
0.0
 10
7.0980543427
 20
12.2006310334
 30
0.0
 10
7.0887008899
 20
12.1423054221
 30
0.0
 10
7.0801254445
 20
12.0838634481
 30
0.0
 10
7.0745652422
 20
12.0399076684
 30
0.0
 10
7.071246866
 20
12.0105627417
 30
0.0
  0
SPLINE
  5
302
100
AcDbEntity
  8
0
100
AcDbSpline
 62
9
  6
CONTINUOUS
 70
0
 71
3
 72
12
 73
8
 74
0
 42
0.0000001
 43
0.0000001
 44
0.0000000001
 40
0.0
 40
0.0
 40
0.0
 40
0.0
 40
0.2516091799
 40
0.5021530423
 40
0.6270113621
 40
0.7515979855
 40
1.0
 40
1.0
 40
1.0
 40
1.0
 10
6.8950620249
 20
12.018652788
 30
0.0
 10
6.9098614034
 20
12.0186633748
 30
0.0
 10
6.939398487
 20
12.0184659338
 30
0.0
 10
6.9762683342
 20
12.0174373455
 30
0.0
 10
7.0056433715
 20
12.0160048085
 30
0.0
 10
7.0348663264
 20
12.0141218956
 30
0.0
 10
7.0567229374
 20
12.0121530973
 30
0.0
 10
7.071246866
 20
12.0105627417
 30
0.0
  0
SPLINE
  5
303
100
AcDbEntity
  8
0
100
AcDbSpline
 62
9
  6
CONTINUOUS
 70
0
 71
3
 72
26
 73
22
 74
0
 42
0.0000001
 43
0.0000001
 44
0.0000000001
 40
0.0
 40
0.0
 40
0.0
 40
0.0
 40
0.1168022392
 40
0.1754966651
 40
0.2344264381
 40
0.2936529098
 40
0.3532480329
 40
0.4132965136
 40
0.4739016164
 40
0.5351866216
 40
0.5973057057
 40
0.6604322505
 40
0.7247703891
 40
0.7574775498
 40
0.7905904847
 40
0.8241391037
 40
0.8581551627
 40
0.8926845812
 40
0.9278007685
 40
0.9635731715
 40
1.0
 40
1.0
 40
1.0
 40
1.0
 10
6.937402063
 20
12.315359073
 30
0.0
 10
6.9452372264
 20
12.3140494939
 30
0.0
 10
6.9570981707
 20
12.3125668507
 30
0.0
 10
6.9730123316
 20
12.3115527972
 30
0.0
 10
6.9850406913
 20
12.3112764508
 30
0.0
 10
6.9971311052
 20
12.3115057154
 30
0.0
 10
7.0092769778
 20
12.3122566615
 30
0.0
 10
7.0214704212
 20
12.3135627719
 30
0.0
 10
7.0337034867
 20
12.3154556862
 30
0.0
 10
7.0459651585
 20
12.317987114
 30
0.0
 10
7.0582403917
 20
12.321215656
 30
0.0
 10
7.0705100957
 20
12.3252012079
 30
0.0
 10
7.0806571382
 20
12.329186443
 30
0.0
 10
7.0887246248
 20
12.3328339639
 30
0.0
 10
7.0947821977
 20
12.3358337741
 30
0.0
 10
7.1008063587
 20
12.3390916166
 30
0.0
 10
7.1067922241
 20
12.3426135364
 30
0.0
 10
7.1127271988
 20
12.3464225765
 30
0.0
 10
7.1185855082
 20
12.3505604208
 30
0.0
 10
7.1243394466
 20
12.3550550046
 30
0.0
 10
7.1280654153
 20
12.358256385
 30
0.0
 10
7.129907304
 20
12.3599132205
 30
0.0
  0
SPLINE
  5
304
100
AcDbEntity
  8
0
100
AcDbSpline
 62
9
  6
CONTINUOUS
 70
0
 71
3
 72
13
 73
9
 74
0
 42
0.0000001
 43
0.0000001
 44
0.0000000001
 40
0.0
 40
0.0
 40
0.0
 40
0.0
 40
0.2499727035
 40
0.4999554119
 40
0.6249689837
 40
0.7499858305
 40
0.8749976038
 40
1.0
 40
1.0
 40
1.0
 40
1.0
 10
7.0674584245
 20
11.9752006964
 30
0.0
 10
7.0634027652
 20
11.9300610605
 30
0.0
 10
7.0571255242
 20
11.8396046085
 30
0.0
 10
7.0539004827
 20
11.726308559
 30
0.0
 10
7.0539928824
 20
11.6356486769
 30
0.0
 10
7.0553767094
 20
11.5676610504
 30
0.0
 10
7.0580637133
 20
11.4997150092
 30
0.0
 10
7.0607117987
 20
11.4544603683
 30
0.0
 10
7.0622400561
 20
11.4318483129
 30
0.0
  0
SPLINE
  5
305
100
AcDbEntity
  8
0
100
AcDbSpline
 62
9
  6
CONTINUOUS
 70
0
 71
3
 72
14
 73
10
 74
0
 42
0.0000001
 43
0.0000001
 44
0.0000000001
 40
0.0
 40
0.0
 40
0.0
 40
0.0
 40
0.104350192
 40
0.2145187352
 40
0.3305541521
 40
0.4524979616
 40
0.5803859284
 40
0.7142490529
 40
1.0
 40
1.0
 40
1.0
 40
1.0
 10
6.8784337461
 20
11.4472389779
 30
0.0
 10
6.8848540289
 20
11.4472186336
 30
0.0
 10
6.8980524268
 20
11.4470097025
 30
0.0
 10
6.9183770973
 20
11.4462397501
 30
0.0
 10
6.939763116
 20
11.4450046609
 30
0.0
 10
6.9622104523
 20
11.4433043197
 30
0.0
 10
6.9857193583
 20
11.4411387253
 30
0.0
 10
7.0192146834
 20
11.4375516063
 30
0.0
 10
7.0448265539
 20
11.43427148
 30
0.0
 10
7.0622400561
 20
11.4318483129
 30
0.0
  0
SPLINE
  5
306
100
AcDbEntity
  8
0
100
AcDbSpline
 62
9
  6
CONTINUOUS
 70
0
 71
3
 72
12
 73
8
 74
0
 42
0.0000001
 43
0.0000001
 44
0.0000000001
 40
0.0
 40
0.0
 40
0.0
 40
0.0
 40
0.2506125624
 40
0.5007919799
 40
0.6257350529
 40
0.750579282
 40
1.0
 40
1.0
 40
1.0
 40
1.0
 10
6.8950620249
 20
12.018652788
 30
0.0
 10
6.9097280154
 20
12.0162269078
 30
0.0
 10
6.938918056
 20
12.0106518029
 30
0.0
 10
6.9750466954
 20
12.0021050397
 30
0.0
 10
7.0037053458
 20
11.9944741361
 30
0.0
 10
7.0321868859
 20
11.9863703686
 30
0.0
 10
7.0533920937
 20
11.9797852035
 30
0.0
 10
7.0674584245
 20
11.9752006964
 30
0.0
  0
SPLINE
  5
307
100
AcDbEntity
  8
0
100
AcDbSpline
 62
9
  6
CONTINUOUS
 70
0
 71
3
 72
33
 73
29
 74
0
 42
0.0000001
 43
0.0000001
 44
0.0000000001
 40
0.0
 40
0.0
 40
0.0
 40
0.0
 40
0.0966156335
 40
0.1920867499
 40
0.2855681562
 40
0.376261998
 40
0.463377184
 40
0.5462069114
 40
0.6241253719
 40
0.6964675071
 40
0.7625323258
 40
0.8216660589
 40
0.8484344501
 40
0.8732283972
 40
0.8959690136
 40
0.9165795519
 40
0.9349943043
 40
0.9511552656
 40
0.9650154728
 40
0.9765415911
 40
0.9814229482
 40
0.9857149308
 40
0.9894193937
 40
0.9925424713
 40
0.9951001379
 40
0.9971290764
 40
0.9987070409
 40
1.0
 40
1.0
 40
1.0
 40
1.0
 10
7.0622400209
 20
11.4318483178
 30
0.0
 10
7.0623916121
 20
11.4264871574
 30
0.0
 10
7.0627224515
 20
11.4158291198
 30
0.0
 10
7.0633476852
 20
11.3999888329
 30
0.0
 10
7.0641179216
 20
11.3844839932
 30
0.0
 10
7.0650356866
 20
11.369451808
 30
0.0
 10
7.0661083159
 20
11.3550226044
 30
0.0
 10
7.0673406453
 20
11.3413179645
 30
0.0
 10
7.0687137988
 20
11.3284511504
 30
0.0
 10
7.0701991638
 20
11.3165340633
 30
0.0
 10
7.0717698246
 20
11.3056805115
 30
0.0
 10
7.0731724871
 20
11.2973609373
 30
0.0
 10
7.0743226041
 20
11.2913243979
 30
0.0
 10
7.0751551185
 20
11.2872844253
 30
0.0
 10
7.0759796856
 20
11.2835923368
 30
0.0
 10
7.0767895435
 20
11.2802603785
 30
0.0
 10
7.0775777711
 20
11.2772997498
 30
0.0
 10
7.0783375136
 20
11.2747201267
 30
0.0
 10
7.0790619673
 20
11.2725300393
 30
0.0
 10
7.0796584674
 20
11.2709582718
 30
0.0
 10
7.0801193296
 20
11.2699054203
 30
0.0
 10
7.0804318826
 20
11.269262243
 30
0.0
 10
7.0807295292
 20
11.2687210822
 30
0.0
 10
7.0810111079
 20
11.2682821507
 30
0.0
 10
7.0812759238
 20
11.267944663
 30
0.0
 10
7.0815252441
 20
11.267707909
 30
0.0
 10
7.0817637727
 20
11.2675686391
 30
0.0
 10
7.0819293756
 20
11.2675502656
 30
0.0
 10
7.0820000962
 20
11.2675625198
 30
0.0
  0
SPLINE
  5
308
100
AcDbEntity
  8
0
100
AcDbSpline
 62
9
  6
CONTINUOUS
 70
0
 71
3
 72
15
 73
11
 74
0
 42
0.0000001
 43
0.0000001
 44
0.0000000001
 40
0.0
 40
0.0
 40
0.0
 40
0.0
 40
0.1211383329
 40
0.2415306906
 40
0.3621276166
 40
0.483874863
 40
0.607691825
 40
0.7344528714
 40
0.8649732159
 40
1.0
 40
1.0
 40
1.0
 40
1.0
 10
6.9989530344
 20
11.0973373895
 30
0.0
 10
6.9997442675
 20
11.1050903892
 30
0.0
 10
7.0019917886
 20
11.1204894309
 30
0.0
 10
7.0073959419
 20
11.1431812996
 30
0.0
 10
7.0148141418
 20
11.1653398278
 30
0.0
 10
7.0242440273
 20
11.1869590119
 30
0.0
 10
7.0356824273
 20
11.2080366926
 30
0.0
 10
7.0491259427
 20
11.2285716046
 30
0.0
 10
7.0645700074
 20
11.2485625704
 30
0.0
 10
7.075987288
 20
11.2612930689
 30
0.0
 10
7.0820000962
 20
11.2675625198
 30
0.0
  0
LINE
  5
309
100
AcDbEntity
  8
0
100
AcDbLine
 62
9
  6
CONTINUOUS
 10
7.0819999676
 20
11.2675623858
 11
7.0845862864
 21
11.2679484122
  0
SPLINE
  5
30A
100
AcDbEntity
  8
0
100
AcDbSpline
 62
9
  6
CONTINUOUS
 70
0
 71
3
 72
19
 73
15
 74
0
 42
0.0000001
 43
0.0000001
 44
0.0000000001
 40
0.0
 40
0.0
 40
0.0
 40
0.0
 40
0.0491603327
 40
0.1009510138
 40
0.1551277458
 40
0.2114931732
 40
0.2698669049
 40
0.3300824481
 40
0.4554234434
 40
0.5202688597
 40
0.5863652081
 40
0.7216784932
 40
0.860047495
 40
1.0
 40
1.0
 40
1.0
 40
1.0
 10
14.9913992471
 20
3.5491434051
 30
0.0
 10
14.9869594254
 20
3.5472725926
 30
0.0
 10
14.9778353911
 20
3.5434469802
 30
0.0
 10
14.9637662039
 20
3.5376851532
 30
0.0
 10
14.9489697036
 20
3.5318385862
 30
0.0
 10
14.9334787485
 20
3.5259988723
 30
0.0
 10
14.9173231728
 20
3.5202515271
 30
0.0
 10
14.8946331731
 20
3.5127201218
 30
0.0
 10
14.8710678276
 20
3.5058262626
 30
0.0
 10
14.8466912948
 20
3.499761969
 30
0.0
 10
14.8211939927
 20
3.494199296
 30
0.0
 10
14.7883427695
 20
3.4886061592
 30
0.0
 10
14.747991978
 20
3.4844318569
 30
0.0
 10
14.7207060024
 20
3.4834850985
 30
0.0
 10
14.7069901836
 20
3.4834850763
 30
0.0
  0
SPLINE
  5
30B
100
AcDbEntity
  8
0
100
AcDbSpline
 62
9
  6
CONTINUOUS
 70
0
 71
3
 72
11
 73
7
 74
0
 42
0.0000001
 43
0.0000001
 44
0.0000000001
 40
0.0
 40
0.0
 40
0.0
 40
0.0
 40
0.285366892
 40
0.5479261479
 40
0.7863829571
 40
1.0
 40
1.0
 40
1.0
 40
1.0
 10
7.1581797554
 20
12.4670296427
 30
0.0
 10
7.1551796449
 20
12.4652540125
 30
0.0
 10
7.1494972779
 20
12.4617095463
 30
0.0
 10
7.1416404887
 20
12.4561706273
 30
0.0
 10
7.1348536684
 20
12.4506678207
 30
0.0
 10
7.130857673
 20
12.4468414473
 30
0.0
 10
7.1290753224
 20
12.4449352634
 30
0.0
  0
SPLINE
  5
30C
100
AcDbEntity
  8
0
100
AcDbSpline
 62
9
  6
CONTINUOUS
 70
0
 71
3
 72
9
 73
5
 74
0
 42
0.0000001
 43
0.0000001
 44
0.0000000001
 40
0.0
 40
0.0
 40
0.0
 40
0.0
 40
0.5001256139
 40
1.0
 40
1.0
 40
1.0
 40
1.0
 10
7.1553084256
 20
12.4431809022
 30
0.0
 10
7.1548775301
 20
12.440663771
 30
0.0
 10
7.1539464415
 20
12.4356422972
 30
0.0
 10
7.1528507702
 20
12.4306538473
 30
0.0
 10
7.1522598255
 20
12.4281707334
 30
0.0
  0
LINE
  5
30D
100
AcDbEntity
  8
0
100
AcDbLine
 62
9
  6
CONTINUOUS
 10
7.1522598255
 20
12.4281707334
 11
7.134153362
 21
12.4306493847
  0
SPLINE
  5
30E
100
AcDbEntity
  8
0
100
AcDbSpline
 62
9
  6
CONTINUOUS
 70
0
 71
3
 72
12
 73
8
 74
0
 42
0.0000001
 43
0.0000001
 44
0.0000000001
 40
0.0
 40
0.0
 40
0.0
 40
0.0
 40
0.1252439182
 40
0.2504218039
 40
0.5005432814
 40
0.7503789313
 40
1.0
 40
1.0
 40
1.0
 40
1.0
 10
7.1522598818
 20
12.4281707252
 30
0.0
 10
7.1519494601
 20
12.4268671484
 30
0.0
 10
7.151308994
 20
12.4242653258
 30
0.0
 10
7.1499412415
 20
12.4190872238
 30
0.0
 10
7.1480749457
 20
12.4126631145
 30
0.0
 10
7.145616373
 20
12.4050282888
 30
0.0
 10
7.1438475212
 20
12.3999850501
 30
0.0
 10
7.1429367855
 20
12.397474346
 30
0.0
  0
LINE
  5
30F
100
AcDbEntity
  8
0
100
AcDbLine
 62
9
  6
CONTINUOUS
 10
7.1429359917
 20
12.3974755009
 11
7.1318708856
 21
12.3657414782
  0
SPLINE
  5
310
100
AcDbEntity
  8
0
100
AcDbSpline
 62
9
  6
CONTINUOUS
 70
0
 71
3
 72
11
 73
7
 74
0
 42
0.0000001
 43
0.0000001
 44
0.0000000001
 40
0.0
 40
0.0
 40
0.0
 40
0.0
 40
0.2769550754
 40
0.5366833303
 40
0.7778703808
 40
1.0
 40
1.0
 40
1.0
 40
1.0
 10
7.1318708856
 20
12.3657414782
 30
0.0
 10
7.129827273
 20
12.3702203359
 30
0.0
 10
7.1261846789
 20
12.3790501841
 30
0.0
 10
7.1220119912
 20
12.3922525916
 30
0.0
 10
7.1193470653
 20
12.4048481071
 30
0.0
 10
7.1185702203
 20
12.41307318
 30
0.0
 10
7.1184778231
 20
12.4170205999
 30
0.0
  0
SPLINE
  5
311
100
AcDbEntity
  8
0
100
AcDbSpline
 62
9
  6
CONTINUOUS
 70
0
 71
3
 72
11
 73
7
 74
0
 42
0.0000001
 43
0.0000001
 44
0.0000000001
 40
0.0
 40
0.0
 40
0.0
 40
0.0
 40
0.2789378531
 40
0.5389500326
 40
0.779394983
 40
1.0
 40
1.0
 40
1.0
 40
1.0
 10
7.1429359917
 20
12.3974755009
 30
0.0
 10
7.1412845916
 20
12.3995720736
 30
0.0
 10
7.1381848741
 20
12.4036961142
 30
0.0
 10
7.1340260977
 20
12.4098908406
 30
0.0
 10
7.1305397072
 20
12.4158495636
 30
0.0
 10
7.1285920856
 20
12.4198139446
 30
0.0
 10
7.1277486837
 20
12.4217488424
 30
0.0
  0
SPLINE
  5
312
100
AcDbEntity
  8
0
100
AcDbSpline
 62
9
  6
CONTINUOUS
 70
0
 71
3
 72
11
 73
7
 74
0
 42
0.0000001
 43
0.0000001
 44
0.0000000001
 40
0.0
 40
0.0
 40
0.0
 40
0.0
 40
0.2767011494
 40
0.5364675796
 40
0.777777905
 40
1.0
 40
1.0
 40
1.0
 40
1.0
 10
7.1300417988
 20
12.3603074111
 30
0.0
 10
7.1279045633
 20
12.3652221402
 30
0.0
 10
7.1241313998
 20
12.3749189947
 30
0.0
 10
7.1199483126
 20
12.3894150969
 30
0.0
 10
7.1174663653
 20
12.4032297098
 30
0.0
 10
7.1169541724
 20
12.41222472
 30
0.0
 10
7.1170314809
 20
12.4165281634
 30
0.0
  0
SPLINE
  5
313
100
AcDbEntity
  8
0
100
AcDbSpline
 62
9
  6
CONTINUOUS
 70
0
 71
3
 72
13
 73
9
 74
0
 42
0.0000001
 43
0.0000001
 44
0.0000000001
 40
0.0
 40
0.0
 40
0.0
 40
0.0
 40
0.259568709
 40
0.3883771667
 40
0.5156969427
 40
0.640984654
 40
0.7637563665
 40
1.0
 40
1.0
 40
1.0
 40
1.0
 10
6.9374020285
 20
12.3153592448
 30
0.0
 10
6.9385541259
 20
12.3253966669
 30
0.0
 10
6.9413962378
 20
12.3403193612
 30
0.0
 10
6.9473436729
 20
12.3595045611
 30
0.0
 10
6.9528129441
 20
12.3733230548
 30
0.0
 10
6.9592471771
 20
12.3864604064
 30
0.0
 10
6.9688918941
 20
12.4026707937
 30
0.0
 10
6.9775478281
 20
12.4137666266
 30
0.0
 10
6.9838804843
 20
12.4204339662
 30
0.0
  0
SPLINE
  5
314
100
AcDbEntity
  8
0
100
AcDbSpline
 62
9
  6
CONTINUOUS
 70
0
 71
3
 72
24
 73
20
 74
0
 42
0.0000001
 43
0.0000001
 44
0.0000000001
 40
0.0
 40
0.0
 40
0.0
 40
0.0
 40
0.0015125002
 40
0.0047631998
 40
0.0099677738
 40
0.0171656902
 40
0.0263686819
 40
0.0375804435
 40
0.066026263
 40
0.1024587426
 40
0.1468098506
 40
0.1990063048
 40
0.2589448074
 40
0.3264993104
 40
0.4015423845
 40
0.4839330697
 40
0.5735130148
 40
0.7735739491
 40
1.0
 40
1.0
 40
1.0
 40
1.0
 10
7.1546891945
 20
12.3948828255
 30
0.0
 10
7.1546876923
 20
12.3948769404
 30
0.0
 10
7.1546653717
 20
12.3948692778
 30
0.0
 10
7.1546282144
 20
12.3948683689
 30
0.0
 10
7.1545638299
 20
12.3948706475
 30
0.0
 10
7.1544781493
 20
12.3948795932
 30
0.0
 10
7.1543679501
 20
12.3948939985
 30
0.0
 10
7.1541741241
 20
12.3949238269
 30
0.0
 10
7.153873139
 20
12.3949770807
 30
0.0
 10
7.1534425081
 20
12.3950603637
 30
0.0
 10
7.1529193061
 20
12.3951673638
 30
0.0
 10
7.1523046127
 20
12.3952979181
 30
0.0
 10
7.1515996284
 20
12.3954518206
 30
0.0
 10
7.1508057812
 20
12.3956287768
 30
0.0
 10
7.1499246317
 20
12.3958284622
 30
0.0
 10
7.1489578629
 20
12.3960505051
 30
0.0
 10
7.1475026178
 20
12.3963884847
 30
0.0
 10
7.1454854724
 20
12.39686379
 30
0.0
 10
7.1438196991
 20
12.3972617739
 30
0.0
 10
7.1429355777
 20
12.3974741217
 30
0.0
  0
SPLINE
  5
315
100
AcDbEntity
  8
0
100
AcDbSpline
 62
9
  6
CONTINUOUS
 70
0
 71
3
 72
11
 73
7
 74
0
 42
0.0000001
 43
0.0000001
 44
0.0000000001
 40
0.0
 40
0.0
 40
0.0
 40
0.0
 40
0.2455227752
 40
0.4941672482
 40
0.7457506135
 40
1.0
 40
1.0
 40
1.0
 40
1.0
 10
14.3897265501
 20
3.6115292491
 30
0.0
 10
14.3871615485
 20
3.6229811531
 30
0.0
 10
14.3825254671
 20
3.6461507501
 30
0.0
 10
14.3768822205
 20
3.6813539643
 30
0.0
 10
14.3723346232
 20
3.7171344024
 30
0.0
 10
14.3699417164
 20
3.7411966616
 30
0.0
 10
14.3688765942
 20
3.7533026593
 30
0.0
  0
SPLINE
  5
316
100
AcDbEntity
  8
0
100
AcDbSpline
 62
9
  6
CONTINUOUS
 70
0
 71
3
 72
22
 73
18
 74
0
 42
0.0000001
 43
0.0000001
 44
0.0000000001
 40
0.0
 40
0.0
 40
0.0
 40
0.0
 40
0.0104778066
 40
0.0176505114
 40
0.0264738623
 40
0.0495379552
 40
0.0800762587
 40
0.1180067357
 40
0.1632357845
 40
0.2157674957
 40
0.2756039419
 40
0.342677567
 40
0.416820174
 40
0.5855817341
 40
0.6798919869
 40
0.7805987833
 40
1.0
 40
1.0
 40
1.0
 40
1.0
 10
7.1446127772
 20
12.3541354371
 30
0.0
 10
7.1446257989
 20
12.3541898419
 30
0.0
 10
7.1445995125
 20
12.3542898845
 30
0.0
 10
7.1445242014
 20
12.3544080977
 30
0.0
 10
7.1443896121
 20
12.3545688113
 30
0.0
 10
7.1441405313
 20
12.3547914679
 30
0.0
 10
7.1437479515
 20
12.3550832801
 30
0.0
 10
7.1432333125
 20
12.355406329
 30
0.0
 10
7.142594907
 20
12.3557496448
 30
0.0
 10
7.1418348247
 20
12.3561110863
 30
0.0
 10
7.1409565019
 20
12.356493987
 30
0.0
 10
7.1399627397
 20
12.3569000089
 30
0.0
 10
7.138417666
 20
12.3574934697
 30
0.0
 10
7.1367157387
 20
12.3580819141
 30
0.0
 10
7.1348730155
 20
12.3586954428
 30
0.0
 10
7.1327740684
 20
12.3593954895
 30
0.0
 10
7.1311530098
 20
12.3599368641
 30
0.0
 10
7.1300405784
 20
12.3603038184
 30
0.0
  0
SPLINE
  5
317
100
AcDbEntity
  8
0
100
AcDbSpline
 62
9
  6
CONTINUOUS
 70
0
 71
3
 72
23
 73
19
 74
0
 42
0.0000001
 43
0.0000001
 44
0.0000000001
 40
0.0
 40
0.0
 40
0.0
 40
0.0
 40
0.0041710523
 40
0.009234469
 40
0.0157193228
 40
0.0238798076
 40
0.0338401941
 40
0.0456660728
 40
0.0750371827
 40
0.1121096043
 40
0.1568751655
 40
0.2092842018
 40
0.2692328511
 40
0.3365796565
 40
0.4111759869
 40
0.5814177576
 40
0.7783994567
 40
1.0
 40
1.0
 40
1.0
 40
1.0
 10
7.1461340127
 20
12.3604587366
 30
0.0
 10
7.1461390236
 20
12.3604794593
 30
0.0
 10
7.1461371419
 20
12.3605286976
 30
0.0
 10
7.1461015782
 20
12.3606021202
 30
0.0
 10
7.1460377069
 20
12.3606806489
 30
0.0
 10
7.1459447361
 20
12.3607657893
 30
0.0
 10
7.1458223946
 20
12.3608580301
 30
0.0
 10
7.1456033355
 20
12.3610010774
 30
0.0
 10
7.1452522706
 20
12.3611938797
 30
0.0
 10
7.1447396616
 20
12.3614398099
 30
0.0
 10
7.1441100731
 20
12.3617130583
 30
0.0
 10
7.1433649468
 20
12.3620128712
 30
0.0
 10
7.1425059469
 20
12.3623383437
 30
0.0
 10
7.1415352273
 20
12.3626886202
 30
0.0
 10
7.1400273512
 20
12.363210815
 30
0.0
 10
7.1378814142
 20
12.3639148027
 30
0.0
 10
7.1350078088
 20
12.3648099059
 30
0.0
 10
7.1329577077
 20
12.3654222236
 30
0.0
 10
7.1318709392
 20
12.3657414711
 30
0.0
  0
SPLINE
  5
318
100
AcDbEntity
  8
0
100
AcDbSpline
 62
9
  6
CONTINUOUS
 70
0
 71
3
 72
22
 73
18
 74
0
 42
0.0000001
 43
0.0000001
 44
0.0000000001
 40
0.0
 40
0.0
 40
0.0
 40
0.0
 40
0.0048688171
 40
0.0105044102
 40
0.0174185262
 40
0.0258918709
 40
0.048035168
 40
0.0775417575
 40
0.1145841582
 40
0.159196842
 40
0.2113597736
 40
0.2709961473
 40
0.3379909774
 40
0.4122199538
 40
0.58178046
 40
0.7783284068
 40
1.0
 40
1.0
 40
1.0
 40
1.0
 10
7.0810805718
 20
11.9757825445
 30
0.0
 10
7.0810783884
 20
11.9757602911
 30
0.0
 10
7.0810625382
 20
11.9757130657
 30
0.0
 10
7.0810107155
 20
11.9756506569
 30
0.0
 10
7.0809329063
 20
11.9755925573
 30
0.0
 10
7.0807799283
 20
11.975512153
 30
0.0
 10
7.0805164737
 20
11.9754250926
 30
0.0
 10
7.0801185484
 20
11.9753374051
 30
0.0
 10
7.0796135082
 20
11.9752605692
 30
0.0
 10
7.0790023768
 20
11.9751948014
 30
0.0
 10
7.0782859895
 20
11.9751406823
 30
0.0
 10
7.0774659057
 20
11.975098419
 30
0.0
 10
7.0765439007
 20
11.9750681836
 30
0.0
 10
7.0751167935
 20
11.9750430769
 30
0.0
 10
7.0730943579
 20
11.9750464752
 30
0.0
 10
7.0703953766
 20
11.9750985316
 30
0.0
 10
7.0684756757
 20
11.9751618357
 30
0.0
 10
7.0674583853
 20
11.9752007146
 30
0.0
  0
SPLINE
  5
319
100
AcDbEntity
  8
0
100
AcDbSpline
 62
9
  6
CONTINUOUS
 70
0
 71
3
 72
11
 73
7
 74
0
 42
0.0000001
 43
0.0000001
 44
0.0000000001
 40
0.0
 40
0.0
 40
0.0
 40
0.0
 40
0.2542491423
 40
0.5058322124
 40
0.7544770381
 40
1.0
 40
1.0
 40
1.0
 40
1.0
 10
15.0451038247
 20
3.7533029774
 30
0.0
 10
15.044038649
 20
3.7411969687
 30
0.0
 10
15.0416457532
 20
3.7171346809
 30
0.0
 10
15.037098204
 20
3.6813541632
 30
0.0
 10
15.0314549416
 20
3.6461508585
 30
0.0
 10
15.0268188501
 20
3.6229811822
 30
0.0
 10
15.024253817
 20
3.6115292491
 30
0.0
  0
SPLINE
  5
31A
100
AcDbEntity
  8
0
100
AcDbSpline
 62
9
  6
CONTINUOUS
 70
0
 71
3
 72
22
 73
18
 74
0
 42
0.0000001
 43
0.0000001
 44
0.0000000001
 40
0.0
 40
0.0
 40
0.0
 40
0.0
 40
0.006217557
 40
0.013060653
 40
0.0210026841
 40
0.0303488978
 40
0.0539019507
 40
0.0845260489
 40
0.1224824809
 40
0.1678503802
 40
0.2205957235
 40
0.2806219953
 40
0.3477994425
 40
0.4219419819
 40
0.5902778896
 40
0.78376404
 40
1.0
 40
1.0
 40
1.0
 40
1.0
 10
7.0803171488
 20
11.4368533475
 30
0.0
 10
7.0803208917
 20
11.4368140544
 30
0.0
 10
7.080314328
 20
11.4367296679
 30
0.0
 10
7.0802638801
 20
11.4366046419
 30
0.0
 10
7.080175492
 20
11.4364783606
 30
0.0
 10
7.0799934397
 20
11.4362926222
 30
0.0
 10
7.0796612071
 20
11.4360595261
 30
0.0
 10
7.0791441154
 20
11.4357851882
 30
0.0
 10
7.0784792694
 20
11.4354984293
 30
0.0
 10
7.0776682462
 20
11.4352003738
 30
0.0
 10
7.0767126062
 20
11.434892084
 30
0.0
 10
7.0756150765
 20
11.4345746899
 30
0.0
 10
7.0743788578
 20
11.4342493619
 30
0.0
 10
7.072468229
 20
11.4337865306
 30
0.0
 10
7.0697624365
 20
11.4332027453
 30
0.0
 10
7.0661579396
 20
11.4325129688
 30
0.0
 10
7.0635944912
 20
11.4320714716
 30
0.0
 10
7.0622400213
 20
11.4318483071
 30
0.0
  0
SPLINE
  5
31B
100
AcDbEntity
  8
0
100
AcDbSpline
 62
9
  6
CONTINUOUS
 70
0
 71
3
 72
11
 73
7
 74
0
 42
0.0000001
 43
0.0000001
 44
0.0000000001
 40
0.0
 40
0.0
 40
0.0
 40
0.0
 40
0.2538137627
 40
0.5052492996
 40
0.7540405579
 40
1.0
 40
1.0
 40
1.0
 40
1.0
 10
15.0227244668
 20
3.7585004702
 30
0.0
 10
15.0216489773
 20
3.7466927864
 30
0.0
 10
15.0192614808
 20
3.723209425
 30
0.0
 10
15.0148099507
 20
3.688263308
 30
0.0
 10
15.0093541383
 20
3.6538299143
 30
0.0
 10
15.0049100731
 20
3.6311421439
 30
0.0
 10
15.0024577319
 20
3.6199172484
 30
0.0
  0
SPLINE
  5
31C
100
AcDbEntity
  8
0
100
AcDbSpline
 62
9
  6
CONTINUOUS
 70
0
 71
3
 72
15
 73
11
 74
0
 42
0.0000001
 43
0.0000001
 44
0.0000000001
 40
0.0
 40
0.0
 40
0.0
 40
0.0
 40
0.1465571977
 40
0.2868674898
 40
0.4204397714
 40
0.5472023084
 40
0.6675037756
 40
0.7821572067
 40
0.8924444625
 40
1.0
 40
1.0
 40
1.0
 40
1.0
 10
15.0024577319
 20
3.6199172484
 30
0.0
 10
15.0017822732
 20
3.6168256411
 30
0.0
 10
15.0002588371
 20
3.6108153941
 30
0.0
 10
14.997366026
 20
3.6022002625
 30
0.0
 10
14.9939085773
 20
3.5942566707
 30
0.0
 10
14.9898854559
 20
3.5870716944
 30
0.0
 10
14.9852993043
 20
3.5807252845
 30
0.0
 10
14.9801597842
 20
3.5752914233
 30
0.0
 10
14.9744909647
 20
3.5708420336
 30
0.0
 10
14.9703520852
 20
3.5685542529
 30
0.0
 10
14.9682316043
 20
3.5676071179
 30
0.0
  0
SPLINE
  5
31D
100
AcDbEntity
  8
0
100
AcDbSpline
 62
9
  6
CONTINUOUS
 70
0
 71
3
 72
18
 73
14
 74
0
 42
0.0000001
 43
0.0000001
 44
0.0000000001
 40
0.0
 40
0.0
 40
0.0
 40
0.0
 40
0.0485861735
 40
0.0998362354
 40
0.1535218733
 40
0.2094591976
 40
0.32742269
 40
0.4525229745
 40
0.5174063448
 40
0.5836496068
 40
0.7195678371
 40
0.8588916521
 40
1.0
 40
1.0
 40
1.0
 40
1.0
 10
14.9682316043
 20
3.5676071179
 30
0.0
 10
14.9642209754
 20
3.5658159524
 30
0.0
 10
14.9559745766
 20
3.5621470736
 30
0.0
 10
14.943249614
 20
3.5566052765
 30
0.0
 10
14.9298451749
 20
3.550961171
 30
0.0
 10
14.9107580207
 20
3.5432774942
 30
0.0
 10
14.8853904999
 20
3.5339158249
 30
0.0
 10
14.8588175292
 20
3.5255638062
 30
0.0
 10
14.8364391948
 20
3.519569008
 30
0.0
 10
14.8129352775
 20
3.5140404543
 30
0.0
 10
14.7825469941
 20
3.5084517848
 30
0.0
 10
14.7451098482
 20
3.5042618096
 30
0.0
 10
14.7197470672
 20
3.5033085333
 30
0.0
 10
14.7069901836
 20
3.5033084922
 30
0.0
  0
SPLINE
  5
31E
100
AcDbEntity
  8
0
100
AcDbSpline
 62
9
  6
CONTINUOUS
 70
0
 71
3
 72
18
 73
14
 74
0
 42
0.0000001
 43
0.0000001
 44
0.0000000001
 40
0.0
 40
0.0
 40
0.0
 40
0.0
 40
0.1411084678
 40
0.2804323141
 40
0.4163505424
 40
0.4825937992
 40
0.5474771673
 40
0.6725774335
 40
0.7905408968
 40
0.8464781927
 40
0.9001637892
 40
0.9514138283
 40
1.0
 40
1.0
 40
1.0
 40
1.0
 10
14.7069901836
 20
3.5033084922
 30
0.0
 10
14.6942332886
 20
3.5033085259
 30
0.0
 10
14.6688704779
 20
3.5042614817
 30
0.0
 10
14.63143334
 20
3.5084517538
 30
0.0
 10
14.6010450633
 20
3.5140404468
 30
0.0
 10
14.5775411587
 20
3.5195690581
 30
0.0
 10
14.5551628284
 20
3.5255638638
 30
0.0
 10
14.5285898596
 20
3.5339158793
 30
0.0
 10
14.5032223554
 20
3.5432775762
 30
0.0
 10
14.4841352024
 20
3.5509612336
 30
0.0
 10
14.4707307515
 20
3.5566052907
 30
0.0
 10
14.4580057879
 20
3.5621470723
 30
0.0
 10
14.4497593925
 20
3.5658159541
 30
0.0
 10
14.4457487628
 20
3.5676071179
 30
0.0
  0
SPLINE
  5
31F
100
AcDbEntity
  8
0
100
AcDbSpline
 62
9
  6
CONTINUOUS
 70
0
 71
3
 72
15
 73
11
 74
0
 42
0.0000001
 43
0.0000001
 44
0.0000000001
 40
0.0
 40
0.0
 40
0.0
 40
0.0
 40
0.1075544212
 40
0.2178434182
 40
0.332497725
 40
0.4527988205
 40
0.5795610104
 40
0.7131329475
 40
0.8534445637
 40
1.0
 40
1.0
 40
1.0
 40
1.0
 10
14.4457487628
 20
3.5676071179
 30
0.0
 10
14.4436282938
 20
3.5685542222
 30
0.0
 10
14.4394891608
 20
3.5708416061
 30
0.0
 10
14.4338206442
 20
3.5752914903
 30
0.0
 10
14.4286810991
 20
3.5807253532
 30
0.0
 10
14.4240949265
 20
3.5870717667
 30
0.0
 10
14.4200717687
 20
3.5942566924
 30
0.0
 10
14.4166142485
 20
3.6022002832
 30
0.0
 10
14.4137217585
 20
3.6108155032
 30
0.0
 10
14.4121981075
 20
3.6168256818
 30
0.0
 10
14.4115226352
 20
3.6199172484
 30
0.0
  0
SPLINE
  5
320
100
AcDbEntity
  8
0
100
AcDbSpline
 62
9
  6
CONTINUOUS
 70
0
 71
3
 72
11
 73
7
 74
0
 42
0.0000001
 43
0.0000001
 44
0.0000000001
 40
0.0
 40
0.0
 40
0.0
 40
0.0
 40
0.2459594492
 40
0.4947506753
 40
0.7461862809
 40
1.0
 40
1.0
 40
1.0
 40
1.0
 10
14.4115226352
 20
3.6199172484
 30
0.0
 10
14.4090703121
 20
3.6311421506
 30
0.0
 10
14.4046262255
 20
3.65382992
 30
0.0
 10
14.399170419
 20
3.6882633247
 30
0.0
 10
14.3947188802
 20
3.7232094472
 30
0.0
 10
14.3923313625
 20
3.746692813
 30
0.0
 10
14.3912558883
 20
3.7585004986
 30
0.0
  0
SPLINE
  5
321
100
AcDbEntity
  8
0
100
AcDbSpline
 62
9
  6
CONTINUOUS
 70
0
 71
3
 72
15
 73
11
 74
0
 42
0.0000001
 43
0.0000001
 44
0.0000000001
 40
0.0
 40
0.0
 40
0.0
 40
0.0
 40
0.1370726057
 40
0.2769844616
 40
0.4163923988
 40
0.5520478127
 40
0.6808136615
 40
0.7998551814
 40
0.9068212076
 40
1.0
 40
1.0
 40
1.0
 40
1.0
 10
14.3897265501
 20
3.6115292491
 30
0.0
 10
14.3908032059
 20
3.6116455588
 30
0.0
 10
14.3929712607
 20
3.6119557573
 30
0.0
 10
14.3961937449
 20
3.6126270002
 30
0.0
 10
14.3993575535
 20
3.6134946898
 30
0.0
 10
14.4023761672
 20
3.6145346562
 30
0.0
 10
14.4051676316
 20
3.6157185208
 30
0.0
 10
14.407657323
 20
3.6170137323
 30
0.0
 10
14.4097783205
 20
3.6183847678
 30
0.0
 10
14.4109997009
 20
3.619399129
 30
0.0
 10
14.4115226352
 20
3.6199172484
 30
0.0
  0
SPLINE
  5
322
100
AcDbEntity
  8
0
100
AcDbSpline
 62
9
  6
CONTINUOUS
 70
0
 71
3
 72
16
 73
12
 74
0
 42
0.0000001
 43
0.0000001
 44
0.0000000001
 40
0.0
 40
0.0
 40
0.0
 40
0.0
 40
0.0522455514
 40
0.1051052068
 40
0.1590231759
 40
0.214439705
 40
0.3306414358
 40
0.4549769079
 40
0.5866771291
 40
0.7236262055
 40
1.0
 40
1.0
 40
1.0
 40
1.0
 10
14.42258112
 20
3.5491434051
 30
0.0
 10
14.4231203391
 20
3.5489211678
 30
0.0
 10
14.4242422607
 20
3.548558977
 30
0.0
 10
14.4260019492
 20
3.5482795494
 30
0.0
 10
14.4278192296
 20
3.5482666091
 30
0.0
 10
14.4303210044
 20
3.5486079888
 30
0.0
 10
14.4334722843
 20
3.5497230155
 30
0.0
 10
14.4369881286
 20
3.5519955636
 30
0.0
 10
14.4401335488
 20
3.5550961094
 30
0.0
 10
14.443620399
 20
3.5601083352
 30
0.0
 10
14.4452346339
 20
3.5645650772
 30
0.0
 10
14.4457487629
 20
3.5676071179
 30
0.0
  0
SPLINE
  5
323
100
AcDbEntity
  8
0
100
AcDbSpline
 62
9
  6
CONTINUOUS
 70
0
 71
3
 72
16
 73
12
 74
0
 42
0.0000001
 43
0.0000001
 44
0.0000000001
 40
0.0
 40
0.0
 40
0.0
 40
0.0
 40
0.05224573
 40
0.1051055343
 40
0.1590236181
 40
0.214440225
 40
0.3306420043
 40
0.4549774075
 40
0.5866774885
 40
0.7236264045
 40
1.0
 40
1.0
 40
1.0
 40
1.0
 10
14.9913992471
 20
3.5491434051
 30
0.0
 10
14.9908600258
 20
3.5489211669
 30
0.0
 10
14.9897380999
 20
3.5485589741
 30
0.0
 10
14.9879784052
 20
3.5482795439
 30
0.0
 10
14.9861611195
 20
3.5482666012
 30
0.0
 10
14.9836593394
 20
3.5486079781
 30
0.0
 10
14.9805080546
 20
3.5497230019
 30
0.0
 10
14.9769922074
 20
3.5519955494
 30
0.0
 10
14.9738467887
 20
3.5550960967
 30
0.0
 10
14.9703599458
 20
3.5601083275
 30
0.0
 10
14.9687457231
 20
3.564565075
 30
0.0
 10
14.9682316043
 20
3.5676071179
 30
0.0
  0
SPLINE
  5
324
100
AcDbEntity
  8
0
100
AcDbSpline
 62
9
  6
CONTINUOUS
 70
0
 71
3
 72
15
 73
11
 74
0
 42
0.0000001
 43
0.0000001
 44
0.0000000001
 40
0.0
 40
0.0
 40
0.0
 40
0.0
 40
0.1370726045
 40
0.276984457
 40
0.4163923897
 40
0.5520477994
 40
0.6808136455
 40
0.7998551655
 40
0.9068211963
 40
1.0
 40
1.0
 40
1.0
 40
1.0
 10
15.024253817
 20
3.6115292491
 30
0.0
 10
15.0231771612
 20
3.6116455585
 30
0.0
 10
15.0210091063
 20
3.6119557566
 30
0.0
 10
15.0177866219
 20
3.612626999
 30
0.0
 10
15.0146228133
 20
3.6134946883
 30
0.0
 10
15.0116041995
 20
3.6145346545
 30
0.0
 10
15.0088127351
 20
3.6157185193
 30
0.0
 10
15.0063230438
 20
3.617013731
 30
0.0
 10
15.0042020463
 20
3.6183847671
 30
0.0
 10
15.0029806661
 20
3.6193991288
 30
0.0
 10
15.0024577319
 20
3.6199172484
 30
0.0
  0
SPLINE
  5
325
100
AcDbEntity
  8
0
100
AcDbSpline
 62
9
  6
CONTINUOUS
 70
0
 71
3
 72
42
 73
38
 74
0
 42
0.0000001
 43
0.0000001
 44
0.0000000001
 40
0.0
 40
0.0
 40
0.0
 40
0.0
 40
0.0270784637
 40
0.0544695167
 40
0.082221316
 40
0.1103942381
 40
0.1390504417
 40
0.1682549982
 40
0.1980755648
 40
0.2285793689
 40
0.2598306368
 40
0.2918840212
 40
0.3247744084
 40
0.3415402149
 40
0.3585128571
 40
0.3930394721
 40
0.4282560885
 40
0.4639869999
 40
0.4999941089
 40
0.5180202972
 40
0.536011016
 40
0.5539320919
 40
0.5717517548
 40
0.6069683509
 40
0.6414949715
 40
0.6752256622
 40
0.7081160305
 40
0.7401694171
 40
0.7714206869
 40
0.8019244563
 40
0.8317450508
 40
0.8609497323
 40
0.8896059421
 40
0.9177787779
 40
0.9455305088
 40
0.9729215415
 40
1.0
 40
1.0
 40
1.0
 40
1.0
 10
15.0227244668
 20
3.7585004702
 30
0.0
 10
15.0201959619
 20
3.751408604
 30
0.0
 10
15.0146741001
 20
3.7372939804
 30
0.0
 10
15.0050418319
 20
3.7165451228
 30
0.0
 10
14.9939766285
 20
3.6961747311
 30
0.0
 10
14.981433472
 20
3.676261595
 30
0.0
 10
14.9673614597
 20
3.6568945649
 30
0.0
 10
14.9517074903
 20
3.6381789958
 30
0.0
 10
14.9344185156
 20
3.6202393056
 30
0.0
 10
14.9154442705
 20
3.6032244644
 30
0.0
 10
14.8947455345
 20
3.5873105019
 30
0.0
 10
14.8723071787
 20
3.5727021879
 30
0.0
 10
14.8522961891
 20
3.5618846079
 30
0.0
 10
14.835472607
 20
3.5541151966
 30
0.0
 10
14.8179097403
 20
3.5469028021
 30
0.0
 10
14.7950170243
 20
3.5392257852
 30
0.0
 10
14.7664460092
 20
3.5324336509
 30
0.0
 10
14.7369604253
 20
3.5282488608
 30
0.0
 10
14.7119890855
 20
3.5270712255
 30
0.0
 10
14.6919622847
 20
3.5275422725
 30
0.0
 10
14.676996786
 20
3.528604717
 30
0.0
 10
14.662154618
 20
3.5303596059
 30
0.0
 10
14.6426845048
 20
3.5335853081
 30
0.0
 10
14.6189623012
 20
3.5392273521
 30
0.0
 10
14.591648912
 20
3.548385127
 30
0.0
 10
14.5658369217
 20
3.5596399952
 30
0.0
 10
14.5416736168
 20
3.5727017862
 30
0.0
 10
14.519234667
 20
3.5873106126
 30
0.0
 10
14.4985361553
 20
3.6032245155
 30
0.0
 10
14.4795617609
 20
3.6202392625
 30
0.0
 10
14.46227281
 20
3.6381790178
 30
0.0
 10
14.4466190947
 20
3.6568948583
 30
0.0
 10
14.4325470245
 20
3.67626185
 30
0.0
 10
14.4200037604
 20
3.6961748723
 30
0.0
 10
14.4089385342
 20
3.7165451968
 30
0.0
 10
14.3993062004
 20
3.7372939946
 30
0.0
 10
14.3937843443
 20
3.7514086164
 30
0.0
 10
14.3912558883
 20
3.7585004986
 30
0.0
  0
SPLINE
  5
326
100
AcDbEntity
  8
0
100
AcDbSpline
 62
9
  6
CONTINUOUS
 70
0
 71
3
 72
23
 73
19
 74
0
 42
0.0000001
 43
0.0000001
 44
0.0000000001
 40
0.0
 40
0.0
 40
0.0
 40
0.0
 40
0.1787976683
 40
0.356395586
 40
0.5245036521
 40
0.6025247157
 40
0.6753011039
 40
0.7420152604
 40
0.8019247574
 40
0.8544116979
 40
0.8989869151
 40
0.9353582653
 40
0.9504675525
 40
0.9635807997
 40
0.9748042208
 40
0.9843426599
 40
0.9925532298
 40
1.0
 40
1.0
 40
1.0
 40
1.0
 10
14.3492336742
 20
3.834518275
 30
0.0
 10
14.3506856813
 20
3.8346631312
 30
0.0
 10
14.3535748243
 20
3.8350058552
 30
0.0
 10
14.3578059415
 20
3.8356602569
 30
0.0
 10
14.361202417
 20
3.8363162155
 30
0.0
 10
14.3637398861
 20
3.8368961297
 30
0.0
 10
14.3654600907
 20
3.8373353259
 30
0.0
 10
14.3670246791
 20
3.8377839699
 30
0.0
 10
14.3684149473
 20
3.8382366716
 30
0.0
 10
14.3696147817
 20
3.8386874527
 30
0.0
 10
14.3706101075
 20
3.8391308241
 30
0.0
 10
14.3712988969
 20
3.8395090054
 30
0.0
 10
14.371731956
 20
3.8398105216
 30
0.0
 10
14.3719790578
 20
3.8400177453
 30
0.0
 10
14.3721686771
 20
3.8402201499
 30
0.0
 10
14.3723003664
 20
3.8404183356
 30
0.0
 10
14.3723728986
 20
3.8406132687
 30
0.0
 10
14.3723788529
 20
3.8407436775
 30
0.0
 10
14.3723709292
 20
3.8408039338
 30
0.0
  0
SPLINE
  5
327
100
AcDbEntity
  8
0
100
AcDbSpline
 62
9
  6
CONTINUOUS
 70
0
 71
3
 72
23
 73
19
 74
0
 42
0.0000001
 43
0.0000001
 44
0.0000000001
 40
0.0
 40
0.0
 40
0.0
 40
0.0
 40
0.1799297256
 40
0.3579547423
 40
0.5259707222
 40
0.6038142103
 40
0.6763593558
 40
0.7428133072
 40
0.802457593
 40
0.8546966495
 40
0.8990625161
 40
0.9352831566
 40
0.9503454803
 40
0.9634339418
 40
0.9746573858
 40
0.984222325
 40
0.9924845601
 40
1.0
 40
1.0
 40
1.0
 40
1.0
 10
14.3461537393
 20
3.8815631416
 30
0.0
 10
14.3475966078
 20
3.881522993
 30
0.0
 10
14.3504687887
 20
3.8814957281
 30
0.0
 10
14.3546876203
 20
3.8816041073
 30
0.0
 10
14.3580824166
 20
3.8818184079
 30
0.0
 10
14.3606248854
 20
3.8820662081
 30
0.0
 10
14.3623515811
 20
3.8822790516
 30
0.0
 10
14.3639269915
 20
3.8825207052
 30
0.0
 10
14.3653327453
 20
3.8827883219
 30
0.0
 10
14.3665528805
 20
3.883078174
 30
0.0
 10
14.3675734275
 20
3.8833867499
 30
0.0
 10
14.3682883756
 20
3.8836703818
 30
0.0
 10
14.3687457293
 20
3.8839112735
 30
0.0
 10
14.3690112487
 20
3.884083394
 30
0.0
 10
14.3692204957
 20
3.884258179
 30
0.0
 10
14.3693730908
 20
3.8844362664
 30
0.0
 10
14.3694679223
 20
3.8846186808
 30
0.0
 10
14.3694901836
 20
3.8847459686
 30
0.0
 10
14.3694901836
 20
3.8848062587
 30
0.0
  0
SPLINE
  5
328
100
AcDbEntity
  8
0
100
AcDbSpline
 62
9
  6
CONTINUOUS
 70
0
 71
3
 72
22
 73
18
 74
0
 42
0.0000001
 43
0.0000001
 44
0.0000000001
 40
0.0
 40
0.0
 40
0.0
 40
0.0
 40
0.0072302941
 40
0.0150165184
 40
0.0238027917
 40
0.0338993051
 40
0.0587326531
 40
0.090434679
 40
0.1293340949
 40
0.1755181919
 40
0.228938788
 40
0.2894786688
 40
0.3569501642
 40
0.4311339737
 40
0.5985058792
 40
0.7891248191
 40
1.0
 40
1.0
 40
1.0
 40
1.0
 10
7.191199213
 20
12.5247724021
 30
0.0
 10
7.1912166587
 20
12.524829179
 30
0.0
 10
7.1912353724
 20
12.5249530973
 30
0.0
 10
7.1912115001
 20
12.5251490186
 30
0.0
 10
7.1911387411
 20
12.5253570502
 30
0.0
 10
7.1909657175
 20
12.5256730884
 30
0.0
 10
7.1906140023
 20
12.5260976323
 30
0.0
 10
7.1900355562
 20
12.5266281973
 30
0.0
 10
7.1892721511
 20
12.5272110426
 30
0.0
 10
7.1883260397
 20
12.5278438986
 30
0.0
 10
7.1871997087
 20
12.5285244346
 30
0.0
 10
7.1858972841
 20
12.5292495997
 30
0.0
 10
7.1844237223
 20
12.53001657
 30
0.0
 10
7.182145084
 20
12.5311361608
 30
0.0
 10
7.1789127488
 20
12.5326065763
 30
0.0
 10
7.1746055556
 20
12.534420697
 30
0.0
 10
7.1715372292
 20
12.5356314347
 30
0.0
 10
7.1699200327
 20
12.5362524565
 30
0.0
  0
SPLINE
  5
329
100
AcDbEntity
  8
0
100
AcDbSpline
 62
9
  6
CONTINUOUS
 70
0
 71
3
 72
23
 73
19
 74
0
 42
0.0000001
 43
0.0000001
 44
0.0000000001
 40
0.0
 40
0.0
 40
0.0
 40
0.0
 40
0.1799297256
 40
0.3579547423
 40
0.5259707222
 40
0.6038142102
 40
0.6763593557
 40
0.7428133071
 40
0.8024575929
 40
0.8546966495
 40
0.8990625161
 40
0.9352831566
 40
0.9503454803
 40
0.9634339418
 40
0.9746573858
 40
0.984222325
 40
0.9924845601
 40
1.0
 40
1.0
 40
1.0
 40
1.0
 10
15.0678266278
 20
3.8815631416
 30
0.0
 10
15.0663837593
 20
3.881522993
 30
0.0
 10
15.0635115785
 20
3.8814957281
 30
0.0
 10
15.0592927468
 20
3.8816041073
 30
0.0
 10
15.0558979506
 20
3.8818184079
 30
0.0
 10
15.0533554817
 20
3.8820662081
 30
0.0
 10
15.0516287861
 20
3.8822790516
 30
0.0
 10
15.0500533756
 20
3.8825207052
 30
0.0
 10
15.0486476218
 20
3.8827883219
 30
0.0
 10
15.0474274866
 20
3.883078174
 30
0.0
 10
15.0464069397
 20
3.8833867499
 30
0.0
 10
15.0456919915
 20
3.8836703818
 30
0.0
 10
15.0452346378
 20
3.8839112735
 30
0.0
 10
15.0449691184
 20
3.884083394
 30
0.0
 10
15.0447598714
 20
3.884258179
 30
0.0
 10
15.0446072763
 20
3.8844362664
 30
0.0
 10
15.0445124448
 20
3.8846186808
 30
0.0
 10
15.0444901836
 20
3.8847459686
 30
0.0
 10
15.0444901836
 20
3.8848062587
 30
0.0
  0
SPLINE
  5
32A
100
AcDbEntity
  8
0
100
AcDbSpline
 62
9
  6
CONTINUOUS
 70
0
 71
3
 72
23
 73
19
 74
0
 42
0.0000001
 43
0.0000001
 44
0.0000000001
 40
0.0
 40
0.0
 40
0.0
 40
0.0
 40
0.1787976681
 40
0.3563955856
 40
0.5245036515
 40
0.602524715
 40
0.6753011031
 40
0.7420152596
 40
0.8019247565
 40
0.854411697
 40
0.8989869143
 40
0.9353582645
 40
0.9504675517
 40
0.9635807991
 40
0.9748042203
 40
0.9843426595
 40
0.9925532296
 40
1.0
 40
1.0
 40
1.0
 40
1.0
 10
15.064746693
 20
3.834518275
 30
0.0
 10
15.0632946859
 20
3.8346631312
 30
0.0
 10
15.0604055428
 20
3.8350058552
 30
0.0
 10
15.0561744256
 20
3.8356602568
 30
0.0
 10
15.0527779501
 20
3.8363162154
 30
0.0
 10
15.0502404811
 20
3.8368961297
 30
0.0
 10
15.0485202765
 20
3.8373353259
 30
0.0
 10
15.046955688
 20
3.8377839698
 30
0.0
 10
15.0455654198
 20
3.8382366716
 30
0.0
 10
15.0443655854
 20
3.8386874527
 30
0.0
 10
15.0433702596
 20
3.8391308241
 30
0.0
 10
15.0426814702
 20
3.8395090054
 30
0.0
 10
15.0422484111
 20
3.8398105216
 30
0.0
 10
15.0420013093
 20
3.8400177453
 30
0.0
 10
15.0418116901
 20
3.8402201498
 30
0.0
 10
15.0416800007
 20
3.8404183356
 30
0.0
 10
15.0416074685
 20
3.8406132687
 30
0.0
 10
15.0416015143
 20
3.8407436775
 30
0.0
 10
15.0416094379
 20
3.8408039338
 30
0.0
  0
SPLINE
  5
32B
100
AcDbEntity
  8
0
100
AcDbSpline
 62
9
  6
CONTINUOUS
 70
0
 71
3
 72
28
 73
24
 74
0
 42
0.0000001
 43
0.0000001
 44
0.0000000001
 40
0.0
 40
0.0
 40
0.0
 40
0.0
 40
0.0370509773
 40
0.0745489467
 40
0.1122664382
 40
0.1500952623
 40
0.2258328789
 40
0.2446912941
 40
0.2635270501
 40
0.3011556466
 40
0.3386620376
 40
0.3758691483
 40
0.4126566921
 40
0.4489817615
 40
0.5200820051
 40
0.5887504134
 40
0.6544714466
 40
0.716813364
 40
0.8299124755
 40
0.8800291624
 40
0.9252843209
 40
0.9652279677
 40
1.0
 40
1.0
 40
1.0
 40
1.0
 10
14.3688766424
 20
3.7533026189
 30
0.0
 10
14.3691564336
 20
3.7533655648
 30
0.0
 10
14.3697214777
 20
3.7534834142
 30
0.0
 10
14.370579719
 20
3.7536216066
 30
0.0
 10
14.3714511814
 20
3.7537094174
 30
0.0
 10
14.3726226795
 20
3.7537316644
 30
0.0
 10
14.3736478436
 20
3.7536893891
 30
0.0
 10
14.3745252165
 20
3.753730522
 30
0.0
 10
14.3751060697
 20
3.753782109
 30
0.0
 10
14.3758270419
 20
3.7538809433
 30
0.0
 10
14.3766837921
 20
3.754029701
 30
0.0
 10
14.377533842
 20
3.7541789311
 30
0.0
 10
14.3783761328
 20
3.7543193264
 30
0.0
 10
14.3794769976
 20
3.7545039431
 30
0.0
 10
14.3808182185
 20
3.7547475953
 30
0.0
 10
14.3823744048
 20
3.755077302
 30
0.0
 10
14.3838556981
 20
3.75543133
 30
0.0
 10
14.3856564936
 20
3.7559231774
 30
0.0
 10
14.3873142105
 20
3.7564810165
 30
0.0
 10
14.3887966695
 20
3.7571200683
 30
0.0
 10
14.3897369357
 20
3.7575822949
 30
0.0
 10
14.3905538955
 20
3.758024105
 30
0.0
 10
14.3910411582
 20
3.7583382625
 30
0.0
 10
14.3912558752
 20
3.7585005446
 30
0.0
  0
SPLINE
  5
32C
100
AcDbEntity
  8
0
100
AcDbSpline
 62
9
  6
CONTINUOUS
 70
0
 71
3
 72
27
 73
23
 74
0
 42
0.0000001
 43
0.0000001
 44
0.0000000001
 40
0.0
 40
0.0
 40
0.0
 40
0.0
 40
0.0084447329
 40
0.0173399643
 40
0.0274259498
 40
0.0392001117
 40
0.0528910212
 40
0.0685778709
 40
0.1060406626
 40
0.1516364769
 40
0.2051000818
 40
0.2658973521
 40
0.3333404218
 40
0.4066056628
 40
0.484805002
 40
0.5669783291
 40
0.6520870061
 40
0.7390485836
 40
0.8267516032
 40
0.8705507504
 40
0.9141410298
 40
1.0
 40
1.0
 40
1.0
 40
1.0
 10
14.3912558752
 20
3.7655665986
 30
0.0
 10
14.3912818893
 20
3.7654977161
 30
0.0
 10
14.3913139486
 20
3.7653470954
 30
0.0
 10
14.3912915148
 20
3.7651061826
 30
0.0
 10
14.3912046457
 20
3.764850677
 30
0.0
 10
14.3910583907
 20
3.76457635
 30
0.0
 10
14.3908535651
 20
3.7642809898
 30
0.0
 10
14.3904787926
 20
3.7638338508
 30
0.0
 10
14.3898525923
 20
3.7632394748
 30
0.0
 10
14.3889174427
 20
3.7625016504
 30
0.0
 10
14.3877704093
 20
3.7617084578
 30
0.0
 10
14.3864254009
 20
3.7608703712
 30
0.0
 10
14.3848989656
 20
3.7599995582
 30
0.0
 10
14.3832087089
 20
3.7591121831
 30
0.0
 10
14.3813776578
 20
3.7582188342
 30
0.0
 10
14.3794325232
 20
3.757325257
 30
0.0
 10
14.3773976902
 20
3.7564452133
 30
0.0
 10
14.375299641
 20
3.75559136
 30
0.0
 10
14.373521676
 20
3.7549073524
 30
0.0
 10
14.3720857979
 20
3.7543885521
 30
0.0
 10
14.3706566357
 20
3.7538991896
 30
0.0
 10
14.3695845917
 20
3.7535460073
 30
0.0
 10
14.3688766424
 20
3.7533026189
 30
0.0
  0
SPLINE
  5
32D
100
AcDbEntity
  8
0
100
AcDbSpline
 62
9
  6
CONTINUOUS
 70
0
 71
3
 72
11
 73
7
 74
0
 42
0.0000001
 43
0.0000001
 44
0.0000000001
 40
0.0
 40
0.0
 40
0.0
 40
0.0
 40
0.2632816322
 40
0.5156438156
 40
0.7599708702
 40
1.0
 40
1.0
 40
1.0
 40
1.0
 10
14.3912558752
 20
3.7585005446
 30
0.0
 10
14.3914541432
 20
3.7591003033
 30
0.0
 10
14.3917592888
 20
3.7603050164
 30
0.0
 10
14.3919205339
 20
3.7621295724
 30
0.0
 10
14.3917690853
 20
3.7638997114
 30
0.0
 10
14.3914593394
 20
3.7650278464
 30
0.0
 10
14.3912558752
 20
3.7655665986
 30
0.0
  0
SPLINE
  5
32E
100
AcDbEntity
  8
0
100
AcDbSpline
 62
9
  6
CONTINUOUS
 70
0
 71
3
 72
17
 73
13
 74
0
 42
0.0000001
 43
0.0000001
 44
0.0000000001
 40
0.0
 40
0.0
 40
0.0
 40
0.0
 40
0.0351004372
 40
0.0752447654
 40
0.1203316595
 40
0.1701719808
 40
0.2830375372
 40
0.4111155133
 40
0.5509320735
 40
0.698525726
 40
0.8496915705
 40
1.0
 40
1.0
 40
1.0
 40
1.0
 10
15.0227244919
 20
3.7585005446
 30
0.0
 10
15.0229392824
 20
3.7583344812
 30
0.0
 10
15.0234217552
 20
3.7580068333
 30
0.0
 10
15.0242342256
 20
3.7575512217
 30
0.0
 10
15.0251784539
 20
3.7571024548
 30
0.0
 10
15.0266661346
 20
3.7564924949
 30
0.0
 10
15.0288039165
 20
3.7557850162
 30
0.0
 10
15.031656002
 20
3.7550445597
 30
0.0
 10
15.0348070554
 20
3.7544056589
 30
0.0
 10
15.038160863
 20
3.7538881732
 30
0.0
 10
15.0416146161
 20
3.7535087829
 30
0.0
 10
15.0439422172
 20
3.7533536075
 30
0.0
 10
15.0451037247
 20
3.7533026189
 30
0.0
  0
SPLINE
  5
32F
100
AcDbEntity
  8
0
100
AcDbSpline
 62
9
  6
CONTINUOUS
 70
0
 71
3
 72
11
 73
7
 74
0
 42
0.0000001
 43
0.0000001
 44
0.0000000001
 40
0.0
 40
0.0
 40
0.0
 40
0.0
 40
0.2399253569
 40
0.4844153478
 40
0.7365802702
 40
1.0
 40
1.0
 40
1.0
 40
1.0
 10
15.0227244919
 20
3.7655665986
 30
0.0
 10
15.0225211156
 20
3.7650280791
 30
0.0
 10
15.0222115765
 20
3.7638998097
 30
0.0
 10
15.0220591114
 20
3.7621299779
 30
0.0
 10
15.0222220108
 20
3.7603054362
 30
0.0
 10
15.0225252486
 20
3.7591003294
 30
0.0
 10
15.0227244919
 20
3.7585005446
 30
0.0
  0
SPLINE
  5
330
100
AcDbEntity
  8
0
100
AcDbSpline
 62
9
  6
CONTINUOUS
 70
0
 71
3
 72
26
 73
22
 74
0
 42
0.0000001
 43
0.0000001
 44
0.0000000001
 40
0.0
 40
0.0
 40
0.0
 40
0.0
 40
0.0859423516
 40
0.1733978809
 40
0.2611772445
 40
0.3481995136
 40
0.4333661541
 40
0.5155852844
 40
0.5938319774
 40
0.66713615
 40
0.7345785493
 40
0.7953349045
 40
0.8487307269
 40
0.8943695617
 40
0.9320157622
 40
0.9478362117
 40
0.9617252071
 40
0.9738182222
 40
0.9842747572
 40
0.9930319671
 40
1.0
 40
1.0
 40
1.0
 40
1.0
 10
15.0451037247
 20
3.7533026189
 30
0.0
 10
15.0443876514
 20
3.7535221726
 30
0.0
 10
15.0429534378
 20
3.7539995131
 30
0.0
 10
15.0408136513
 20
3.7547756832
 30
0.0
 10
15.0386785556
 20
3.7555915937
 30
0.0
 10
15.0365798971
 20
3.7564456131
 30
0.0
 10
15.0345446003
 20
3.7573253809
 30
0.0
 10
15.0325989877
 20
3.7582186214
 30
0.0
 10
15.0307702216
 20
3.7591170574
 30
0.0
 10
15.0290822349
 20
3.7600082025
 30
0.0
 10
15.0275555216
 20
3.7608766126
 30
0.0
 10
15.0262082851
 20
3.7617075684
 30
0.0
 10
15.0250558511
 20
3.7624908039
 30
0.0
 10
15.0241213747
 20
3.7632314007
 30
0.0
 10
15.0235000595
 20
3.7638350847
 30
0.0
 10
15.0231288986
 20
3.7642907193
 30
0.0
 10
15.0229268505
 20
3.7645947195
 30
0.0
 10
15.022785259
 20
3.7648802289
 30
0.0
 10
15.0227064598
 20
3.7651431296
 30
0.0
 10
15.0226831171
 20
3.7653712888
 30
0.0
 10
15.0227030374
 20
3.7655097894
 30
0.0
 10
15.0227244919
 20
3.7655665986
 30
0.0
  0
SPLINE
  5
331
100
AcDbEntity
  8
0
100
AcDbSpline
 62
9
  6
CONTINUOUS
 70
0
 71
3
 72
13
 73
9
 74
0
 42
0.0000001
 43
0.0000001
 44
0.0000000001
 40
0.0
 40
0.0
 40
0.0
 40
0.0
 40
0.2689570436
 40
0.3993307864
 40
0.5265194442
 40
0.6502948537
 40
0.7705136977
 40
1.0
 40
1.0
 40
1.0
 40
1.0
 10
6.9131037833
 20
12.6013260925
 30
0.0
 10
6.9140133013
 20
12.5933589605
 30
0.0
 10
6.9161017772
 20
12.5815912367
 30
0.0
 10
6.9204261682
 20
12.5664906119
 30
0.0
 10
6.92433273
 20
12.5558022751
 30
0.0
 10
6.9289097533
 20
12.545712651
 30
0.0
 10
6.9357498709
 20
12.533354378
 30
0.0
 10
6.941941028
 20
12.5248733293
 30
0.0
 10
6.9464989313
 20
12.5197704445
 30
0.0
  0
SPLINE
  5
332
100
AcDbEntity
  8
0
100
AcDbSpline
 62
9
  6
CONTINUOUS
 70
0
 71
3
 72
14
 73
10
 74
0
 42
0.0000001
 43
0.0000001
 44
0.0000000001
 40
0.0
 40
0.0
 40
0.0
 40
0.0
 40
0.0670533684
 40
0.1417739914
 40
0.2311492568
 40
0.3393658815
 40
0.4689220657
 40
0.6216055836
 40
1.0
 40
1.0
 40
1.0
 40
1.0
 10
7.1445048539
 20
12.3536843678
 30
0.0
 10
7.1445161804
 20
12.3537317247
 30
0.0
 10
7.1445190438
 20
12.3538378171
 30
0.0
 10
7.1444607805
 20
12.3539981537
 30
0.0
 10
7.1443462232
 20
12.3541612005
 30
0.0
 10
7.1441761443
 20
12.3543283406
 30
0.0
 10
7.1439498502
 20
12.3545000032
 30
0.0
 10
7.1435448807
 20
12.3547577631
 30
0.0
 10
7.1432034209
 20
12.3549380886
 30
0.0
 10
7.1429587286
 20
12.3550631105
 30
0.0
  0
SPLINE
  5
333
100
AcDbEntity
  8
0
100
AcDbSpline
 62
9
  6
CONTINUOUS
 70
0
 71
3
 72
15
 73
11
 74
0
 42
0.0000001
 43
0.0000001
 44
0.0000000001
 40
0.0
 40
0.0
 40
0.0
 40
0.0
 40
0.0747551346
 40
0.1648043371
 40
0.2697517568
 40
0.3892056256
 40
0.5226789202
 40
0.6694577623
 40
0.828823105
 40
1.0
 40
1.0
 40
1.0
 40
1.0
 10
7.1429587286
 20
12.3550631105
 30
0.0
 10
7.1426494378
 20
12.3552211382
 30
0.0
 10
7.1419598513
 20
12.3555544396
 30
0.0
 10
7.1408138996
 20
12.356062418
 30
0.0
 10
7.1394613866
 20
12.356615238
 30
0.0
 10
7.1379117233
 20
12.3572180044
 30
0.0
 10
7.1361741622
 20
12.3578736618
 30
0.0
 10
7.1342489333
 20
12.3585565198
 30
0.0
 10
7.1321396153
 20
12.3592420439
 30
0.0
 10
7.1306701142
 20
12.3596884788
 30
0.0
 10
7.1299075863
 20
12.3599144749
 30
0.0
  0
SPLINE
  5
334
100
AcDbEntity
  8
0
100
AcDbSpline
 62
9
  6
CONTINUOUS
 70
0
 71
3
 72
15
 73
11
 74
0
 42
0.0000001
 43
0.0000001
 44
0.0000000001
 40
0.0
 40
0.0
 40
0.0
 40
0.0
 40
0.1494486747
 40
0.2932957259
 40
0.4306661279
 40
0.5608582764
 40
0.6832524242
 40
0.7973822588
 40
0.9029891528
 40
1.0
 40
1.0
 40
1.0
 40
1.0
 10
7.1373344703
 20
12.5398575089
 30
0.0
 10
7.1348398957
 20
12.536621659
 30
0.0
 10
7.1300736494
 20
12.5301699486
 30
0.0
 10
7.1235040388
 20
12.5203943286
 30
0.0
 10
7.1176876188
 20
12.5107617801
 30
0.0
 10
7.1126698874
 20
12.5013489524
 30
0.0
 10
7.108489994
 20
12.4922287969
 30
0.0
 10
7.1051797179
 20
12.4834713699
 30
0.0
 10
7.1027657231
 20
12.4751450855
 30
0.0
 10
7.1017225429
 20
12.4696929563
 30
0.0
 10
7.1013760578
 20
12.4670635028
 30
0.0
  0
SPLINE
  5
335
100
AcDbEntity
  8
0
100
AcDbSpline
 62
9
  6
CONTINUOUS
 70
0
 71
3
 72
15
 73
11
 74
0
 42
0.0000001
 43
0.0000001
 44
0.0000000001
 40
0.0
 40
0.0
 40
0.0
 40
0.0
 40
0.1486804292
 40
0.2917740106
 40
0.4284470753
 40
0.5580476374
 40
0.6800955255
 40
0.7943467212
 40
0.900853359
 40
1.0
 40
1.0
 40
1.0
 40
1.0
 10
7.0251757835
 20
12.5815085294
 30
0.0
 10
7.0243982399
 20
12.5769935572
 30
0.0
 10
7.0231230651
 20
12.5680874386
 30
0.0
 10
7.0220597718
 20
12.5549194448
 30
0.0
 10
7.0218889771
 20
12.5422959231
 30
0.0
 10
7.0226123614
 20
12.5303398915
 30
0.0
 10
7.0242241381
 20
12.5191663239
 30
0.0
 10
7.0267107889
 20
12.5088812408
 30
0.0
 10
7.0300511349
 20
12.4995854255
 30
0.0
 10
7.0329288089
 20
12.4939138471
 30
0.0
 10
7.0345094912
 20
12.491299446
 30
0.0
  0
SPLINE
  5
336
100
AcDbEntity
  8
0
100
AcDbSpline
 62
9
  6
CONTINUOUS
 70
0
 71
3
 72
11
 73
7
 74
0
 42
0.0000001
 43
0.0000001
 44
0.0000000001
 40
0.0
 40
0.0
 40
0.0
 40
0.0
 40
0.2828274414
 40
0.5442561724
 40
0.7834966613
 40
1.0
 40
1.0
 40
1.0
 40
1.0
 10
7.1553077608
 20
12.4431807261
 30
0.0
 10
7.1532329557
 20
12.4426309909
 30
0.0
 10
7.1492553575
 20
12.4415148566
 30
0.0
 10
7.1435888088
 20
12.439708652
 30
0.0
 10
7.1384744278
 20
12.4378421517
 30
0.0
 10
7.1352863771
 20
12.4364953716
 30
0.0
 10
7.13379442
 20
12.4358071064
 30
0.0
  0
SPLINE
  5
337
100
AcDbEntity
  8
0
100
AcDbSpline
 62
9
  6
CONTINUOUS
 70
0
 71
3
 72
22
 73
18
 74
0
 42
0.0000001
 43
0.0000001
 44
0.0000000001
 40
0.0
 40
0.0
 40
0.0
 40
0.0
 40
0.0067209981
 40
0.014035471
 40
0.0224053827
 40
0.0321408897
 40
0.0563904344
 40
0.0876420188
 40
0.1261888289
 40
0.1721019755
 40
0.2253295747
 40
0.2857575969
 40
0.3532075217
 40
0.4274722261
 40
0.5953806259
 40
0.7871607231
 40
1.0
 40
1.0
 40
1.0
 40
1.0
 10
7.1841358048
 20
12.5014228223
 30
0.0
 10
7.1841504927
 20
12.5014721504
 30
0.0
 10
7.1841645898
 20
12.5015806871
 30
0.0
 10
7.1841370394
 20
12.5017518264
 30
0.0
 10
7.1840641144
 20
12.5019335955
 30
0.0
 10
7.1838949603
 20
12.5022115617
 30
0.0
 10
7.1835578829
 20
12.5025848697
 30
0.0
 10
7.1830093706
 20
12.5030526709
 30
0.0
 10
7.1822878556
 20
12.5035686181
 30
0.0
 10
7.1813954069
 20
12.5041307749
 30
0.0
 10
7.1803341487
 20
12.5047371166
 30
0.0
 10
7.1791077348
 20
12.505385083
 30
0.0
 10
7.1777205011
 20
12.5060723019
 30
0.0
 10
7.1755736269
 20
12.5070790137
 30
0.0
 10
7.1725266524
 20
12.5084069005
 30
0.0
 10
7.1684630111
 20
12.5100537256
 30
0.0
 10
7.1655675557
 20
12.5111576001
 30
0.0
 10
7.1640398187
 20
12.5117255482
 30
0.0
  0
SPLINE
  5
338
100
AcDbEntity
  8
0
100
AcDbSpline
 62
9
  6
CONTINUOUS
 70
0
 71
3
 72
19
 73
15
 74
0
 42
0.0000001
 43
0.0000001
 44
0.0000000001
 40
0.0
 40
0.0
 40
0.0
 40
0.0
 40
0.0287563564
 40
0.0591753435
 40
0.0926357589
 40
0.1301631586
 40
0.1724545964
 40
0.2199652304
 40
0.2729654813
 40
0.331601198
 40
0.4659267124
 40
0.6227535617
 40
0.8012480342
 40
1.0
 40
1.0
 40
1.0
 40
1.0
 10
7.1710049706
 20
12.4559203351
 30
0.0
 10
7.1710506819
 20
12.4560839201
 30
0.0
 10
7.171101502
 20
12.4564340414
 30
0.0
 10
7.1710485855
 20
12.4569829207
 30
0.0
 10
7.170871497
 20
12.4575585967
 30
0.0
 10
7.1705732108
 20
12.4581600228
 30
0.0
 10
7.1701557305
 20
12.4587874731
 30
0.0
 10
7.1696200061
 20
12.4594403916
 30
0.0
 10
7.1689672791
 20
12.4601179418
 30
0.0
 10
7.1678930442
 20
12.4610972045
 30
0.0
 10
7.1662542944
 20
12.4623607078
 30
0.0
 10
7.1639368034
 20
12.463888207
 30
0.0
 10
7.1612075906
 20
12.4654728805
 30
0.0
 10
7.159231761
 20
12.4665044726
 30
0.0
 10
7.1581816645
 20
12.4670292975
 30
0.0
  0
SPLINE
  5
339
100
AcDbEntity
  8
0
100
AcDbSpline
 62
9
  6
CONTINUOUS
 70
0
 71
3
 72
19
 73
15
 74
0
 42
0.0000001
 43
0.0000001
 44
0.0000000001
 40
0.0
 40
0.0
 40
0.0
 40
0.0
 40
0.0228833284
 40
0.0480086603
 40
0.0770724779
 40
0.1111720839
 40
0.1509573858
 40
0.1968026589
 40
0.2489231624
 40
0.3074167033
 40
0.4435441699
 40
0.6049353227
 40
0.7908474305
 40
1.0
 40
1.0
 40
1.0
 40
1.0
 10
7.1655054436
 20
12.4359548779
 30
0.0
 10
7.1655312679
 20
12.4360500028
 30
0.0
 10
7.1655511053
 20
12.4362601002
 30
0.0
 10
7.1654812591
 20
12.4365884292
 30
0.0
 10
7.1653191332
 20
12.4369350622
 30
0.0
 10
7.1650669125
 20
12.4373015016
 30
0.0
 10
7.1647252574
 20
12.4376890176
 30
0.0
 10
7.1642943479
 20
12.43809777
 30
0.0
 10
7.1637745567
 20
12.4385273685
 30
0.0
 10
7.1629196891
 20
12.4391595274
 30
0.0
 10
7.1616272956
 20
12.4399877914
 30
0.0
 10
7.1598115859
 20
12.441008668
 30
0.0
 10
7.1576729772
 20
12.4420923136
 30
0.0
 10
7.1561299078
 20
12.4428104353
 30
0.0
 10
7.1553082923
 20
12.4431800037
 30
0.0
  0
SPLINE
  5
33A
100
AcDbEntity
  8
0
100
AcDbSpline
 62
9
  6
CONTINUOUS
 70
0
 71
3
 72
19
 73
15
 74
0
 42
0.0000001
 43
0.0000001
 44
0.0000000001
 40
0.0
 40
0.0
 40
0.0
 40
0.0
 40
0.0158866683
 40
0.035146858
 40
0.059779314
 40
0.0907409545
 40
0.128472967
 40
0.1731799789
 40
0.2249547934
 40
0.2838085249
 40
0.4225582506
 40
0.5888521346
 40
0.7817845307
 40
1.0
 40
1.0
 40
1.0
 40
1.0
 10
7.161995877
 20
12.422902716
 30
0.0
 10
7.1620112754
 20
12.4229605394
 30
0.0
 10
7.1620092612
 20
12.4230987101
 30
0.0
 10
7.1619144945
 20
12.4233067861
 30
0.0
 10
7.1617406952
 20
12.4235305479
 30
0.0
 10
7.1614858982
 20
12.4237739391
 30
0.0
 10
7.161149718
 20
12.4240381087
 30
0.0
 10
7.1607317239
 20
12.4243229374
 30
0.0
 10
7.1602322494
 20
12.4246279947
 30
0.0
 10
7.1594123102
 20
12.4250866053
 30
0.0
 10
7.1581856634
 20
12.4256996342
 30
0.0
 10
7.156476271
 20
12.4264723766
 30
0.0
 10
7.1544692231
 20
12.4273110562
 30
0.0
 10
7.1530274573
 20
12.4278766448
 30
0.0
 10
7.1522598108
 20
12.4281703896
 30
0.0
  0
SPLINE
  5
33B
100
AcDbEntity
  8
0
100
AcDbSpline
 62
9
  6
CONTINUOUS
 70
0
 71
3
 72
22
 73
18
 74
0
 42
0.0000001
 43
0.0000001
 44
0.0000000001
 40
0.0
 40
0.0
 40
0.0
 40
0.0
 40
0.0052367778
 40
0.011188493
 40
0.0183546752
 40
0.0270250396
 40
0.049438848
 40
0.0791032261
 40
0.1162239021
 40
0.1608537995
 40
0.2129840839
 40
0.2725457917
 40
0.3394299382
 40
0.4135169199
 40
0.5827151284
 40
0.7788208109
 40
1.0
 40
1.0
 40
1.0
 40
1.0
 10
7.0843277516
 20
12.0070685095
 30
0.0
 10
7.0843303538
 20
12.0070922802
 30
0.0
 10
7.0843252222
 20
12.0071445645
 30
0.0
 10
7.0842885642
 20
12.0072211645
 30
0.0
 10
7.0842254999
 20
12.007298891
 30
0.0
 10
7.084094796
 20
12.0074154933
 30
0.0
 10
7.0838580676
 20
12.0075629333
 30
0.0
 10
7.0834907667
 20
12.007739428
 30
0.0
 10
7.0830174941
 20
12.0079271213
 30
0.0
 10
7.0824391299
 20
12.0081255549
 30
0.0
 10
7.0817563095
 20
12.0083340097
 30
0.0
 10
7.0809704702
 20
12.0085519422
 30
0.0
 10
7.0800832703
 20
12.0087788097
 30
0.0
 10
7.0787054764
 20
12.0091071608
 30
0.0
 10
7.0767442849
 20
12.0095316286
 30
0.0
 10
7.0741164256
 20
12.0100482793
 30
0.0
 10
7.0722414694
 20
12.0103882114
 30
0.0
 10
7.0712466939
 20
12.0105627622
 30
0.0
  0
ENDSEC
  0
SECTION
  2
OBJECTS
  0
DICTIONARY
  5
C
100
AcDbDictionary
280
0
281
1
  3
ACAD_GROUP
350
D
  3
ACAD_MLINESTYLE
350
17
  3
ACAD_LAYOUT
350
1A
  3
ACAD_PLOTSETTINGS
350
19
  3
ACAD_PLOTSTYLENAME
350
E
  0
DICTIONARY
  5
D
102
{ACAD_REACTORS
330
C
102
}
100
AcDbDictionary
280
0
281
1
  0
ACDBDICTIONARYWDFLT
  5
E
102
{ACAD_REACTORS
330
C
102
}
100
AcDbDictionary
281
1
  3
Normal
350
F
100
AcDbDictionaryWithDefault
340
F
  0
DICTIONARY
  5
17
102
{ACAD_REACTORS
330
C
102
}
100
AcDbDictionary
280
0
281
1
  3
Standard
350
18
  0
DICTIONARY
  5
19
102
{ACAD_REACTORS
330
C
102
}
100
AcDbDictionary
281
1
  0
DICTIONARY
  5
1A
102
{ACAD_REACTORS
330
C
102
}
100
AcDbDictionary
281
1
  3
Model
350
33C
  3
Layout1
350
33D
  0
ACDBPLACEHOLDER
  5
F
102
{ACAD_REACTORS
330
E
102
}
  0
MLINESTYLE
  5
18
102
{ACAD_REACTORS
330
17
102
}
100
AcDbMlineStyle
  2
STANDARD
 70
0
  3

 62
256
 51
90.0
 52
90.0
 71
2
 49
0.5
 62
256
  6
BYLAYER
 49
-0.5
 62
256
  6
BYLAYER
  0
LAYOUT
  5
33C
102
{ACAD_REACTORS
330
1A
102
}
100
AcDbPlotSettings
  1

  2
none_device
  4
ANSI_C_(22.00_x_17.00_Inches)
  6

 40
0.0
 41
0.0
 42
0.0
 43
0.0
 44
558.8
 45
431.8
 46
0.0
 47
0.0
 48
0.0
 49
0.0
140
0.0
141
0.0
142
1.0
143
1.0
 70
1024
 72
0
 73
0
 74
0
  7

 75
0
147
1.0
148
0.0
149
0.0
100
AcDbLayout
  1
Model
 70
0
 71
0
 10
0.0
 20
0.0
 11
22.0
 21
17.0
 12
0.0
 22
0.0
 32
0.0
 14
0.0
 24
0.0
 34
0.0
 15
0.0
 25
0.0
 35
0.0
146
0.0
 13
0.0
 23
0.0
 33
0.0
 16
1.0
 26
0.0
 36
0.0
 17
0.0
 27
1.0
 37
0.0
 76
0
330
205
345
0
346
0
  0
LAYOUT
  5
33D
102
{ACAD_REACTORS
330
1A
102
}
100
AcDbPlotSettings
  1

  2
none_device
  4
ANSI_C_(22.00_x_17.00_Inches)
  6

 40
0.0
 41
0.0
 42
0.0
 43
0.0
 44
558.8
 45
431.8
 46
0.0
 47
0.0
 48
0.0
 49
0.0
140
0.0
141
0.0
142
1.0
143
1.0
 70
0
 72
0
 73
0
 74
0
  7

 75
0
147
1.0
148
0.0
149
0.0
100
AcDbLayout
  1
Layout1
 70
0
 71
1
 10
0.0
 20
0.0
 11
22.0
 21
17.0
 12
0.0
 22
0.0
 32
0.0
 14
0.0
 24
0.0
 34
0.0
 15
0.0
 25
0.0
 35
0.0
146
0.0
 13
0.0
 23
0.0
 33
0.0
 16
1.0
 26
0.0
 36
0.0
 17
0.0
 27
1.0
 37
0.0
 76
0
330
206
345
0
346
0
  0
ENDSEC
  0
EOF
