999
DXF file: E:\BT Custom\CADOUTPUT\_RIGHT.dxf
999
Pro/ENGINEER 2018400 by Parametric Technology Corporation
  0
SECTION
  2
HEADER
  9
$ACADVER
  1
AC1018
  9
$DWGCODEPAGE
  3
ANSI_1252
  9
$EXTMAX
 10
22.0
 20
17.0
 30
0.0
  9
$EXTMIN
 10
0.0
 20
0.0
 30
0.0
  9
$LIMMIN
 10
0.0
 20
0.0
  9
$LIMMAX
 10
22.0
 20
17.0
  9
$VIEWCTR
 10
11.0
 20
8.5
  9
$VIEWSIZE
 40
17.0
  9
$CLAYER
  8
0
  9
$LTSCALE
 40
1.21
  9
$CELTYPE
  6
BYLAYER
  9
$DIMSCALE
 40
1.0
  9
$DIMASZ
 40
0.1
  9
$DIMEXO
 40
0.0625
  9
$DIMDLI
 40
0.836
  9
$DIMEXE
 40
0.125
  9
$DIMCEN
 40
0.198
  9
$DIMLFAC
 40
1.0
  9
$DIMBLK
  1
_FILLED
  9
$DIMALT
 70
1
  9
$DIMALTD
 70
2
  9
$DIMALTTD
 70
2
  9
$DIMALTF
 40
25.4
  9
$DIMTXT
 40
0.08
  9
$DIMTOL
 70
1
  9
$DIMLIM
 70
0
  9
$DIMTFAC
 40
1.0
  9
$DIMTP
 40
0.001
  9
$DIMTM
 40
0.001
  9
$DIMGAP
 40
0.09
  9
$DIMDSEP
 70
46
  9
$AUNITS
 70
0
  9
$PDMODE
 70
3
  9
$PDSIZE
 40
0.06
  9
$HANDSEED
  5
33E
  9
$TILEMODE
 70
1
  9
$MEASUREMENT
 70
0
  9
$INSUNITS
 70
1
  0
ENDSEC
  0
SECTION
  2
CLASSES
  0
CLASS
  1
ACDBDICTIONARYWDFLT
  2
AcDbDictionaryWithDefault
  3
AutoCAD 2000
 90
0
 91
1
280
0
281
0
  0
CLASS
  1
ACDBPLACEHOLDER
  2
AcDbPlaceHolder
  3
AutoCAD 2000
 90
0
 91
1
280
0
281
0
  0
CLASS
  1
LAYOUT
  2
AcDbLayout
  3
AutoCAD 2000
 90
0
 91
0
280
0
281
0
  0
ENDSEC
  0
SECTION
  2
TABLES
  0
TABLE
  2
VPORT
  5
8
100
AcDbSymbolTable
 70
2
  0
VPORT
  5
1F4
100
AcDbSymbolTableRecord
100
AcDbViewportTableRecord
  2
*ACTIVE
 70
0
 10
0.0
 20
0.0
 11
1.0
 21
1.0
 12
11.0
 22
8.5
 13
0.0
 23
0.0
 14
1.0
 24
1.0
 15
0.0
 25
0.0
 16
0.0
 26
0.0
 36
1.0
 17
0.0
 27
0.0
 37
0.0
 40
17.0
 41
1.2941176471
 42
50.0
 43
0.0
 44
0.0
 50
0.0
 51
0.0
 71
0
 72
100
 73
1
 74
1
 75
0
 76
0
 77
0
 78
0
  0
ENDTAB
  0
TABLE
  2
LTYPE
  5
5
100
AcDbSymbolTable
 70
6
  0
LTYPE
  5
14
100
AcDbSymbolTableRecord
100
AcDbLinetypeTableRecord
  2
BYBLOCK
 70
0
  3

 72
65
 73
0
 40
0.0
  0
LTYPE
  5
15
100
AcDbSymbolTableRecord
100
AcDbLinetypeTableRecord
  2
BYLAYER
 70
0
  3

 72
65
 73
0
 40
0.0
  0
LTYPE
  5
16
100
AcDbSymbolTableRecord
100
AcDbLinetypeTableRecord
  2
CONTINUOUS
 70
64
  3
Solid line
 72
65
 73
0
 40
0.0
  0
LTYPE
  5
1F5
100
AcDbSymbolTableRecord
100
AcDbLinetypeTableRecord
  2
CENTER
 70
64
  3
____ _ ____ _ ____ _ ____ _ ____ _ ____ _ ____
 72
65
 73
4
 40
0.6
 49
0.375
 74
0
 49
-0.075
 74
0
 49
0.075
 74
0
 49
-0.075
 74
0
  0
LTYPE
  5
1F6
100
AcDbSymbolTableRecord
100
AcDbLinetypeTableRecord
  2
HIDDEN
 70
64
  3
- - - - - - - - - - - - - - - - - - - -
 72
65
 73
2
 40
0.2
 49
0.1
 74
0
 49
-0.1
 74
0
  0
LTYPE
  5
1F7
100
AcDbSymbolTableRecord
100
AcDbLinetypeTableRecord
  2
PHANTOM
 70
64
  3
_____ _ _ _____ _ _ _____ _ _ _____
 72
65
 73
6
 40
0.8
 49
0.45
 74
0
 49
-0.05
 74
0
 49
0.1
 74
0
 49
-0.05
 74
0
 49
0.1
 74
0
 49
-0.05
 74
0
  0
LTYPE
  5
1F8
100
AcDbSymbolTableRecord
100
AcDbLinetypeTableRecord
  2
DOT
 70
64
  3
. . . . . . . . . . . . . . . . . . . .
 72
65
 73
2
 40
0.2
 49
0.1
 74
0
 49
-0.1
 74
0
  0
LTYPE
  5
1F9
100
AcDbSymbolTableRecord
100
AcDbLinetypeTableRecord
  2
DASHED
 70
64
  3
- - - - - - - - - - - - - - - - - - - -
 72
65
 73
2
 40
0.2
 49
0.1
 74
0
 49
-0.1
 74
0
  0
ENDTAB
  0
TABLE
  2
LAYER
  5
2
100
AcDbSymbolTable
 70
36
  0
LAYER
  5
10
100
AcDbSymbolTableRecord
100
AcDbLayerTableRecord
  2
0
 70
0
 62
7
  6
CONTINUOUS
370
-3
390
F
  0
LAYER
  5
1FA
100
AcDbSymbolTableRecord
100
AcDbLayerTableRecord
  2
DEFAULT_1
 70
0
 62
7
  6
CENTER
370
-3
390
F
  0
LAYER
  5
1FB
100
AcDbSymbolTableRecord
100
AcDbLayerTableRecord
  2
DEFAULT_2
 70
0
 62
8
  6
HIDDEN
370
-3
390
F
  0
LAYER
  5
1FC
100
AcDbSymbolTableRecord
100
AcDbLayerTableRecord
  2
DEFAULT_3
 70
0
 62
7
  6
PHANTOM
370
-3
390
F
  0
LAYER
  5
1FD
100
AcDbSymbolTableRecord
100
AcDbLayerTableRecord
  2
ALL_FEATURES
 70
0
 62
7
  6
CONTINUOUS
370
-3
390
F
  0
LAYER
  5
1FE
100
AcDbSymbolTableRecord
100
AcDbLayerTableRecord
  2
AXES_FEATURES
 70
0
 62
7
  6
CONTINUOUS
370
-3
390
F
  0
LAYER
  5
1FF
100
AcDbSymbolTableRecord
100
AcDbLayerTableRecord
  2
DEFAULT_COORDINATE_SYSTEM
 70
0
 62
7
  6
CONTINUOUS
370
-3
390
F
  0
LAYER
  5
200
100
AcDbSymbolTableRecord
100
AcDbLayerTableRecord
  2
DEFAULT_DATUM_AXES
 70
0
 62
7
  6
CONTINUOUS
370
-3
390
F
  0
LAYER
  5
201
100
AcDbSymbolTableRecord
100
AcDbLayerTableRecord
  2
DEFAULT_DATUM_PLANES
 70
0
 62
7
  6
CONTINUOUS
370
-3
390
F
  0
LAYER
  5
202
100
AcDbSymbolTableRecord
100
AcDbLayerTableRecord
  2
DIMENSIONS
 70
0
 62
7
  6
CONTINUOUS
370
-3
390
F
  0
ENDTAB
  0
TABLE
  2
STYLE
  5
3
100
AcDbSymbolTable
 70
1
  0
STYLE
  5
11
100
AcDbSymbolTableRecord
100
AcDbTextStyleTableRecord
  2
STANDARD
 70
0
 40
0.0
 41
0.8
 50
0.0
 71
0
 42
0.2
  3
txt
  4

  0
STYLE
  5
203
100
AcDbSymbolTableRecord
100
AcDbTextStyleTableRecord
  2
TEXTSTYLE_1
 70
0
 40
0.0
 41
0.8
 50
0.0
 71
0
 42
0.2
  3
gdt
  4

  0
ENDTAB
  0
TABLE
  2
VIEW
  5
6
100
AcDbSymbolTable
 70
0
  0
ENDTAB
  0
TABLE
  2
UCS
  5
7
100
AcDbSymbolTable
 70
0
  0
ENDTAB
  0
TABLE
  2
APPID
  5
9
100
AcDbSymbolTable
 70
1
  0
APPID
  5
204
100
AcDbSymbolTableRecord
100
AcDbRegAppTableRecord
  2
ACAD
 70
0
  0
ENDTAB
  0
TABLE
  2
BLOCK_RECORD
  5
1
100
AcDbSymbolTable
 70
0
  0
BLOCK_RECORD
  5
205
100
AcDbSymbolTableRecord
100
AcDbBlockTableRecord
  2
*Model_Space
  0
BLOCK_RECORD
  5
206
100
AcDbSymbolTableRecord
100
AcDbBlockTableRecord
  2
*Paper_Space
  0
BLOCK_RECORD
  5
207
100
AcDbSymbolTableRecord
100
AcDbBlockTableRecord
  2
_FILLED
  0
ENDTAB
  0
TABLE
  2
DIMSTYLE
  5
A
100
AcDbSymbolTable
 70
1
100
AcDbDimStyleTable
 71
0
  0
DIMSTYLE
105
208
100
AcDbSymbolTableRecord
100
AcDbDimStyleTableRecord
  2
STANDARD
 70
0
  3

  4

 40
1.0
 41
0.1
 42
0.0625
 43
0.38
 44
0.125
 45
0.0
 46
0.0
 47
0.001
 48
0.001
140
0.08
141
0.09
142
0.0
143
25.4
144
1.0
145
0.0
146
1.0
147
0.09
 71
1.0
 72
0.0
 73
1
 74
1
 75
0
 76
0
 77
0
 78
4
 79
1
170
1
171
2
172
0
173
0
174
0
175
0
176
0
177
0
178
0
270
2
179
3
271
3
272
3
273
2
274
2
275
0
280
0
281
0
282
0
283
1
284
4
285
0
286
0
287
3
288
0
340
11
278
46
341
207
342
207
343
207
344
207
  0
ENDTAB
  0
ENDSEC
  0
SECTION
  2
BLOCKS
  0
BLOCK
  5
20
100
AcDbEntity
  8
0
100
AcDbBlockBegin
  2
*Model_Space
 70
0
 10
0.0
 20
0.0
 30
0.0
  3
*Model_Space
  1

  0
ENDBLK
  5
21
100
AcDbEntity
  8
0
100
AcDbBlockEnd
  0
BLOCK
  5
1C
100
AcDbEntity
  8
0
100
AcDbBlockBegin
  2
*Paper_Space
 70
0
 10
0.0
 20
0.0
 30
0.0
  3
*Paper_Space
  1

  0
ENDBLK
  5
1D
100
AcDbEntity
  8
0
100
AcDbBlockEnd
  0
BLOCK
  5
209
100
AcDbEntity
  8
0
100
AcDbBlockBegin
  2
_FILLED
 70
64
 10
0.0
 20
0.0
  3
_FILLED
  1

  0
SOLID
  5
20A
100
AcDbEntity
  8
0
  6
BYBLOCK
 62
0
100
AcDbTrace
 10
0.0
 20
0.0
 11
-1.0
 21
0.2
 12
-1.0
 22
-0.2
 13
-1.0
 23
-0.2
  0
ENDBLK
  5
20B
100
AcDbEntity
  8
0
  6
BYBLOCK
 62
0
100
AcDbBlockEnd
  0
ENDSEC
  0
SECTION
  2
ENTITIES
  0
LINE
  5
20C
100
AcDbEntity
  8
0
100
AcDbLine
 62
7
  6
CONTINUOUS
 10
16.0469901836
 20
1.3566246907
 11
13.3669901836
 21
1.3566246907
  0
LINE
  5
20D
100
AcDbEntity
  8
0
100
AcDbLine
 62
9
  6
CONTINUOUS
 10
13.3488783404
 20
1.4738257495
 11
16.0651020268
 21
1.4738257495
  0
LINE
  5
20E
100
AcDbEntity
  8
0
100
AcDbLine
 62
9
  6
CONTINUOUS
 10
13.5261451112
 20
1.6246672886
 11
15.8878352559
 21
1.6246672886
  0
LINE
  5
20F
100
AcDbEntity
  8
0
100
AcDbLine
 62
9
  6
CONTINUOUS
 10
13.5180994325
 20
1.7002000271
 11
15.8958809347
 21
1.7002000271
  0
LINE
  5
210
100
AcDbEntity
  8
0
100
AcDbLine
 62
7
  6
CONTINUOUS
 10
15.8569901836
 20
1.7816246907
 11
13.5569901836
 21
1.7816246907
  0
LINE
  5
211
100
AcDbEntity
  8
0
100
AcDbLine
 62
7
  6
CONTINUOUS
 10
5.6470819157
 20
9.5795634081
 11
5.6487420557
 21
9.6052355037
  0
LINE
  5
212
100
AcDbEntity
  8
0
100
AcDbLine
 62
7
  6
CONTINUOUS
 10
5.6740895178
 20
9.601356797
 11
5.6724293778
 21
9.5756847014
  0
LINE
  5
213
100
AcDbEntity
  8
0
100
AcDbLine
 62
7
  6
CONTINUOUS
 10
5.7470746261
 20
9.590188506
 11
5.7454144861
 21
9.5645164104
  0
LINE
  5
214
100
AcDbEntity
  8
0
100
AcDbLine
 62
7
  6
CONTINUOUS
 10
6.0335486681
 20
12.7178433582
 11
5.9768258605
 21
12.3471581507
  0
LINE
  5
215
100
AcDbEntity
  8
0
100
AcDbLine
 62
7
  6
CONTINUOUS
 10
5.9847338116
 20
12.3459480641
 11
5.980195987
 21
12.3162932475
  0
LINE
  5
216
100
AcDbEntity
  8
0
100
AcDbLine
 62
7
  6
CONTINUOUS
 10
5.3137854717
 20
9.6983572898
 11
5.6859593734
 21
11.5061753605
  0
LINE
  5
217
100
AcDbEntity
  8
0
100
AcDbLine
 62
7
  6
CONTINUOUS
 10
5.8588942993
 20
9.5730776916
 11
5.8572341594
 21
9.5474055959
  0
LINE
  5
218
100
AcDbEntity
  8
0
100
AcDbLine
 62
7
  6
CONTINUOUS
 10
5.9960614347
 20
9.5520881703
 11
5.9944012948
 21
9.5264160747
  0
LINE
  5
219
100
AcDbEntity
  8
0
100
AcDbLine
 62
7
  6
CONTINUOUS
 10
6.1420316513
 20
9.5297515884
 11
6.1403715113
 21
9.5040794928
  0
LINE
  5
21A
100
AcDbEntity
  8
0
100
AcDbLine
 62
7
  6
CONTINUOUS
 10
6.2791987867
 20
9.5087620672
 11
6.2775386467
 21
9.4830899716
  0
LINE
  5
21B
100
AcDbEntity
  8
0
100
AcDbLine
 62
7
  6
CONTINUOUS
 10
6.3910184599
 20
9.4916512527
 11
6.38935832
 21
9.4659791571
  0
LINE
  5
21C
100
AcDbEntity
  8
0
100
AcDbLine
 62
7
  6
CONTINUOUS
 10
5.8545565643
 20
9.5737414583
 11
5.8484637329
 21
9.5487476598
  0
LINE
  5
21D
100
AcDbEntity
  8
0
100
AcDbLine
 62
7
  6
CONTINUOUS
 10
5.9663762375
 20
9.5566306438
 11
5.9602834062
 21
9.5316368453
  0
LINE
  5
21E
100
AcDbEntity
  8
0
100
AcDbLine
 62
7
  6
CONTINUOUS
 10
6.1035433729
 20
9.5356411226
 11
6.0974505416
 21
9.5106473241
  0
LINE
  5
21F
100
AcDbEntity
  8
0
100
AcDbLine
 62
7
  6
CONTINUOUS
 10
6.2495135895
 20
9.5133045407
 11
6.2434207581
 21
9.4883107421
  0
LINE
  5
220
100
AcDbEntity
  8
0
100
AcDbLine
 62
7
  6
CONTINUOUS
 10
6.3866807248
 20
9.4923150195
 11
6.3805878935
 21
9.4673212209
  0
LINE
  5
221
100
AcDbEntity
  8
0
100
AcDbLine
 62
7
  6
CONTINUOUS
 10
5.7127764629
 20
11.7078746673
 11
5.6851414089
 21
11.69710021
  0
LINE
  5
222
100
AcDbEntity
  8
0
100
AcDbLine
 62
7
  6
CONTINUOUS
 10
7.0921629614
 20
11.9630186094
 11
7.0860155311
 21
11.8941690797
  0
LINE
  5
223
100
AcDbEntity
  8
0
100
AcDbLine
 62
7
  6
CONTINUOUS
 10
6.9443092619
 20
9.4488520888
 11
7.0095708077
 21
10.0950310738
  0
LINE
  5
224
100
AcDbEntity
  8
0
100
AcDbLine
 62
7
  6
CONTINUOUS
 10
7.0912631157
 20
12.1462760855
 11
7.0958009404
 21
12.1759309021
  0
LINE
  5
225
100
AcDbEntity
  8
0
100
AcDbLine
 62
7
  6
CONTINUOUS
 10
7.160431699
 20
12.5454060231
 11
7.1037088915
 21
12.1747208156
  0
LINE
  5
226
100
AcDbEntity
  8
0
100
AcDbLine
 62
7
  6
CONTINUOUS
 10
6.4985003981
 20
9.475204205
 11
6.4924075668
 21
9.4502104065
  0
LINE
  5
227
100
AcDbEntity
  8
0
100
AcDbLine
 62
7
  6
CONTINUOUS
 10
6.5714855064
 20
9.464035914
 11
6.5653926751
 21
9.4390421155
  0
LINE
  5
228
100
AcDbEntity
  8
0
100
AcDbLine
 62
7
  6
CONTINUOUS
 10
6.5907401372
 20
9.4351634088
 11
6.5968329685
 21
9.4601572073
  0
LINE
  5
229
100
AcDbEntity
  8
0
100
AcDbLine
 62
9
  6
CONTINUOUS
 10
7.3024944801
 20
10.5174967066
 11
7.2978743709
 21
11.4865666545
  0
LINE
  5
22A
100
AcDbEntity
  8
0
100
AcDbLine
 62
7
  6
CONTINUOUS
 10
7.3610062731
 20
10.5235047553
 11
7.3564407524
 21
11.4811247398
  0
LINE
  5
22B
100
AcDbEntity
  8
0
100
AcDbLine
 62
9
  6
CONTINUOUS
 10
7.3645631985
 20
10.7034265281
 11
7.365084197
 21
10.5941468636
  0
LINE
  5
22C
100
AcDbEntity
  8
0
100
AcDbLine
 62
7
  6
CONTINUOUS
 10
7.3685043076
 20
10.602385768
 11
7.3680617109
 21
10.6952206087
  0
LINE
  5
22D
100
AcDbEntity
  8
0
100
AcDbLine
 62
7
  6
CONTINUOUS
 10
7.365084197
 20
10.5941468636
 11
7.3606906292
 21
10.5897112019
  0
LINE
  5
22E
100
AcDbEntity
  8
0
100
AcDbLine
 62
9
  6
CONTINUOUS
 10
14.9020550779
 20
5.5816499508
 11
14.5120550783
 21
5.5816354516
  0
LINE
  5
22F
100
AcDbEntity
  8
0
100
AcDbLine
 62
7
  6
CONTINUOUS
 10
14.4835414884
 20
5.9666343918
 11
14.9305400414
 21
5.96665101
  0
LINE
  5
230
100
AcDbEntity
  8
0
100
AcDbLine
 62
9
  6
CONTINUOUS
 10
14.3890372519
 20
6.0611308785
 11
15.0250372514
 21
6.0611545232
  0
LINE
  5
231
100
AcDbEntity
  8
0
100
AcDbLine
 62
9
  6
CONTINUOUS
 10
14.3890331066
 20
6.1726308784
 11
15.0250331062
 21
6.1726545232
  0
LINE
  5
232
100
AcDbEntity
  8
0
100
AcDbLine
 62
7
  6
CONTINUOUS
 10
14.399032735
 20
6.1826312502
 11
15.0150319707
 21
6.1826541514
  0
LINE
  5
233
100
AcDbEntity
  8
0
100
AcDbLine
 62
9
  6
CONTINUOUS
 10
14.9663020143
 20
6.1929150086
 11
14.4477626918
 21
6.1928957307
  0
LINE
  5
234
100
AcDbEntity
  8
0
100
AcDbLine
 62
9
  6
CONTINUOUS
 10
15.6199766123
 20
7.6543926052
 11
15.0046493592
 21
7.6543926052
  0
LINE
  5
235
100
AcDbEntity
  8
0
100
AcDbLine
 62
9
  6
CONTINUOUS
 10
14.4093060971
 20
7.6543926052
 11
13.7940037549
 21
7.6543926052
  0
LINE
  5
236
100
AcDbEntity
  8
0
100
AcDbLine
 62
7
  6
CONTINUOUS
 10
15.6819901836
 20
8.0416246907
 11
15.014809845
 21
8.0416246907
  0
LINE
  5
237
100
AcDbEntity
  8
0
100
AcDbLine
 62
7
  6
CONTINUOUS
 10
13.7319901836
 20
8.0416246907
 11
14.399116799
 21
8.0416246907
  0
LINE
  5
238
100
AcDbEntity
  8
0
100
AcDbLine
 62
9
  6
CONTINUOUS
 10
15.7017479774
 20
8.156331732
 11
15.0178196143
 21
8.156331732
  0
LINE
  5
239
100
AcDbEntity
  8
0
100
AcDbLine
 62
9
  6
CONTINUOUS
 10
13.7122323898
 20
8.156331732
 11
14.3960984948
 21
8.156331732
  0
LINE
  5
23A
100
AcDbEntity
  8
0
100
AcDbLine
 62
9
  6
CONTINUOUS
 10
15.3954209212
 20
8.4672250262
 11
15.0259770657
 21
8.4672250262
  0
LINE
  5
23B
100
AcDbEntity
  8
0
100
AcDbLine
 62
9
  6
CONTINUOUS
 10
14.0185594459
 20
8.4672250262
 11
14.3879179111
 21
8.4672250262
  0
LINE
  5
23C
100
AcDbEntity
  8
0
100
AcDbLine
 62
7
  6
CONTINUOUS
 10
7.3601275368
 20
10.7078200958
 11
7.3645631985
 21
10.7034265281
  0
LINE
  5
23D
100
AcDbEntity
  8
0
100
AcDbLine
 62
9
  6
CONTINUOUS
 10
15.0269464268
 20
8.5041689025
 11
14.3869464272
 21
8.5041451091
  0
LINE
  5
23E
100
AcDbEntity
  8
0
100
AcDbLine
 62
9
  6
CONTINUOUS
 10
15.428729314
 20
8.5465979185
 11
15.0313899766
 21
8.5465979185
  0
LINE
  5
23F
100
AcDbEntity
  8
0
100
AcDbLine
 62
9
  6
CONTINUOUS
 10
13.9852510531
 20
8.5465979185
 11
14.3824958992
 21
8.5465979185
  0
LINE
  5
240
100
AcDbEntity
  8
0
100
AcDbLine
 62
9
  6
CONTINUOUS
 10
15.0579418055
 20
8.6284750268
 11
14.3559418059
 21
8.6284489283
  0
LINE
  5
241
100
AcDbEntity
  8
0
100
AcDbLine
 62
7
  6
CONTINUOUS
 10
15.4069884532
 20
8.6416246907
 11
15.0637817192
 21
8.6416246907
  0
LINE
  5
242
100
AcDbEntity
  8
0
100
AcDbLine
 62
7
  6
CONTINUOUS
 10
14.0069919139
 20
8.6416246907
 11
14.3500891286
 21
8.6416246907
  0
LINE
  5
243
100
AcDbEntity
  8
0
100
AcDbLine
 62
7
  6
CONTINUOUS
 10
14.1369901836
 20
8.6566246907
 11
14.3434261244
 21
8.6566246907
  0
LINE
  5
244
100
AcDbEntity
  8
0
100
AcDbLine
 62
7
  6
CONTINUOUS
 10
15.0704433881
 20
8.6566246907
 11
15.2769901836
 21
8.6566246907
  0
LINE
  5
245
100
AcDbEntity
  8
0
100
AcDbLine
 62
7
  6
CONTINUOUS
 10
15.0939372259
 20
8.7516570866
 11
14.3199372264
 21
8.7516283114
  0
LINE
  5
246
100
AcDbEntity
  8
0
100
AcDbLine
 62
9
  6
CONTINUOUS
 10
14.319934401
 20
8.8276283113
 11
15.0939344004
 21
8.8276570865
  0
LINE
  5
247
100
AcDbEntity
  8
0
100
AcDbLine
 62
7
  6
CONTINUOUS
 10
14.8939321373
 20
8.866649651
 11
14.519976373
 21
8.8666357623
  0
LINE
  5
248
100
AcDbEntity
  8
0
100
AcDbLine
 62
7
  6
CONTINUOUS
 10
6.3672716855
 20
9.4584517634
 11
6.2875931798
 21
9.4706442881
  0
LINE
  5
249
100
AcDbEntity
  8
0
100
AcDbLine
 62
7
  6
CONTINUOUS
 10
6.2301531474
 20
9.4794338482
 11
6.1503774472
 21
9.4916412457
  0
LINE
  5
24A
100
AcDbEntity
  8
0
100
AcDbLine
 62
7
  6
CONTINUOUS
 10
5.6570817756
 20
9.5671260908
 11
5.8352017848
 21
9.5398698993
  0
LINE
  5
24B
100
AcDbEntity
  8
0
100
AcDbLine
 62
7
  6
CONTINUOUS
 10
5.8672345437
 20
9.5349681984
 11
5.947021347
 21
9.5227591018
  0
LINE
  5
24C
100
AcDbEntity
  8
0
100
AcDbLine
 62
7
  6
CONTINUOUS
 10
6.0044018411
 20
9.5139786524
 11
6.0841883204
 21
9.5017696054
  0
LINE
  5
24D
100
AcDbEntity
  8
0
100
AcDbLine
 62
7
  6
CONTINUOUS
 10
6.3993585938
 20
9.4535417765
 11
6.5774786024
 21
9.426285585
  0
LINE
  5
24E
100
AcDbEntity
  8
0
100
AcDbLine
 62
9
  6
CONTINUOUS
 10
5.6470819157
 20
9.5795634081
 11
5.8484637329
 21
9.5487476598
  0
LINE
  5
24F
100
AcDbEntity
  8
0
100
AcDbLine
 62
9
  6
CONTINUOUS
 10
5.8572341594
 20
9.5474055959
 11
5.9602834062
 21
9.5316368453
  0
LINE
  5
250
100
AcDbEntity
  8
0
100
AcDbLine
 62
9
  6
CONTINUOUS
 10
5.9944012948
 20
9.5264160747
 11
6.0974505416
 21
9.5106473241
  0
LINE
  5
251
100
AcDbEntity
  8
0
100
AcDbLine
 62
9
  6
CONTINUOUS
 10
6.1403715113
 20
9.5040794928
 11
6.2434207581
 21
9.4883107421
  0
LINE
  5
252
100
AcDbEntity
  8
0
100
AcDbLine
 62
9
  6
CONTINUOUS
 10
6.2775386467
 20
9.4830899716
 11
6.3805878935
 21
9.4673212209
  0
LINE
  5
253
100
AcDbEntity
  8
0
100
AcDbLine
 62
9
  6
CONTINUOUS
 10
6.38935832
 20
9.4659791571
 11
6.5907401372
 21
9.4351634088
  0
LINE
  5
254
100
AcDbEntity
  8
0
100
AcDbLine
 62
7
  6
CONTINUOUS
 10
5.3463924886
 20
9.6515014889
 11
6.8991825355
 21
9.4138912221
  0
LINE
  5
255
100
AcDbEntity
  8
0
100
AcDbLine
 62
9
  6
CONTINUOUS
 10
5.3137854717
 20
9.6983572898
 11
6.9443092619
 21
9.4488520888
  0
LINE
  5
256
100
AcDbEntity
  8
0
100
AcDbLine
 62
9
  6
CONTINUOUS
 10
7.0095708077
 20
10.0950310738
 11
6.9989530344
 21
10.0966558214
  0
LWPOLYLINE
  5
257
100
AcDbEntity
  8
0
100
AcDbPolyline
 62
7
  6
CONTINUOUS
 90
12
 70
0
 10
7.2064692319
 20
11.6884207646
 10
7.1873264118
 20
11.7018242829
 10
7.1658230288
 20
11.7191267654
 10
7.1467984037
 20
11.7372080862
 10
7.1304019626
 20
11.7559279578
 10
7.1167548267
 20
11.775043617
 10
7.1058405784
 20
11.7943186738
 10
7.0974611149
 20
11.813729191
 10
7.0913759649
 20
11.8334947983
 10
7.0874570594
 20
11.8539097693
 10
7.0857108169
 20
11.8752993311
 10
7.0860155304
 20
11.8941690677
  0
LINE
  5
258
100
AcDbEntity
  8
0
100
AcDbLine
 62
7
  6
CONTINUOUS
 10
7.0816876335
 20
10.4221578531
 11
7.263910333
 21
10.4246169484
  0
LINE
  5
259
100
AcDbEntity
  8
0
100
AcDbLine
 62
9
  6
CONTINUOUS
 10
5.6859593734
 20
11.5061753605
 11
6.9374020305
 21
11.3146776764
  0
LINE
  5
25A
100
AcDbEntity
  8
0
100
AcDbLine
 62
9
  6
CONTINUOUS
 10
5.662238086
 20
11.6219920946
 11
6.9838804843
 21
11.4197523981
  0
LINE
  5
25B
100
AcDbEntity
  8
0
100
AcDbLine
 62
9
  6
CONTINUOUS
 10
7.0345094912
 20
11.490617878
 11
5.6851414089
 21
11.69710021
  0
LINE
  5
25C
100
AcDbEntity
  8
0
100
AcDbLine
 62
9
  6
CONTINUOUS
 10
6.9464989313
 20
11.5190888764
 11
5.7127764629
 21
11.7078746673
  0
LINE
  5
25D
100
AcDbEntity
  8
0
100
AcDbLine
 62
7
  6
CONTINUOUS
 10
7.2746445918
 20
11.5776694984
 11
7.2118239654
 21
11.5884379155
  0
LINE
  5
25E
100
AcDbEntity
  8
0
100
AcDbLine
 62
9
  6
CONTINUOUS
 10
7.3570324052
 20
11.3570253161
 11
7.3649063314
 21
11.3570628556
  0
LINE
  5
25F
100
AcDbEntity
  8
0
100
AcDbLine
 62
9
  6
CONTINUOUS
 10
6.9131073858
 20
11.600643973
 11
5.7882753076
 21
11.7727718073
  0
LINE
  5
260
100
AcDbEntity
  8
0
100
AcDbLine
 62
9
  6
CONTINUOUS
 10
7.0718139588
 20
11.8963422135
 11
7.0860155309
 21
11.8941690797
  0
LINE
  5
261
100
AcDbEntity
  8
0
100
AcDbLine
 62
9
  6
CONTINUOUS
 10
5.9245358572
 20
12.1416906638
 11
7.0921629614
 21
11.9630186094
  0
LINE
  5
262
100
AcDbEntity
  8
0
100
AcDbLine
 62
9
  6
CONTINUOUS
 10
5.8919921861
 20
12.2385057672
 11
7.1521691099
 21
12.0456716003
  0
LINE
  5
263
100
AcDbEntity
  8
0
100
AcDbLine
 62
7
  6
CONTINUOUS
 10
5.9325155163
 20
12.3235893848
 11
7.1389443248
 21
12.1389798353
  0
LINE
  5
264
100
AcDbEntity
  8
0
100
AcDbLine
 62
9
  6
CONTINUOUS
 10
14.1369901836
 20
12.0147129363
 11
15.2769901836
 21
12.0147129363
  0
LINE
  5
265
100
AcDbEntity
  8
0
100
AcDbLine
 62
7
  6
CONTINUOUS
 10
7.1037088915
 20
12.1747208156
 11
5.9768258605
 21
12.3471581507
  0
LINE
  5
266
100
AcDbEntity
  8
0
100
AcDbLine
 62
9
  6
CONTINUOUS
 10
7.160431699
 20
12.5454060231
 11
6.0335486681
 21
12.7178433582
  0
LINE
  5
267
100
AcDbEntity
  8
0
100
AcDbLine
 62
7
  6
CONTINUOUS
 10
14.4477626918
 20
6.1928957307
 11
14.3869464272
 21
8.5041451091
  0
LINE
  5
268
100
AcDbEntity
  8
0
100
AcDbLine
 62
7
  6
CONTINUOUS
 10
14.1369901836
 20
8.6566246907
 11
14.1369901836
 21
12.0147129363
  0
LINE
  5
269
100
AcDbEntity
  8
0
100
AcDbLine
 62
7
  6
CONTINUOUS
 10
14.1469901836
 20
8.6566246907
 11
14.1469901836
 21
8.6416246907
  0
LINE
  5
26A
100
AcDbEntity
  8
0
100
AcDbLine
 62
7
  6
CONTINUOUS
 10
14.3199372264
 20
8.7516283114
 11
14.319934401
 21
8.8276283113
  0
LINE
  5
26B
100
AcDbEntity
  8
0
100
AcDbLine
 62
9
  6
CONTINUOUS
 10
14.3461537393
 20
4.8808815735
 11
14.3461537393
 21
5.1632590227
  0
LINE
  5
26C
100
AcDbEntity
  8
0
100
AcDbLine
 62
7
  6
CONTINUOUS
 10
14.3694901836
 20
4.8841246907
 11
14.3694901836
 21
5.0869197822
  0
LINE
  5
26D
100
AcDbEntity
  8
0
100
AcDbLine
 62
7
  6
CONTINUOUS
 10
14.3890372519
 20
6.0611308785
 11
14.3890331066
 21
6.1726308784
  0
LINE
  5
26E
100
AcDbEntity
  8
0
100
AcDbLine
 62
7
  6
CONTINUOUS
 10
14.512040765
 20
5.9666354514
 11
14.5120795607
 21
5.2316366642
  0
LINE
  5
26F
100
AcDbEntity
  8
0
100
AcDbLine
 62
7
  6
CONTINUOUS
 10
14.9020407648
 20
5.9666499505
 11
14.9020795603
 21
5.2316511633
  0
LINE
  5
270
100
AcDbEntity
  8
0
100
AcDbLine
 62
7
  6
CONTINUOUS
 10
15.0250372514
 20
6.0611545232
 11
15.0250331062
 21
6.1726545232
  0
LINE
  5
271
100
AcDbEntity
  8
0
100
AcDbLine
 62
7
  6
CONTINUOUS
 10
15.0444901836
 20
5.0865302926
 11
15.0444901836
 21
4.8841246907
  0
LINE
  5
272
100
AcDbEntity
  8
0
100
AcDbLine
 62
9
  6
CONTINUOUS
 10
15.0678266278
 20
5.1620020116
 11
15.0678266278
 21
4.8808815735
  0
LINE
  5
273
100
AcDbEntity
  8
0
100
AcDbLine
 62
7
  6
CONTINUOUS
 10
15.0939372259
 20
8.7516570866
 11
15.0939344004
 21
8.8276570865
  0
LINE
  5
274
100
AcDbEntity
  8
0
100
AcDbLine
 62
7
  6
CONTINUOUS
 10
14.9663020143
 20
6.1929150086
 11
15.0269464268
 21
8.5041689025
  0
LINE
  5
275
100
AcDbEntity
  8
0
100
AcDbLine
 62
7
  6
CONTINUOUS
 10
15.2669901836
 20
8.6566246907
 11
15.2669901836
 21
8.6416246907
  0
LINE
  5
276
100
AcDbEntity
  8
0
100
AcDbLine
 62
7
  6
CONTINUOUS
 10
15.2769901836
 20
8.6566246907
 11
15.2769901836
 21
12.0147129363
  0
ARC
  5
277
100
AcDbEntity
  8
0
100
AcDbCircle
 62
7
  6
CONTINUOUS
 10
-5.6369701833
 20
5.4647310232
 40
19.5539603669
100
AcDbArc
 50
0.7085830442
 51
6.4294933446
  0
ARC
  5
278
100
AcDbEntity
  8
0
100
AcDbCircle
 62
7
  6
CONTINUOUS
 10
-5.6369701833
 20
5.4647310232
 40
19.5539603669
100
AcDbArc
 50
349.143140525
 51
357.975544983
  0
ARC
  5
279
100
AcDbEntity
  8
0
100
AcDbCircle
 62
7
  6
CONTINUOUS
 10
4.9816717972
 20
-1.4215283795
 40
13.1470002505
100
AcDbArc
 50
79.9976558414
 51
80.3060461872
  0
ARC
  5
27A
100
AcDbEntity
  8
0
100
AcDbCircle
 62
9
  6
CONTINUOUS
 10
14.7058841904
 20
4.8776487172
 40
0.3615270225
100
AcDbArc
 50
339.7674591675
 51
353.0394456151
  0
ARC
  5
27B
100
AcDbEntity
  8
0
100
AcDbCircle
 62
9
  6
CONTINUOUS
 10
14.7069876767
 20
5.2694725685
 40
0.3608393179
100
AcDbArc
 50
7.2843519852
 51
57.2503944307
  0
ARC
  5
27C
100
AcDbEntity
  8
0
100
AcDbCircle
 62
9
  6
CONTINUOUS
 10
14.7069885704
 20
4.8808814679
 40
0.3608348311
100
AcDbArc
 50
179.9999832306
 51
187.4914099821
  0
ARC
  5
27D
100
AcDbEntity
  8
0
100
AcDbCircle
 62
9
  6
CONTINUOUS
 10
14.7069883125
 20
5.269476145
 40
0.3608337708
100
AcDbArc
 50
122.7257606547
 51
173.0064932256
  0
ARC
  5
27E
100
AcDbEntity
  8
0
100
AcDbCircle
 62
7
  6
CONTINUOUS
 10
13.2583191243
 20
1.7598310439
 40
0.3
100
AcDbArc
 50
287.5695969516
 51
333.2212894265
  0
ARC
  5
27F
100
AcDbEntity
  8
0
100
AcDbCircle
 62
7
  6
CONTINUOUS
 10
13.4636523809
 20
1.6562054982
 40
0.07
100
AcDbArc
 50
333.2212894265
 51
38.9390460747
  0
ARC
  5
280
100
AcDbEntity
  8
0
100
AcDbCircle
 62
7
  6
CONTINUOUS
 10
13.3669901836
 20
1.4166246907
 40
0.06
100
AcDbArc
 50
107.5695969516
 51
270.0
  0
ARC
  5
281
100
AcDbEntity
  8
0
100
AcDbCircle
 62
7
  6
CONTINUOUS
 10
13.5569901836
 20
1.7316246907
 40
0.05
100
AcDbArc
 50
90.0
 51
218.9390460747
  0
ARC
  5
282
100
AcDbEntity
  8
0
100
AcDbCircle
 62
7
  6
CONTINUOUS
 10
5.3523468734
 20
9.6904186882
 40
0.0393700787
100
AcDbArc
 50
168.3670937784
 51
261.3
  0
ARC
  5
283
100
AcDbEntity
  8
0
100
AcDbCircle
 62
7
  6
CONTINUOUS
 10
6.9051384515
 20
9.4528081871
 40
0.0393700787
100
AcDbArc
 50
261.3
 51
354.2329062216
  0
ARC
  5
284
100
AcDbEntity
  8
0
100
AcDbCircle
 62
7
  6
CONTINUOUS
 10
6.2319457685
 20
9.4911080431
 40
0.0118110236
100
AcDbArc
 50
261.3
 51
346.3
  0
ARC
  5
285
100
AcDbEntity
  8
0
100
AcDbCircle
 62
7
  6
CONTINUOUS
 10
6.1521579163
 20
9.5033173002
 40
0.0118110236
100
AcDbArc
 50
176.3
 51
261.3
  0
ARC
  5
286
100
AcDbEntity
  8
0
100
AcDbCircle
 62
7
  6
CONTINUOUS
 10
6.3691129039
 20
9.4701185219
 40
0.0118110236
100
AcDbArc
 50
261.3
 51
346.3
  0
ARC
  5
287
100
AcDbEntity
  8
0
100
AcDbCircle
 62
7
  6
CONTINUOUS
 10
6.2893250516
 20
9.4823277789
 40
0.0118110236
100
AcDbArc
 50
176.3
 51
261.3
  0
ARC
  5
288
100
AcDbEntity
  8
0
100
AcDbCircle
 62
7
  6
CONTINUOUS
 10
6.4809325772
 20
9.4530077074
 40
0.0118110236
100
AcDbArc
 50
261.3
 51
346.3
  0
ARC
  5
289
100
AcDbEntity
  8
0
100
AcDbCircle
 62
7
  6
CONTINUOUS
 10
6.4011447249
 20
9.4652169645
 40
0.0118110236
100
AcDbArc
 50
176.3
 51
261.3
  0
ARC
  5
28A
100
AcDbEntity
  8
0
100
AcDbCircle
 62
7
  6
CONTINUOUS
 10
6.5539176855
 20
9.4418394164
 40
0.0118110236
100
AcDbArc
 50
261.3
 51
346.3
  0
ARC
  5
28B
100
AcDbEntity
  8
0
100
AcDbCircle
 62
7
  6
CONTINUOUS
 10
5.6842157828
 20
9.5749225087
 40
0.0118110236
100
AcDbArc
 50
176.3
 51
261.3
  0
ARC
  5
28C
100
AcDbEntity
  8
0
100
AcDbCircle
 62
7
  6
CONTINUOUS
 10
5.7572008911
 20
9.5637542178
 40
0.0118110236
100
AcDbArc
 50
176.3
 51
261.3
  0
ARC
  5
28D
100
AcDbEntity
  8
0
100
AcDbCircle
 62
7
  6
CONTINUOUS
 10
5.8369887433
 20
9.5515449607
 40
0.0118110236
100
AcDbArc
 50
261.3
 51
346.3
  0
ARC
  5
28E
100
AcDbEntity
  8
0
100
AcDbCircle
 62
7
  6
CONTINUOUS
 10
5.8690205643
 20
9.5466434033
 40
0.0118110236
100
AcDbArc
 50
176.3
 51
261.3
  0
ARC
  5
28F
100
AcDbEntity
  8
0
100
AcDbCircle
 62
7
  6
CONTINUOUS
 10
5.9488084166
 20
9.5344341462
 40
0.0118110236
100
AcDbArc
 50
261.3
 51
346.3
  0
ARC
  5
290
100
AcDbEntity
  8
0
100
AcDbCircle
 62
7
  6
CONTINUOUS
 10
6.0061876997
 20
9.5256538821
 40
0.0118110236
100
AcDbArc
 50
176.3
 51
261.3
  0
ARC
  5
291
100
AcDbEntity
  8
0
100
AcDbCircle
 62
7
  6
CONTINUOUS
 10
6.085975552
 20
9.513444625
 40
0.0118110236
100
AcDbArc
 50
261.3
 51
346.3
  0
ARC
  5
292
100
AcDbEntity
  8
0
100
AcDbCircle
 62
7
  6
CONTINUOUS
 10
5.6588683207
 20
9.5788012155
 40
0.0118110236
100
AcDbArc
 50
176.3000000044
 51
261.3
  0
ARC
  5
293
100
AcDbEntity
  8
0
100
AcDbCircle
 62
7
  6
CONTINUOUS
 10
6.5792651476
 20
9.4379607097
 40
0.0118110236
100
AcDbArc
 50
261.3
 51
346.2999999956
  0
ARC
  5
294
100
AcDbEntity
  8
0
100
AcDbCircle
 62
7
  6
CONTINUOUS
 10
5.5390404327
 20
11.5364214324
 40
0.15
100
AcDbArc
 50
348.3670937784
 51
34.7830822171
  0
ARC
  5
295
100
AcDbEntity
  8
0
100
AcDbCircle
 62
7
  6
CONTINUOUS
 10
5.7033039704
 20
11.6505156486
 40
0.05
100
AcDbArc
 50
111.3
 51
214.7830822171
  0
ARC
  5
296
100
AcDbEntity
  8
0
100
AcDbCircle
 62
7
  6
CONTINUOUS
 10
4.7732886289
 20
12.3572815683
 40
1.1712598425
100
AcDbArc
 50
330.0632529236
 51
349.3932278559
  0
ARC
  5
297
100
AcDbEntity
  8
0
100
AcDbCircle
 62
7
  6
CONTINUOUS
 10
5.6582887783
 20
11.8476283515
 40
0.15
100
AcDbArc
 50
291.3
 51
330.0632529236
  0
ARC
  5
298
100
AcDbEntity
  8
0
100
AcDbCircle
 62
7
  6
CONTINUOUS
 10
5.8216008109
 20
12.160967027
 40
0.1047244094
100
AcDbArc
 50
349.3932278559
 51
47.7661414864
  0
ARC
  5
299
100
AcDbEntity
  8
0
100
AcDbCircle
 62
7
  6
CONTINUOUS
 10
5.9250708399
 20
12.2749431451
 40
0.0492125984
100
AcDbArc
 50
81.3
 51
227.7661414864
  0
ARC
  5
29A
100
AcDbEntity
  8
0
100
AcDbCircle
 62
9
  6
CONTINUOUS
 10
8.4926306142
 20
11.3140449182
 40
1.3431145548
100
AcDbArc
 50
171.5658223397
 51
173.4889085158
  0
ARC
  5
29B
100
AcDbEntity
  8
0
100
AcDbCircle
 62
9
  6
CONTINUOUS
 10
6.8275413698
 20
11.4644729233
 40
0.3201553057
100
AcDbArc
 50
340.8836106833
 51
341.9097254011
  0
ARC
  5
29C
100
AcDbEntity
  8
0
100
AcDbCircle
 62
9
  6
CONTINUOUS
 10
6.9104527234
 20
11.4841000527
 40
0.2483644411
100
AcDbArc
 50
350.3575180014
 51
355.9015316412
  0
ARC
  5
29D
100
AcDbEntity
  8
0
100
AcDbCircle
 62
7
  6
CONTINUOUS
 10
7.2580166573
 20
11.480659029
 40
0.0984251969
100
AcDbArc
 50
0.2731595949
 51
80.2738166472
  0
ARC
  5
29E
100
AcDbEntity
  8
0
100
AcDbCircle
 62
7
  6
CONTINUOUS
 10
7.262582206
 20
10.5230331841
 40
0.0984251969
100
AcDbArc
 50
270.7731595888
 51
0.2731595949
  0
ARC
  5
29F
100
AcDbEntity
  8
0
100
AcDbCircle
 62
7
  6
CONTINUOUS
 10
7.0462411417
 20
10.299355002
 40
0.05
100
AcDbArc
 50
320.0765802508
 51
8.1155331303
  0
ARC
  5
2A0
100
AcDbEntity
  8
0
100
AcDbCircle
 62
7
  6
CONTINUOUS
 10
7.178931022
 20
11.6466876743
 40
0.05
100
AcDbArc
 50
340.6353788368
 51
56.5805731055
  0
ARC
  5
2A1
100
AcDbEntity
  8
0
100
AcDbCircle
 62
9
  6
CONTINUOUS
 10
7.1785397387
 20
11.6455411802
 40
0.049989758
100
AcDbArc
 50
340.6661319112
 51
58.4285403936
  0
ARC
  5
2A2
100
AcDbEntity
  8
0
100
AcDbCircle
 62
9
  6
CONTINUOUS
 10
7.0459895845
 20
10.3014945081
 40
0.0499481127
100
AcDbArc
 50
316.1329588487
 51
8.0660827938
  0
ARC
  5
2A3
100
AcDbEntity
  8
0
100
AcDbCircle
 62
7
  6
CONTINUOUS
 10
7.3171935301
 20
11.4552616969
 40
0.0472440945
100
AcDbArc
 50
342.4859335412
 51
33.8326021211
  0
ARC
  5
2A4
100
AcDbEntity
  8
0
100
AcDbCircle
 62
7
  6
CONTINUOUS
 10
7.3181320176
 20
11.2584135404
 40
0.0472440945
100
AcDbArc
 50
326.715849833
 51
18.0603856487
  0
ARC
  5
2A5
100
AcDbEntity
  8
0
100
AcDbCircle
 62
7
  6
CONTINUOUS
 10
7.3179945793
 20
11.2872412855
 40
0.0472440945
100
AcDbArc
 50
326.715849833
 51
33.8304693569
  0
ARC
  5
2A6
100
AcDbEntity
  8
0
100
AcDbCircle
 62
7
  6
CONTINUOUS
 10
7.3176627738
 20
11.3568376186
 40
0.0472440945
100
AcDbArc
 50
326.715849833
 51
33.8304693569
  0
ARC
  5
2A7
100
AcDbEntity
  8
0
100
AcDbCircle
 62
7
  6
CONTINUOUS
 10
7.3173309684
 20
11.4264339518
 40
0.0472440945
100
AcDbArc
 50
326.715849833
 51
33.8304693569
  0
ARC
  5
2A8
100
AcDbEntity
  8
0
100
AcDbCircle
 62
7
  6
CONTINUOUS
 10
7.3562514372
 20
10.6950351692
 40
0.0118110236
100
AcDbArc
 50
0.2730396967
 51
45.2730368898
  0
ARC
  5
2A9
100
AcDbEntity
  8
0
100
AcDbCircle
 62
7
  6
CONTINUOUS
 10
7.3566928026
 20
10.6024585889
 40
0.0118110236
100
AcDbArc
 50
315.2732823001
 51
0.2732794932
  0
ARC
  5
2AA
100
AcDbEntity
  8
0
100
AcDbCircle
 62
9
  6
CONTINUOUS
 10
7.3553788637
 20
13.3609964275
 40
1.8348224374
100
AcDbArc
 50
263.1750285044
 51
264.1987908446
  0
ARC
  5
2AB
100
AcDbEntity
  8
0
100
AcDbCircle
 62
7
  6
CONTINUOUS
 10
7.1961521527
 20
11.9506311148
 40
0.1047244094
100
AcDbArc
 50
114.8338585136
 51
173.2067721441
  0
ARC
  5
2AC
100
AcDbEntity
  8
0
100
AcDbCircle
 62
7
  6
CONTINUOUS
 10
7.1315003868
 20
12.0903334826
 40
0.0492125984
100
AcDbArc
 50
294.8338585136
 51
81.3
  0
ARC
  5
2AD
100
AcDbEntity
  8
0
100
AcDbCircle
 62
7
  6
CONTINUOUS
 10
12.1419901836
 20
8.0463242341
 40
3.5
100
AcDbArc
 50
353.5705066554
 51
359.9230270477
  0
ARC
  5
2AE
100
AcDbEntity
  8
0
100
AcDbCircle
 62
7
  6
CONTINUOUS
 10
13.5449497357
 20
8.6275180154
 40
0.5
100
AcDbArc
 50
289.5461067356
 51
341.3016339321
  0
ARC
  5
2AF
100
AcDbEntity
  8
0
100
AcDbCircle
 62
7
  6
CONTINUOUS
 10
14.6798987359
 20
8.7899912061
 40
0.362
100
AcDbArc
 50
186.0833345796
 51
206.5033018752
  0
ARC
  5
2B0
100
AcDbEntity
  8
0
100
AcDbCircle
 62
7
  6
CONTINUOUS
 10
14.0910488466
 20
8.49635911
 40
0.296
100
AcDbArc
 50
1.5072849553
 51
26.5033018752
  0
ARC
  5
2B1
100
AcDbEntity
  8
0
100
AcDbCircle
 62
7
  6
CONTINUOUS
 10
14.4835372518
 20
6.0611343917
 40
0.0945
100
AcDbArc
 50
180.0021301011
 51
270.0021301011
  0
ARC
  5
2B2
100
AcDbEntity
  8
0
100
AcDbCircle
 62
7
  6
CONTINUOUS
 10
13.9569901836
 20
8.4880631148
 40
0.065
100
AcDbArc
 50
341.3016339321
 51
64.2285382594
  0
ARC
  5
2B3
100
AcDbEntity
  8
0
100
AcDbCircle
 62
7
  6
CONTINUOUS
 10
13.7319901836
 20
8.1006798088
 40
0.0590551181
100
AcDbArc
 50
109.5461067356
 51
270.0
  0
ARC
  5
2B4
100
AcDbEntity
  8
0
100
AcDbCircle
 62
7
  6
CONTINUOUS
 10
14.0069901836
 20
8.5916246907
 40
0.05
100
AcDbArc
 50
90.0
 51
244.2285382595
  0
ARC
  5
2B5
100
AcDbEntity
  8
0
100
AcDbCircle
 62
7
  6
CONTINUOUS
 10
14.437766152
 20
6.1926326902
 40
0.01
100
AcDbArc
 50
270.0021301011
 51
1.5072849553
  0
ARC
  5
2B6
100
AcDbEntity
  8
0
100
AcDbCircle
 62
7
  6
CONTINUOUS
 10
14.3990331066
 20
6.1726312502
 40
0.01
100
AcDbArc
 50
90.0021301011
 51
180.0021301011
  0
ARC
  5
2B7
100
AcDbEntity
  8
0
100
AcDbCircle
 62
9
  6
CONTINUOUS
 10
14.1596871177
 20
10.2325818162
 40
7.130931399
100
AcDbArc
 50
173.7421016929
 51
174.0278552959
  0
ARC
  5
2B8
100
AcDbEntity
  8
0
100
AcDbCircle
 62
7
  6
CONTINUOUS
 10
10.6285265439
 20
12.0147128374
 40
4.6484636396
100
AcDbArc
 50
0.0000012194
 51
171.2999987806
  0
ARC
  5
2B9
100
AcDbEntity
  8
0
100
AcDbCircle
 62
7
  6
CONTINUOUS
 10
10.6285265439
 20
12.0147128364
 40
3.5084636397
100
AcDbArc
 50
0.0000016315
 51
171.2999983685
  0
ARC
  5
2BA
100
AcDbEntity
  8
0
100
AcDbCircle
 62
7
  6
CONTINUOUS
 10
9.8676995956
 20
10.7016884372
 40
2.8
100
AcDbArc
 50
160.635300676
 51
188.1155331303
  0
ARC
  5
2BB
100
AcDbEntity
  8
0
100
AcDbCircle
 62
7
  6
CONTINUOUS
 10
16.1556612428
 20
1.7598310439
 40
0.3
100
AcDbArc
 50
206.7787105735
 51
252.4304030484
  0
ARC
  5
2BC
100
AcDbEntity
  8
0
100
AcDbCircle
 62
7
  6
CONTINUOUS
 10
15.9503279862
 20
1.6562054982
 40
0.07
100
AcDbArc
 50
141.0609539253
 51
206.7787105735
  0
ARC
  5
2BD
100
AcDbEntity
  8
0
100
AcDbCircle
 62
7
  6
CONTINUOUS
 10
16.0469901836
 20
1.4166246907
 40
0.06
100
AcDbArc
 50
270.0
 51
72.4304030484
  0
ARC
  5
2BE
100
AcDbEntity
  8
0
100
AcDbCircle
 62
7
  6
CONTINUOUS
 10
15.8569901836
 20
1.7316246907
 40
0.05
100
AcDbArc
 50
321.0609539253
 51
90.0
  0
ARC
  5
2BF
100
AcDbEntity
  8
0
100
AcDbCircle
 62
7
  6
CONTINUOUS
 10
14.7069901836
 20
5.2316246907
 40
0.925
100
AcDbArc
 50
110.1207556122
 51
69.8732160074
  0
ARC
  5
2C0
100
AcDbEntity
  8
0
100
AcDbCircle
 62
9
  6
CONTINUOUS
 10
14.7069901836
 20
5.2316246907
 40
0.8666666667
100
AcDbArc
 50
111.3316414432
 51
68.6623721773
  0
ARC
  5
2C1
100
AcDbEntity
  8
0
100
AcDbCircle
 62
9
  6
CONTINUOUS
 10
14.7069901836
 20
5.2316246907
 40
0.7923268874
100
AcDbArc
 50
109.6714401102
 51
70.3259280616
  0
ARC
  5
2C2
100
AcDbEntity
  8
0
100
AcDbCircle
 62
9
  6
CONTINUOUS
 10
14.7069901836
 20
5.2316246907
 40
0.74
100
AcDbArc
 50
105.2838695712
 51
247.3974399565
  0
ARC
  5
2C3
100
AcDbEntity
  8
0
100
AcDbCircle
 62
9
  6
CONTINUOUS
 10
14.7069901836
 20
5.2316246907
 40
0.74
100
AcDbArc
 50
292.6025600435
 51
74.7078208344
  0
ARC
  5
2C4
100
AcDbEntity
  8
0
100
AcDbCircle
 62
9
  6
CONTINUOUS
 10
14.7069901836
 20
5.2316246907
 40
0.697151568
100
AcDbArc
 50
106.2456077542
 51
242.9295585514
  0
ARC
  5
2C5
100
AcDbEntity
  8
0
100
AcDbCircle
 62
9
  6
CONTINUOUS
 10
14.7069901836
 20
5.2316246907
 40
0.697151568
100
AcDbArc
 50
297.0704414486
 51
73.745382487
  0
ARC
  5
2C6
100
AcDbEntity
  8
0
100
AcDbCircle
 62
9
  6
CONTINUOUS
 10
14.7069901836
 20
5.2316246907
 40
0.535
100
AcDbArc
 50
311.9670987269
 51
68.6030825256
  0
ARC
  5
2C7
100
AcDbEntity
  8
0
100
AcDbCircle
 62
9
  6
CONTINUOUS
 10
14.7069901836
 20
5.2316246907
 40
0.535
100
AcDbArc
 50
111.383091056
 51
228.0329012731
  0
ARC
  5
2C8
100
AcDbEntity
  8
0
100
AcDbCircle
 62
7
  6
CONTINUOUS
 10
14.7070828377
 20
5.2316442602
 40
0.3675
100
AcDbArc
 50
122.086948624
 51
57.922646708
  0
ARC
  5
2C9
100
AcDbEntity
  8
0
100
AcDbCircle
 62
9
  6
CONTINUOUS
 10
14.7081229022
 20
4.8776549076
 40
0.3615543012
100
AcDbArc
 50
186.9610148975
 51
200.2320467611
  0
ARC
  5
2CA
100
AcDbEntity
  8
0
100
AcDbCircle
 62
9
  6
CONTINUOUS
 10
14.7069917958
 20
4.880881468
 40
0.360834832
100
AcDbArc
 50
352.5085900271
 51
0.0000167602
  0
ARC
  5
2CB
100
AcDbEntity
  8
0
100
AcDbCircle
 62
7
  6
CONTINUOUS
 10
14.7069901836
 20
5.2691246907
 40
0.3375
100
AcDbArc
 50
125.3308024421
 51
129.0100789102
  0
ARC
  5
2CC
100
AcDbEntity
  8
0
100
AcDbCircle
 62
7
  6
CONTINUOUS
 10
14.7069901836
 20
5.2691246907
 40
0.3375
100
AcDbArc
 50
51.2655698639
 51
54.6419565452
  0
ARC
  5
2CD
100
AcDbEntity
  8
0
100
AcDbCircle
 62
7
  6
CONTINUOUS
 10
14.7069901836
 20
4.8841246907
 40
0.3375
100
AcDbArc
 50
180.0
 51
360.0
  0
ARC
  5
2CE
100
AcDbEntity
  8
0
100
AcDbCircle
 62
9
  6
CONTINUOUS
 10
14.7070808714
 20
5.2316440523
 40
0.3075
100
AcDbArc
 50
129.4018099902
 51
50.6081798307
  0
ARC
  5
2CF
100
AcDbEntity
  8
0
100
AcDbCircle
 62
9
  6
CONTINUOUS
 10
14.7070808714
 20
5.2316440523
 40
0.215
100
AcDbArc
 50
155.1948686689
 51
24.8218820145
  0
ARC
  5
2D0
100
AcDbEntity
  8
0
100
AcDbCircle
 62
7
  6
CONTINUOUS
 10
14.7070795605
 20
5.2316439138
 40
0.195
100
AcDbArc
 50
180.0021300946
 51
0.0021300946
  0
ARC
  5
2D1
100
AcDbEntity
  8
0
100
AcDbCircle
 62
7
  6
CONTINUOUS
 10
35.0509505504
 20
5.4647310232
 40
19.5539603669
100
AcDbArc
 50
173.5705066554
 51
179.2914169558
  0
ARC
  5
2D2
100
AcDbEntity
  8
0
100
AcDbCircle
 62
7
  6
CONTINUOUS
 10
35.0509505504
 20
5.4647310232
 40
19.5539603669
100
AcDbArc
 50
182.024455017
 51
190.856859475
  0
ARC
  5
2D3
100
AcDbEntity
  8
0
100
AcDbCircle
 62
7
  6
CONTINUOUS
 10
17.2719901836
 20
8.0463242341
 40
3.5
100
AcDbArc
 50
180.0769729523
 51
186.4294933446
  0
ARC
  5
2D4
100
AcDbEntity
  8
0
100
AcDbCircle
 62
7
  6
CONTINUOUS
 10
15.8690306315
 20
8.6275180154
 40
0.5
100
AcDbArc
 50
198.6983660679
 51
250.4538932644
  0
ARC
  5
2D5
100
AcDbEntity
  8
0
100
AcDbCircle
 62
7
  6
CONTINUOUS
 10
14.733972865
 20
8.7899932164
 40
0.362
100
AcDbArc
 50
333.5009583271
 51
353.9209256226
  0
ARC
  5
2D6
100
AcDbEntity
  8
0
100
AcDbCircle
 62
7
  6
CONTINUOUS
 10
15.3228445855
 20
8.4964049048
 40
0.296
100
AcDbArc
 50
153.5009583271
 51
178.496975247
  0
ARC
  5
2D7
100
AcDbEntity
  8
0
100
AcDbCircle
 62
7
  6
CONTINUOUS
 10
14.9305372515
 20
6.06115101
 40
0.0945
100
AcDbArc
 50
270.0021301011
 51
0.0021301011
  0
ARC
  5
2D8
100
AcDbEntity
  8
0
100
AcDbCircle
 62
7
  6
CONTINUOUS
 10
15.4569901836
 20
8.4880631148
 40
0.065
100
AcDbArc
 50
115.7714617406
 51
198.6983660679
  0
ARC
  5
2D9
100
AcDbEntity
  8
0
100
AcDbCircle
 62
7
  6
CONTINUOUS
 10
15.6819901836
 20
8.1006798088
 40
0.0590551181
100
AcDbArc
 50
270.0
 51
70.4538932644
  0
ARC
  5
2DA
100
AcDbEntity
  8
0
100
AcDbCircle
 62
7
  6
CONTINUOUS
 10
15.4069901836
 20
8.5916246907
 40
0.05
100
AcDbArc
 50
295.7714617405
 51
90.0
  0
ARC
  5
2DB
100
AcDbEntity
  8
0
100
AcDbCircle
 62
7
  6
CONTINUOUS
 10
14.9762985737
 20
6.1926527114
 40
0.01
100
AcDbArc
 50
178.496975247
 51
270.0021301011
  0
ARC
  5
2DC
100
AcDbEntity
  8
0
100
AcDbCircle
 62
7
  6
CONTINUOUS
 10
15.0150331062
 20
6.1726541514
 40
0.01
100
AcDbArc
 50
0.0021301011
 51
90.0021301011
  0
SPLINE
  5
2DD
100
AcDbEntity
  8
0
100
AcDbSpline
 62
7
  6
CONTINUOUS
 70
0
 71
3
 72
15
 73
11
 74
0
 42
0.0000001
 43
0.0000001
 44
0.0000000001
 40
0.0
 40
0.0
 40
0.0
 40
0.0
 40
0.1230238095
 40
0.2451494186
 40
0.3671174785
 40
0.4896714967
 40
0.6135444304
 40
0.7394462039
 40
0.8680531475
 40
1.0
 40
1.0
 40
1.0
 40
1.0
 10
7.0095708077
 20
10.0950310738
 30
0.0
 10
7.0103567317
 20
10.1028128017
 30
0.0
 10
7.0125099728
 20
10.1182671548
 30
0.0
 10
7.0175197847
 20
10.1410860697
 30
0.0
 10
7.0242919341
 20
10.1634156996
 30
0.0
 10
7.0328253266
 20
10.1852519018
 30
0.0
 10
7.0431183664
 20
10.2065930825
 30
0.0
 10
7.0551692293
 20
10.2274380256
 30
0.0
 10
7.0689748856
 20
10.247785075
 30
0.0
 10
7.0792027901
 20
10.2608336003
 30
0.0
 10
7.0845862864
 20
10.2672668441
 30
0.0
  0
SPLINE
  5
2DE
100
AcDbEntity
  8
0
100
AcDbSpline
 62
7
  6
CONTINUOUS
 70
0
 71
3
 72
31
 73
27
 74
0
 42
0.0000001
 43
0.0000001
 44
0.0000000001
 40
0.0
 40
0.0
 40
0.0
 40
0.0
 40
0.0083430326
 40
0.015948329
 40
0.0230331245
 40
0.0297775761
 40
0.0426919181
 40
0.0552305021
 40
0.0676698493
 40
0.0801589224
 40
0.1055425155
 40
0.1316556132
 40
0.1585437898
 40
0.1861521765
 40
0.2144289327
 40
0.2433129217
 40
0.272752174
 40
0.3330887178
 40
0.3951047312
 40
0.458560339
 40
0.5232346969
 40
0.5889764568
 40
0.6556544311
 40
0.7231677033
 40
0.8603559428
 40
1.0
 40
1.0
 40
1.0
 40
1.0
 10
15.0939344004
 20
8.8276570865
 30
0.0
 10
15.0939343785
 20
8.8282474507
 30
0.0
 10
15.0938745208
 20
8.8293773513
 30
0.0
 10
15.0935966434
 20
8.830987007
 30
0.0
 10
15.0931664912
 20
8.8324448777
 30
0.0
 10
15.0924444714
 20
8.8341966488
 30
0.0
 10
15.0913165204
 20
8.8361882531
 30
0.0
 10
15.0896589839
 20
8.8383054884
 30
0.0
 10
15.087788516
 20
8.8401914168
 30
0.0
 10
15.0850445161
 20
8.8424663577
 30
0.0
 10
15.0812380433
 20
8.8449438566
 30
0.0
 10
15.0762916765
 20
8.8474680651
 30
0.0
 10
15.0710164872
 20
8.8496499007
 30
0.0
 10
15.0654824289
 20
8.8515756219
 30
0.0
 10
15.0597298264
 20
8.853281241
 30
0.0
 10
15.0537932875
 20
8.8548053842
 30
0.0
 10
15.0455985515
 20
8.8566399739
 30
0.0
 10
15.0350303449
 20
8.8585806417
 30
0.0
 10
15.0220168699
 20
8.8604718003
 30
0.0
 10
15.0086485625
 20
8.8620104343
 30
0.0
 10
14.9949866162
 20
8.8632666266
 30
0.0
 10
14.9810758186
 20
8.8642758482
 30
0.0
 10
14.9669503819
 20
8.865075192
 30
0.0
 10
14.9477643019
 20
8.8658966595
 30
0.0
 10
14.9234037621
 20
8.8665102381
 30
0.0
 10
14.903814351
 20
8.8666500184
 30
0.0
 10
14.8939329507
 20
8.8666496511
 30
0.0
  0
SPLINE
  5
2DF
100
AcDbEntity
  8
0
100
AcDbSpline
 62
7
  6
CONTINUOUS
 70
0
 71
3
 72
31
 73
27
 74
0
 42
0.0000001
 43
0.0000001
 44
0.0000000001
 40
0.0
 40
0.0
 40
0.0
 40
0.0
 40
0.0083430326
 40
0.015948329
 40
0.0230331245
 40
0.0297775761
 40
0.0426919181
 40
0.0552305021
 40
0.0676698493
 40
0.0801589224
 40
0.1055425155
 40
0.1316556132
 40
0.1585437898
 40
0.1861521765
 40
0.2144289327
 40
0.2433129217
 40
0.272752174
 40
0.3330887178
 40
0.3951047312
 40
0.458560339
 40
0.5232346969
 40
0.5889764568
 40
0.6556544311
 40
0.7231677033
 40
0.8603559428
 40
1.0
 40
1.0
 40
1.0
 40
1.0
 10
14.319934401
 20
8.8276283113
 30
0.0
 10
14.319934379
 20
8.8282186755
 30
0.0
 10
14.3199941527
 20
8.8293485806
 30
0.0
 10
14.3202719104
 20
8.8309582569
 30
0.0
 10
14.3207019542
 20
8.8324161595
 30
0.0
 10
14.3214238438
 20
8.8341679843
 30
0.0
 10
14.3225516466
 20
8.8361596725
 30
0.0
 10
14.3242090258
 20
8.838277031
 30
0.0
 10
14.3260793534
 20
8.8401630986
 30
0.0
 10
14.3288231841
 20
8.8424382434
 30
0.0
 10
14.3326294727
 20
8.8449160253
 30
0.0
 10
14.3375756518
 20
8.8474406017
 30
0.0
 10
14.3428506789
 20
8.8496228295
 30
0.0
 10
14.348384594
 20
8.8515489622
 30
0.0
 10
14.3541370696
 20
8.8532550089
 30
0.0
 10
14.3600734952
 20
8.8547795936
 30
0.0
 10
14.3682680948
 20
8.8566147926
 30
0.0
 10
14.3788361571
 20
8.8585562461
 30
0.0
 10
14.3918494914
 20
8.8604483724
 30
0.0
 10
14.4052176844
 20
8.8619880004
 30
0.0
 10
14.4188795372
 20
8.8632452085
 30
0.0
 10
14.4327902597
 20
8.8642554644
 30
0.0
 10
14.446915637
 20
8.8650558585
 30
0.0
 10
14.4661016558
 20
8.8658787526
 30
0.0
 10
14.4904621499
 20
8.8664941425
 30
0.0
 10
14.5100515506
 20
8.8666353794
 30
0.0
 10
14.5199329509
 20
8.8666357468
 30
0.0
  0
SPLINE
  5
2E0
100
AcDbEntity
  8
0
100
AcDbSpline
 62
9
  6
CONTINUOUS
 70
0
 71
3
 72
15
 73
11
 74
0
 42
0.0000001
 43
0.0000001
 44
0.0000000001
 40
0.0
 40
0.0
 40
0.0
 40
0.0
 40
0.1252927641
 40
0.2505200764
 40
0.3756634418
 40
0.500701542
 40
0.6256360346
 40
0.7504809301
 40
0.8752563153
 40
1.0
 40
1.0
 40
1.0
 40
1.0
 10
7.2651541511
 20
11.5256460522
 30
0.0
 10
7.2674289752
 20
11.5252543662
 30
0.0
 10
7.2719158247
 20
11.5240536898
 30
0.0
 10
7.2782127488
 20
11.5211007646
 30
0.0
 10
7.2838935412
 20
11.517092392
 30
0.0
 10
7.288781097
 20
11.5121569596
 30
0.0
 10
7.2927389206
 20
11.5064561147
 30
0.0
 10
7.2956515622
 20
11.5001622012
 30
0.0
 10
7.2974470566
 20
11.4934697307
 30
0.0
 10
7.2978644042
 20
11.4888648157
 30
0.0
 10
7.2978743709
 20
11.4865666545
 30
0.0
  0
SPLINE
  5
2E1
100
AcDbEntity
  8
0
100
AcDbSpline
 62
9
  6
CONTINUOUS
 70
0
 71
3
 72
17
 73
13
 74
0
 42
0.0000001
 43
0.0000001
 44
0.0000000001
 40
0.0
 40
0.0
 40
0.0
 40
0.0
 40
0.1246757097
 40
0.2493908085
 40
0.3118513674
 40
0.374336348
 40
0.4992425189
 40
0.6242662455
 40
0.68689652
 40
0.7495521535
 40
0.8747579561
 40
1.0
 40
1.0
 40
1.0
 40
1.0
 10
7.3024944801
 20
10.5174967066
 30
0.0
 10
7.3025089104
 20
10.5149289102
 30
0.0
 10
7.3020384983
 20
10.5097770421
 30
0.0
 10
7.3002331308
 20
10.5035707048
 30
0.0
 10
7.2981027442
 20
10.4988829291
 30
0.0
 10
7.2955278392
 20
10.4944194048
 30
0.0
 10
7.2915130937
 20
10.4893359304
 30
0.0
 10
7.2865843987
 20
10.485126583
 30
0.0
 10
7.2822083446
 20
10.4823872361
 30
0.0
 10
7.2775798981
 20
10.480091131
 30
0.0
 10
7.2714025912
 20
10.4780944932
 30
0.0
 10
7.2662376614
 20
10.4775029793
 30
0.0
 10
7.2636583406
 20
10.4774724732
 30
0.0
  0
LINE
  5
2E2
100
AcDbEntity
  8
0
100
AcDbLine
 62
7
  6
CONTINUOUS
 10
7.2636586021
 20
10.477451841
 11
7.0775647731
 21
10.4749410351
  0
LINE
  5
2E3
100
AcDbEntity
  8
0
100
AcDbLine
 62
7
  6
CONTINUOUS
 10
7.0775647731
 20
10.4749410351
 11
7.0768965134
 21
10.4749320595
  0
SPLINE
  5
2E4
100
AcDbEntity
  8
0
100
AcDbSpline
 62
9
  6
CONTINUOUS
 70
0
 71
3
 72
33
 73
29
 74
0
 42
0.0000001
 43
0.0000001
 44
0.0000000001
 40
0.0
 40
0.0
 40
0.0
 40
0.0
 40
0.0001140415
 40
0.0003313533
 40
0.0011413976
 40
0.0024760797
 40
0.0043470457
 40
0.0067627052
 40
0.0097305603
 40
0.013257761
 40
0.017351292
 40
0.027264856
 40
0.0395259623
 40
0.0541889123
 40
0.0713078414
 40
0.0909155791
 40
0.1129594929
 40
0.1373654234
 40
0.1640591856
 40
0.2240133783
 40
0.2922283637
 40
0.3679819151
 40
0.4500347899
 40
0.5370176256
 40
0.6275610271
 40
0.7203273546
 40
0.8141072724
 40
1.0
 40
1.0
 40
1.0
 40
1.0
 10
7.2639103322
 20
10.4246171886
 30
0.0
 10
7.2639123408
 20
10.4246172156
 30
0.0
 10
7.2639170205
 20
10.4246222145
 30
0.0
 10
7.2639235583
 20
10.424640589
 30
0.0
 10
7.2639317235
 20
10.4246821694
 30
0.0
 10
7.2639400013
 20
10.4247520386
 30
0.0
 10
7.2639485133
 20
10.4248508741
 30
0.0
 10
7.2639566899
 20
10.4249783335
 30
0.0
 10
7.2639646304
 20
10.4251351175
 30
0.0
 10
7.2639722308
 20
10.4253214681
 30
0.0
 10
7.2639825693
 20
10.4256301572
 30
0.0
 10
7.2639940079
 20
10.4260927202
 30
0.0
 10
7.2640054996
 20
10.4267414955
 30
0.0
 10
7.2640152815
 20
10.427517228
 30
0.0
 10
7.2640232379
 20
10.4284223931
 30
0.0
 10
7.2640292386
 20
10.4294575866
 30
0.0
 10
7.2640332799
 20
10.4306211465
 30
0.0
 10
7.2640353293
 20
10.4319095278
 30
0.0
 10
7.264035362
 20
10.4338656784
 30
0.0
 10
7.2640297832
 20
10.4365934966
 30
0.0
 10
7.2640151199
 20
10.4401854494
 30
0.0
 10
7.263992134
 20
10.4441666209
 30
0.0
 10
7.2639615113
 20
10.4484783343
 30
0.0
 10
7.2639239303
 20
10.4530505165
 30
0.0
 10
7.2638801148
 20
10.4578113627
 30
0.0
 10
7.2638307639
 20
10.4626918876
 30
0.0
 10
7.263759157
 20
10.4692517942
 30
0.0
 10
7.2637000609
 20
10.4741777136
 30
0.0
 10
7.2636586014
 20
10.4774518439
 30
0.0
  0
SPLINE
  5
2E5
100
AcDbEntity
  8
0
100
AcDbSpline
 62
9
  6
CONTINUOUS
 70
0
 71
3
 72
25
 73
21
 74
0
 42
0.0000001
 43
0.0000001
 44
0.0000000001
 40
0.0
 40
0.0
 40
0.0
 40
0.0
 40
0.1800046116
 40
0.3634945956
 40
0.4533558014
 40
0.5400525923
 40
0.6220694935
 40
0.6978955698
 40
0.7661840407
 40
0.8262208726
 40
0.8774584891
 40
0.919372166
 40
0.9367084322
 40
0.9516850685
 40
0.9644010383
 40
0.9749713214
 40
0.9835405309
 40
0.9903121443
 40
0.9956120761
 40
1.0
 40
1.0
 40
1.0
 40
1.0
 10
7.2978743709
 20
11.4865666538
 30
0.0
 10
7.3014399942
 20
11.4865806401
 30
0.0
 10
7.308640648
 20
11.4865452332
 30
0.0
 10
7.3176193074
 20
11.4863381597
 30
0.0
 10
7.3247458047
 20
11.4860524681
 30
0.0
 10
7.3298609899
 20
11.4857851547
 30
0.0
 10
7.3346946779
 20
11.4854666167
 30
0.0
 10
7.3391592901
 20
11.4851002948
 30
0.0
 10
7.3431824301
 20
11.4846873329
 30
0.0
 10
7.3467113356
 20
11.4842380332
 30
0.0
 10
7.3497086489
 20
11.4837618456
 30
0.0
 10
7.3518553784
 20
11.4833293081
 30
0.0
 10
7.3532799165
 20
11.482963825
 30
0.0
 10
7.3541339388
 20
11.4827052834
 30
0.0
 10
7.3548467114
 20
11.4824460857
 30
0.0
 10
7.3554229244
 20
11.4821870585
 30
0.0
 10
7.3558680653
 20
11.4819288705
 30
0.0
 10
7.3561878627
 20
11.4816705568
 30
0.0
 10
7.3563891623
 20
11.4814078555
 30
0.0
 10
7.3564402249
 20
11.4812151913
 30
0.0
 10
7.3564406393
 20
11.4811282733
 30
0.0
  0
SPLINE
  5
2E6
100
AcDbEntity
  8
0
100
AcDbSpline
 62
9
  6
CONTINUOUS
 70
0
 71
3
 72
25
 73
21
 74
0
 42
0.0000001
 43
0.0000001
 44
0.0000000001
 40
0.0
 40
0.0
 40
0.0
 40
0.0
 40
0.004394372
 40
0.0096997848
 40
0.0164757478
 40
0.0250483676
 40
0.0356213049
 40
0.0483392907
 40
0.0633173711
 40
0.0806545424
 40
0.1225691752
 40
0.1738071001
 40
0.2338434377
 40
0.3021303828
 40
0.3779541125
 40
0.4599682897
 40
0.5466620517
 40
0.6365199812
 40
0.8200027557
 40
1.0
 40
1.0
 40
1.0
 40
1.0
 10
7.3610061594
 20
10.5235024262
 30
0.0
 10
7.3610065779
 20
10.523415377
 30
0.0
 10
7.3609573891
 20
10.523221984
 30
0.0
 10
7.3607586271
 20
10.5229569358
 30
0.0
 10
7.3604412972
 20
10.5226951503
 30
0.0
 10
7.3599986266
 20
10.5224323002
 30
0.0
 10
7.3594248997
 20
10.5221673642
 30
0.0
 10
7.358714627
 20
10.5219009569
 30
0.0
 10
7.3578631119
 20
10.521633861
 30
0.0
 10
7.3564421524
 20
10.5212542154
 30
0.0
 10
7.3542996568
 20
10.5208005183
 30
0.0
 10
7.3513070115
 20
10.5202949882
 30
0.0
 10
7.3477825408
 20
10.5198113141
 30
0.0
 10
7.3437635212
 20
10.519359315
 30
0.0
 10
7.3393026109
 20
10.5189498165
 30
0.0
 10
7.3344721855
 20
10.5185846579
 30
0.0
 10
7.3293597821
 20
10.5182681175
 30
0.0
 10
7.3222363376
 20
10.5179139762
 30
0.0
 10
7.313260063
 20
10.5176208996
 30
0.0
 10
7.3060600726
 20
10.5175167252
 30
0.0
 10
7.3024944801
 20
10.5174967081
 30
0.0
  0
SPLINE
  5
2E7
100
AcDbEntity
  8
0
100
AcDbSpline
 62
9
  6
CONTINUOUS
 70
0
 71
3
 72
32
 73
28
 74
0
 42
0.0000001
 43
0.0000001
 44
0.0000000001
 40
0.0
 40
0.0
 40
0.0
 40
0.0
 40
0.0003430567
 40
0.0011579255
 40
0.0024931348
 40
0.0043627938
 40
0.0067761786
 40
0.0097412007
 40
0.0132652401
 40
0.0173554279
 40
0.0272621268
 40
0.0395165837
 40
0.0541734687
 40
0.0712872014
 40
0.0908908431
 40
0.1129318421
 40
0.1373360459
 40
0.1640292628
 40
0.2239858401
 40
0.2922077012
 40
0.3679716206
 40
0.4500362217
 40
0.5370302127
 40
0.6275822528
 40
0.720353083
 40
0.8141320113
 40
1.0
 40
1.0
 40
1.0
 40
1.0
 10
7.2746458248
 20
11.5776690991
 30
0.0
 10
7.274639895
 20
11.5776702911
 30
0.0
 10
7.2746246199
 20
11.5776486254
 30
0.0
 10
7.274609296
 20
11.5776125529
 30
0.0
 10
7.2745846621
 20
11.5775432711
 30
0.0
 10
7.274556863
 20
11.5774493724
 30
0.0
 10
7.2745231139
 20
11.5773256479
 30
0.0
 10
7.2744846174
 20
11.5771736443
 30
0.0
 10
7.2744409036
 20
11.576992256
 30
0.0
 10
7.2743712709
 20
11.5766913164
 30
0.0
 10
7.2742717628
 20
11.5762392757
 30
0.0
 10
7.2741376848
 20
11.5756041366
 30
0.0
 10
7.2739821156
 20
11.5748436736
 30
0.0
 10
7.2738047418
 20
11.5739554293
 30
0.0
 10
7.2736056065
 20
11.5729387775
 30
0.0
 10
7.2733850231
 20
11.5717953518
 30
0.0
 10
7.273143688
 20
11.5705286321
 30
0.0
 10
7.2727809579
 20
11.5686045305
 30
0.0
 10
7.2722818972
 20
11.5659199782
 30
0.0
 10
7.2716335479
 20
11.5623832035
 30
0.0
 10
7.2709230506
 20
11.5584615489
 30
0.0
 10
7.270160473
 20
11.5542129772
 30
0.0
 10
7.2693580077
 20
11.5497066736
 30
0.0
 10
7.2685281123
 20
11.5450135273
 30
0.0
 10
7.2676827487
 20
11.5402016383
 30
0.0
 10
7.2665529797
 20
11.5337334656
 30
0.0
 10
7.265711082
 20
11.5288754187
 30
0.0
 10
7.2651541513
 20
11.5256460522
 30
0.0
  0
SPLINE
  5
2E8
100
AcDbEntity
  8
0
100
AcDbSpline
 62
9
  6
CONTINUOUS
 70
0
 71
3
 72
11
 73
7
 74
0
 42
0.0000001
 43
0.0000001
 44
0.0000000001
 40
0.0
 40
0.0
 40
0.0
 40
0.0
 40
0.2650510467
 40
0.5178180999
 40
0.7613825229
 40
1.0
 40
1.0
 40
1.0
 40
1.0
 10
7.3574522485
 20
11.268962989
 30
0.0
 10
7.3586872241
 20
11.2702921203
 30
0.0
 10
7.3609048098
 20
11.2730817687
 30
0.0
 10
7.3633987421
 20
11.2776909114
 30
0.0
 10
7.3649150446
 20
11.2825212022
 30
0.0
 10
7.365245924
 20
11.2858331639
 30
0.0
 10
7.3652381368
 20
11.2874665225
 30
0.0
  0
SPLINE
  5
2E9
100
AcDbEntity
  8
0
100
AcDbSpline
 62
9
  6
CONTINUOUS
 70
0
 71
3
 72
11
 73
7
 74
0
 42
0.0000001
 43
0.0000001
 44
0.0000000001
 40
0.0
 40
0.0
 40
0.0
 40
0.0
 40
0.2650510467
 40
0.5178180999
 40
0.7613825229
 40
1.0
 40
1.0
 40
1.0
 40
1.0
 10
7.3566125618
 20
11.4450876432
 30
0.0
 10
7.3578601545
 20
11.4437703478
 30
0.0
 10
7.3601042384
 20
11.4410019707
 30
0.0
 10
7.3626420051
 20
11.436416817
 30
0.0
 10
7.3642042951
 20
11.4316012037
 30
0.0
 10
7.3645667388
 20
11.4282925473
 30
0.0
 10
7.364574526
 20
11.4266591888
 30
0.0
  0
SPLINE
  5
2EA
100
AcDbEntity
  8
0
100
AcDbSpline
 62
9
  6
CONTINUOUS
 70
0
 71
3
 72
40
 73
36
 74
0
 42
0.0000001
 43
0.0000001
 44
0.0000000001
 40
0.0
 40
0.0
 40
0.0
 40
0.0
 40
0.045386523
 40
0.0904920511
 40
0.1351960355
 40
0.1793999521
 40
0.2229928272
 40
0.2445252952
 40
0.2658599571
 40
0.3078831341
 40
0.3490071313
 40
0.3892140122
 40
0.4285080158
 40
0.4668845828
 40
0.5043277756
 40
0.5408287793
 40
0.5763700192
 40
0.6109308588
 40
0.6444782011
 40
0.6769743271
 40
0.7083729471
 40
0.7386282634
 40
0.7676867596
 40
0.8219195576
 40
0.8469525405
 40
0.8705036828
 40
0.8925062912
 40
0.9128959946
 40
0.9316146117
 40
0.9486147092
 40
0.9638789828
 40
0.9774533007
 40
0.9836373151
 40
0.9894390535
 40
1.0
 40
1.0
 40
1.0
 40
1.0
 10
6.9131073858
 20
11.600643973
 30
0.0
 10
6.9115566533
 20
11.6060469822
 30
0.0
 10
6.9087803647
 20
11.6169135867
 30
0.0
 10
6.9056655799
 20
11.6333769563
 30
0.0
 10
6.9036730648
 20
11.6498677842
 30
0.0
 10
6.9028428816
 20
11.6662705003
 30
0.0
 10
6.9031425286
 20
11.6798213677
 30
0.0
 10
6.9039920375
 20
11.6904981262
 30
0.0
 10
6.905234018
 20
11.7009405024
 30
0.0
 10
6.9075078013
 20
11.7136937042
 30
0.0
 10
6.9113388621
 20
11.728497356
 30
0.0
 10
6.9161129798
 20
11.7426660339
 30
0.0
 10
6.9216839123
 20
11.7561710848
 30
0.0
 10
6.9279172311
 20
11.7690022883
 30
0.0
 10
6.9347005593
 20
11.781155262
 30
0.0
 10
6.941921319
 20
11.792639203
 30
0.0
 10
6.9494739774
 20
11.8034740159
 30
0.0
 10
6.9572717387
 20
11.8136760309
 30
0.0
 10
6.9652322856
 20
11.823265456
 30
0.0
 10
6.9732879126
 20
11.8322551476
 30
0.0
 10
6.9813722381
 20
11.8406613436
 30
0.0
 10
6.9894292589
 20
11.8484942056
 30
0.0
 10
6.9998199433
 20
11.8579724715
 30
0.0
 10
7.0101499541
 20
11.8665511901
 30
0.0
 10
7.0203600619
 20
11.8741644334
 30
0.0
 10
7.0275525143
 20
11.8791374126
 30
0.0
 10
7.0344451496
 20
11.8835225867
 30
0.0
 10
7.041003232
 20
11.8873063064
 30
0.0
 10
7.0471911666
 20
11.8904758144
 30
0.0
 10
7.0529801289
 20
11.8930097655
 30
0.0
 10
7.0583453852
 20
11.8948848549
 30
0.0
 10
7.0625647377
 20
11.8959281471
 30
0.0
 10
7.0656968489
 20
11.896405694
 30
0.0
 10
7.0684805277
 20
11.8966321311
 30
0.0
 10
7.0705227451
 20
11.896550963
 30
0.0
 10
7.0718139588
 20
11.8963422135
 30
0.0
  0
LINE
  5
2EB
100
AcDbEntity
  8
0
100
AcDbLine
 62
9
  6
CONTINUOUS
 10
6.9373989522
 20
11.31467834
 11
6.8950596346
 21
11.0179717281
  0
SPLINE
  5
2EC
100
AcDbEntity
  8
0
100
AcDbSpline
 62
9
  6
CONTINUOUS
 70
0
 71
3
 72
12
 73
8
 74
0
 42
0.0000001
 43
0.0000001
 44
0.0000000001
 40
0.0
 40
0.0
 40
0.0
 40
0.0
 40
0.2784328111
 40
0.4066737823
 40
0.5297804785
 40
0.7666882142
 40
1.0
 40
1.0
 40
1.0
 40
1.0
 10
6.8784390753
 20
10.4465576421
 30
0.0
 10
6.8803891201
 20
10.4995782616
 30
0.0
 10
6.8830972782
 20
10.5770244899
 30
0.0
 10
6.8863058647
 20
10.6779252988
 30
0.0
 10
6.8890774442
 20
10.7709230418
 30
0.0
 10
6.8921315117
 20
10.8839427434
 30
0.0
 10
6.8941593645
 20
10.9735223183
 30
0.0
 10
6.8950682536
 20
11.0179715056
 30
0.0
  0
SPLINE
  5
2ED
100
AcDbEntity
  8
0
100
AcDbSpline
 62
9
  6
CONTINUOUS
 70
0
 71
3
 72
41
 73
37
 74
0
 42
0.0000001
 43
0.0000001
 44
0.0000000001
 40
0.0
 40
0.0
 40
0.0
 40
0.0
 40
0.0081253882
 40
0.012762863
 40
0.0178298377
 40
0.0233507098
 40
0.0293425358
 40
0.0427789452
 40
0.0581840487
 40
0.0755361846
 40
0.0947904635
 40
0.1158932721
 40
0.1387824868
 40
0.1633893117
 40
0.1896348632
 40
0.2174250387
 40
0.2466756086
 40
0.2773355145
 40
0.309355102
 40
0.342662313
 40
0.4128334869
 40
0.4495616292
 40
0.4873055536
 40
0.5260227479
 40
0.5656636925
 40
0.6061638595
 40
0.6474669916
 40
0.6895389035
 40
0.7323379359
 40
0.7757789721
 40
0.8197790423
 40
0.8642758608
 40
0.9092030816
 40
0.9318052497
 40
0.954484123
 40
1.0
 40
1.0
 40
1.0
 40
1.0
 10
6.9989530344
 20
10.0966558214
 30
0.0
 10
6.9979341666
 20
10.0968118711
 30
0.0
 10
6.9963711513
 20
10.0973119751
 30
0.0
 10
6.994340832
 20
10.0983088735
 30
0.0
 10
6.9926832379
 20
10.0993053935
 30
0.0
 10
6.9909607135
 20
10.1005143986
 30
0.0
 10
6.9884822823
 20
10.1024852855
 30
0.0
 10
6.985245081
 20
10.105502527
 30
0.0
 10
6.9812639383
 20
10.1098072327
 30
0.0
 10
6.9770628432
 20
10.1148985275
 30
0.0
 10
6.9726606765
 20
10.1207502579
 30
0.0
 10
6.9680799243
 20
10.1273391094
 30
0.0
 10
6.9633433007
 20
10.1346407593
 30
0.0
 10
6.9584767778
 20
10.1426310653
 30
0.0
 10
6.953504973
 20
10.1512812138
 30
0.0
 10
6.9484459967
 20
10.1605574802
 30
0.0
 10
6.9433209384
 20
10.1704328778
 30
0.0
 10
6.9381667503
 20
10.1808948304
 30
0.0
 10
6.9330173094
 20
10.1919298399
 30
0.0
 10
6.9260712644
 20
10.2076535131
 30
0.0
 10
6.919388605
 20
10.2241425685
 30
0.0
 10
6.9130049869
 20
10.2413460491
 30
0.0
 10
6.9082926576
 20
10.2549106976
 30
0.0
 10
6.9037729662
 20
10.2689295875
 30
0.0
 10
6.8994842747
 20
10.283386079
 30
0.0
 10
6.8954544887
 20
10.2982570651
 30
0.0
 10
6.8917197317
 20
10.3135228501
 30
0.0
 10
6.8883472471
 20
10.3291716961
 30
0.0
 10
6.8853945535
 20
10.3451811708
 30
0.0
 10
6.8828788561
 20
10.3615125957
 30
0.0
 10
6.8808300914
 20
10.3781265006
 30
0.0
 10
6.8793012723
 20
10.3949859172
 30
0.0
 10
6.8785041365
 20
10.4091779436
 30
0.0
 10
6.8781773418
 20
10.4206172949
 30
0.0
 10
6.8780649424
 20
10.4321352994
 30
0.0
 10
6.8782220913
 20
10.440787359
 30
0.0
 10
6.8784337461
 20
10.4465574098
 30
0.0
  0
LINE
  5
2EE
100
AcDbEntity
  8
0
100
AcDbLine
 62
9
  6
CONTINUOUS
 10
7.2064691984
 20
11.6884207593
 11
7.204712721
 21
11.6881322764
  0
SPLINE
  5
2EF
100
AcDbEntity
  8
0
100
AcDbSpline
 62
9
  6
CONTINUOUS
 70
0
 71
3
 72
14
 73
10
 74
0
 42
0.0000001
 43
0.0000001
 44
0.0000000001
 40
0.0
 40
0.0
 40
0.0
 40
0.0
 40
0.1296994826
 40
0.193261506
 40
0.2561932971
 40
0.3807416106
 40
0.5043986879
 40
0.7513910285
 40
1.0
 40
1.0
 40
1.0
 40
1.0
 10
7.1290747562
 20
11.4442544565
 30
0.0
 10
7.1281813578
 20
11.4455144068
 30
0.0
 10
7.1267403672
 20
11.447316273
 30
0.0
 10
7.1246679999
 20
11.4495559512
 30
0.0
 10
7.1225499859
 20
11.4516669452
 30
0.0
 10
7.1197840561
 20
11.4541368774
 30
0.0
 10
7.11516002
 20
11.4578006565
 30
0.0
 10
7.1090628285
 20
11.4619648083
 30
0.0
 10
7.1039697335
 20
11.4649543375
 30
0.0
 10
7.1013760578
 20
11.4663819347
 30
0.0
  0
SPLINE
  5
2F0
100
AcDbEntity
  8
0
100
AcDbSpline
 62
9
  6
CONTINUOUS
 70
0
 71
3
 72
11
 73
7
 74
0
 42
0.0000001
 43
0.0000001
 44
0.0000000001
 40
0.0
 40
0.0
 40
0.0
 40
0.0
 40
0.2664813733
 40
0.5172695558
 40
0.7603943222
 40
1.0
 40
1.0
 40
1.0
 40
1.0
 10
7.13379442
 20
11.4351255383
 30
0.0
 10
7.1335537587
 20
11.436010389
 30
0.0
 10
7.1329393493
 20
11.4376886987
 30
0.0
 10
7.1317764028
 20
11.4400356105
 30
0.0
 10
7.1304826596
 20
11.4422052678
 30
0.0
 10
7.1295517242
 20
11.4435819081
 30
0.0
 10
7.1290747562
 20
11.4442544565
 30
0.0
  0
SPLINE
  5
2F1
100
AcDbEntity
  8
0
100
AcDbSpline
 62
9
  6
CONTINUOUS
 70
0
 71
3
 72
10
 73
6
 74
0
 42
0.0000001
 43
0.0000001
 44
0.0000000001
 40
0.0
 40
0.0
 40
0.0
 40
0.0
 40
0.5284628058
 40
0.7708839488
 40
1.0
 40
1.0
 40
1.0
 40
1.0
 10
7.134153362
 20
11.4299678167
 30
0.0
 10
7.1343026734
 20
11.4308719668
 30
0.0
 10
7.1343318194
 20
11.4322275515
 30
0.0
 10
7.1340856695
 20
11.433944892
 30
0.0
 10
7.1338983734
 20
11.4347420738
 30
0.0
 10
7.13379442
 20
11.4351255383
 30
0.0
  0
SPLINE
  5
2F2
100
AcDbEntity
  8
0
100
AcDbSpline
 62
9
  6
CONTINUOUS
 70
0
 71
3
 72
13
 73
9
 74
0
 42
0.0000001
 43
0.0000001
 44
0.0000000001
 40
0.0
 40
0.0
 40
0.0
 40
0.0
 40
0.2142219483
 40
0.4428381593
 40
0.5665971446
 40
0.7001559104
 40
0.8456563394
 40
1.0
 40
1.0
 40
1.0
 40
1.0
 10
7.127750414
 20
11.4210684314
 30
0.0
 10
7.1283946012
 20
11.4215468825
 30
0.0
 10
7.1296893015
 20
11.4225871965
 30
0.0
 10
7.1311949273
 20
11.4240931544
 30
0.0
 10
7.1323181793
 20
11.4255286223
 30
0.0
 10
7.1331160814
 20
11.4268138332
 30
0.0
 10
7.1337766753
 20
11.4283032666
 30
0.0
 10
7.1340592165
 20
11.4293973955
 30
0.0
 10
7.134153362
 20
11.4299678167
 30
0.0
  0
SPLINE
  5
2F3
100
AcDbEntity
  8
0
100
AcDbSpline
 62
9
  6
CONTINUOUS
 70
0
 71
3
 72
9
 73
5
 74
0
 42
0.0000001
 43
0.0000001
 44
0.0000000001
 40
0.0
 40
0.0
 40
0.0
 40
0.0
 40
0.484588349
 40
1.0
 40
1.0
 40
1.0
 40
1.0
 10
7.1184778231
 20
11.4163390319
 30
0.0
 10
7.1200646503
 20
11.4169079389
 30
0.0
 10
7.1232864177
 20
11.4182344019
 30
0.0
 10
7.12631096
 20
11.4199994848
 30
0.0
 10
7.127750414
 20
11.4210684314
 30
0.0
  0
LINE
  5
2F4
100
AcDbEntity
  8
0
100
AcDbLine
 62
9
  6
CONTINUOUS
 10
7.1170314809
 20
11.4158465954
 11
7.1184778231
 21
11.4163390319
  0
SPLINE
  5
2F5
100
AcDbEntity
  8
0
100
AcDbSpline
 62
9
  6
CONTINUOUS
 70
0
 71
3
 72
22
 73
18
 74
0
 42
0.0000001
 43
0.0000001
 44
0.0000000001
 40
0.0
 40
0.0
 40
0.0
 40
0.0
 40
0.1367441893
 40
0.2698186259
 40
0.3991849069
 40
0.5248862763
 40
0.5864067502
 40
0.6470818252
 40
0.7069648839
 40
0.7661359825
 40
0.8247158586
 40
0.8538416054
 40
0.8829082696
 40
0.9119724613
 40
0.9411036781
 40
0.9703993175
 40
1.0
 40
1.0
 40
1.0
 40
1.0
 10
6.9838804843
 20
11.4197523981
 30
0.0
 10
6.9899204623
 20
11.4188281733
 30
0.0
 10
7.0018544466
 20
11.4171078823
 30
0.0
 10
7.0195547708
 20
11.4148932592
 30
0.0
 10
7.0368077187
 20
11.4131069367
 30
0.0
 10
7.0509142599
 20
11.4120144273
 30
0.0
 10
7.0619770111
 20
11.411441073
 30
0.0
 10
7.0701094751
 20
11.411180553
 30
0.0
 10
7.0781411072
 20
11.411112973
 30
0.0
 10
7.086078174
 20
11.411270543
 30
0.0
 10
7.0926330737
 20
11.4116349494
 30
0.0
 10
7.0978307082
 20
11.4120990261
 30
0.0
 10
7.1017042435
 20
11.4125486015
 30
0.0
 10
7.1055621985
 20
11.4131190169
 30
0.0
 10
7.1094082646
 20
11.4138257939
 30
0.0
 10
7.1132429082
 20
11.4147084469
 30
0.0
 10
7.1157730495
 20
11.4154393776
 30
0.0
 10
7.1170314809
 20
11.4158465954
 30
0.0
  0
SPLINE
  5
2F6
100
AcDbEntity
  8
0
100
AcDbSpline
 62
9
  6
CONTINUOUS
 70
0
 71
3
 72
14
 73
10
 74
0
 42
0.0000001
 43
0.0000001
 44
0.0000000001
 40
0.0
 40
0.0
 40
0.0
 40
0.0
 40
0.1222705975
 40
0.2457583357
 40
0.3700536662
 40
0.4949666191
 40
0.620447007
 40
0.7464241728
 40
1.0
 40
1.0
 40
1.0
 40
1.0
 10
7.1013760578
 20
11.4663819347
 30
0.0
 10
7.0988294414
 20
11.4677836787
 30
0.0
 10
7.0936378192
 20
11.4704701218
 30
0.0
 10
7.085644156
 20
11.4741510411
 30
0.0
 10
7.0774454937
 20
11.4775177743
 30
0.0
 10
7.0690832323
 20
11.4805929181
 30
0.0
 10
7.0605890486
 20
11.4834105781
 30
0.0
 10
7.0490930367
 20
11.4868794713
 30
0.0
 10
7.0403638075
 20
11.4891787037
 30
0.0
 10
7.0345094912
 20
11.490617878
 30
0.0
  0
SPLINE
  5
2F7
100
AcDbEntity
  8
0
100
AcDbSpline
 62
9
  6
CONTINUOUS
 70
0
 71
3
 72
14
 73
10
 74
0
 42
0.0000001
 43
0.0000001
 44
0.0000000001
 40
0.0
 40
0.0
 40
0.0
 40
0.0
 40
0.265199664
 40
0.3952285398
 40
0.5230294593
 40
0.6481321925
 40
0.7699247712
 40
0.8876016949
 40
1.0
 40
1.0
 40
1.0
 40
1.0
 10
7.0345094912
 20
11.490617878
 30
0.0
 10
7.0269835006
 20
11.4938648517
 30
0.0
 10
7.0156894239
 20
11.498528461
 30
0.0
 10
7.0005605579
 20
11.5042267795
 30
0.0
 10
6.9893862557
 20
11.5081309241
 30
0.0
 10
6.9783496152
 20
11.5116446121
 30
0.0
 10
6.9675037607
 20
11.5147088742
 30
0.0
 10
6.9569260531
 20
11.5172480963
 30
0.0
 10
6.9499328857
 20
11.5185635576
 30
0.0
 10
6.9464989313
 20
11.5190888764
 30
0.0
  0
SPLINE
  5
2F8
100
AcDbEntity
  8
0
100
AcDbSpline
 62
9
  6
CONTINUOUS
 70
0
 71
3
 72
19
 73
15
 74
0
 42
0.0000001
 43
0.0000001
 44
0.0000000001
 40
0.0
 40
0.0
 40
0.0
 40
0.0
 40
0.1399526449
 40
0.2783216441
 40
0.4136348766
 40
0.479731203
 40
0.5445766346
 40
0.6699176165
 40
0.7301331658
 40
0.7885069988
 40
0.8448724234
 40
0.8990490045
 40
0.9508396327
 40
1.0
 40
1.0
 40
1.0
 40
1.0
 10
14.7069901836
 20
4.4828035082
 30
0.0
 10
14.6932743509
 20
4.4828035276
 30
0.0
 10
14.6659883594
 20
4.4837502448
 30
0.0
 10
14.6256375641
 20
4.4879246018
 30
0.0
 10
14.5927863478
 20
4.4935177306
 30
0.0
 10
14.5672890528
 20
4.4990804105
 30
0.0
 10
14.5429125205
 20
4.5051446978
 30
0.0
 10
14.5193471744
 20
4.5120385593
 30
0.0
 10
14.4966571665
 20
4.5195699694
 30
0.0
 10
14.4805015798
 20
4.5253173148
 30
0.0
 10
14.4650106286
 20
4.5311570245
 30
0.0
 10
14.4502141493
 20
4.5370035902
 30
0.0
 10
14.4361449784
 20
4.5427654133
 30
0.0
 10
14.4270209451
 20
4.5465910237
 30
0.0
 10
14.42258112
 20
4.5484618371
 30
0.0
  0
SPLINE
  5
2F9
100
AcDbEntity
  8
0
100
AcDbSpline
 62
9
  6
CONTINUOUS
 70
0
 71
3
 72
17
 73
13
 74
0
 42
0.0000001
 43
0.0000001
 44
0.0000000001
 40
0.0
 40
0.0
 40
0.0
 40
0.0
 40
0.1563321081
 40
0.3034590648
 40
0.4407063283
 40
0.5679883966
 40
0.6858905311
 40
0.7957130702
 40
0.8482526898
 40
0.8995872561
 40
0.9500577257
 40
1.0
 40
1.0
 40
1.0
 40
1.0
 10
15.024253817
 20
4.610847681
 30
0.0
 10
15.0238741302
 20
4.6070195638
 30
0.0
 10
15.0228882304
 20
4.5996098207
 30
0.0
 10
15.0206172787
 20
4.5889929181
 30
0.0
 10
15.0175934188
 20
4.5793074694
 30
0.0
 10
15.0138185379
 20
4.5706627001
 30
0.0
 10
15.0093011832
 20
4.5631532572
 30
0.0
 10
15.0048611185
 20
4.5578302638
 30
0.0
 10
15.0009775775
 20
4.5542752744
 30
0.0
 10
14.9979452849
 20
4.5519784831
 30
0.0
 10
14.9947590712
 20
4.5500203812
 30
0.0
 10
14.992531009
 20
4.5489408062
 30
0.0
 10
14.9913992471
 20
4.5484618371
 30
0.0
  0
SPLINE
  5
2FA
100
AcDbEntity
  8
0
100
AcDbSpline
 62
9
  6
CONTINUOUS
 70
0
 71
3
 72
17
 73
13
 74
0
 42
0.0000001
 43
0.0000001
 44
0.0000000001
 40
0.0
 40
0.0
 40
0.0
 40
0.0
 40
0.0499440567
 40
0.1004152638
 40
0.1517483894
 40
0.2042862454
 40
0.3141095675
 40
0.4320122211
 40
0.559294413
 40
0.696541379
 40
0.8436679889
 40
1.0
 40
1.0
 40
1.0
 40
1.0
 10
14.42258112
 20
4.5484618371
 30
0.0
 10
14.4214493143
 20
4.5489408156
 30
0.0
 10
14.4192211887
 20
4.5500204028
 30
0.0
 10
14.4160349406
 20
4.5519785027
 30
0.0
 10
14.4130027233
 20
4.554275298
 30
0.0
 10
14.4091193083
 20
4.5578303333
 30
0.0
 10
14.4046791779
 20
4.5631532476
 30
0.0
 10
14.4001617817
 20
4.5706627158
 30
0.0
 10
14.3963868644
 20
4.5793074779
 30
0.0
 10
14.3933630609
 20
4.588992941
 30
0.0
 10
14.3910922933
 20
4.5996098529
 30
0.0
 10
14.3901061222
 20
4.6070195543
 30
0.0
 10
14.3897265501
 20
4.610847681
 30
0.0
  0
SPLINE
  5
2FB
100
AcDbEntity
  8
0
100
AcDbSpline
 62
9
  6
CONTINUOUS
 70
0
 71
3
 72
23
 73
19
 74
0
 42
0.0000001
 43
0.0000001
 44
0.0000000001
 40
0.0
 40
0.0
 40
0.0
 40
0.0
 40
0.0582125411
 40
0.1154204186
 40
0.1719685546
 40
0.2282140103
 40
0.2845196054
 40
0.3412470055
 40
0.3987499181
 40
0.4573680139
 40
0.5174220436
 40
0.5792103999
 40
0.6430071443
 40
0.7090613446
 40
0.7775974614
 40
0.8488164925
 40
0.9228976007
 40
1.0
 40
1.0
 40
1.0
 40
1.0
 10
7.0718139588
 20
11.8963422135
 30
0.0
 10
7.0715393046
 20
11.8912978031
 30
0.0
 10
7.0713585379
 20
11.8812717793
 30
0.0
 10
7.0722334523
 20
11.8663589741
 30
0.0
 10
7.07425796
 20
11.8517292879
 30
0.0
 10
7.0774324312
 20
11.8373855201
 30
0.0
 10
7.0817566049
 20
11.8233292085
 30
0.0
 10
7.0872296769
 20
11.8095620588
 30
0.0
 10
7.0938504037
 20
11.7960853111
 30
0.0
 10
7.101617298
 20
11.782899746
 30
0.0
 10
7.1105288296
 20
11.770005639
 30
0.0
 10
7.1205835953
 20
11.7574028368
 30
0.0
 10
7.1317804253
 20
11.7450908697
 30
0.0
 10
7.1441184368
 20
11.7330690725
 30
0.0
 10
7.1575969947
 20
11.7213367155
 30
0.0
 10
7.1722158169
 20
11.7098930003
 30
0.0
 10
7.1879743687
 20
11.6987374559
 30
0.0
 10
7.1990133222
 20
11.6916378602
 30
0.0
 10
7.204712721
 20
11.6881322764
 30
0.0
  0
SPLINE
  5
2FC
100
AcDbEntity
  8
0
100
AcDbSpline
 62
9
  6
CONTINUOUS
 70
0
 71
3
 72
31
 73
27
 74
0
 42
0.0000001
 43
0.0000001
 44
0.0000000001
 40
0.0
 40
0.0
 40
0.0
 40
0.0
 40
0.0010493322
 40
0.002557768
 40
0.0045972997
 40
0.0071926288
 40
0.010352623
 40
0.0140796031
 40
0.0232266477
 40
0.0346058311
 40
0.0481756818
 40
0.063890513
 40
0.0817035033
 40
0.1015662744
 40
0.1234287679
 40
0.1729583988
 40
0.2299407919
 40
0.2941015742
 40
0.3651654552
 40
0.4426905207
 40
0.5259777064
 40
0.6142972382
 40
0.7067840384
 40
0.8025084213
 40
0.9005658016
 40
1.0
 40
1.0
 40
1.0
 40
1.0
 10
7.20471272
 20
11.688132277
 30
0.0
 10
7.2046584335
 20
11.6881243225
 30
0.0
 10
7.2045354665
 20
11.6880588763
 30
0.0
 10
7.2043627604
 20
11.6878916809
 30
0.0
 10
7.2041644276
 20
11.6876375986
 30
0.0
 10
7.2039434645
 20
11.6872949357
 30
0.0
 10
7.2036996098
 20
11.6868629498
 30
0.0
 10
7.2033195183
 20
11.6861155138
 30
0.0
 10
7.2028009508
 20
11.6849575595
 30
0.0
 10
7.2021335112
 20
11.6833042365
 30
0.0
 10
7.2013909196
 20
11.6813117002
 30
0.0
 10
7.200581488
 20
11.6789857767
 30
0.0
 10
7.1997137035
 20
11.676332304
 30
0.0
 10
7.1987940833
 20
11.6733580483
 30
0.0
 10
7.1974485422
 20
11.6687801418
 30
0.0
 10
7.1956801315
 20
11.6623042938
 30
0.0
 10
7.193513301
 20
11.6536468288
 30
0.0
 10
7.1912607912
 20
11.6438520684
 30
0.0
 10
7.188937242
 20
11.6329731324
 30
0.0
 10
7.186521134
 20
11.621092197
 30
0.0
 10
7.1839568955
 20
11.6083207727
 30
0.0
 10
7.1812770133
 20
11.5947746974
 30
0.0
 10
7.1784914279
 20
11.5805866588
 30
0.0
 10
7.1756368824
 20
11.5658932888
 30
0.0
 10
7.1727676139
 20
11.5508328117
 30
0.0
 10
7.1708723312
 20
11.5406820203
 30
0.0
 10
7.1699199788
 20
11.5355708939
 30
0.0
  0
SPLINE
  5
2FD
100
AcDbEntity
  8
0
100
AcDbSpline
 62
9
  6
CONTINUOUS
 70
0
 71
3
 72
13
 73
9
 74
0
 42
0.0000001
 43
0.0000001
 44
0.0000000001
 40
0.0
 40
0.0
 40
0.0
 40
0.0
 40
0.1261386681
 40
0.2525034262
 40
0.3787344326
 40
0.5045863133
 40
0.7542692466
 40
1.0
 40
1.0
 40
1.0
 40
1.0
 10
7.1373345725
 20
11.539175892
 30
0.0
 10
7.1328663576
 20
11.5415071798
 30
0.0
 10
7.123816527
 20
11.5459739706
 30
0.0
 10
7.1100004452
 20
11.5521532539
 30
0.0
 10
7.0960036232
 20
11.5578801585
 30
0.0
 10
7.0772406495
 20
11.5649477609
 30
0.0
 10
7.0536946608
 20
11.5728346294
 30
0.0
 10
7.0346662941
 20
11.5783103816
 30
0.0
 10
7.0251761863
 20
11.5808268601
 30
0.0
  0
SPLINE
  5
2FE
100
AcDbEntity
  8
0
100
AcDbSpline
 62
9
  6
CONTINUOUS
 70
0
 71
3
 72
16
 73
12
 74
0
 42
0.0000001
 43
0.0000001
 44
0.0000000001
 40
0.0
 40
0.0
 40
0.0
 40
0.0
 40
0.2650299864
 40
0.3950679035
 40
0.5228861041
 40
0.6479694821
 40
0.7092971621
 40
0.7697014611
 40
0.8290740312
 40
0.8873200005
 40
1.0
 40
1.0
 40
1.0
 40
1.0
 10
7.0251761863
 20
11.5808268601
 30
0.0
 10
7.0154283892
 20
11.5834116233
 30
0.0
 10
7.0008794641
 20
11.5871999361
 30
0.0
 10
6.9815200227
 20
11.5917955365
 30
0.0
 10
6.9672721593
 20
11.5948549881
 30
0.0
 10
6.9555099726
 20
11.5970185014
 30
0.0
 10
6.9462253909
 20
11.5984367852
 30
0.0
 10
6.9393902129
 20
11.5993191036
 30
0.0
 10
6.9326498622
 20
11.6000044543
 30
0.0
 10
6.9239073636
 20
11.6006159181
 30
0.0
 10
6.9173963263
 20
11.6007343019
 30
0.0
 10
6.9131099425
 20
11.600632512
 30
0.0
  0
LINE
  5
2FF
100
AcDbEntity
  8
0
100
AcDbLine
 62
9
  6
CONTINUOUS
 10
7.1699200327
 20
11.5355708884
 11
7.1640398769
 21
11.5110439318
  0
SPLINE
  5
300
100
AcDbEntity
  8
0
100
AcDbSpline
 62
9
  6
CONTINUOUS
 70
0
 71
3
 72
13
 73
9
 74
0
 42
0.0000001
 43
0.0000001
 44
0.0000000001
 40
0.0
 40
0.0
 40
0.0
 40
0.0
 40
0.2542046596
 40
0.380114663
 40
0.5052520013
 40
0.6297275561
 40
0.7536280038
 40
1.0
 40
1.0
 40
1.0
 40
1.0
 10
7.1640398769
 20
11.5110439318
 30
0.0
 10
7.1623204176
 20
11.513872392
 30
0.0
 10
7.1595215943
 20
11.5179705214
 30
0.0
 10
7.1553668253
 20
11.5230748823
 30
0.0
 10
7.1520716008
 20
11.5266911624
 30
0.0
 10
7.1486059889
 20
11.530106926
 30
0.0
 10
7.1437869054
 20
11.5343856891
 30
0.0
 10
7.1399548233
 20
11.5373250865
 30
0.0
 10
7.1373344445
 20
11.5391759073
 30
0.0
  0
SPLINE
  5
301
100
AcDbEntity
  8
0
100
AcDbSpline
 62
9
  6
CONTINUOUS
 70
0
 71
3
 72
12
 73
8
 74
0
 42
0.0000001
 43
0.0000001
 44
0.0000000001
 40
0.0
 40
0.0
 40
0.0
 40
0.0
 40
0.2500070746
 40
0.5000122456
 40
0.6250149016
 40
0.7500173069
 40
1.0
 40
1.0
 40
1.0
 40
1.0
 10
7.129907304
 20
11.3592316524
 30
0.0
 10
7.1233951455
 20
11.3304236974
 30
0.0
 10
7.1112259965
 20
11.2726115382
 30
0.0
 10
7.0980543427
 20
11.1999494654
 30
0.0
 10
7.0887008899
 20
11.141623854
 30
0.0
 10
7.0801254445
 20
11.0831818801
 30
0.0
 10
7.0745652422
 20
11.0392261003
 30
0.0
 10
7.071246866
 20
11.0098811736
 30
0.0
  0
SPLINE
  5
302
100
AcDbEntity
  8
0
100
AcDbSpline
 62
9
  6
CONTINUOUS
 70
0
 71
3
 72
12
 73
8
 74
0
 42
0.0000001
 43
0.0000001
 44
0.0000000001
 40
0.0
 40
0.0
 40
0.0
 40
0.0
 40
0.2516091803
 40
0.5021530307
 40
0.6270113449
 40
0.7515979736
 40
1.0
 40
1.0
 40
1.0
 40
1.0
 10
6.8950620249
 20
11.01797122
 30
0.0
 10
6.9098614034
 20
11.0179818067
 30
0.0
 10
6.9393984863
 20
11.0177843626
 30
0.0
 10
6.9762683325
 20
11.0167557801
 30
0.0
 10
7.0056433693
 20
11.0153232449
 30
0.0
 10
7.034866324
 20
11.0134403188
 30
0.0
 10
7.0567229367
 20
11.0114715293
 30
0.0
 10
7.071246866
 20
11.0098811736
 30
0.0
  0
SPLINE
  5
303
100
AcDbEntity
  8
0
100
AcDbSpline
 62
9
  6
CONTINUOUS
 70
0
 71
3
 72
26
 73
22
 74
0
 42
0.0000001
 43
0.0000001
 44
0.0000000001
 40
0.0
 40
0.0
 40
0.0
 40
0.0
 40
0.1168022949
 40
0.1754968518
 40
0.2344267306
 40
0.2936532347
 40
0.3532483423
 40
0.4132967432
 40
0.4739017045
 40
0.5351865672
 40
0.5973055886
 40
0.6604320345
 40
0.7247698073
 40
0.7574770263
 40
0.7905902223
 40
0.8241390677
 40
0.8581550939
 40
0.8926843418
 40
0.9278005702
 40
0.9635731249
 40
1.0
 40
1.0
 40
1.0
 40
1.0
 10
6.937402063
 20
11.3146775049
 30
0.0
 10
6.9452372296
 20
11.3133679253
 30
0.0
 10
6.9570981855
 20
11.3118852704
 30
0.0
 10
6.9730123679
 20
11.310871263
 30
0.0
 10
6.9850407442
 20
11.310594896
 30
0.0
 10
6.9971311661
 20
11.3108241732
 30
0.0
 10
7.0092770307
 20
11.3115751554
 30
0.0
 10
7.02147046
 20
11.3128812366
 30
0.0
 10
7.0337035012
 20
11.314774134
 30
0.0
 10
7.045965163
 20
11.3173055025
 30
0.0
 10
7.0582403219
 20
11.3205342502
 30
0.0
 10
7.0705099965
 20
11.324519735
 30
0.0
 10
7.0806571598
 20
11.3285045967
 30
0.0
 10
7.0887246016
 20
11.332152218
 30
0.0
 10
7.0947820981
 20
11.3351522668
 30
0.0
 10
7.1008062029
 20
11.3384102698
 30
0.0
 10
7.1067921604
 20
11.3419320302
 30
0.0
 10
7.1127272039
 20
11.3457409462
 30
0.0
 10
7.1185855083
 20
11.349878802
 30
0.0
 10
7.1243394335
 20
11.3543734276
 30
0.0
 10
7.1280654131
 20
11.3575748149
 30
0.0
 10
7.129907304
 20
11.3592316524
 30
0.0
  0
SPLINE
  5
304
100
AcDbEntity
  8
0
100
AcDbSpline
 62
9
  6
CONTINUOUS
 70
0
 71
3
 72
13
 73
9
 74
0
 42
0.0000001
 43
0.0000001
 44
0.0000000001
 40
0.0
 40
0.0
 40
0.0
 40
0.0
 40
0.249972704
 40
0.4999554127
 40
0.6249689844
 40
0.749985831
 40
0.874997604
 40
1.0
 40
1.0
 40
1.0
 40
1.0
 10
7.0674584245
 20
10.9745191283
 30
0.0
 10
7.0634027652
 20
10.9293794923
 30
0.0
 10
7.0571255238
 20
10.8389230402
 30
0.0
 10
7.0539004833
 20
10.7256269906
 30
0.0
 10
7.0539928821
 20
10.6349671085
 30
0.0
 10
7.0553767093
 20
10.5669794821
 30
0.0
 10
7.0580637133
 20
10.499033441
 30
0.0
 10
7.0607117987
 20
10.4537788002
 30
0.0
 10
7.0622400561
 20
10.4311667448
 30
0.0
  0
SPLINE
  5
305
100
AcDbEntity
  8
0
100
AcDbSpline
 62
9
  6
CONTINUOUS
 70
0
 71
3
 72
14
 73
10
 74
0
 42
0.0000001
 43
0.0000001
 44
0.0000000001
 40
0.0
 40
0.0
 40
0.0
 40
0.0
 40
0.104350192
 40
0.2145187352
 40
0.3305541521
 40
0.4524979616
 40
0.5803859284
 40
0.7142490529
 40
1.0
 40
1.0
 40
1.0
 40
1.0
 10
6.8784337461
 20
10.4465574098
 30
0.0
 10
6.8848540289
 20
10.4465370655
 30
0.0
 10
6.8980524268
 20
10.4463281345
 30
0.0
 10
6.9183770973
 20
10.4455581821
 30
0.0
 10
6.939763116
 20
10.4443230928
 30
0.0
 10
6.9622104523
 20
10.4426227516
 30
0.0
 10
6.9857193583
 20
10.4404571573
 30
0.0
 10
7.0192146834
 20
10.4368700382
 30
0.0
 10
7.0448265539
 20
10.4335899119
 30
0.0
 10
7.0622400561
 20
10.4311667448
 30
0.0
  0
SPLINE
  5
306
100
AcDbEntity
  8
0
100
AcDbSpline
 62
9
  6
CONTINUOUS
 70
0
 71
3
 72
12
 73
8
 74
0
 42
0.0000001
 43
0.0000001
 44
0.0000000001
 40
0.0
 40
0.0
 40
0.0
 40
0.0
 40
0.2506125909
 40
0.5007920411
 40
0.625735097
 40
0.750579322
 40
1.0
 40
1.0
 40
1.0
 40
1.0
 10
6.8950620249
 20
11.01797122
 30
0.0
 10
6.909728017
 20
11.0155453394
 30
0.0
 10
6.9389180573
 20
11.0099702152
 30
0.0
 10
6.9750467061
 20
11.0014234819
 30
0.0
 10
7.003705355
 20
10.9937925691
 30
0.0
 10
7.0321868856
 20
10.9856887821
 30
0.0
 10
7.053392096
 20
10.9791036347
 30
0.0
 10
7.0674584245
 20
10.9745191283
 30
0.0
  0
SPLINE
  5
307
100
AcDbEntity
  8
0
100
AcDbSpline
 62
9
  6
CONTINUOUS
 70
0
 71
3
 72
33
 73
29
 74
0
 42
0.0000001
 43
0.0000001
 44
0.0000000001
 40
0.0
 40
0.0
 40
0.0
 40
0.0
 40
0.0966133496
 40
0.1920879346
 40
0.28556719
 40
0.3762604236
 40
0.4633791083
 40
0.5462049913
 40
0.6241229223
 40
0.6964663408
 40
0.7625341109
 40
0.8216612866
 40
0.8484309689
 40
0.8732291808
 40
0.8959705443
 40
0.9165794454
 40
0.9349928811
 40
0.951152912
 40
0.9650147479
 40
0.976542287
 40
0.9814238879
 40
0.9857157271
 40
0.9894195983
 40
0.992541741
 40
0.9950990852
 40
0.9971283032
 40
0.9987068003
 40
1.0
 40
1.0
 40
1.0
 40
1.0
 10
7.0622400209
 20
10.4311667497
 30
0.0
 10
7.0623916086
 20
10.4258057144
 30
0.0
 10
7.062722454
 20
10.4151476074
 30
0.0
 10
7.0633476068
 20
10.3993073683
 30
0.0
 10
7.0641178588
 20
10.3838024766
 30
0.0
 10
7.0650369085
 20
10.368770339
 30
0.0
 10
7.0661065354
 20
10.3543409523
 30
0.0
 10
7.0673416181
 20
10.3406365908
 30
0.0
 10
7.0687146368
 20
10.327769953
 30
0.0
 10
7.0701985759
 20
10.3158524724
 30
0.0
 10
7.071769542
 20
10.3049990797
 30
0.0
 10
7.0731726751
 20
10.29667972
 30
0.0
 10
7.0743224645
 20
10.2906431739
 30
0.0
 10
7.0751549509
 20
10.2866028361
 30
0.0
 10
7.0759795709
 20
10.2829105651
 30
0.0
 10
7.0767895481
 20
10.279578761
 30
0.0
 10
7.077577788
 20
10.2766183572
 30
0.0
 10
7.0783375097
 20
10.2740387676
 30
0.0
 10
7.0790617957
 20
10.2718484936
 30
0.0
 10
7.0796586534
 20
10.2702766649
 30
0.0
 10
7.0801195507
 20
10.2692237389
 30
0.0
 10
7.0804320211
 20
10.2685805521
 30
0.0
 10
7.0807295194
 20
10.2680394177
 30
0.0
 10
7.0810109276
 20
10.2676004963
 30
0.0
 10
7.0812757216
 20
10.2672630551
 30
0.0
 10
7.0815251162
 20
10.2670263331
 30
0.0
 10
7.0817637199
 20
10.2668870892
 30
0.0
 10
7.0819293624
 20
10.2668686953
 30
0.0
 10
7.0820000962
 20
10.2668809518
 30
0.0
  0
SPLINE
  5
308
100
AcDbEntity
  8
0
100
AcDbSpline
 62
9
  6
CONTINUOUS
 70
0
 71
3
 72
15
 73
11
 74
0
 42
0.0000001
 43
0.0000001
 44
0.0000000001
 40
0.0
 40
0.0
 40
0.0
 40
0.0
 40
0.1211383329
 40
0.2415306906
 40
0.3621276166
 40
0.483874863
 40
0.607691825
 40
0.7344528714
 40
0.8649732159
 40
1.0
 40
1.0
 40
1.0
 40
1.0
 10
6.9989530344
 20
10.0966558214
 30
0.0
 10
6.9997442675
 20
10.1044088212
 30
0.0
 10
7.0019917886
 20
10.1198078629
 30
0.0
 10
7.0073959419
 20
10.1424997315
 30
0.0
 10
7.0148141418
 20
10.1646582598
 30
0.0
 10
7.0242440273
 20
10.1862774438
 30
0.0
 10
7.0356824273
 20
10.2073551246
 30
0.0
 10
7.0491259427
 20
10.2278900365
 30
0.0
 10
7.0645700074
 20
10.2478810024
 30
0.0
 10
7.075987288
 20
10.2606115008
 30
0.0
 10
7.0820000962
 20
10.2668809518
 30
0.0
  0
LINE
  5
309
100
AcDbEntity
  8
0
100
AcDbLine
 62
9
  6
CONTINUOUS
 10
7.0819999676
 20
10.2668808177
 11
7.0845862864
 21
10.2672668441
  0
SPLINE
  5
30A
100
AcDbEntity
  8
0
100
AcDbSpline
 62
9
  6
CONTINUOUS
 70
0
 71
3
 72
19
 73
15
 74
0
 42
0.0000001
 43
0.0000001
 44
0.0000000001
 40
0.0
 40
0.0
 40
0.0
 40
0.0
 40
0.0491603327
 40
0.1009510138
 40
0.1551277458
 40
0.2114931732
 40
0.2698669049
 40
0.3300824481
 40
0.4554234434
 40
0.5202688597
 40
0.5863652081
 40
0.7216784932
 40
0.860047495
 40
1.0
 40
1.0
 40
1.0
 40
1.0
 10
14.9913992471
 20
4.5484618371
 30
0.0
 10
14.9869594254
 20
4.5465910245
 30
0.0
 10
14.9778353911
 20
4.5427654121
 30
0.0
 10
14.9637662039
 20
4.5370035851
 30
0.0
 10
14.9489697036
 20
4.5311570181
 30
0.0
 10
14.9334787485
 20
4.5253173043
 30
0.0
 10
14.9173231728
 20
4.519569959
 30
0.0
 10
14.8946331731
 20
4.5120385538
 30
0.0
 10
14.8710678276
 20
4.5051446945
 30
0.0
 10
14.8466912948
 20
4.4990804009
 30
0.0
 10
14.8211939927
 20
4.493517728
 30
0.0
 10
14.7883427695
 20
4.4879245911
 30
0.0
 10
14.747991978
 20
4.4837502889
 30
0.0
 10
14.7207060024
 20
4.4828035305
 30
0.0
 10
14.7069901836
 20
4.4828035082
 30
0.0
  0
SPLINE
  5
30B
100
AcDbEntity
  8
0
100
AcDbSpline
 62
9
  6
CONTINUOUS
 70
0
 71
3
 72
11
 73
7
 74
0
 42
0.0000001
 43
0.0000001
 44
0.0000000001
 40
0.0
 40
0.0
 40
0.0
 40
0.0
 40
0.285366892
 40
0.5479261479
 40
0.7863829571
 40
1.0
 40
1.0
 40
1.0
 40
1.0
 10
7.1581797554
 20
11.4663480747
 30
0.0
 10
7.1551796449
 20
11.4645724445
 30
0.0
 10
7.1494972779
 20
11.4610279782
 30
0.0
 10
7.1416404887
 20
11.4554890593
 30
0.0
 10
7.1348536684
 20
11.4499862526
 30
0.0
 10
7.130857673
 20
11.4461598792
 30
0.0
 10
7.1290753224
 20
11.4442536953
 30
0.0
  0
SPLINE
  5
30C
100
AcDbEntity
  8
0
100
AcDbSpline
 62
9
  6
CONTINUOUS
 70
0
 71
3
 72
9
 73
5
 74
0
 42
0.0000001
 43
0.0000001
 44
0.0000000001
 40
0.0
 40
0.0
 40
0.0
 40
0.0
 40
0.500125585
 40
1.0
 40
1.0
 40
1.0
 40
1.0
 10
7.1553084256
 20
11.4424993342
 30
0.0
 10
7.1548775302
 20
11.4399822031
 30
0.0
 10
7.1539464407
 20
11.4349607295
 30
0.0
 10
7.1528507702
 20
11.4299722793
 30
0.0
 10
7.1522598255
 20
11.4274891653
 30
0.0
  0
LINE
  5
30D
100
AcDbEntity
  8
0
100
AcDbLine
 62
9
  6
CONTINUOUS
 10
7.1522598255
 20
11.4274891653
 11
7.134153362
 21
11.4299678167
  0
SPLINE
  5
30E
100
AcDbEntity
  8
0
100
AcDbSpline
 62
9
  6
CONTINUOUS
 70
0
 71
3
 72
12
 73
8
 74
0
 42
0.0000001
 43
0.0000001
 44
0.0000000001
 40
0.0
 40
0.0
 40
0.0
 40
0.0
 40
0.1252439244
 40
0.2504218414
 40
0.5005433162
 40
0.7503789521
 40
1.0
 40
1.0
 40
1.0
 40
1.0
 10
7.1522598818
 20
11.4274891572
 30
0.0
 10
7.1519494601
 20
11.4261855802
 30
0.0
 10
7.1513089886
 20
11.4235837587
 30
0.0
 10
7.1499412503
 20
11.4184056525
 30
0.0
 10
7.1480749351
 20
11.4119815486
 30
0.0
 10
7.1456163747
 20
11.4043467196
 30
0.0
 10
7.1438475211
 20
11.3993034818
 30
0.0
 10
7.1429367855
 20
11.3967927779
 30
0.0
  0
LINE
  5
30F
100
AcDbEntity
  8
0
100
AcDbLine
 62
9
  6
CONTINUOUS
 10
7.1429359917
 20
11.3967939329
 11
7.1318708856
 21
11.3650599102
  0
SPLINE
  5
310
100
AcDbEntity
  8
0
100
AcDbSpline
 62
9
  6
CONTINUOUS
 70
0
 71
3
 72
11
 73
7
 74
0
 42
0.0000001
 43
0.0000001
 44
0.0000000001
 40
0.0
 40
0.0
 40
0.0
 40
0.0
 40
0.2769550754
 40
0.5366833303
 40
0.7778703808
 40
1.0
 40
1.0
 40
1.0
 40
1.0
 10
7.1318708856
 20
11.3650599102
 30
0.0
 10
7.129827273
 20
11.3695387679
 30
0.0
 10
7.1261846789
 20
11.3783686161
 30
0.0
 10
7.1220119912
 20
11.3915710236
 30
0.0
 10
7.1193470653
 20
11.4041665391
 30
0.0
 10
7.1185702203
 20
11.412391612
 30
0.0
 10
7.1184778231
 20
11.4163390319
 30
0.0
  0
SPLINE
  5
311
100
AcDbEntity
  8
0
100
AcDbSpline
 62
9
  6
CONTINUOUS
 70
0
 71
3
 72
11
 73
7
 74
0
 42
0.0000001
 43
0.0000001
 44
0.0000000001
 40
0.0
 40
0.0
 40
0.0
 40
0.0
 40
0.2789378531
 40
0.5389500326
 40
0.779394983
 40
1.0
 40
1.0
 40
1.0
 40
1.0
 10
7.1429359917
 20
11.3967939329
 30
0.0
 10
7.1412845916
 20
11.3988905056
 30
0.0
 10
7.1381848741
 20
11.4030145462
 30
0.0
 10
7.1340260977
 20
11.4092092725
 30
0.0
 10
7.1305397072
 20
11.4151679956
 30
0.0
 10
7.1285920856
 20
11.4191323766
 30
0.0
 10
7.1277486837
 20
11.4210672743
 30
0.0
  0
SPLINE
  5
312
100
AcDbEntity
  8
0
100
AcDbSpline
 62
9
  6
CONTINUOUS
 70
0
 71
3
 72
11
 73
7
 74
0
 42
0.0000001
 43
0.0000001
 44
0.0000000001
 40
0.0
 40
0.0
 40
0.0
 40
0.0
 40
0.2767011494
 40
0.5364675796
 40
0.777777905
 40
1.0
 40
1.0
 40
1.0
 40
1.0
 10
7.1300417988
 20
11.359625843
 30
0.0
 10
7.1279045633
 20
11.3645405721
 30
0.0
 10
7.1241313998
 20
11.3742374267
 30
0.0
 10
7.1199483126
 20
11.3887335289
 30
0.0
 10
7.1174663653
 20
11.4025481417
 30
0.0
 10
7.1169541724
 20
11.4115431519
 30
0.0
 10
7.1170314809
 20
11.4158465954
 30
0.0
  0
SPLINE
  5
313
100
AcDbEntity
  8
0
100
AcDbSpline
 62
9
  6
CONTINUOUS
 70
0
 71
3
 72
13
 73
9
 74
0
 42
0.0000001
 43
0.0000001
 44
0.0000000001
 40
0.0
 40
0.0
 40
0.0
 40
0.0
 40
0.259568709
 40
0.3883771667
 40
0.5156969427
 40
0.640984654
 40
0.7637563665
 40
1.0
 40
1.0
 40
1.0
 40
1.0
 10
6.9374020285
 20
11.3146776768
 30
0.0
 10
6.9385541259
 20
11.3247150989
 30
0.0
 10
6.9413962378
 20
11.3396377931
 30
0.0
 10
6.9473436729
 20
11.358822993
 30
0.0
 10
6.9528129441
 20
11.3726414868
 30
0.0
 10
6.9592471771
 20
11.3857788383
 30
0.0
 10
6.9688918941
 20
11.4019892256
 30
0.0
 10
6.9775478281
 20
11.4130850586
 30
0.0
 10
6.9838804843
 20
11.4197523981
 30
0.0
  0
SPLINE
  5
314
100
AcDbEntity
  8
0
100
AcDbSpline
 62
9
  6
CONTINUOUS
 70
0
 71
3
 72
24
 73
20
 74
0
 42
0.0000001
 43
0.0000001
 44
0.0000000001
 40
0.0
 40
0.0
 40
0.0
 40
0.0
 40
0.0015125002
 40
0.0047631998
 40
0.0099677738
 40
0.0171656902
 40
0.0263686819
 40
0.0375804435
 40
0.066026263
 40
0.1024587426
 40
0.1468098506
 40
0.1990063048
 40
0.2589448074
 40
0.3264993104
 40
0.4015423845
 40
0.4839330697
 40
0.5735130148
 40
0.7735739491
 40
1.0
 40
1.0
 40
1.0
 40
1.0
 10
7.1546891945
 20
11.3942012574
 30
0.0
 10
7.1546876923
 20
11.3941953723
 30
0.0
 10
7.1546653717
 20
11.3941877097
 30
0.0
 10
7.1546282144
 20
11.3941868009
 30
0.0
 10
7.1545638299
 20
11.3941890794
 30
0.0
 10
7.1544781493
 20
11.3941980251
 30
0.0
 10
7.1543679501
 20
11.3942124304
 30
0.0
 10
7.1541741241
 20
11.3942422589
 30
0.0
 10
7.153873139
 20
11.3942955127
 30
0.0
 10
7.1534425081
 20
11.3943787956
 30
0.0
 10
7.1529193061
 20
11.3944857957
 30
0.0
 10
7.1523046127
 20
11.3946163501
 30
0.0
 10
7.1515996284
 20
11.3947702526
 30
0.0
 10
7.1508057812
 20
11.3949472087
 30
0.0
 10
7.1499246317
 20
11.3951468942
 30
0.0
 10
7.1489578629
 20
11.395368937
 30
0.0
 10
7.1475026178
 20
11.3957069167
 30
0.0
 10
7.1454854724
 20
11.3961822219
 30
0.0
 10
7.1438196991
 20
11.3965802059
 30
0.0
 10
7.1429355777
 20
11.3967925536
 30
0.0
  0
SPLINE
  5
315
100
AcDbEntity
  8
0
100
AcDbSpline
 62
9
  6
CONTINUOUS
 70
0
 71
3
 72
11
 73
7
 74
0
 42
0.0000001
 43
0.0000001
 44
0.0000000001
 40
0.0
 40
0.0
 40
0.0
 40
0.0
 40
0.2455227752
 40
0.4941672482
 40
0.7457506135
 40
1.0
 40
1.0
 40
1.0
 40
1.0
 10
14.3897265501
 20
4.610847681
 30
0.0
 10
14.3871615485
 20
4.622299585
 30
0.0
 10
14.3825254671
 20
4.645469182
 30
0.0
 10
14.3768822205
 20
4.6806723963
 30
0.0
 10
14.3723346232
 20
4.7164528343
 30
0.0
 10
14.3699417164
 20
4.7405150936
 30
0.0
 10
14.3688765942
 20
4.7526210912
 30
0.0
  0
SPLINE
  5
316
100
AcDbEntity
  8
0
100
AcDbSpline
 62
9
  6
CONTINUOUS
 70
0
 71
3
 72
22
 73
18
 74
0
 42
0.0000001
 43
0.0000001
 44
0.0000000001
 40
0.0
 40
0.0
 40
0.0
 40
0.0
 40
0.0051520679
 40
0.0111230726
 40
0.0183974737
 40
0.0272456819
 40
0.0501770423
 40
0.0805102927
 40
0.1183217462
 40
0.163553277
 40
0.2161305121
 40
0.2759752373
 40
0.3429879233
 40
0.4170488595
 40
0.5857561225
 40
0.7807862348
 40
1.0
 40
1.0
 40
1.0
 40
1.0
 10
7.1446127772
 20
11.3534538691
 30
0.0
 10
7.144619183
 20
11.3534806326
 30
0.0
 10
7.1446203795
 20
11.3535417471
 30
0.0
 10
7.1445887623
 20
11.3536360417
 30
0.0
 10
7.1445271701
 20
11.3537374322
 30
0.0
 10
7.1443931804
 20
11.3538979714
 30
0.0
 10
7.1441422771
 20
11.354117266
 30
0.0
 10
7.1437467467
 20
11.354400819
 30
0.0
 10
7.1432306333
 20
11.3547185723
 30
0.0
 10
7.1425938068
 20
11.35506439
 30
0.0
 10
7.1418356115
 20
11.3554314225
 30
0.0
 10
7.1409578736
 20
11.3558167624
 30
0.0
 10
7.1399632128
 20
11.3562200562
 30
0.0
 10
7.1384154359
 20
11.356805504
 30
0.0
 10
7.136206454
 20
11.3575736211
 30
0.0
 10
7.1332558837
 20
11.3585683757
 30
0.0
 10
7.1311544632
 20
11.3592612717
 30
0.0
 10
7.1300405784
 20
11.3596222503
 30
0.0
  0
SPLINE
  5
317
100
AcDbEntity
  8
0
100
AcDbSpline
 62
9
  6
CONTINUOUS
 70
0
 71
3
 72
23
 73
19
 74
0
 42
0.0000001
 43
0.0000001
 44
0.0000000001
 40
0.0
 40
0.0
 40
0.0
 40
0.0
 40
0.0041710523
 40
0.009234469
 40
0.0157193228
 40
0.0238798076
 40
0.0338401941
 40
0.0456660728
 40
0.0750371827
 40
0.1121096043
 40
0.1568751655
 40
0.2092842018
 40
0.2692328511
 40
0.3365796565
 40
0.4111759869
 40
0.5814177576
 40
0.7783994567
 40
1.0
 40
1.0
 40
1.0
 40
1.0
 10
7.1461340127
 20
11.3597771686
 30
0.0
 10
7.1461390236
 20
11.3597978913
 30
0.0
 10
7.1461371419
 20
11.3598471295
 30
0.0
 10
7.1461015782
 20
11.3599205522
 30
0.0
 10
7.1460377069
 20
11.3599990808
 30
0.0
 10
7.1459447361
 20
11.3600842212
 30
0.0
 10
7.1458223946
 20
11.360176462
 30
0.0
 10
7.1456033355
 20
11.3603195094
 30
0.0
 10
7.1452522706
 20
11.3605123116
 30
0.0
 10
7.1447396616
 20
11.3607582418
 30
0.0
 10
7.1441100731
 20
11.3610314902
 30
0.0
 10
7.1433649468
 20
11.3613313032
 30
0.0
 10
7.1425059469
 20
11.3616567757
 30
0.0
 10
7.1415352273
 20
11.3620070522
 30
0.0
 10
7.1400273512
 20
11.362529247
 30
0.0
 10
7.1378814142
 20
11.3632332347
 30
0.0
 10
7.1350078088
 20
11.3641283378
 30
0.0
 10
7.1329577077
 20
11.3647406556
 30
0.0
 10
7.1318709392
 20
11.365059903
 30
0.0
  0
SPLINE
  5
318
100
AcDbEntity
  8
0
100
AcDbSpline
 62
9
  6
CONTINUOUS
 70
0
 71
3
 72
22
 73
18
 74
0
 42
0.0000001
 43
0.0000001
 44
0.0000000001
 40
0.0
 40
0.0
 40
0.0
 40
0.0
 40
0.0048688171
 40
0.0105044102
 40
0.0174185262
 40
0.0258918709
 40
0.048035168
 40
0.0775417575
 40
0.1145841582
 40
0.159196842
 40
0.2113597736
 40
0.2709961473
 40
0.3379909774
 40
0.4122199538
 40
0.58178046
 40
0.7783284068
 40
1.0
 40
1.0
 40
1.0
 40
1.0
 10
7.0810805718
 20
10.9751009764
 30
0.0
 10
7.0810783884
 20
10.9750787231
 30
0.0
 10
7.0810625382
 20
10.9750314976
 30
0.0
 10
7.0810107155
 20
10.9749690888
 30
0.0
 10
7.0809329063
 20
10.9749109893
 30
0.0
 10
7.0807799283
 20
10.974830585
 30
0.0
 10
7.0805164737
 20
10.9747435245
 30
0.0
 10
7.0801185484
 20
10.974655837
 30
0.0
 10
7.0796135082
 20
10.9745790011
 30
0.0
 10
7.0790023768
 20
10.9745132333
 30
0.0
 10
7.0782859895
 20
10.9744591142
 30
0.0
 10
7.0774659057
 20
10.9744168509
 30
0.0
 10
7.0765439007
 20
10.9743866155
 30
0.0
 10
7.0751167935
 20
10.9743615088
 30
0.0
 10
7.0730943579
 20
10.9743649071
 30
0.0
 10
7.0703953766
 20
10.9744169636
 30
0.0
 10
7.0684756757
 20
10.9744802677
 30
0.0
 10
7.0674583853
 20
10.9745191465
 30
0.0
  0
SPLINE
  5
319
100
AcDbEntity
  8
0
100
AcDbSpline
 62
9
  6
CONTINUOUS
 70
0
 71
3
 72
11
 73
7
 74
0
 42
0.0000001
 43
0.0000001
 44
0.0000000001
 40
0.0
 40
0.0
 40
0.0
 40
0.0
 40
0.2542491423
 40
0.5058322124
 40
0.7544770381
 40
1.0
 40
1.0
 40
1.0
 40
1.0
 10
15.0451038247
 20
4.7526214093
 30
0.0
 10
15.044038649
 20
4.7405154006
 30
0.0
 10
15.0416457532
 20
4.7164531128
 30
0.0
 10
15.037098204
 20
4.6806725952
 30
0.0
 10
15.0314549416
 20
4.6454692904
 30
0.0
 10
15.0268188501
 20
4.6222996142
 30
0.0
 10
15.024253817
 20
4.610847681
 30
0.0
  0
SPLINE
  5
31A
100
AcDbEntity
  8
0
100
AcDbSpline
 62
9
  6
CONTINUOUS
 70
0
 71
3
 72
22
 73
18
 74
0
 42
0.0000001
 43
0.0000001
 44
0.0000000001
 40
0.0
 40
0.0
 40
0.0
 40
0.0
 40
0.006217557
 40
0.013060653
 40
0.021002684
 40
0.0303488978
 40
0.0539019507
 40
0.0845260489
 40
0.1224824809
 40
0.1678503802
 40
0.2205957235
 40
0.2806219953
 40
0.3477994425
 40
0.4219419819
 40
0.5902778896
 40
0.78376404
 40
1.0
 40
1.0
 40
1.0
 40
1.0
 10
7.0803171488
 20
10.4361717794
 30
0.0
 10
7.0803208917
 20
10.4361324864
 30
0.0
 10
7.080314328
 20
10.4360480999
 30
0.0
 10
7.0802638801
 20
10.4359230738
 30
0.0
 10
7.080175492
 20
10.4357967926
 30
0.0
 10
7.0799934397
 20
10.4356110541
 30
0.0
 10
7.0796612071
 20
10.435377958
 30
0.0
 10
7.0791441154
 20
10.4351036201
 30
0.0
 10
7.0784792694
 20
10.4348168613
 30
0.0
 10
7.0776682462
 20
10.4345188058
 30
0.0
 10
7.0767126062
 20
10.4342105159
 30
0.0
 10
7.0756150765
 20
10.4338931218
 30
0.0
 10
7.0743788578
 20
10.4335677939
 30
0.0
 10
7.072468229
 20
10.4331049625
 30
0.0
 10
7.0697624365
 20
10.4325211772
 30
0.0
 10
7.0661579396
 20
10.4318314007
 30
0.0
 10
7.0635944912
 20
10.4313899035
 30
0.0
 10
7.0622400213
 20
10.4311667391
 30
0.0
  0
SPLINE
  5
31B
100
AcDbEntity
  8
0
100
AcDbSpline
 62
9
  6
CONTINUOUS
 70
0
 71
3
 72
11
 73
7
 74
0
 42
0.0000001
 43
0.0000001
 44
0.0000000001
 40
0.0
 40
0.0
 40
0.0
 40
0.0
 40
0.2538137627
 40
0.5052492996
 40
0.7540405579
 40
1.0
 40
1.0
 40
1.0
 40
1.0
 10
15.0227244668
 20
4.7578189021
 30
0.0
 10
15.0216489773
 20
4.7460112184
 30
0.0
 10
15.0192614808
 20
4.722527857
 30
0.0
 10
15.0148099507
 20
4.68758174
 30
0.0
 10
15.0093541383
 20
4.6531483462
 30
0.0
 10
15.0049100731
 20
4.6304605758
 30
0.0
 10
15.0024577319
 20
4.6192356804
 30
0.0
  0
SPLINE
  5
31C
100
AcDbEntity
  8
0
100
AcDbSpline
 62
9
  6
CONTINUOUS
 70
0
 71
3
 72
15
 73
11
 74
0
 42
0.0000001
 43
0.0000001
 44
0.0000000001
 40
0.0
 40
0.0
 40
0.0
 40
0.0
 40
0.1465571977
 40
0.2868674898
 40
0.4204397714
 40
0.5472023084
 40
0.6675037756
 40
0.7821572067
 40
0.8924444625
 40
1.0
 40
1.0
 40
1.0
 40
1.0
 10
15.0024577319
 20
4.6192356804
 30
0.0
 10
15.0017822732
 20
4.616144073
 30
0.0
 10
15.0002588371
 20
4.6101338261
 30
0.0
 10
14.997366026
 20
4.6015186945
 30
0.0
 10
14.9939085773
 20
4.5935751027
 30
0.0
 10
14.9898854559
 20
4.5863901264
 30
0.0
 10
14.9852993043
 20
4.5800437165
 30
0.0
 10
14.9801597842
 20
4.5746098552
 30
0.0
 10
14.9744909647
 20
4.5701604656
 30
0.0
 10
14.9703520852
 20
4.5678726848
 30
0.0
 10
14.9682316043
 20
4.5669255498
 30
0.0
  0
SPLINE
  5
31D
100
AcDbEntity
  8
0
100
AcDbSpline
 62
9
  6
CONTINUOUS
 70
0
 71
3
 72
18
 73
14
 74
0
 42
0.0000001
 43
0.0000001
 44
0.0000000001
 40
0.0
 40
0.0
 40
0.0
 40
0.0
 40
0.0485861735
 40
0.0998362354
 40
0.1535218733
 40
0.2094591976
 40
0.32742269
 40
0.4525229745
 40
0.5174063448
 40
0.5836496068
 40
0.7195678371
 40
0.8588916521
 40
1.0
 40
1.0
 40
1.0
 40
1.0
 10
14.9682316043
 20
4.5669255498
 30
0.0
 10
14.9642209754
 20
4.5651343843
 30
0.0
 10
14.9559745766
 20
4.5614655055
 30
0.0
 10
14.943249614
 20
4.5559237084
 30
0.0
 10
14.9298451749
 20
4.550279603
 30
0.0
 10
14.9107580207
 20
4.5425959262
 30
0.0
 10
14.8853904999
 20
4.5332342569
 30
0.0
 10
14.8588175292
 20
4.5248822382
 30
0.0
 10
14.8364391948
 20
4.5188874399
 30
0.0
 10
14.8129352775
 20
4.5133588862
 30
0.0
 10
14.7825469941
 20
4.5077702168
 30
0.0
 10
14.7451098482
 20
4.5035802415
 30
0.0
 10
14.7197470672
 20
4.5026269652
 30
0.0
 10
14.7069901836
 20
4.5026269241
 30
0.0
  0
SPLINE
  5
31E
100
AcDbEntity
  8
0
100
AcDbSpline
 62
9
  6
CONTINUOUS
 70
0
 71
3
 72
18
 73
14
 74
0
 42
0.0000001
 43
0.0000001
 44
0.0000000001
 40
0.0
 40
0.0
 40
0.0
 40
0.0
 40
0.1411084678
 40
0.2804323141
 40
0.4163505424
 40
0.4825937992
 40
0.5474771673
 40
0.6725774335
 40
0.7905408968
 40
0.8464781927
 40
0.9001637892
 40
0.9514138283
 40
1.0
 40
1.0
 40
1.0
 40
1.0
 10
14.7069901836
 20
4.5026269241
 30
0.0
 10
14.6942332886
 20
4.5026269578
 30
0.0
 10
14.6688704779
 20
4.5035799136
 30
0.0
 10
14.63143334
 20
4.5077701858
 30
0.0
 10
14.6010450633
 20
4.5133588788
 30
0.0
 10
14.5775411587
 20
4.51888749
 30
0.0
 10
14.5551628284
 20
4.5248822958
 30
0.0
 10
14.5285898596
 20
4.5332343113
 30
0.0
 10
14.5032223554
 20
4.5425960081
 30
0.0
 10
14.4841352024
 20
4.5502796655
 30
0.0
 10
14.4707307515
 20
4.5559237226
 30
0.0
 10
14.4580057879
 20
4.5614655042
 30
0.0
 10
14.4497593925
 20
4.565134386
 30
0.0
 10
14.4457487628
 20
4.5669255498
 30
0.0
  0
SPLINE
  5
31F
100
AcDbEntity
  8
0
100
AcDbSpline
 62
9
  6
CONTINUOUS
 70
0
 71
3
 72
15
 73
11
 74
0
 42
0.0000001
 43
0.0000001
 44
0.0000000001
 40
0.0
 40
0.0
 40
0.0
 40
0.0
 40
0.1075544212
 40
0.2178434182
 40
0.332497725
 40
0.4527988205
 40
0.5795610104
 40
0.7131329475
 40
0.8534445637
 40
1.0
 40
1.0
 40
1.0
 40
1.0
 10
14.4457487628
 20
4.5669255498
 30
0.0
 10
14.4436282938
 20
4.5678726541
 30
0.0
 10
14.4394891608
 20
4.5701600381
 30
0.0
 10
14.4338206442
 20
4.5746099222
 30
0.0
 10
14.4286810991
 20
4.5800437851
 30
0.0
 10
14.4240949265
 20
4.5863901986
 30
0.0
 10
14.4200717687
 20
4.5935751243
 30
0.0
 10
14.4166142485
 20
4.6015187151
 30
0.0
 10
14.4137217585
 20
4.6101339352
 30
0.0
 10
14.4121981075
 20
4.6161441138
 30
0.0
 10
14.4115226352
 20
4.6192356804
 30
0.0
  0
SPLINE
  5
320
100
AcDbEntity
  8
0
100
AcDbSpline
 62
9
  6
CONTINUOUS
 70
0
 71
3
 72
11
 73
7
 74
0
 42
0.0000001
 43
0.0000001
 44
0.0000000001
 40
0.0
 40
0.0
 40
0.0
 40
0.0
 40
0.2459594492
 40
0.4947506753
 40
0.7461862809
 40
1.0
 40
1.0
 40
1.0
 40
1.0
 10
14.4115226352
 20
4.6192356804
 30
0.0
 10
14.4090703121
 20
4.6304605826
 30
0.0
 10
14.4046262255
 20
4.6531483519
 30
0.0
 10
14.399170419
 20
4.6875817566
 30
0.0
 10
14.3947188802
 20
4.7225278791
 30
0.0
 10
14.3923313625
 20
4.7460112449
 30
0.0
 10
14.3912558883
 20
4.7578189305
 30
0.0
  0
SPLINE
  5
321
100
AcDbEntity
  8
0
100
AcDbSpline
 62
9
  6
CONTINUOUS
 70
0
 71
3
 72
15
 73
11
 74
0
 42
0.0000001
 43
0.0000001
 44
0.0000000001
 40
0.0
 40
0.0
 40
0.0
 40
0.0
 40
0.1370726057
 40
0.2769844616
 40
0.4163923988
 40
0.5520478127
 40
0.6808136615
 40
0.7998551814
 40
0.9068212076
 40
1.0
 40
1.0
 40
1.0
 40
1.0
 10
14.3897265501
 20
4.610847681
 30
0.0
 10
14.3908032059
 20
4.6109639908
 30
0.0
 10
14.3929712607
 20
4.6112741893
 30
0.0
 10
14.3961937449
 20
4.6119454322
 30
0.0
 10
14.3993575535
 20
4.6128131218
 30
0.0
 10
14.4023761672
 20
4.6138530881
 30
0.0
 10
14.4051676316
 20
4.6150369528
 30
0.0
 10
14.407657323
 20
4.6163321642
 30
0.0
 10
14.4097783205
 20
4.6177031997
 30
0.0
 10
14.4109997009
 20
4.618717561
 30
0.0
 10
14.4115226352
 20
4.6192356804
 30
0.0
  0
SPLINE
  5
322
100
AcDbEntity
  8
0
100
AcDbSpline
 62
9
  6
CONTINUOUS
 70
0
 71
3
 72
16
 73
12
 74
0
 42
0.0000001
 43
0.0000001
 44
0.0000000001
 40
0.0
 40
0.0
 40
0.0
 40
0.0
 40
0.0522455514
 40
0.1051052068
 40
0.1590231759
 40
0.214439705
 40
0.3306414358
 40
0.4549769079
 40
0.5866771291
 40
0.7236262055
 40
1.0
 40
1.0
 40
1.0
 40
1.0
 10
14.42258112
 20
4.548461837
 30
0.0
 10
14.4231203391
 20
4.5482395998
 30
0.0
 10
14.4242422607
 20
4.5478774089
 30
0.0
 10
14.4260019492
 20
4.5475979814
 30
0.0
 10
14.4278192296
 20
4.5475850411
 30
0.0
 10
14.4303210044
 20
4.5479264208
 30
0.0
 10
14.4334722843
 20
4.5490414474
 30
0.0
 10
14.4369881286
 20
4.5513139955
 30
0.0
 10
14.4401335488
 20
4.5544145414
 30
0.0
 10
14.443620399
 20
4.5594267672
 30
0.0
 10
14.4452346339
 20
4.5638835091
 30
0.0
 10
14.4457487629
 20
4.5669255498
 30
0.0
  0
SPLINE
  5
323
100
AcDbEntity
  8
0
100
AcDbSpline
 62
9
  6
CONTINUOUS
 70
0
 71
3
 72
16
 73
12
 74
0
 42
0.0000001
 43
0.0000001
 44
0.0000000001
 40
0.0
 40
0.0
 40
0.0
 40
0.0
 40
0.05224573
 40
0.1051055343
 40
0.1590236181
 40
0.214440225
 40
0.3306420043
 40
0.4549774075
 40
0.5866774885
 40
0.7236264045
 40
1.0
 40
1.0
 40
1.0
 40
1.0
 10
14.9913992471
 20
4.5484618371
 30
0.0
 10
14.9908600258
 20
4.5482395988
 30
0.0
 10
14.9897380999
 20
4.5478774061
 30
0.0
 10
14.9879784052
 20
4.5475979758
 30
0.0
 10
14.9861611195
 20
4.5475850332
 30
0.0
 10
14.9836593394
 20
4.54792641
 30
0.0
 10
14.9805080546
 20
4.5490414339
 30
0.0
 10
14.9769922074
 20
4.5513139813
 30
0.0
 10
14.9738467887
 20
4.5544145286
 30
0.0
 10
14.9703599458
 20
4.5594267595
 30
0.0
 10
14.9687457231
 20
4.5638835069
 30
0.0
 10
14.9682316043
 20
4.5669255498
 30
0.0
  0
SPLINE
  5
324
100
AcDbEntity
  8
0
100
AcDbSpline
 62
9
  6
CONTINUOUS
 70
0
 71
3
 72
15
 73
11
 74
0
 42
0.0000001
 43
0.0000001
 44
0.0000000001
 40
0.0
 40
0.0
 40
0.0
 40
0.0
 40
0.1370726045
 40
0.276984457
 40
0.4163923897
 40
0.5520477994
 40
0.6808136455
 40
0.7998551655
 40
0.9068211963
 40
1.0
 40
1.0
 40
1.0
 40
1.0
 10
15.024253817
 20
4.610847681
 30
0.0
 10
15.0231771612
 20
4.6109639905
 30
0.0
 10
15.0210091063
 20
4.6112741886
 30
0.0
 10
15.0177866219
 20
4.6119454309
 30
0.0
 10
15.0146228133
 20
4.6128131202
 30
0.0
 10
15.0116041995
 20
4.6138530865
 30
0.0
 10
15.0088127351
 20
4.6150369512
 30
0.0
 10
15.0063230438
 20
4.616332163
 30
0.0
 10
15.0042020463
 20
4.617703199
 30
0.0
 10
15.0029806661
 20
4.6187175607
 30
0.0
 10
15.0024577319
 20
4.6192356804
 30
0.0
  0
SPLINE
  5
325
100
AcDbEntity
  8
0
100
AcDbSpline
 62
9
  6
CONTINUOUS
 70
0
 71
3
 72
42
 73
38
 74
0
 42
0.0000001
 43
0.0000001
 44
0.0000000001
 40
0.0
 40
0.0
 40
0.0
 40
0.0
 40
0.0270784637
 40
0.0544695167
 40
0.082221316
 40
0.1103942381
 40
0.1390504417
 40
0.1682549982
 40
0.1980755648
 40
0.2285793689
 40
0.2598306368
 40
0.2918840212
 40
0.3247744084
 40
0.3415402149
 40
0.3585128571
 40
0.3930394721
 40
0.4282560885
 40
0.4639869999
 40
0.4999941089
 40
0.5180202972
 40
0.536011016
 40
0.5539320919
 40
0.5717517548
 40
0.6069683509
 40
0.6414949715
 40
0.6752256622
 40
0.7081160305
 40
0.7401694171
 40
0.7714206869
 40
0.8019244563
 40
0.8317450508
 40
0.8609497323
 40
0.8896059421
 40
0.9177787779
 40
0.9455305088
 40
0.9729215415
 40
1.0
 40
1.0
 40
1.0
 40
1.0
 10
15.0227244668
 20
4.7578189021
 30
0.0
 10
15.0201959619
 20
4.7507270359
 30
0.0
 10
15.0146741001
 20
4.7366124124
 30
0.0
 10
15.0050418319
 20
4.7158635547
 30
0.0
 10
14.9939766285
 20
4.695493163
 30
0.0
 10
14.981433472
 20
4.675580027
 30
0.0
 10
14.9673614597
 20
4.6562129968
 30
0.0
 10
14.9517074903
 20
4.6374974278
 30
0.0
 10
14.9344185156
 20
4.6195577376
 30
0.0
 10
14.9154442705
 20
4.6025428963
 30
0.0
 10
14.8947455345
 20
4.5866289338
 30
0.0
 10
14.8723071787
 20
4.5720206198
 30
0.0
 10
14.8522961891
 20
4.5612030399
 30
0.0
 10
14.835472607
 20
4.5534336285
 30
0.0
 10
14.8179097403
 20
4.5462212341
 30
0.0
 10
14.7950170243
 20
4.5385442172
 30
0.0
 10
14.7664460092
 20
4.5317520829
 30
0.0
 10
14.7369604253
 20
4.5275672927
 30
0.0
 10
14.7119890855
 20
4.5263896575
 30
0.0
 10
14.6919622847
 20
4.5268607044
 30
0.0
 10
14.676996786
 20
4.5279231489
 30
0.0
 10
14.662154618
 20
4.5296780378
 30
0.0
 10
14.6426845048
 20
4.53290374
 30
0.0
 10
14.6189623012
 20
4.538545784
 30
0.0
 10
14.591648912
 20
4.547703559
 30
0.0
 10
14.5658369217
 20
4.5589584272
 30
0.0
 10
14.5416736168
 20
4.5720202181
 30
0.0
 10
14.519234667
 20
4.5866290445
 30
0.0
 10
14.4985361553
 20
4.6025429474
 30
0.0
 10
14.4795617609
 20
4.6195576945
 30
0.0
 10
14.46227281
 20
4.6374974498
 30
0.0
 10
14.4466190947
 20
4.6562132902
 30
0.0
 10
14.4325470245
 20
4.675580282
 30
0.0
 10
14.4200037604
 20
4.6954933042
 30
0.0
 10
14.4089385342
 20
4.7158636287
 30
0.0
 10
14.3993062004
 20
4.7366124266
 30
0.0
 10
14.3937843443
 20
4.7507270483
 30
0.0
 10
14.3912558883
 20
4.7578189305
 30
0.0
  0
SPLINE
  5
326
100
AcDbEntity
  8
0
100
AcDbSpline
 62
9
  6
CONTINUOUS
 70
0
 71
3
 72
23
 73
19
 74
0
 42
0.0000001
 43
0.0000001
 44
0.0000000001
 40
0.0
 40
0.0
 40
0.0
 40
0.0
 40
0.1787976683
 40
0.356395586
 40
0.5245036521
 40
0.6025247157
 40
0.6753011039
 40
0.7420152604
 40
0.8019247574
 40
0.8544116979
 40
0.8989869151
 40
0.9353582653
 40
0.9504675525
 40
0.9635807997
 40
0.9748042208
 40
0.9843426599
 40
0.9925532298
 40
1.0
 40
1.0
 40
1.0
 40
1.0
 10
14.3492336742
 20
4.833836707
 30
0.0
 10
14.3506856813
 20
4.8339815631
 30
0.0
 10
14.3535748243
 20
4.8343242871
 30
0.0
 10
14.3578059415
 20
4.8349786888
 30
0.0
 10
14.361202417
 20
4.8356346474
 30
0.0
 10
14.3637398861
 20
4.8362145617
 30
0.0
 10
14.3654600907
 20
4.8366537579
 30
0.0
 10
14.3670246791
 20
4.8371024018
 30
0.0
 10
14.3684149473
 20
4.8375551036
 30
0.0
 10
14.3696147817
 20
4.8380058847
 30
0.0
 10
14.3706101075
 20
4.8384492561
 30
0.0
 10
14.3712988969
 20
4.8388274373
 30
0.0
 10
14.371731956
 20
4.8391289536
 30
0.0
 10
14.3719790578
 20
4.8393361773
 30
0.0
 10
14.3721686771
 20
4.8395385818
 30
0.0
 10
14.3723003664
 20
4.8397367675
 30
0.0
 10
14.3723728986
 20
4.8399317007
 30
0.0
 10
14.3723788529
 20
4.8400621094
 30
0.0
 10
14.3723709292
 20
4.8401223657
 30
0.0
  0
SPLINE
  5
327
100
AcDbEntity
  8
0
100
AcDbSpline
 62
9
  6
CONTINUOUS
 70
0
 71
3
 72
23
 73
19
 74
0
 42
0.0000001
 43
0.0000001
 44
0.0000000001
 40
0.0
 40
0.0
 40
0.0
 40
0.0
 40
0.1799297256
 40
0.3579547423
 40
0.5259707222
 40
0.6038142103
 40
0.6763593558
 40
0.7428133072
 40
0.802457593
 40
0.8546966495
 40
0.8990625161
 40
0.9352831566
 40
0.9503454803
 40
0.9634339418
 40
0.9746573858
 40
0.984222325
 40
0.9924845601
 40
1.0
 40
1.0
 40
1.0
 40
1.0
 10
14.3461537393
 20
4.8808815735
 30
0.0
 10
14.3475966078
 20
4.8808414249
 30
0.0
 10
14.3504687887
 20
4.88081416
 30
0.0
 10
14.3546876203
 20
4.8809225393
 30
0.0
 10
14.3580824166
 20
4.8811368398
 30
0.0
 10
14.3606248854
 20
4.8813846401
 30
0.0
 10
14.3623515811
 20
4.8815974836
 30
0.0
 10
14.3639269915
 20
4.8818391372
 30
0.0
 10
14.3653327453
 20
4.8821067538
 30
0.0
 10
14.3665528805
 20
4.882396606
 30
0.0
 10
14.3675734275
 20
4.8827051818
 30
0.0
 10
14.3682883756
 20
4.8829888138
 30
0.0
 10
14.3687457293
 20
4.8832297054
 30
0.0
 10
14.3690112487
 20
4.8834018259
 30
0.0
 10
14.3692204957
 20
4.883576611
 30
0.0
 10
14.3693730908
 20
4.8837546984
 30
0.0
 10
14.3694679223
 20
4.8839371128
 30
0.0
 10
14.3694901836
 20
4.8840644005
 30
0.0
 10
14.3694901836
 20
4.8841246907
 30
0.0
  0
SPLINE
  5
328
100
AcDbEntity
  8
0
100
AcDbSpline
 62
9
  6
CONTINUOUS
 70
0
 71
3
 72
22
 73
18
 74
0
 42
0.0000001
 43
0.0000001
 44
0.0000000001
 40
0.0
 40
0.0
 40
0.0
 40
0.0
 40
0.0072302941
 40
0.0150165184
 40
0.0238027917
 40
0.0338993051
 40
0.0587326531
 40
0.090434679
 40
0.1293340949
 40
0.1755181919
 40
0.228938788
 40
0.2894786688
 40
0.3569501642
 40
0.4311339737
 40
0.5985058792
 40
0.7891248191
 40
1.0
 40
1.0
 40
1.0
 40
1.0
 10
7.191199213
 20
11.524090834
 30
0.0
 10
7.1912166587
 20
11.524147611
 30
0.0
 10
7.1912353724
 20
11.5242715292
 30
0.0
 10
7.1912115001
 20
11.5244674505
 30
0.0
 10
7.1911387411
 20
11.5246754821
 30
0.0
 10
7.1909657175
 20
11.5249915204
 30
0.0
 10
7.1906140023
 20
11.5254160642
 30
0.0
 10
7.1900355562
 20
11.5259466293
 30
0.0
 10
7.1892721511
 20
11.5265294746
 30
0.0
 10
7.1883260397
 20
11.5271623306
 30
0.0
 10
7.1871997087
 20
11.5278428666
 30
0.0
 10
7.1858972841
 20
11.5285680317
 30
0.0
 10
7.1844237223
 20
11.529335002
 30
0.0
 10
7.182145084
 20
11.5304545928
 30
0.0
 10
7.1789127488
 20
11.5319250082
 30
0.0
 10
7.1746055556
 20
11.5337391289
 30
0.0
 10
7.1715372292
 20
11.5349498667
 30
0.0
 10
7.1699200327
 20
11.5355708885
 30
0.0
  0
SPLINE
  5
329
100
AcDbEntity
  8
0
100
AcDbSpline
 62
9
  6
CONTINUOUS
 70
0
 71
3
 72
23
 73
19
 74
0
 42
0.0000001
 43
0.0000001
 44
0.0000000001
 40
0.0
 40
0.0
 40
0.0
 40
0.0
 40
0.1799297256
 40
0.3579547423
 40
0.5259707222
 40
0.6038142102
 40
0.6763593557
 40
0.7428133071
 40
0.8024575929
 40
0.8546966495
 40
0.8990625161
 40
0.9352831566
 40
0.9503454803
 40
0.9634339418
 40
0.9746573858
 40
0.984222325
 40
0.9924845601
 40
1.0
 40
1.0
 40
1.0
 40
1.0
 10
15.0678266278
 20
4.8808815735
 30
0.0
 10
15.0663837593
 20
4.8808414249
 30
0.0
 10
15.0635115785
 20
4.88081416
 30
0.0
 10
15.0592927468
 20
4.8809225393
 30
0.0
 10
15.0558979506
 20
4.8811368398
 30
0.0
 10
15.0533554817
 20
4.8813846401
 30
0.0
 10
15.0516287861
 20
4.8815974836
 30
0.0
 10
15.0500533756
 20
4.8818391372
 30
0.0
 10
15.0486476218
 20
4.8821067538
 30
0.0
 10
15.0474274866
 20
4.8823966059
 30
0.0
 10
15.0464069397
 20
4.8827051818
 30
0.0
 10
15.0456919915
 20
4.8829888138
 30
0.0
 10
15.0452346378
 20
4.8832297054
 30
0.0
 10
15.0449691184
 20
4.8834018259
 30
0.0
 10
15.0447598714
 20
4.883576611
 30
0.0
 10
15.0446072763
 20
4.8837546984
 30
0.0
 10
15.0445124448
 20
4.8839371128
 30
0.0
 10
15.0444901836
 20
4.8840644005
 30
0.0
 10
15.0444901836
 20
4.8841246907
 30
0.0
  0
SPLINE
  5
32A
100
AcDbEntity
  8
0
100
AcDbSpline
 62
9
  6
CONTINUOUS
 70
0
 71
3
 72
23
 73
19
 74
0
 42
0.0000001
 43
0.0000001
 44
0.0000000001
 40
0.0
 40
0.0
 40
0.0
 40
0.0
 40
0.1787976681
 40
0.3563955856
 40
0.5245036515
 40
0.602524715
 40
0.6753011031
 40
0.7420152596
 40
0.8019247565
 40
0.854411697
 40
0.8989869143
 40
0.9353582645
 40
0.9504675517
 40
0.9635807991
 40
0.9748042203
 40
0.9843426595
 40
0.9925532296
 40
1.0
 40
1.0
 40
1.0
 40
1.0
 10
15.064746693
 20
4.833836707
 30
0.0
 10
15.0632946859
 20
4.8339815631
 30
0.0
 10
15.0604055428
 20
4.8343242871
 30
0.0
 10
15.0561744256
 20
4.8349786888
 30
0.0
 10
15.0527779501
 20
4.8356346474
 30
0.0
 10
15.0502404811
 20
4.8362145616
 30
0.0
 10
15.0485202765
 20
4.8366537578
 30
0.0
 10
15.046955688
 20
4.8371024018
 30
0.0
 10
15.0455654198
 20
4.8375551035
 30
0.0
 10
15.0443655854
 20
4.8380058846
 30
0.0
 10
15.0433702596
 20
4.838449256
 30
0.0
 10
15.0426814702
 20
4.8388274373
 30
0.0
 10
15.0422484111
 20
4.8391289536
 30
0.0
 10
15.0420013093
 20
4.8393361772
 30
0.0
 10
15.0418116901
 20
4.8395385818
 30
0.0
 10
15.0416800007
 20
4.8397367675
 30
0.0
 10
15.0416074685
 20
4.8399317007
 30
0.0
 10
15.0416015143
 20
4.8400621094
 30
0.0
 10
15.0416094379
 20
4.8401223657
 30
0.0
  0
SPLINE
  5
32B
100
AcDbEntity
  8
0
100
AcDbSpline
 62
9
  6
CONTINUOUS
 70
0
 71
3
 72
26
 73
22
 74
0
 42
0.0000001
 43
0.0000001
 44
0.0000000001
 40
0.0
 40
0.0
 40
0.0
 40
0.0
 40
0.0745151815
 40
0.1122436516
 40
0.1500781497
 40
0.2258141325
 40
0.2635144085
 40
0.301057701
 40
0.3384760176
 40
0.3756902143
 40
0.4125507086
 40
0.4489296459
 40
0.5200402809
 40
0.5886633894
 40
0.6543893059
 40
0.7167556872
 40
0.7753691147
 40
0.8299142282
 40
0.9252099463
 40
0.9651172531
 40
1.0
 40
1.0
 40
1.0
 40
1.0
 10
14.3688766424
 20
4.7526210508
 30
0.0
 10
14.3694409478
 20
4.752739902
 30
0.0
 10
14.3702963405
 20
4.7528965634
 30
0.0
 10
14.3714505223
 20
4.7530306625
 30
0.0
 10
14.3726202796
 20
4.7530979181
 30
0.0
 10
14.3737913346
 20
4.7530788005
 30
0.0
 10
14.3749598429
 20
4.7531111154
 30
0.0
 10
14.3758283444
 20
4.7531952561
 30
0.0
 10
14.3766871747
 20
4.7533234855
 30
0.0
 10
14.3775364394
 20
4.7534763134
 30
0.0
 10
14.3783766235
 20
4.7536337944
 30
0.0
 10
14.3794761213
 20
4.7538316141
 30
0.0
 10
14.3808175941
 20
4.7540728999
 30
0.0
 10
14.3823754505
 20
4.7543926615
 30
0.0
 10
14.3838561944
 20
4.7547476324
 30
0.0
 10
14.3852496594
 20
4.7551309296
 30
0.0
 10
14.386545149
 20
4.7555411034
 30
0.0
 10
14.3880582698
 20
4.7561023889
 30
0.0
 10
14.3893955146
 20
4.7567150858
 30
0.0
 10
14.3905562168
 20
4.7573364243
 30
0.0
 10
14.3910422987
 20
4.7576538544
 30
0.0
 10
14.3912558752
 20
4.7578189766
 30
0.0
  0
SPLINE
  5
32C
100
AcDbEntity
  8
0
100
AcDbSpline
 62
9
  6
CONTINUOUS
 70
0
 71
3
 72
27
 73
23
 74
0
 42
0.0000001
 43
0.0000001
 44
0.0000000001
 40
0.0
 40
0.0
 40
0.0
 40
0.0
 40
0.0084447329
 40
0.0173399643
 40
0.0274259498
 40
0.0392001117
 40
0.0528910212
 40
0.0685778709
 40
0.1060406626
 40
0.1516364769
 40
0.2051000818
 40
0.2658973521
 40
0.3333404218
 40
0.4066056628
 40
0.484805002
 40
0.5669783291
 40
0.6520870061
 40
0.7390485836
 40
0.8267516032
 40
0.8705507504
 40
0.9141410298
 40
1.0
 40
1.0
 40
1.0
 40
1.0
 10
14.3912558752
 20
4.7648850305
 30
0.0
 10
14.3912818893
 20
4.764816148
 30
0.0
 10
14.3913139486
 20
4.7646655273
 30
0.0
 10
14.3912915148
 20
4.7644246145
 30
0.0
 10
14.3912046457
 20
4.7641691089
 30
0.0
 10
14.3910583907
 20
4.763894782
 30
0.0
 10
14.3908535651
 20
4.7635994218
 30
0.0
 10
14.3904787926
 20
4.7631522828
 30
0.0
 10
14.3898525923
 20
4.7625579067
 30
0.0
 10
14.3889174427
 20
4.7618200824
 30
0.0
 10
14.3877704093
 20
4.7610268898
 30
0.0
 10
14.3864254009
 20
4.7601888032
 30
0.0
 10
14.3848989656
 20
4.7593179901
 30
0.0
 10
14.3832087089
 20
4.7584306151
 30
0.0
 10
14.3813776578
 20
4.7575372662
 30
0.0
 10
14.3794325232
 20
4.7566436889
 30
0.0
 10
14.3773976902
 20
4.7557636453
 30
0.0
 10
14.375299641
 20
4.7549097919
 30
0.0
 10
14.373521676
 20
4.7542257843
 30
0.0
 10
14.3720857979
 20
4.7537069841
 30
0.0
 10
14.3706566357
 20
4.7532176215
 30
0.0
 10
14.3695845917
 20
4.7528644393
 30
0.0
 10
14.3688766424
 20
4.7526210508
 30
0.0
  0
SPLINE
  5
32D
100
AcDbEntity
  8
0
100
AcDbSpline
 62
9
  6
CONTINUOUS
 70
0
 71
3
 72
11
 73
7
 74
0
 42
0.0000001
 43
0.0000001
 44
0.0000000001
 40
0.0
 40
0.0
 40
0.0
 40
0.0
 40
0.2632816322
 40
0.5156438156
 40
0.7599708702
 40
1.0
 40
1.0
 40
1.0
 40
1.0
 10
14.3912558752
 20
4.7578189766
 30
0.0
 10
14.3914541432
 20
4.7584187352
 30
0.0
 10
14.3917592888
 20
4.7596234483
 30
0.0
 10
14.3919205339
 20
4.7614480044
 30
0.0
 10
14.3917690853
 20
4.7632181433
 30
0.0
 10
14.3914593394
 20
4.7643462784
 30
0.0
 10
14.3912558752
 20
4.7648850305
 30
0.0
  0
SPLINE
  5
32E
100
AcDbEntity
  8
0
100
AcDbSpline
 62
9
  6
CONTINUOUS
 70
0
 71
3
 72
17
 73
13
 74
0
 42
0.0000001
 43
0.0000001
 44
0.0000000001
 40
0.0
 40
0.0
 40
0.0
 40
0.0
 40
0.0351004372
 40
0.0752447654
 40
0.1203316595
 40
0.1701719808
 40
0.2830375372
 40
0.4111155133
 40
0.5509320735
 40
0.698525726
 40
0.8496915705
 40
1.0
 40
1.0
 40
1.0
 40
1.0
 10
15.0227244919
 20
4.7578189766
 30
0.0
 10
15.0229392824
 20
4.7576529131
 30
0.0
 10
15.0234217552
 20
4.7573252653
 30
0.0
 10
15.0242342256
 20
4.7568696536
 30
0.0
 10
15.0251784539
 20
4.7564208868
 30
0.0
 10
15.0266661346
 20
4.7558109269
 30
0.0
 10
15.0288039165
 20
4.7551034481
 30
0.0
 10
15.031656002
 20
4.7543629917
 30
0.0
 10
15.0348070554
 20
4.7537240908
 30
0.0
 10
15.038160863
 20
4.7532066052
 30
0.0
 10
15.0416146161
 20
4.7528272148
 30
0.0
 10
15.0439422172
 20
4.7526720394
 30
0.0
 10
15.0451037247
 20
4.7526210508
 30
0.0
  0
SPLINE
  5
32F
100
AcDbEntity
  8
0
100
AcDbSpline
 62
9
  6
CONTINUOUS
 70
0
 71
3
 72
11
 73
7
 74
0
 42
0.0000001
 43
0.0000001
 44
0.0000000001
 40
0.0
 40
0.0
 40
0.0
 40
0.0
 40
0.2399258587
 40
0.4844162783
 40
0.7365817563
 40
1.0
 40
1.0
 40
1.0
 40
1.0
 10
15.0227244919
 20
4.7648850305
 30
0.0
 10
15.0225211151
 20
4.7643465098
 30
0.0
 10
15.0222115777
 20
4.763218239
 30
0.0
 10
15.0220591039
 20
4.7614483994
 30
0.0
 10
15.0222220442
 20
4.7596238741
 30
0.0
 10
15.0225251609
 20
4.7584187285
 30
0.0
 10
15.0227244919
 20
4.7578189766
 30
0.0
  0
SPLINE
  5
330
100
AcDbEntity
  8
0
100
AcDbSpline
 62
9
  6
CONTINUOUS
 70
0
 71
3
 72
26
 73
22
 74
0
 42
0.0000001
 43
0.0000001
 44
0.0000000001
 40
0.0
 40
0.0
 40
0.0
 40
0.0
 40
0.0859423516
 40
0.1733978809
 40
0.2611772445
 40
0.3481995136
 40
0.4333661541
 40
0.5155852844
 40
0.5938319774
 40
0.66713615
 40
0.7345785493
 40
0.7953349045
 40
0.8487307269
 40
0.8943695617
 40
0.9320157622
 40
0.9478362117
 40
0.9617252071
 40
0.9738182222
 40
0.9842747572
 40
0.9930319671
 40
1.0
 40
1.0
 40
1.0
 40
1.0
 10
15.0451037247
 20
4.7526210508
 30
0.0
 10
15.0443876514
 20
4.7528406045
 30
0.0
 10
15.0429534378
 20
4.7533179451
 30
0.0
 10
15.0408136513
 20
4.7540941151
 30
0.0
 10
15.0386785556
 20
4.7549100257
 30
0.0
 10
15.0365798971
 20
4.755764045
 30
0.0
 10
15.0345446003
 20
4.7566438128
 30
0.0
 10
15.0325989877
 20
4.7575370534
 30
0.0
 10
15.0307702216
 20
4.7584354894
 30
0.0
 10
15.0290822349
 20
4.7593266344
 30
0.0
 10
15.0275555216
 20
4.7601950445
 30
0.0
 10
15.0262082851
 20
4.7610260004
 30
0.0
 10
15.0250558511
 20
4.7618092358
 30
0.0
 10
15.0241213747
 20
4.7625498327
 30
0.0
 10
15.0235000595
 20
4.7631535166
 30
0.0
 10
15.0231288986
 20
4.7636091512
 30
0.0
 10
15.0229268505
 20
4.7639131515
 30
0.0
 10
15.022785259
 20
4.7641986609
 30
0.0
 10
15.0227064598
 20
4.7644615615
 30
0.0
 10
15.0226831171
 20
4.7646897208
 30
0.0
 10
15.0227030374
 20
4.7648282213
 30
0.0
 10
15.0227244919
 20
4.7648850305
 30
0.0
  0
SPLINE
  5
331
100
AcDbEntity
  8
0
100
AcDbSpline
 62
9
  6
CONTINUOUS
 70
0
 71
3
 72
13
 73
9
 74
0
 42
0.0000001
 43
0.0000001
 44
0.0000000001
 40
0.0
 40
0.0
 40
0.0
 40
0.0
 40
0.2689570436
 40
0.3993307864
 40
0.5265194442
 40
0.6502948537
 40
0.7705136977
 40
1.0
 40
1.0
 40
1.0
 40
1.0
 10
6.9131037833
 20
11.6006445244
 30
0.0
 10
6.9140133013
 20
11.5926773925
 30
0.0
 10
6.9161017772
 20
11.5809096686
 30
0.0
 10
6.9204261682
 20
11.5658090438
 30
0.0
 10
6.92433273
 20
11.5551207071
 30
0.0
 10
6.9289097533
 20
11.545031083
 30
0.0
 10
6.9357498709
 20
11.5326728099
 30
0.0
 10
6.941941028
 20
11.5241917612
 30
0.0
 10
6.9464989313
 20
11.5190888764
 30
0.0
  0
SPLINE
  5
332
100
AcDbEntity
  8
0
100
AcDbSpline
 62
9
  6
CONTINUOUS
 70
0
 71
3
 72
11
 73
7
 74
0
 42
0.0000001
 43
0.0000001
 44
0.0000000001
 40
0.0
 40
0.0
 40
0.0
 40
0.0
 40
0.1776595394
 40
0.3899292335
 40
0.6602179335
 40
1.0
 40
1.0
 40
1.0
 40
1.0
 10
7.1445048539
 20
11.3530027997
 30
0.0
 10
7.144517967
 20
11.3530576267
 30
0.0
 10
7.1445131488
 20
11.3531868763
 30
0.0
 10
7.1444170432
 20
11.3533771953
 30
0.0
 10
7.1442445676
 20
11.3535749327
 30
0.0
 10
7.1440951869
 20
11.3536990879
 30
0.0
 10
7.1440090888
 20
11.3537639841
 30
0.0
  0
SPLINE
  5
333
100
AcDbEntity
  8
0
100
AcDbSpline
 62
9
  6
CONTINUOUS
 70
0
 71
3
 72
16
 73
12
 74
0
 42
0.0000001
 43
0.0000001
 44
0.0000000001
 40
0.0
 40
0.0
 40
0.0
 40
0.0
 40
0.0260891992
 40
0.0571291232
 40
0.1344166794
 40
0.232050958
 40
0.3494998281
 40
0.4860241053
 40
0.640664604
 40
0.8124051078
 40
1.0
 40
1.0
 40
1.0
 40
1.0
 10
7.1440090888
 20
11.3537639841
 30
0.0
 10
7.1439038222
 20
11.3538433286
 30
0.0
 10
7.1436631189
 20
11.3540034995
 30
0.0
 10
7.1430730547
 20
11.3543402764
 30
0.0
 10
7.1421354148
 20
11.3547936593
 30
0.0
 10
7.1407839426
 20
11.3553901064
 30
0.0
 10
7.1391402531
 20
11.3560648176
 30
0.0
 10
7.1372154921
 20
11.3568120173
 30
0.0
 10
7.1350151008
 20
11.3576058402
 30
0.0
 10
7.1325493959
 20
11.3584217523
 30
0.0
 10
7.1308149473
 20
11.3589588115
 30
0.0
 10
7.1299075863
 20
11.3592329068
 30
0.0
  0
SPLINE
  5
334
100
AcDbEntity
  8
0
100
AcDbSpline
 62
9
  6
CONTINUOUS
 70
0
 71
3
 72
15
 73
11
 74
0
 42
0.0000001
 43
0.0000001
 44
0.0000000001
 40
0.0
 40
0.0
 40
0.0
 40
0.0
 40
0.1494486747
 40
0.2932957259
 40
0.4306661279
 40
0.5608582764
 40
0.6832524242
 40
0.7973822588
 40
0.9029891528
 40
1.0
 40
1.0
 40
1.0
 40
1.0
 10
7.1373344703
 20
11.5391759408
 30
0.0
 10
7.1348398957
 20
11.5359400909
 30
0.0
 10
7.1300736494
 20
11.5294883806
 30
0.0
 10
7.1235040388
 20
11.5197127605
 30
0.0
 10
7.1176876188
 20
11.510080212
 30
0.0
 10
7.1126698874
 20
11.5006673844
 30
0.0
 10
7.108489994
 20
11.4915472288
 30
0.0
 10
7.1051797179
 20
11.4827898018
 30
0.0
 10
7.1027657231
 20
11.4744635174
 30
0.0
 10
7.1017225429
 20
11.4690113882
 30
0.0
 10
7.1013760578
 20
11.4663819347
 30
0.0
  0
SPLINE
  5
335
100
AcDbEntity
  8
0
100
AcDbSpline
 62
9
  6
CONTINUOUS
 70
0
 71
3
 72
15
 73
11
 74
0
 42
0.0000001
 43
0.0000001
 44
0.0000000001
 40
0.0
 40
0.0
 40
0.0
 40
0.0
 40
0.1486804292
 40
0.2917740106
 40
0.4284470753
 40
0.5580476374
 40
0.6800955255
 40
0.7943467212
 40
0.900853359
 40
1.0
 40
1.0
 40
1.0
 40
1.0
 10
7.0251757835
 20
11.5808269614
 30
0.0
 10
7.0243982399
 20
11.5763119891
 30
0.0
 10
7.0231230651
 20
11.5674058705
 30
0.0
 10
7.0220597718
 20
11.5542378768
 30
0.0
 10
7.0218889771
 20
11.541614355
 30
0.0
 10
7.0226123614
 20
11.5296583234
 30
0.0
 10
7.0242241381
 20
11.5184847558
 30
0.0
 10
7.0267107889
 20
11.5081996728
 30
0.0
 10
7.0300511349
 20
11.4989038574
 30
0.0
 10
7.0329288089
 20
11.4932322791
 30
0.0
 10
7.0345094912
 20
11.490617878
 30
0.0
  0
SPLINE
  5
336
100
AcDbEntity
  8
0
100
AcDbSpline
 62
9
  6
CONTINUOUS
 70
0
 71
3
 72
11
 73
7
 74
0
 42
0.0000001
 43
0.0000001
 44
0.0000000001
 40
0.0
 40
0.0
 40
0.0
 40
0.0
 40
0.2828274414
 40
0.5442561724
 40
0.7834966613
 40
1.0
 40
1.0
 40
1.0
 40
1.0
 10
7.1553077608
 20
11.4424991581
 30
0.0
 10
7.1532329557
 20
11.4419494228
 30
0.0
 10
7.1492553575
 20
11.4408332886
 30
0.0
 10
7.1435888088
 20
11.4390270839
 30
0.0
 10
7.1384744278
 20
11.4371605836
 30
0.0
 10
7.1352863771
 20
11.4358138036
 30
0.0
 10
7.13379442
 20
11.4351255383
 30
0.0
  0
SPLINE
  5
337
100
AcDbEntity
  8
0
100
AcDbSpline
 62
9
  6
CONTINUOUS
 70
0
 71
3
 72
22
 73
18
 74
0
 42
0.0000001
 43
0.0000001
 44
0.0000000001
 40
0.0
 40
0.0
 40
0.0
 40
0.0
 40
0.0067209981
 40
0.014035471
 40
0.0224053827
 40
0.0321408897
 40
0.0563904344
 40
0.0876420188
 40
0.1261888289
 40
0.1721019755
 40
0.2253295747
 40
0.2857575969
 40
0.3532075217
 40
0.4274722261
 40
0.5953806259
 40
0.7871607231
 40
1.0
 40
1.0
 40
1.0
 40
1.0
 10
7.1841358048
 20
11.5007412542
 30
0.0
 10
7.1841504927
 20
11.5007905823
 30
0.0
 10
7.1841645898
 20
11.500899119
 30
0.0
 10
7.1841370394
 20
11.5010702584
 30
0.0
 10
7.1840641144
 20
11.5012520274
 30
0.0
 10
7.1838949603
 20
11.5015299936
 30
0.0
 10
7.1835578829
 20
11.5019033017
 30
0.0
 10
7.1830093706
 20
11.5023711028
 30
0.0
 10
7.1822878556
 20
11.50288705
 30
0.0
 10
7.1813954069
 20
11.5034492069
 30
0.0
 10
7.1803341487
 20
11.5040555485
 30
0.0
 10
7.1791077348
 20
11.5047035149
 30
0.0
 10
7.1777205011
 20
11.5053907338
 30
0.0
 10
7.1755736269
 20
11.5063974457
 30
0.0
 10
7.1725266524
 20
11.5077253325
 30
0.0
 10
7.1684630111
 20
11.5093721575
 30
0.0
 10
7.1655675557
 20
11.510476032
 30
0.0
 10
7.1640398187
 20
11.5110439801
 30
0.0
  0
SPLINE
  5
338
100
AcDbEntity
  8
0
100
AcDbSpline
 62
9
  6
CONTINUOUS
 70
0
 71
3
 72
19
 73
15
 74
0
 42
0.0000001
 43
0.0000001
 44
0.0000000001
 40
0.0
 40
0.0
 40
0.0
 40
0.0
 40
0.0287500921
 40
0.0591687381
 40
0.0926311369
 40
0.1301619415
 40
0.1724569111
 40
0.2199640712
 40
0.2729657385
 40
0.3316072467
 40
0.4659191065
 40
0.6227474336
 40
0.8012776864
 40
1.0
 40
1.0
 40
1.0
 40
1.0
 10
7.1710049706
 20
11.455238767
 30
0.0
 10
7.1710506718
 20
11.455402316
 30
0.0
 10
7.1711014371
 20
11.4557524099
 30
0.0
 10
7.1710484582
 20
11.4563012429
 30
0.0
 10
7.1708715022
 20
11.4568769832
 30
0.0
 10
7.1705732411
 20
11.4574784902
 30
0.0
 10
7.1701556992
 20
11.45810592
 30
0.0
 10
7.1696200239
 20
11.4587588859
 30
0.0
 10
7.1689672255
 20
11.4594364005
 30
0.0
 10
7.1678929456
 20
11.4604155461
 30
0.0
 10
7.1662543642
 20
11.4616791895
 30
0.0
 10
7.1639367148
 20
11.4632067073
 30
0.0
 10
7.1612074298
 20
11.4647913221
 30
0.0
 10
7.1592316017
 20
11.4658229837
 30
0.0
 10
7.1581816645
 20
11.4663477295
 30
0.0
  0
SPLINE
  5
339
100
AcDbEntity
  8
0
100
AcDbSpline
 62
9
  6
CONTINUOUS
 70
0
 71
3
 72
19
 73
15
 74
0
 42
0.0000001
 43
0.0000001
 44
0.0000000001
 40
0.0
 40
0.0
 40
0.0
 40
0.0
 40
0.0228833284
 40
0.0480086603
 40
0.0770724779
 40
0.1111720839
 40
0.1509573858
 40
0.1968026589
 40
0.2489231624
 40
0.3074167033
 40
0.4435441699
 40
0.6049353227
 40
0.7908474305
 40
1.0
 40
1.0
 40
1.0
 40
1.0
 10
7.1655054436
 20
11.4352733098
 30
0.0
 10
7.1655312679
 20
11.4353684347
 30
0.0
 10
7.1655511053
 20
11.4355785321
 30
0.0
 10
7.1654812591
 20
11.4359068611
 30
0.0
 10
7.1653191332
 20
11.4362534941
 30
0.0
 10
7.1650669125
 20
11.4366199335
 30
0.0
 10
7.1647252574
 20
11.4370074496
 30
0.0
 10
7.1642943479
 20
11.4374162019
 30
0.0
 10
7.1637745567
 20
11.4378458005
 30
0.0
 10
7.1629196891
 20
11.4384779593
 30
0.0
 10
7.1616272956
 20
11.4393062233
 30
0.0
 10
7.1598115859
 20
11.4403271
 30
0.0
 10
7.1576729772
 20
11.4414107456
 30
0.0
 10
7.1561299078
 20
11.4421288672
 30
0.0
 10
7.1553082923
 20
11.4424984356
 30
0.0
  0
SPLINE
  5
33A
100
AcDbEntity
  8
0
100
AcDbSpline
 62
9
  6
CONTINUOUS
 70
0
 71
3
 72
19
 73
15
 74
0
 42
0.0000001
 43
0.0000001
 44
0.0000000001
 40
0.0
 40
0.0
 40
0.0
 40
0.0
 40
0.0158866683
 40
0.035146858
 40
0.059779314
 40
0.0907409545
 40
0.128472967
 40
0.1731799789
 40
0.2249547934
 40
0.2838085249
 40
0.4225582506
 40
0.5888521346
 40
0.7817845307
 40
1.0
 40
1.0
 40
1.0
 40
1.0
 10
7.161995877
 20
11.422221148
 30
0.0
 10
7.1620112754
 20
11.4222789714
 30
0.0
 10
7.1620092612
 20
11.422417142
 30
0.0
 10
7.1619144945
 20
11.422625218
 30
0.0
 10
7.1617406952
 20
11.4228489798
 30
0.0
 10
7.1614858982
 20
11.4230923711
 30
0.0
 10
7.161149718
 20
11.4233565406
 30
0.0
 10
7.1607317239
 20
11.4236413694
 30
0.0
 10
7.1602322494
 20
11.4239464267
 30
0.0
 10
7.1594123102
 20
11.4244050373
 30
0.0
 10
7.1581856634
 20
11.4250180662
 30
0.0
 10
7.156476271
 20
11.4257908086
 30
0.0
 10
7.1544692231
 20
11.4266294881
 30
0.0
 10
7.1530274573
 20
11.4271950768
 30
0.0
 10
7.1522598108
 20
11.4274888215
 30
0.0
  0
SPLINE
  5
33B
100
AcDbEntity
  8
0
100
AcDbSpline
 62
9
  6
CONTINUOUS
 70
0
 71
3
 72
22
 73
18
 74
0
 42
0.0000001
 43
0.0000001
 44
0.0000000001
 40
0.0
 40
0.0
 40
0.0
 40
0.0
 40
0.0052367778
 40
0.011188493
 40
0.0183546752
 40
0.0270250396
 40
0.049438848
 40
0.0791032261
 40
0.1162239021
 40
0.1608537995
 40
0.2129840839
 40
0.2725457917
 40
0.3394299382
 40
0.4135169199
 40
0.5827151284
 40
0.7788208109
 40
1.0
 40
1.0
 40
1.0
 40
1.0
 10
7.0843277516
 20
11.0063869414
 30
0.0
 10
7.0843303538
 20
11.0064107122
 30
0.0
 10
7.0843252222
 20
11.0064629964
 30
0.0
 10
7.0842885642
 20
11.0065395965
 30
0.0
 10
7.0842254999
 20
11.0066173229
 30
0.0
 10
7.084094796
 20
11.0067339253
 30
0.0
 10
7.0838580676
 20
11.0068813652
 30
0.0
 10
7.0834907667
 20
11.0070578599
 30
0.0
 10
7.0830174941
 20
11.0072455532
 30
0.0
 10
7.0824391299
 20
11.0074439868
 30
0.0
 10
7.0817563095
 20
11.0076524416
 30
0.0
 10
7.0809704702
 20
11.0078703741
 30
0.0
 10
7.0800832703
 20
11.0080972417
 30
0.0
 10
7.0787054764
 20
11.0084255928
 30
0.0
 10
7.0767442849
 20
11.0088500605
 30
0.0
 10
7.0741164256
 20
11.0093667113
 30
0.0
 10
7.0722414694
 20
11.0097066433
 30
0.0
 10
7.0712466939
 20
11.0098811941
 30
0.0
  0
ENDSEC
  0
SECTION
  2
OBJECTS
  0
DICTIONARY
  5
C
100
AcDbDictionary
280
0
281
1
  3
ACAD_GROUP
350
D
  3
ACAD_MLINESTYLE
350
17
  3
ACAD_LAYOUT
350
1A
  3
ACAD_PLOTSETTINGS
350
19
  3
ACAD_PLOTSTYLENAME
350
E
  0
DICTIONARY
  5
D
102
{ACAD_REACTORS
330
C
102
}
100
AcDbDictionary
280
0
281
1
  0
ACDBDICTIONARYWDFLT
  5
E
102
{ACAD_REACTORS
330
C
102
}
100
AcDbDictionary
281
1
  3
Normal
350
F
100
AcDbDictionaryWithDefault
340
F
  0
DICTIONARY
  5
17
102
{ACAD_REACTORS
330
C
102
}
100
AcDbDictionary
280
0
281
1
  3
Standard
350
18
  0
DICTIONARY
  5
19
102
{ACAD_REACTORS
330
C
102
}
100
AcDbDictionary
281
1
  0
DICTIONARY
  5
1A
102
{ACAD_REACTORS
330
C
102
}
100
AcDbDictionary
281
1
  3
Model
350
33C
  3
Layout1
350
33D
  0
ACDBPLACEHOLDER
  5
F
102
{ACAD_REACTORS
330
E
102
}
  0
MLINESTYLE
  5
18
102
{ACAD_REACTORS
330
17
102
}
100
AcDbMlineStyle
  2
STANDARD
 70
0
  3

 62
256
 51
90.0
 52
90.0
 71
2
 49
0.5
 62
256
  6
BYLAYER
 49
-0.5
 62
256
  6
BYLAYER
  0
LAYOUT
  5
33C
102
{ACAD_REACTORS
330
1A
102
}
100
AcDbPlotSettings
  1

  2
none_device
  4
ANSI_C_(22.00_x_17.00_Inches)
  6

 40
0.0
 41
0.0
 42
0.0
 43
0.0
 44
558.8
 45
431.8
 46
0.0
 47
0.0
 48
0.0
 49
0.0
140
0.0
141
0.0
142
1.0
143
1.0
 70
1024
 72
0
 73
0
 74
0
  7

 75
0
147
1.0
148
0.0
149
0.0
100
AcDbLayout
  1
Model
 70
0
 71
0
 10
0.0
 20
0.0
 11
22.0
 21
17.0
 12
0.0
 22
0.0
 32
0.0
 14
0.0
 24
0.0
 34
0.0
 15
0.0
 25
0.0
 35
0.0
146
0.0
 13
0.0
 23
0.0
 33
0.0
 16
1.0
 26
0.0
 36
0.0
 17
0.0
 27
1.0
 37
0.0
 76
0
330
205
345
0
346
0
  0
LAYOUT
  5
33D
102
{ACAD_REACTORS
330
1A
102
}
100
AcDbPlotSettings
  1

  2
none_device
  4
ANSI_C_(22.00_x_17.00_Inches)
  6

 40
0.0
 41
0.0
 42
0.0
 43
0.0
 44
558.8
 45
431.8
 46
0.0
 47
0.0
 48
0.0
 49
0.0
140
0.0
141
0.0
142
1.0
143
1.0
 70
0
 72
0
 73
0
 74
0
  7

 75
0
147
1.0
148
0.0
149
0.0
100
AcDbLayout
  1
Layout1
 70
0
 71
1
 10
0.0
 20
0.0
 11
22.0
 21
17.0
 12
0.0
 22
0.0
 32
0.0
 14
0.0
 24
0.0
 34
0.0
 15
0.0
 25
0.0
 35
0.0
146
0.0
 13
0.0
 23
0.0
 33
0.0
 16
1.0
 26
0.0
 36
0.0
 17
0.0
 27
1.0
 37
0.0
 76
0
330
206
345
0
346
0
  0
ENDSEC
  0
EOF
