999
DXF file: E:\BT Custom\CADOUTPUT\_TOP.dxf
999
Pro/ENGINEER 2018400 by Parametric Technology Corporation
  0
SECTION
  2
HEADER
  9
$ACADVER
  1
AC1018
  9
$DWGCODEPAGE
  3
ANSI_1252
  9
$EXTMAX
 10
22.0
 20
17.0
 30
0.0
  9
$EXTMIN
 10
0.0
 20
0.0
 30
0.0
  9
$LIMMIN
 10
0.0
 20
0.0
  9
$LIMMAX
 10
22.0
 20
17.0
  9
$VIEWCTR
 10
11.0
 20
8.5
  9
$VIEWSIZE
 40
17.0
  9
$CLAYER
  8
0
  9
$LTSCALE
 40
1.21
  9
$CELTYPE
  6
BYLAYER
  9
$DIMSCALE
 40
1.0
  9
$DIMASZ
 40
0.1
  9
$DIMEXO
 40
0.0625
  9
$DIMDLI
 40
0.836
  9
$DIMEXE
 40
0.125
  9
$DIMCEN
 40
0.198
  9
$DIMLFAC
 40
1.0
  9
$DIMBLK
  1
_FILLED
  9
$DIMALT
 70
1
  9
$DIMALTD
 70
2
  9
$DIMALTTD
 70
2
  9
$DIMALTF
 40
25.4
  9
$DIMTXT
 40
0.08
  9
$DIMTOL
 70
1
  9
$DIMLIM
 70
0
  9
$DIMTFAC
 40
1.0
  9
$DIMTP
 40
0.001
  9
$DIMTM
 40
0.001
  9
$DIMGAP
 40
0.09
  9
$DIMDSEP
 70
46
  9
$AUNITS
 70
0
  9
$PDMODE
 70
3
  9
$PDSIZE
 40
0.06
  9
$HANDSEED
  5
29D
  9
$TILEMODE
 70
1
  9
$MEASUREMENT
 70
0
  9
$INSUNITS
 70
1
  0
ENDSEC
  0
SECTION
  2
CLASSES
  0
CLASS
  1
ACDBDICTIONARYWDFLT
  2
AcDbDictionaryWithDefault
  3
AutoCAD 2000
 90
0
 91
1
280
0
281
0
  0
CLASS
  1
ACDBPLACEHOLDER
  2
AcDbPlaceHolder
  3
AutoCAD 2000
 90
0
 91
1
280
0
281
0
  0
CLASS
  1
LAYOUT
  2
AcDbLayout
  3
AutoCAD 2000
 90
0
 91
0
280
0
281
0
  0
ENDSEC
  0
SECTION
  2
TABLES
  0
TABLE
  2
VPORT
  5
8
100
AcDbSymbolTable
 70
2
  0
VPORT
  5
1F4
100
AcDbSymbolTableRecord
100
AcDbViewportTableRecord
  2
*ACTIVE
 70
0
 10
0.0
 20
0.0
 11
1.0
 21
1.0
 12
11.0
 22
8.5
 13
0.0
 23
0.0
 14
1.0
 24
1.0
 15
0.0
 25
0.0
 16
0.0
 26
0.0
 36
1.0
 17
0.0
 27
0.0
 37
0.0
 40
17.0
 41
1.2941176471
 42
50.0
 43
0.0
 44
0.0
 50
0.0
 51
0.0
 71
0
 72
100
 73
1
 74
1
 75
0
 76
0
 77
0
 78
0
  0
ENDTAB
  0
TABLE
  2
LTYPE
  5
5
100
AcDbSymbolTable
 70
6
  0
LTYPE
  5
14
100
AcDbSymbolTableRecord
100
AcDbLinetypeTableRecord
  2
BYBLOCK
 70
0
  3

 72
65
 73
0
 40
0.0
  0
LTYPE
  5
15
100
AcDbSymbolTableRecord
100
AcDbLinetypeTableRecord
  2
BYLAYER
 70
0
  3

 72
65
 73
0
 40
0.0
  0
LTYPE
  5
16
100
AcDbSymbolTableRecord
100
AcDbLinetypeTableRecord
  2
CONTINUOUS
 70
64
  3
Solid line
 72
65
 73
0
 40
0.0
  0
LTYPE
  5
1F5
100
AcDbSymbolTableRecord
100
AcDbLinetypeTableRecord
  2
CENTER
 70
64
  3
____ _ ____ _ ____ _ ____ _ ____ _ ____ _ ____
 72
65
 73
4
 40
0.6
 49
0.375
 74
0
 49
-0.075
 74
0
 49
0.075
 74
0
 49
-0.075
 74
0
  0
LTYPE
  5
1F6
100
AcDbSymbolTableRecord
100
AcDbLinetypeTableRecord
  2
HIDDEN
 70
64
  3
- - - - - - - - - - - - - - - - - - - -
 72
65
 73
2
 40
0.2
 49
0.1
 74
0
 49
-0.1
 74
0
  0
LTYPE
  5
1F7
100
AcDbSymbolTableRecord
100
AcDbLinetypeTableRecord
  2
PHANTOM
 70
64
  3
_____ _ _ _____ _ _ _____ _ _ _____
 72
65
 73
6
 40
0.8
 49
0.45
 74
0
 49
-0.05
 74
0
 49
0.1
 74
0
 49
-0.05
 74
0
 49
0.1
 74
0
 49
-0.05
 74
0
  0
LTYPE
  5
1F8
100
AcDbSymbolTableRecord
100
AcDbLinetypeTableRecord
  2
DOT
 70
64
  3
. . . . . . . . . . . . . . . . . . . .
 72
65
 73
2
 40
0.2
 49
0.1
 74
0
 49
-0.1
 74
0
  0
LTYPE
  5
1F9
100
AcDbSymbolTableRecord
100
AcDbLinetypeTableRecord
  2
DASHED
 70
64
  3
- - - - - - - - - - - - - - - - - - - -
 72
65
 73
2
 40
0.2
 49
0.1
 74
0
 49
-0.1
 74
0
  0
ENDTAB
  0
TABLE
  2
LAYER
  5
2
100
AcDbSymbolTable
 70
36
  0
LAYER
  5
10
100
AcDbSymbolTableRecord
100
AcDbLayerTableRecord
  2
0
 70
0
 62
7
  6
CONTINUOUS
370
-3
390
F
  0
LAYER
  5
1FA
100
AcDbSymbolTableRecord
100
AcDbLayerTableRecord
  2
DEFAULT_1
 70
0
 62
7
  6
CENTER
370
-3
390
F
  0
LAYER
  5
1FB
100
AcDbSymbolTableRecord
100
AcDbLayerTableRecord
  2
DEFAULT_2
 70
0
 62
8
  6
HIDDEN
370
-3
390
F
  0
LAYER
  5
1FC
100
AcDbSymbolTableRecord
100
AcDbLayerTableRecord
  2
DEFAULT_3
 70
0
 62
7
  6
PHANTOM
370
-3
390
F
  0
LAYER
  5
1FD
100
AcDbSymbolTableRecord
100
AcDbLayerTableRecord
  2
ALL_FEATURES
 70
0
 62
7
  6
CONTINUOUS
370
-3
390
F
  0
LAYER
  5
1FE
100
AcDbSymbolTableRecord
100
AcDbLayerTableRecord
  2
AXES_FEATURES
 70
0
 62
7
  6
CONTINUOUS
370
-3
390
F
  0
LAYER
  5
1FF
100
AcDbSymbolTableRecord
100
AcDbLayerTableRecord
  2
DEFAULT_COORDINATE_SYSTEM
 70
0
 62
7
  6
CONTINUOUS
370
-3
390
F
  0
LAYER
  5
200
100
AcDbSymbolTableRecord
100
AcDbLayerTableRecord
  2
DEFAULT_DATUM_AXES
 70
0
 62
7
  6
CONTINUOUS
370
-3
390
F
  0
LAYER
  5
201
100
AcDbSymbolTableRecord
100
AcDbLayerTableRecord
  2
DEFAULT_DATUM_PLANES
 70
0
 62
7
  6
CONTINUOUS
370
-3
390
F
  0
LAYER
  5
202
100
AcDbSymbolTableRecord
100
AcDbLayerTableRecord
  2
DIMENSIONS
 70
0
 62
7
  6
CONTINUOUS
370
-3
390
F
  0
ENDTAB
  0
TABLE
  2
STYLE
  5
3
100
AcDbSymbolTable
 70
1
  0
STYLE
  5
11
100
AcDbSymbolTableRecord
100
AcDbTextStyleTableRecord
  2
STANDARD
 70
0
 40
0.0
 41
0.8
 50
0.0
 71
0
 42
0.2
  3
txt
  4

  0
STYLE
  5
203
100
AcDbSymbolTableRecord
100
AcDbTextStyleTableRecord
  2
TEXTSTYLE_1
 70
0
 40
0.0
 41
0.8
 50
0.0
 71
0
 42
0.2
  3
gdt
  4

  0
ENDTAB
  0
TABLE
  2
VIEW
  5
6
100
AcDbSymbolTable
 70
0
  0
ENDTAB
  0
TABLE
  2
UCS
  5
7
100
AcDbSymbolTable
 70
0
  0
ENDTAB
  0
TABLE
  2
APPID
  5
9
100
AcDbSymbolTable
 70
1
  0
APPID
  5
204
100
AcDbSymbolTableRecord
100
AcDbRegAppTableRecord
  2
ACAD
 70
0
  0
ENDTAB
  0
TABLE
  2
BLOCK_RECORD
  5
1
100
AcDbSymbolTable
 70
0
  0
BLOCK_RECORD
  5
205
100
AcDbSymbolTableRecord
100
AcDbBlockTableRecord
  2
*Model_Space
  0
BLOCK_RECORD
  5
206
100
AcDbSymbolTableRecord
100
AcDbBlockTableRecord
  2
*Paper_Space
  0
BLOCK_RECORD
  5
207
100
AcDbSymbolTableRecord
100
AcDbBlockTableRecord
  2
_FILLED
  0
ENDTAB
  0
TABLE
  2
DIMSTYLE
  5
A
100
AcDbSymbolTable
 70
1
100
AcDbDimStyleTable
 71
0
  0
DIMSTYLE
105
208
100
AcDbSymbolTableRecord
100
AcDbDimStyleTableRecord
  2
STANDARD
 70
0
  3

  4

 40
1.0
 41
0.1
 42
0.0625
 43
0.38
 44
0.125
 45
0.0
 46
0.0
 47
0.001
 48
0.001
140
0.08
141
0.09
142
0.0
143
25.4
144
1.0
145
0.0
146
1.0
147
0.09
 71
1.0
 72
0.0
 73
1
 74
1
 75
0
 76
0
 77
0
 78
4
 79
1
170
1
171
2
172
0
173
0
174
0
175
0
176
0
177
0
178
0
270
2
179
3
271
3
272
3
273
2
274
2
275
0
280
0
281
0
282
0
283
1
284
4
285
0
286
0
287
3
288
0
340
11
278
46
341
207
342
207
343
207
344
207
  0
ENDTAB
  0
ENDSEC
  0
SECTION
  2
BLOCKS
  0
BLOCK
  5
20
100
AcDbEntity
  8
0
100
AcDbBlockBegin
  2
*Model_Space
 70
0
 10
0.0
 20
0.0
 30
0.0
  3
*Model_Space
  1

  0
ENDBLK
  5
21
100
AcDbEntity
  8
0
100
AcDbBlockEnd
  0
BLOCK
  5
1C
100
AcDbEntity
  8
0
100
AcDbBlockBegin
  2
*Paper_Space
 70
0
 10
0.0
 20
0.0
 30
0.0
  3
*Paper_Space
  1

  0
ENDBLK
  5
1D
100
AcDbEntity
  8
0
100
AcDbBlockEnd
  0
BLOCK
  5
209
100
AcDbEntity
  8
0
100
AcDbBlockBegin
  2
_FILLED
 70
64
 10
0.0
 20
0.0
  3
_FILLED
  1

  0
SOLID
  5
20A
100
AcDbEntity
  8
0
  6
BYBLOCK
 62
0
100
AcDbTrace
 10
0.0
 20
0.0
 11
-1.0
 21
0.2
 12
-1.0
 22
-0.2
 13
-1.0
 23
-0.2
  0
ENDBLK
  5
20B
100
AcDbEntity
  8
0
  6
BYBLOCK
 62
0
100
AcDbBlockEnd
  0
ENDSEC
  0
SECTION
  2
ENTITIES
  0
LINE
  5
20C
100
AcDbEntity
  8
0
100
AcDbLine
 62
7
  6
CONTINUOUS
 10
9.2853622412
 20
11.4794704466
 11
9.2853622262
 21
3.3126157472
  0
LINE
  5
20D
100
AcDbEntity
  8
0
100
AcDbLine
 62
7
  6
CONTINUOUS
 10
10.4248523529
 20
3.3126157472
 11
10.4248523186
 21
11.479537994
  0
LINE
  5
20E
100
AcDbEntity
  8
0
100
AcDbLine
 62
7
  6
CONTINUOUS
 10
11.4181072896
 20
10.5543385548
 11
11.4181072896
 21
12.4043385548
  0
LINE
  5
20F
100
AcDbEntity
  8
0
100
AcDbLine
 62
9
  6
CONTINUOUS
 10
11.5531072896
 20
10.5543385548
 11
11.5531072896
 21
12.4043385548
  0
LINE
  5
210
100
AcDbEntity
  8
0
100
AcDbLine
 62
9
  6
CONTINUOUS
 10
11.6440132238
 20
10.6126718882
 11
11.6440132238
 21
12.3460052215
  0
LINE
  5
211
100
AcDbEntity
  8
0
100
AcDbLine
 62
9
  6
CONTINUOUS
 10
11.7265842703
 20
10.6870116675
 11
11.7265842703
 21
12.2716654422
  0
LINE
  5
212
100
AcDbEntity
  8
0
100
AcDbLine
 62
7
  6
CONTINUOUS
 10
12.2090311284
 20
11.1895585175
 11
12.2084538644
 21
11.2159160122
  0
LINE
  5
213
100
AcDbEntity
  8
0
100
AcDbLine
 62
7
  6
CONTINUOUS
 10
12.2084538644
 20
11.2159160122
 11
12.2078932348
 21
11.2486654745
  0
LINE
  5
214
100
AcDbEntity
  8
0
100
AcDbLine
 62
7
  6
CONTINUOUS
 10
12.2078932348
 20
11.2486654745
 11
12.2073841298
 21
11.2875196997
  0
LINE
  5
215
100
AcDbEntity
  8
0
100
AcDbLine
 62
7
  6
CONTINUOUS
 10
12.2073841298
 20
11.2875196997
 11
12.2069623032
 21
11.3311700901
  0
LINE
  5
216
100
AcDbEntity
  8
0
100
AcDbLine
 62
7
  6
CONTINUOUS
 10
12.2069623032
 20
11.3311700901
 11
12.2066042575
 21
11.387263741
  0
LINE
  5
217
100
AcDbEntity
  8
0
100
AcDbLine
 62
7
  6
CONTINUOUS
 10
12.2066042575
 20
11.387263741
 11
12.2064197981
 21
11.4444128643
  0
LINE
  5
218
100
AcDbEntity
  8
0
100
AcDbLine
 62
9
  6
CONTINUOUS
 10
12.0418448146
 20
10.7393385548
 11
12.0418448146
 21
12.2193385548
  0
LINE
  5
219
100
AcDbEntity
  8
0
100
AcDbLine
 62
9
  6
CONTINUOUS
 10
12.1129731939
 20
10.7821869868
 11
12.1129731939
 21
12.1764901229
  0
LINE
  5
21A
100
AcDbEntity
  8
0
100
AcDbLine
 62
9
  6
CONTINUOUS
 10
12.175899264
 20
12.0143385548
 11
12.175899264
 21
10.9443385548
  0
LINE
  5
21B
100
AcDbEntity
  8
0
100
AcDbLine
 62
7
  6
CONTINUOUS
 10
12.2064197981
 20
11.4444128643
 11
12.2063996003
 21
11.4996383853
  0
LINE
  5
21C
100
AcDbEntity
  8
0
100
AcDbLine
 62
7
  6
CONTINUOUS
 10
12.2063996003
 20
11.4996383853
 11
12.2065503686
 21
11.5592103304
  0
LINE
  5
21D
100
AcDbEntity
  8
0
100
AcDbLine
 62
7
  6
CONTINUOUS
 10
12.2065503686
 20
11.5592103304
 11
12.2068515949
 21
11.6130300326
  0
LINE
  5
21E
100
AcDbEntity
  8
0
100
AcDbLine
 62
7
  6
CONTINUOUS
 10
12.2068515949
 20
11.6130300326
 11
12.2072734525
 21
11.661022878
  0
LINE
  5
21F
100
AcDbEntity
  8
0
100
AcDbLine
 62
7
  6
CONTINUOUS
 10
12.2072734525
 20
11.661022878
 11
12.2077895841
 21
11.7029464864
  0
LINE
  5
220
100
AcDbEntity
  8
0
100
AcDbLine
 62
7
  6
CONTINUOUS
 10
12.2077895841
 20
11.7029464864
 11
12.2083758178
 21
11.7386799713
  0
LINE
  5
221
100
AcDbEntity
  8
0
100
AcDbLine
 62
7
  6
CONTINUOUS
 10
12.2083758178
 20
11.7386799713
 11
12.2089176252
 21
11.7644217195
  0
LINE
  5
222
100
AcDbEntity
  8
0
100
AcDbLine
 62
7
  6
CONTINUOUS
 10
12.2089176252
 20
11.7644217195
 11
12.2093867124
 21
11.7824935511
  0
LINE
  5
223
100
AcDbEntity
  8
0
100
AcDbLine
 62
7
  6
CONTINUOUS
 10
12.2093867124
 20
11.7824935511
 11
12.2097682747
 21
11.7948035341
  0
LINE
  5
224
100
AcDbEntity
  8
0
100
AcDbLine
 62
7
  6
CONTINUOUS
 10
12.2097682747
 20
11.7948035341
 11
12.2100557391
 21
11.8028219781
  0
LINE
  5
225
100
AcDbEntity
  8
0
100
AcDbLine
 62
7
  6
CONTINUOUS
 10
12.2100557391
 20
11.8028219781
 11
12.2103425367
 21
11.8098307465
  0
LINE
  5
226
100
AcDbEntity
  8
0
100
AcDbLine
 62
7
  6
CONTINUOUS
 10
12.2103425367
 20
11.8098307465
 11
12.2105323679
 21
11.8139543048
  0
LINE
  5
227
100
AcDbEntity
  8
0
100
AcDbLine
 62
7
  6
CONTINUOUS
 10
12.2105323679
 20
11.8139543048
 11
12.2107200676
 21
11.8176425395
  0
LINE
  5
228
100
AcDbEntity
  8
0
100
AcDbLine
 62
7
  6
CONTINUOUS
 10
12.2107200676
 20
11.8176425395
 11
12.2109044536
 21
11.8208986145
  0
LWPOLYLINE
  5
229
100
AcDbEntity
  8
0
100
AcDbPolyline
 62
7
  6
CONTINUOUS
 90
12
 70
0
 10
12.2109044536
 20
11.8208986145
 10
12.2110840369
 20
11.8237265571
 10
12.2111714511
 20
11.8249813875
 10
12.2112568895
 20
11.8261308098
 10
12.2113399724
 20
11.8271751045
 10
12.2114202185
 20
11.8281142338
 10
12.2114970031
 20
11.8289476964
 10
12.2115695091
 20
11.8296744553
 10
12.2116366068
 20
11.8302923975
 10
12.2116966949
 20
11.8307979422
 10
12.2117474235
 20
11.8311853083
 10
12.2117875729
 20
11.8314605827
  0
LINE
  5
22A
100
AcDbEntity
  8
0
100
AcDbLine
 62
7
  6
CONTINUOUS
 10
12.2111069649
 20
11.1346137111
 11
12.2109085265
 21
11.1377106733
  0
LINE
  5
22B
100
AcDbEntity
  8
0
100
AcDbLine
 62
7
  6
CONTINUOUS
 10
12.2109085265
 20
11.1377106733
 11
12.2107021819
 21
11.1413696135
  0
LINE
  5
22C
100
AcDbEntity
  8
0
100
AcDbLine
 62
7
  6
CONTINUOUS
 10
12.2107021819
 20
11.1413696135
 11
12.2104897474
 21
11.1456129106
  0
LINE
  5
22D
100
AcDbEntity
  8
0
100
AcDbLine
 62
7
  6
CONTINUOUS
 10
12.2104897474
 20
11.1456129106
 11
12.2102727722
 21
11.150462023
  0
LINE
  5
22E
100
AcDbEntity
  8
0
100
AcDbLine
 62
7
  6
CONTINUOUS
 10
12.2102727722
 20
11.150462023
 11
12.209941391
 21
11.1589218075
  0
LINE
  5
22F
100
AcDbEntity
  8
0
100
AcDbLine
 62
7
  6
CONTINUOUS
 10
12.209941391
 20
11.1589218075
 11
12.2096040418
 21
11.1689288239
  0
LWPOLYLINE
  5
230
100
AcDbEntity
  8
0
100
AcDbPolyline
 62
7
  6
CONTINUOUS
 90
3
 70
0
 10
12.2096040418
 20
11.1689288239
 10
12.2091465252
 20
11.1850010969
 10
12.2090311284
 20
11.1895585175
  0
LINE
  5
231
100
AcDbEntity
  8
0
100
AcDbLine
 62
9
  6
CONTINUOUS
 10
12.7248596958
 20
11.1819337519
 11
12.7248791953
 21
11.7769337516
  0
LINE
  5
232
100
AcDbEntity
  8
0
100
AcDbLine
 62
9
  6
CONTINUOUS
 10
12.7427642416
 20
11.165779319
 11
12.7427847999
 21
11.7930870109
  0
LINE
  5
233
100
AcDbEntity
  8
0
100
AcDbLine
 62
7
  6
CONTINUOUS
 10
12.8624681819
 20
11.786928483
 11
12.862448027
 21
11.1719300023
  0
LINE
  5
234
100
AcDbEntity
  8
0
100
AcDbLine
 62
9
  6
CONTINUOUS
 10
12.8824549521
 20
11.3664739873
 11
12.8824517139
 21
11.2844285873
  0
LINE
  5
235
100
AcDbEntity
  8
0
100
AcDbLine
 62
9
  6
CONTINUOUS
 10
12.8824644951
 20
11.6744285871
 11
12.8824623475
 21
11.5921158108
  0
LINE
  5
236
100
AcDbEntity
  8
0
100
AcDbLine
 62
9
  6
CONTINUOUS
 10
12.9024517139
 20
11.2844279319
 11
12.9024530834
 21
11.3151705143
  0
LINE
  5
237
100
AcDbEntity
  8
0
100
AcDbLine
 62
9
  6
CONTINUOUS
 10
12.9024638422
 20
11.643417974
 11
12.9024644951
 21
11.6744279315
  0
LWPOLYLINE
  5
238
100
AcDbEntity
  8
0
100
AcDbPolyline
 62
7
  6
CONTINUOUS
 90
11
 70
0
 10
12.211804092
 20
11.1271154076
 10
12.2117818245
 20
11.1272540986
 10
12.2117410143
 20
11.1275386482
 10
12.2116864643
 20
11.127961879
 10
12.2116215428
 20
11.1285186986
 10
12.2115484744
 20
11.1292073127
 10
12.2114689262
 20
11.1300266651
 10
12.2113841483
 20
11.1309764767
 10
12.2112950935
 20
11.1320570594
 10
12.2112025102
 20
11.1332690418
 10
12.2111069649
 20
11.1346137111
  0
LINE
  5
239
100
AcDbEntity
  8
0
100
AcDbLine
 62
7
  6
CONTINUOUS
 10
11.5531072896
 20
10.5543385548
 11
11.4181072896
 21
10.5543385548
  0
LINE
  5
23A
100
AcDbEntity
  8
0
100
AcDbLine
 62
7
  6
CONTINUOUS
 10
11.4181072896
 20
10.6943385548
 11
10.5270874597
 21
10.6943385548
  0
LINE
  5
23B
100
AcDbEntity
  8
0
100
AcDbLine
 62
9
  6
CONTINUOUS
 10
12.2127966872
 20
11.1184993479
 11
12.2124612564
 21
11.1185021106
  0
LINE
  5
23C
100
AcDbEntity
  8
0
100
AcDbLine
 62
7
  6
CONTINUOUS
 10
12.7248596958
 20
11.1819337519
 11
12.2092275117
 21
11.1819506503
  0
LINE
  5
23D
100
AcDbEntity
  8
0
100
AcDbLine
 62
7
  6
CONTINUOUS
 10
12.9186073467
 20
11.284427373
 11
12.8824517139
 21
11.2844285873
  0
LINE
  5
23E
100
AcDbEntity
  8
0
100
AcDbLine
 62
9
  6
CONTINUOUS
 10
12.2124612564
 20
11.8401749991
 11
12.2127966855
 21
11.8401777718
  0
LINE
  5
23F
100
AcDbEntity
  8
0
100
AcDbLine
 62
7
  6
CONTINUOUS
 10
12.9187744646
 20
11.6744273672
 11
12.8824644951
 21
11.6744285871
  0
LINE
  5
240
100
AcDbEntity
  8
0
100
AcDbLine
 62
7
  6
CONTINUOUS
 10
12.7248791953
 20
11.7769337516
 11
12.2092333909
 21
11.7769506505
  0
LINE
  5
241
100
AcDbEntity
  8
0
100
AcDbLine
 62
7
  6
CONTINUOUS
 10
11.4181072896
 20
12.2643385548
 11
10.5270874597
 21
12.2643385548
  0
LINE
  5
242
100
AcDbEntity
  8
0
100
AcDbLine
 62
7
  6
CONTINUOUS
 10
11.5531072896
 20
12.4043385548
 11
11.4181072896
 21
12.4043385548
  0
ARC
  5
243
100
AcDbEntity
  8
0
100
AcDbCircle
 62
9
  6
CONTINUOUS
 10
9.8386956777
 20
2.9008933828
 40
0.8083969658
100
AcDbArc
 50
161.5700617247
 51
164.2055728079
  0
ARC
  5
244
100
AcDbEntity
  8
0
100
AcDbCircle
 62
9
  6
CONTINUOUS
 10
9.871559256
 20
2.9009058036
 40
0.8083547542
100
AcDbArc
 50
15.7986730913
 51
18.425978516
  0
ARC
  5
245
100
AcDbEntity
  8
0
100
AcDbCircle
 62
9
  6
CONTINUOUS
 10
9.8721684491
 20
2.901077984
 40
0.8077216963
100
AcDbArc
 50
13.9960819065
 51
15.7986859672
  0
ARC
  5
246
100
AcDbEntity
  8
0
100
AcDbCircle
 62
9
  6
CONTINUOUS
 10
9.8380447989
 20
2.9010783355
 40
0.8077203197
100
AcDbArc
 50
164.2056302111
 51
166.0041019567
  0
ARC
  5
247
100
AcDbEntity
  8
0
100
AcDbCircle
 62
7
  6
CONTINUOUS
 10
9.8379215856
 20
2.9010313209
 40
0.807618229
100
AcDbArc
 50
161.5600705905
 51
179.9740333612
  0
ARC
  5
248
100
AcDbEntity
  8
0
100
AcDbCircle
 62
7
  6
CONTINUOUS
 10
9.8722933458
 20
2.9010313614
 40
0.8076178758
100
AcDbArc
 50
0.0259637733
 51
18.4358329023
  0
ARC
  5
249
100
AcDbEntity
  8
0
100
AcDbCircle
 62
9
  6
CONTINUOUS
 10
9.8735001657
 20
2.9013683445
 40
0.8063589144
100
AcDbArc
 50
0.0019464519
 51
13.9989484533
  0
ARC
  5
24A
100
AcDbEntity
  8
0
100
AcDbCircle
 62
9
  6
CONTINUOUS
 10
9.8367144007
 20
2.9013683456
 40
0.8063589017
100
AcDbArc
 50
166.0012342194
 51
179.9980536285
  0
ARC
  5
24B
100
AcDbEntity
  8
0
100
AcDbCircle
 62
9
  6
CONTINUOUS
 10
9.8403020964
 20
3.222367133
 40
0.6546966691
100
AcDbArc
 50
169.2672829796
 51
173.0790306491
  0
ARC
  5
24C
100
AcDbEntity
  8
0
100
AcDbCircle
 62
9
  6
CONTINUOUS
 10
9.8699124883
 20
3.2223671339
 40
0.6546966634
100
AcDbArc
 50
6.9209697892
 51
10.7327333665
  0
ARC
  5
24D
100
AcDbEntity
  8
0
100
AcDbCircle
 62
9
  6
CONTINUOUS
 10
9.870280068
 20
3.2224137823
 40
0.654326141
100
AcDbArc
 50
0.00048035
 51
6.9207933404
  0
ARC
  5
24E
100
AcDbEntity
  8
0
100
AcDbCircle
 62
9
  6
CONTINUOUS
 10
9.8399345076
 20
3.2224137825
 40
0.6543261375
100
AcDbArc
 50
173.0792071004
 51
179.9995196686
  0
ARC
  5
24F
100
AcDbEntity
  8
0
100
AcDbCircle
 62
7
  6
CONTINUOUS
 10
9.867452631
 20
3.3004174185
 40
0.6471111279
100
AcDbArc
 50
0.0191751764
 51
30.4726316223
  0
ARC
  5
250
100
AcDbEntity
  8
0
100
AcDbCircle
 62
7
  6
CONTINUOUS
 10
9.8427619369
 20
3.3004174201
 40
0.6471111175
100
AcDbArc
 50
149.5274572901
 51
179.9808249657
  0
ARC
  5
251
100
AcDbEntity
  8
0
100
AcDbCircle
 62
9
  6
CONTINUOUS
 10
9.8682742244
 20
3.3080085606
 40
0.5970703208
100
AcDbArc
 50
0.0066561
 51
21.108352765
  0
ARC
  5
252
100
AcDbEntity
  8
0
100
AcDbCircle
 62
9
  6
CONTINUOUS
 10
9.8419403545
 20
3.3080085606
 40
0.5970703208
100
AcDbArc
 50
158.8916472316
 51
179.9933439046
  0
ARC
  5
253
100
AcDbEntity
  8
0
100
AcDbCircle
 62
9
  6
CONTINUOUS
 10
9.8583960241
 20
3.3693304721
 40
0.5664563288
100
AcDbArc
 50
354.292410855
 51
0.0008175492
  0
ARC
  5
254
100
AcDbEntity
  8
0
100
AcDbCircle
 62
7
  6
CONTINUOUS
 10
10.0801072896
 20
11.4793385548
 40
2.163
100
AcDbArc
 50
345.6797393921
 51
350.3968931511
  0
ARC
  5
255
100
AcDbEntity
  8
0
100
AcDbCircle
 62
7
  6
CONTINUOUS
 10
10.0801072896
 20
11.4793385548
 40
2.163
100
AcDbArc
 50
9.6031068489
 51
14.3202606079
  0
ARC
  5
256
100
AcDbEntity
  8
0
100
AcDbCircle
 62
7
  6
CONTINUOUS
 10
9.8551072896
 20
11.4793385548
 40
1.4
100
AcDbArc
 50
294.0296019893
 51
325.8712869156
  0
ARC
  5
257
100
AcDbEntity
  8
0
100
AcDbCircle
 62
7
  6
CONTINUOUS
 10
9.8551072896
 20
11.4793385548
 40
1.4
100
AcDbArc
 50
34.1287130844
 51
245.9703980107
  0
ARC
  5
258
100
AcDbEntity
  8
0
100
AcDbCircle
 62
9
  6
CONTINUOUS
 10
9.8551072896
 20
11.4793385548
 40
1.3581118432
100
AcDbArc
 50
294.821929312
 51
324.6682369606
  0
ARC
  5
259
100
AcDbEntity
  8
0
100
AcDbCircle
 62
9
  6
CONTINUOUS
 10
9.8551072896
 20
11.4793385548
 40
1.3581118432
100
AcDbArc
 50
35.3317630394
 51
245.178070688
  0
ARC
  5
25A
100
AcDbEntity
  8
0
100
AcDbCircle
 62
7
  6
CONTINUOUS
 10
9.8551072896
 20
11.4793385548
 40
1.2
100
AcDbArc
 50
298.3623232484
 51
319.1201278768
  0
ARC
  5
25B
100
AcDbEntity
  8
0
100
AcDbCircle
 62
7
  6
CONTINUOUS
 10
9.8551072896
 20
11.4793385548
 40
1.2
100
AcDbArc
 50
40.8798721232
 51
241.6376767516
  0
ARC
  5
25C
100
AcDbEntity
  8
0
100
AcDbCircle
 62
9
  6
CONTINUOUS
 10
9.8551072896
 20
11.4793385548
 40
1.15
100
AcDbArc
 50
299.7377154577
 51
316.9343050076
  0
ARC
  5
25D
100
AcDbEntity
  8
0
100
AcDbCircle
 62
9
  6
CONTINUOUS
 10
9.8551072896
 20
11.4793385548
 40
1.15
100
AcDbArc
 50
43.0656949924
 51
240.2622845423
  0
ARC
  5
25E
100
AcDbEntity
  8
0
100
AcDbCircle
 62
7
  6
CONTINUOUS
 10
9.8551072896
 20
11.4793385548
 40
1.14
100
AcDbArc
 50
43.5600420438
 51
239.9835476441
  0
ARC
  5
25F
100
AcDbEntity
  8
0
100
AcDbCircle
 62
7
  6
CONTINUOUS
 10
9.8551072896
 20
11.4793385548
 40
1.14
100
AcDbArc
 50
300.0164523559
 51
316.4399579562
  0
ARC
  5
260
100
AcDbEntity
  8
0
100
AcDbCircle
 62
7
  6
CONTINUOUS
 10
9.8551072896
 20
11.4793385548
 40
1.0340551181
100
AcDbArc
 50
303.4505876494
 51
236.5494123506
  0
ARC
  5
261
100
AcDbEntity
  8
0
100
AcDbCircle
 62
9
  6
CONTINUOUS
 10
9.8551072896
 20
11.4793385548
 40
0.9947577938
100
AcDbArc
 50
304.9824356889
 51
235.0175643111
  0
ARC
  5
262
100
AcDbEntity
  8
0
100
AcDbCircle
 62
7
  6
CONTINUOUS
 10
9.8551072896
 20
11.4793385548
 40
0.75
100
AcDbArc
 50
319.4910173679
 51
220.5089826321
  0
ARC
  5
263
100
AcDbEntity
  8
0
100
AcDbCircle
 62
9
  6
CONTINUOUS
 10
9.8551072896
 20
11.4793385548
 40
0.7
100
AcDbArc
 50
324.5219266201
 51
215.4780733799
  0
ARC
  5
264
100
AcDbEntity
  8
0
100
AcDbCircle
 62
9
  6
CONTINUOUS
 10
9.8551072896
 20
11.4793385548
 40
0.68
100
AcDbArc
 50
327.0126115032
 51
212.9873883353
  0
ARC
  5
265
100
AcDbEntity
  8
0
100
AcDbCircle
 62
7
  6
CONTINUOUS
 10
9.8551072896
 20
11.4793385548
 40
0.65
100
AcDbArc
 50
331.3264458258
 51
208.6735541739
  0
ARC
  5
266
100
AcDbEntity
  8
0
100
AcDbCircle
 62
7
  6
CONTINUOUS
 10
9.8551072896
 20
11.4793385548
 40
0.64
100
AcDbArc
 50
333.0557108854
 51
206.9442891146
  0
ARC
  5
267
100
AcDbEntity
  8
0
100
AcDbCircle
 62
9
  6
CONTINUOUS
 10
9.8551072896
 20
11.4793385548
 40
0.61
100
AcDbArc
 50
339.2734322529
 51
200.7265677471
  0
ARC
  5
268
100
AcDbEntity
  8
0
100
AcDbCircle
 62
7
  6
CONTINUOUS
 10
9.8652039661
 20
11.4793446012
 40
0.5798417385
100
AcDbArc
 50
175.0385421085
 51
179.9875891492
  0
ARC
  5
269
100
AcDbEntity
  8
0
100
AcDbCircle
 62
7
  6
CONTINUOUS
 10
9.8549600332
 20
11.4907855549
 40
0.5585530193
100
AcDbArc
 50
84.9689201713
 51
89.984894594
  0
ARC
  5
26A
100
AcDbEntity
  8
0
100
AcDbCircle
 62
7
  6
CONTINUOUS
 10
9.8552545459
 20
11.4907855549
 40
0.5585530193
100
AcDbArc
 50
90.015105406
 51
95.0310798287
  0
ARC
  5
26B
100
AcDbEntity
  8
0
100
AcDbCircle
 62
7
  6
CONTINUOUS
 10
11.4734262258
 20
11.1236612548
 40
0.725
100
AcDbArc
 50
331.9008372837
 51
345.6797393921
  0
ARC
  5
26C
100
AcDbEntity
  8
0
100
AcDbCircle
 62
7
  6
CONTINUOUS
 10
11.4734262258
 20
11.8350158549
 40
0.725
100
AcDbArc
 50
14.3202606079
 51
28.0991627163
  0
ARC
  5
26D
100
AcDbEntity
  8
0
100
AcDbCircle
 62
7
  6
CONTINUOUS
 10
12.0458504241
 20
13.2193305323
 40
1.0
100
AcDbArc
 50
251.3814492113
 51
269.7704948662
  0
ARC
  5
26E
100
AcDbEntity
  8
0
100
AcDbCircle
 62
7
  6
CONTINUOUS
 10
12.0458504241
 20
9.7393465773
 40
1.0
100
AcDbArc
 50
90.2295051338
 51
108.6185507887
  0
CIRCLE
  5
26F
100
AcDbEntity
  8
0
100
AcDbCircle
 62
7
  6
CONTINUOUS
 10
13.2524705559
 20
11.479282772
 40
0.387
  0
CIRCLE
  5
270
100
AcDbEntity
  8
0
100
AcDbCircle
 62
9
  6
CONTINUOUS
 10
13.2524706909
 20
11.4792813221
 40
0.187
  0
ARC
  5
271
100
AcDbEntity
  8
0
100
AcDbCircle
 62
9
  6
CONTINUOUS
 10
12.3912404148
 20
11.8172233
 40
0.1807402834
100
AcDbArc
 50
174.920185334
 51
175.3800255605
  0
ARC
  5
272
100
AcDbEntity
  8
0
100
AcDbCircle
 62
9
  6
CONTINUOUS
 10
12.381059351
 20
11.1405921845
 40
0.1705229556
100
AcDbArc
 50
184.6378264459
 51
185.0997498195
  0
ARC
  5
273
100
AcDbEntity
  8
0
100
AcDbCircle
 62
7
  6
CONTINUOUS
 10
11.7712815318
 20
12.4043385548
 40
0.14
100
AcDbArc
 50
204.6243183522
 51
251.3814492113
  0
ARC
  5
274
100
AcDbEntity
  8
0
100
AcDbCircle
 62
7
  6
CONTINUOUS
 10
11.7712815318
 20
10.5543385548
 40
0.14
100
AcDbArc
 50
108.6185507887
 51
155.3756816478
  0
ARC
  5
275
100
AcDbEntity
  8
0
100
AcDbCircle
 62
7
  6
CONTINUOUS
 10
11.5531072896
 20
12.3043385548
 40
0.1
100
AcDbArc
 50
24.6243183522
 51
90.0
  0
ARC
  5
276
100
AcDbEntity
  8
0
100
AcDbCircle
 62
7
  6
CONTINUOUS
 10
11.5531072896
 20
10.6543385548
 40
0.1
100
AcDbArc
 50
270.0
 51
335.3756816478
  0
ARC
  5
277
100
AcDbEntity
  8
0
100
AcDbCircle
 62
7
  6
CONTINUOUS
 10
12.0415203602
 20
10.820337905
 40
0.081
100
AcDbArc
 50
270.2295051338
 51
331.9008372837
  0
ARC
  5
278
100
AcDbEntity
  8
0
100
AcDbCircle
 62
7
  6
CONTINUOUS
 10
12.0415203602
 20
12.1383392047
 40
0.081
100
AcDbArc
 50
28.0991627163
 51
89.7704948662
  0
ARC
  5
279
100
AcDbEntity
  8
0
100
AcDbCircle
 62
7
  6
CONTINUOUS
 10
12.802468182
 20
11.7869312088
 40
0.06
100
AcDbArc
 50
359.9981222868
 51
174.111280148
  0
ARC
  5
27A
100
AcDbEntity
  8
0
100
AcDbCircle
 62
7
  6
CONTINUOUS
 10
12.802448027
 20
11.1719312092
 40
0.06
100
AcDbArc
 50
185.8849644255
 51
359.9981222868
  0
ARC
  5
27B
100
AcDbEntity
  8
0
100
AcDbCircle
 62
9
  6
CONTINUOUS
 10
12.1927383866
 20
11.1218385534
 40
0.0200030858
100
AcDbArc
 50
350.3983926621
 51
17.8646669376
  0
ARC
  5
27C
100
AcDbEntity
  8
0
100
AcDbCircle
 62
9
  6
CONTINUOUS
 10
12.1927383866
 20
11.8368385562
 40
0.0200030858
100
AcDbArc
 50
342.1388447429
 51
9.6016073377
  0
ARC
  5
27D
100
AcDbEntity
  8
0
100
AcDbCircle
 62
7
  6
CONTINUOUS
 10
12.8824651505
 20
11.6944285871
 40
0.02
100
AcDbArc
 50
179.9981222868
 51
269.9981222868
  0
ARC
  5
27E
100
AcDbEntity
  8
0
100
AcDbCircle
 62
7
  6
CONTINUOUS
 10
12.8824510584
 20
11.2644285873
 40
0.02
100
AcDbArc
 50
89.9981222868
 51
179.9981222868
  0
ARC
  5
27F
100
AcDbEntity
  8
0
100
AcDbCircle
 62
7
  6
CONTINUOUS
 10
12.1930774148
 20
11.8368385548
 40
0.02
100
AcDbArc
 50
337.4755223698
 51
9.6031068489
  0
ARC
  5
280
100
AcDbEntity
  8
0
100
AcDbCircle
 62
7
  6
CONTINUOUS
 10
12.1930774148
 20
11.1218385548
 40
0.02
100
AcDbArc
 50
350.3968931511
 51
22.5226512471
  0
ARC
  5
281
100
AcDbEntity
  8
0
100
AcDbCircle
 62
7
  6
CONTINUOUS
 10
12.7248797852
 20
11.7949337516
 40
0.018
100
AcDbArc
 50
269.9981222868
 51
354.111280148
  0
ARC
  5
282
100
AcDbEntity
  8
0
100
AcDbCircle
 62
7
  6
CONTINUOUS
 10
12.7248591059
 20
11.1639337519
 40
0.018
100
AcDbArc
 50
5.8849644255
 51
89.9981222868
  0
SPLINE
  5
283
100
AcDbEntity
  8
0
100
AcDbSpline
 62
7
  6
CONTINUOUS
 70
0
 71
3
 72
29
 73
25
 74
0
 42
0.0000001
 43
0.0000001
 44
0.0000000001
 40
0.0
 40
0.0
 40
0.0
 40
0.0
 40
0.0628168013
 40
0.125653182
 40
0.188493278
 40
0.251300721
 40
0.3140366651
 40
0.3453788543
 40
0.3766968889
 40
0.4079933353
 40
0.4392736838
 40
0.4705429799
 40
0.5018035869
 40
0.5642791364
 40
0.626703281
 40
0.6890510949
 40
0.7202000216
 40
0.751325814
 40
0.7824309227
 40
0.8135206385
 40
0.8446027997
 40
0.8756837755
 40
0.9378353767
 40
1.0
 40
1.0
 40
1.0
 40
1.0
 10
9.8551072896
 20
2.7491742318
 30
0.0
 10
9.836476951
 20
2.7491742318
 30
0.0
 10
9.7991851423
 20
2.7510457054
 30
0.0
 10
9.7438100064
 20
2.7592952162
 30
0.0
 10
9.6894795745
 20
2.7728174437
 30
0.0
 10
9.6367172445
 20
2.7914438779
 30
0.0
 10
9.5944544186
 20
2.811096424
 30
0.0
 10
9.5619560541
 20
2.8292040553
 30
0.0
 10
9.5383010759
 20
2.8439557937
 30
0.0
 10
9.5154284039
 20
2.8598610805
 30
0.0
 10
9.4933999919
 20
2.8768926861
 30
0.0
 10
9.4722543265
 20
2.8949926905
 30
0.0
 10
9.4453019508
 20
2.9204678429
 30
0.0
 10
9.4140081385
 20
2.9547190851
 30
0.0
 10
9.380636291
 20
2.9992106364
 30
0.0
 10
9.3565545924
 20
3.0387828781
 30
0.0
 10
9.3397062242
 20
3.0716939953
 30
0.0
 10
9.3283161108
 20
3.0969512367
 30
0.0
 10
9.3182105792
 20
3.1227301343
 30
0.0
 10
9.3094331118
 20
3.1489776584
 30
0.0
 10
9.3020093034
 20
3.1756325629
 30
0.0
 10
9.2939114261
 20
3.2116152996
 30
0.0
 10
9.2871609474
 20
3.2572852445
 30
0.0
 10
9.2853622262
 20
3.294178833
 30
0.0
 10
9.2853622262
 20
3.3126157472
 30
0.0
  0
SPLINE
  5
284
100
AcDbEntity
  8
0
100
AcDbSpline
 62
7
  6
CONTINUOUS
 70
0
 71
3
 72
29
 73
25
 74
0
 42
0.0000001
 43
0.0000001
 44
0.0000000001
 40
0.0
 40
0.0
 40
0.0
 40
0.0
 40
0.0624577772
 40
0.1249490256
 40
0.1874707735
 40
0.2499984554
 40
0.3125039045
 40
0.3437524133
 40
0.3749925174
 40
0.4062277437
 40
0.4374642914
 40
0.4687074606
 40
0.4999596842
 40
0.5624713468
 40
0.6250002329
 40
0.6875174621
 40
0.7187734922
 40
0.7500201874
 40
0.7812589529
 40
0.8124938972
 40
0.8437314317
 40
0.8749762847
 40
0.9374747543
 40
1.0
 40
1.0
 40
1.0
 40
1.0
 10
9.8551072896
 20
12.0493385548
 30
0.0
 10
9.836479154
 20
12.0493385548
 30
0.0
 10
9.7991870024
 20
12.0474453536
 30
0.0
 10
9.7438144346
 20
12.0391004949
 30
0.0
 10
9.6894868036
 20
12.0254221648
 30
0.0
 10
9.6367275276
 20
12.0065809516
 30
0.0
 10
9.5944767849
 20
11.9867064683
 30
0.0
 10
9.5619889762
 20
11.9683967467
 30
0.0
 10
9.5383360249
 20
11.9534769398
 30
0.0
 10
9.5154651686
 20
11.9373905088
 30
0.0
 10
9.493438444
 20
11.9201650207
 30
0.0
 10
9.4722942013
 20
11.9018589634
 30
0.0
 10
9.4453357053
 20
11.8760864834
 30
0.0
 10
9.4140359028
 20
11.8414345933
 30
0.0
 10
9.380666271
 20
11.7964359303
 30
0.0
 10
9.3565909936
 20
11.7564229425
 30
0.0
 10
9.3397443287
 20
11.723144573
 30
0.0
 10
9.3283519788
 20
11.697599331
 30
0.0
 10
9.3182436809
 20
11.6715264055
 30
0.0
 10
9.3094628798
 20
11.6449794854
 30
0.0
 10
9.3020353007
 20
11.6180204447
 30
0.0
 10
9.2939309372
 20
11.5816230151
 30
0.0
 10
9.2871727026
 20
11.5354301629
 30
0.0
 10
9.2853664788
 20
11.4981187043
 30
0.0
 10
9.2853622412
 20
11.4794704466
 30
0.0
  0
SPLINE
  5
285
100
AcDbEntity
  8
0
100
AcDbSpline
 62
7
  6
CONTINUOUS
 70
0
 71
3
 72
45
 73
41
 74
0
 42
0.0000001
 43
0.0000001
 44
0.0000000001
 40
0.0
 40
0.0
 40
0.0
 40
0.0
 40
0.0156234139
 40
0.031240033
 40
0.0468499627
 40
0.0624533713
 40
0.093634088
 40
0.1247917757
 40
0.1403665826
 40
0.1559367776
 40
0.1870577539
 40
0.2181661529
 40
0.2492663747
 40
0.2803630658
 40
0.3114609789
 40
0.3425648302
 40
0.3736791572
 40
0.4048081799
 40
0.4359556756
 40
0.4671248656
 40
0.4983183151
 40
0.5295378629
 40
0.5607845614
 40
0.5920586478
 40
0.6233595424
 40
0.6546858588
 40
0.6860354541
 40
0.7174054913
 40
0.7487925212
 40
0.7801925918
 40
0.8116013616
 40
0.8273111827
 40
0.8430214429
 40
0.8587315439
 40
0.8744409014
 40
0.9058478212
 40
0.9372448694
 40
0.9529419619
 40
0.9686350283
 40
1.0
 40
1.0
 40
1.0
 40
1.0
 10
10.4252369711
 20
3.735991385
 30
0.0
 10
10.4330288827
 20
3.7278475165
 30
0.0
 10
10.4482583348
 20
3.711223228
 30
0.0
 10
10.4699928549
 20
3.6853268163
 30
0.0
 10
10.4905741555
 20
3.6585213283
 30
0.0
 10
10.5164160224
 20
3.6216517232
 30
0.0
 10
10.5456568424
 20
3.573535276
 30
0.0
 10
10.5705858654
 20
3.523073162
 30
0.0
 10
10.5878176836
 20
3.4815475512
 30
0.0
 10
10.6032112745
 20
3.4393345184
 30
0.0
 10
10.618964944
 20
3.3853834497
 30
0.0
 10
10.632130288
 20
3.3192675015
 30
0.0
 10
10.6394596984
 20
3.2522681693
 30
0.0
 10
10.6408966088
 20
3.1848926364
 30
0.0
 10
10.6364304513
 20
3.1176471535
 30
0.0
 10
10.6260949348
 20
3.0510379946
 30
0.0
 10
10.609968257
 20
2.9855662657
 30
0.0
 10
10.5881723444
 20
2.9217244066
 30
0.0
 10
10.5608719073
 20
2.8599923339
 30
0.0
 10
10.5282731159
 20
2.8008338153
 30
0.0
 10
10.4906219668
 20
2.7446929553
 30
0.0
 10
10.4482023447
 20
2.6919908655
 30
0.0
 10
10.4013338054
 20
2.6431225249
 30
0.0
 10
10.3503691024
 20
2.5984538599
 30
0.0
 10
10.2956914779
 20
2.5583190515
 30
0.0
 10
10.2377117574
 20
2.5230181103
 30
0.0
 10
10.1768651463
 20
2.4928147073
 30
0.0
 10
10.1136083371
 20
2.4679342838
 30
0.0
 10
10.0484146962
 20
2.4485624241
 30
0.0
 10
9.9817759991
 20
2.4348436043
 30
0.0
 10
9.925444922
 20
2.4282071431
 30
0.0
 10
9.8801712061
 20
2.4258052829
 30
0.0
 10
9.8461615047
 20
2.4254599569
 30
0.0
 10
9.8121686141
 20
2.426571714
 30
0.0
 10
9.7669620977
 20
2.4299932575
 30
0.0
 10
9.7108003388
 20
2.4378969981
 30
0.0
 10
9.6555314723
 20
2.450581599
 30
0.0
 10
9.6121144436
 20
2.4635369569
 30
0.0
 10
9.5693177499
 20
2.478334374
 30
0.0
 10
9.5379632375
 20
2.4914929867
 30
0.0
 10
9.5174948636
 20
2.5011387861
 30
0.0
  0
SPLINE
  5
286
100
AcDbEntity
  8
0
100
AcDbSpline
 62
7
  6
CONTINUOUS
 70
0
 71
3
 72
51
 73
47
 74
0
 42
0.0000001
 43
0.0000001
 44
0.0000000001
 40
0.0
 40
0.0
 40
0.0
 40
0.0
 40
0.0155451438
 40
0.0310931349
 40
0.0466413836
 40
0.0621919493
 40
0.0932939544
 40
0.1244137394
 40
0.1399866665
 40
0.1555658169
 40
0.1711516673
 40
0.1867446153
 40
0.2023450027
 40
0.2179530885
 40
0.2335690621
 40
0.249193041
 40
0.2804556719
 40
0.3117497711
 40
0.343073494
 40
0.3744238604
 40
0.4057968743
 40
0.4371876738
 40
0.4685907208
 40
0.5000000094
 40
0.5314092979
 40
0.5628123443
 40
0.594203143
 40
0.6255761556
 40
0.6569265206
 40
0.688250242
 40
0.7195443394
 40
0.7508069685
 40
0.7664309464
 40
0.7820469191
 40
0.797655004
 40
0.8132553905
 40
0.8288483377
 40
0.8444341873
 40
0.860013337
 40
0.8755862634
 40
0.9067060472
 40
0.9378080514
 40
0.9533586169
 40
0.9689068653
 40
0.9844548562
 40
1.0
 40
1.0
 40
1.0
 40
1.0
 10
9.0303041399
 20
2.9010910338
 30
0.0
 10
9.0303041399
 20
2.8877414898
 30
0.0
 10
9.0309674978
 20
2.8610351808
 30
0.0
 10
9.0339479916
 20
2.8210769917
 30
0.0
 10
9.0389088699
 20
2.7813094307
 30
0.0
 10
9.0481446299
 20
2.7286798784
 30
0.0
 10
9.0645743255
 20
2.6638240166
 30
0.0
 10
9.0873501317
 20
2.6008954778
 30
0.0
 10
9.1092345236
 20
2.5520819493
 30
0.0
 10
9.1274510877
 20
2.5162981873
 30
0.0
 10
9.1474207357
 20
2.4814436305
 30
0.0
 10
9.1690951487
 20
2.4476009395
 30
0.0
 10
9.1924218916
 20
2.4148518156
 30
0.0
 10
9.2173447618
 20
2.3832755432
 30
0.0
 10
9.2438039881
 20
2.3529468998
 30
0.0
 10
9.2810458906
 20
2.3142698614
 30
0.0
 10
9.3311335296
 20
2.2693856273
 30
0.0
 10
9.3962508078
 20
2.2216392282
 30
0.0
 10
9.465784109
 20
2.1804343632
 30
0.0
 10
9.5390603168
 20
2.1461699132
 30
0.0
 10
9.6153751138
 20
2.1191731991
 30
0.0
 10
9.6939942286
 20
2.099703157
 30
0.0
 10
9.7741618273
 20
2.0879461806
 30
0.0
 10
9.8551073137
 20
2.0840146612
 30
0.0
 10
9.9360527994
 20
2.0879461857
 30
0.0
 10
10.0162203961
 20
2.0997031663
 30
0.0
 10
10.0948395078
 20
2.1191732114
 30
0.0
 10
10.1711543006
 20
2.1461699287
 30
0.0
 10
10.2444305033
 20
2.1804343811
 30
0.0
 10
10.313963799
 20
2.2216392471
 30
0.0
 10
10.379081072
 20
2.2693856457
 30
0.0
 10
10.429168707
 20
2.3142698785
 30
0.0
 10
10.4664106056
 20
2.3529469162
 30
0.0
 10
10.4928698299
 20
2.3832755582
 30
0.0
 10
10.517792698
 20
2.4148518294
 30
0.0
 10
10.5411194387
 20
2.4476009522
 30
0.0
 10
10.5627938503
 20
2.4814436414
 30
0.0
 10
10.5827634964
 20
2.516298197
 30
0.0
 10
10.6009800594
 20
2.5520819573
 30
0.0
 10
10.6228644499
 20
2.6008954841
 30
0.0
 10
10.6456402549
 20
2.6638240208
 30
0.0
 10
10.6620699497
 20
2.7286798807
 30
0.0
 10
10.6713057093
 20
2.7813094318
 30
0.0
 10
10.6762665876
 20
2.8210769922
 30
0.0
 10
10.6792470813
 20
2.861035181
 30
0.0
 10
10.6799104392
 20
2.8877414898
 30
0.0
 10
10.6799104392
 20
2.9010910338
 30
0.0
  0
SPLINE
  5
287
100
AcDbEntity
  8
0
100
AcDbSpline
 62
7
  6
CONTINUOUS
 70
0
 71
3
 72
47
 73
43
 74
0
 42
0.0000001
 43
0.0000001
 44
0.0000000001
 40
0.0
 40
0.0
 40
0.0
 40
0.0
 40
0.0155501489
 40
0.0311035245
 40
0.0466569634
 40
0.0622123809
 40
0.0933237425
 40
0.1244518245
 40
0.1400284367
 40
0.1556109188
 40
0.1711997103
 40
0.1867952038
 40
0.2179980213
 40
0.2492305699
 40
0.2804934209
 40
0.3117859781
 40
0.3431065084
 40
0.3744522034
 40
0.4058192935
 40
0.4372031871
 40
0.468598653
 40
0.5000000168
 40
0.5314013803
 40
0.5627968452
 40
0.5941807372
 40
0.6255478253
 40
0.6568935178
 40
0.6882140451
 40
0.7195065992
 40
0.7507694469
 40
0.7820019922
 40
0.8132048066
 40
0.8288002986
 40
0.8443890887
 40
0.8599715695
 40
0.8755481804
 40
0.9066762604
 40
0.9377876204
 40
0.9533430374
 40
0.9688964758
 40
0.9844498512
 40
1.0
 40
1.0
 40
1.0
 40
1.0
 10
9.1956584707
 20
3.3006339846
 30
0.0
 10
9.1956584707
 20
3.2899560301
 30
0.0
 10
9.1961890605
 20
3.2685940896
 30
0.0
 10
9.1985725659
 20
3.2366321479
 30
0.0
 10
9.2025400418
 20
3.2048227507
 30
0.0
 10
9.2099261395
 20
3.1627259454
 30
0.0
 10
9.2230651868
 20
3.1108505642
 30
0.0
 10
9.2412793582
 20
3.0605171288
 30
0.0
 10
9.2587800305
 20
3.0214741287
 30
0.0
 10
9.2733473936
 20
2.9928539018
 30
0.0
 10
9.2893167612
 20
2.9649766742
 30
0.0
 10
9.3124254779
 20
2.9288869677
 30
0.0
 10
9.3446312569
 20
2.8859453969
 30
0.0
 10
9.3881739284
 20
2.8384399314
 30
0.0
 10
9.4362105285
 20
2.7953873267
 30
0.0
 10
9.4882752351
 20
2.7572041568
 30
0.0
 10
9.5438666394
 20
2.7242554281
 30
0.0
 10
9.6024491837
 20
2.6968568641
 30
0.0
 10
9.6634592281
 20
2.6752705205
 30
0.0
 10
9.7263101667
 20
2.6597027805
 30
0.0
 10
9.7903980514
 20
2.6503022955
 30
0.0
 10
9.855107324
 20
2.6471588033
 30
0.0
 10
9.9198165955
 20
2.6503023026
 30
0.0
 10
9.9839044773
 20
2.659702794
 30
0.0
 10
10.0467554114
 20
2.675270539
 30
0.0
 10
10.1077654501
 20
2.696856886
 30
0.0
 10
10.1663479873
 20
2.724255453
 30
0.0
 10
10.221939384
 20
2.7572041832
 30
0.0
 10
10.2740040826
 20
2.795387353
 30
0.0
 10
10.3220406752
 20
2.8384399562
 30
0.0
 10
10.3655833398
 20
2.8859454189
 30
0.0
 10
10.3977891143
 20
2.9288869862
 30
0.0
 10
10.4208978273
 20
2.9649766901
 30
0.0
 10
10.4368671932
 20
2.9928539153
 30
0.0
 10
10.4514345539
 20
3.0214741403
 30
0.0
 10
10.4689352247
 20
3.0605171376
 30
0.0
 10
10.4871493939
 20
3.1108505702
 30
0.0
 10
10.5002884403
 20
3.1627259487
 30
0.0
 10
10.5076745375
 20
3.2048227523
 30
0.0
 10
10.5116420132
 20
3.2366321486
 30
0.0
 10
10.5140255186
 20
3.2685940899
 30
0.0
 10
10.5145561085
 20
3.2899560301
 30
0.0
 10
10.5145561085
 20
3.3006339846
 30
0.0
  0
LINE
  5
288
100
AcDbEntity
  8
0
100
AcDbLine
 62
7
  6
CONTINUOUS
 10
9.0303041981
 20
2.9013973358
 11
9.0303041399
 21
2.9010910338
  0
LINE
  5
289
100
AcDbEntity
  8
0
100
AcDbLine
 62
7
  6
CONTINUOUS
 10
10.6799104392
 20
2.9010910338
 11
10.679910381
 21
2.9013973358
  0
SPLINE
  5
28A
100
AcDbEntity
  8
0
100
AcDbSpline
 62
7
  6
CONTINUOUS
 70
0
 71
3
 72
29
 73
25
 74
0
 42
0.0000001
 43
0.0000001
 44
0.0000000001
 40
0.0
 40
0.0
 40
0.0
 40
0.0
 40
0.0621646233
 40
0.1243162245
 40
0.1553972003
 40
0.1864793615
 40
0.2175690773
 40
0.248674186
 40
0.2797999784
 40
0.3109489051
 40
0.373296719
 40
0.4357208636
 40
0.4981964131
 40
0.5294570201
 40
0.5607263162
 40
0.5920066647
 40
0.6233031111
 40
0.6546211457
 40
0.6859633349
 40
0.748699279
 40
0.811506722
 40
0.874346818
 40
0.9371831987
 40
1.0
 40
1.0
 40
1.0
 40
1.0
 10
10.4248523529
 20
3.3126157472
 30
0.0
 10
10.4248523529
 20
3.294178833
 30
0.0
 10
10.4230536317
 20
3.2572852445
 30
0.0
 10
10.416303153
 20
3.2116152996
 30
0.0
 10
10.4082052757
 20
3.1756325629
 30
0.0
 10
10.4007814673
 20
3.1489776584
 30
0.0
 10
10.3920039999
 20
3.1227301343
 30
0.0
 10
10.3818984683
 20
3.0969512367
 30
0.0
 10
10.3705083549
 20
3.0716939953
 30
0.0
 10
10.3536599868
 20
3.0387828781
 30
0.0
 10
10.3295782881
 20
2.9992106364
 30
0.0
 10
10.2962064406
 20
2.9547190851
 30
0.0
 10
10.2649126283
 20
2.9204678429
 30
0.0
 10
10.2379602526
 20
2.8949926905
 30
0.0
 10
10.2168145872
 20
2.8768926861
 30
0.0
 10
10.1947861752
 20
2.8598610805
 30
0.0
 10
10.1719135032
 20
2.8439557937
 30
0.0
 10
10.1482585251
 20
2.8292040553
 30
0.0
 10
10.1157601605
 20
2.811096424
 30
0.0
 10
10.0734973346
 20
2.7914438779
 30
0.0
 10
10.0207350046
 20
2.7728174437
 30
0.0
 10
9.9664045727
 20
2.7592952162
 30
0.0
 10
9.9110294368
 20
2.7510457054
 30
0.0
 10
9.8737376281
 20
2.7491742318
 30
0.0
 10
9.8551072896
 20
2.7491742318
 30
0.0
  0
SPLINE
  5
28B
100
AcDbEntity
  8
0
100
AcDbSpline
 62
7
  6
CONTINUOUS
 70
0
 71
3
 72
29
 73
25
 74
0
 42
0.0000001
 43
0.0000001
 44
0.0000000001
 40
0.0
 40
0.0
 40
0.0
 40
0.0
 40
0.0625252323
 40
0.1250236668
 40
0.1562685023
 40
0.1875060264
 40
0.2187409727
 40
0.2499797505
 40
0.2812264623
 40
0.3124825086
 40
0.3749997618
 40
0.4375286497
 40
0.5000402973
 40
0.5312925104
 40
0.5625356711
 40
0.5937722147
 40
0.6250074436
 40
0.6562475544
 40
0.6874960711
 40
0.7500015353
 40
0.8125292236
 40
0.8750509716
 40
0.9375422198
 40
1.0
 40
1.0
 40
1.0
 40
1.0
 10
10.4248523186
 20
11.479537994
 30
0.0
 10
10.4248459113
 20
11.4981848404
 30
0.0
 10
10.4230356185
 20
11.5354932569
 30
0.0
 10
10.4162729729
 20
11.581681876
 30
0.0
 10
10.4081654884
 20
11.6180757082
 30
0.0
 10
10.4007357716
 20
11.6450319629
 30
0.0
 10
10.391953037
 20
11.6715760211
 30
0.0
 10
10.3818430943
 20
11.6976460536
 30
0.0
 10
10.3704493632
 20
11.7231883819
 30
0.0
 10
10.3536012015
 20
11.7564628564
 30
0.0
 10
10.3295246766
 20
11.7964709817
 30
0.0
 10
10.2961544625
 20
11.8414639408
 30
0.0
 10
10.2648548792
 20
11.8761112582
 30
0.0
 10
10.2378969461
 20
11.901880239
 30
0.0
 10
10.2167533116
 20
11.9201837631
 30
0.0
 10
10.1947273694
 20
11.9374068205
 30
0.0
 10
10.171857469
 20
11.9534909438
 30
0.0
 10
10.1482056554
 20
11.968408606
 30
0.0
 10
10.1157195767
 20
11.9867156819
 30
0.0
 10
10.07347137
 20
12.0065872721
 30
0.0
 10
10.0207156004
 20
12.0254257207
 30
0.0
 10
9.966391829
 20
12.0391020266
 30
0.0
 10
9.9110233567
 20
12.0474456393
 30
0.0
 10
9.8737340209
 20
12.0493385548
 30
0.0
 10
9.8551072896
 20
12.0493385548
 30
0.0
  0
SPLINE
  5
28C
100
AcDbEntity
  8
0
100
AcDbSpline
 62
7
  6
CONTINUOUS
 70
0
 71
3
 72
39
 73
35
 74
0
 42
0.0000001
 43
0.0000001
 44
0.0000000001
 40
0.0
 40
0.0
 40
0.0
 40
0.0
 40
0.0314173343
 40
0.0628189045
 40
0.0942036525
 40
0.1255707473
 40
0.15691959
 40
0.1882498442
 40
0.2195614381
 40
0.2508545479
 40
0.2821295997
 40
0.3133872832
 40
0.3446285316
 40
0.3758544934
 40
0.4070665309
 40
0.4382662122
 40
0.4694552745
 40
0.5006355908
 40
0.5318091633
 40
0.562978097
 40
0.5941445539
 40
0.6253107227
 40
0.6564788067
 40
0.6876509864
 40
0.7188293745
 40
0.7500159961
 40
0.7812127717
 40
0.8124214789
 40
0.8436437188
 40
0.8748809089
 40
0.9061342674
 40
0.9374047803
 40
0.9686931858
 40
1.0
 40
1.0
 40
1.0
 40
1.0
 10
9.5174948636
 20
2.5011387861
 30
0.0
 10
9.5035966775
 20
2.5076883593
 30
0.0
 10
9.4761832497
 20
2.521599849
 30
0.0
 10
9.4363695689
 20
2.5448271619
 30
0.0
 10
9.3980030091
 20
2.5703327301
 30
0.0
 10
9.3612185113
 20
2.5980278159
 30
0.0
 10
9.3261432189
 20
2.6278171205
 30
0.0
 10
9.2928988094
 20
2.6595975005
 30
0.0
 10
9.2616006403
 20
2.6932591666
 30
0.0
 10
9.2323576237
 20
2.7286858962
 30
0.0
 10
9.2052713351
 20
2.7657550644
 30
0.0
 10
9.1804358187
 20
2.8043382699
 30
0.0
 10
9.1579375301
 20
2.8443019537
 30
0.0
 10
9.1378550112
 20
2.8855077618
 30
0.0
 10
9.120258001
 20
2.9278127442
 30
0.0
 10
9.1052077287
 20
2.9710701806
 30
0.0
 10
9.0927568031
 20
3.0151300659
 30
0.0
 10
9.0829487626
 20
3.059839512
 30
0.0
 10
9.0758175669
 20
3.1050432581
 30
0.0
 10
9.0713880804
 20
3.1505843781
 30
0.0
 10
9.0696760004
 20
3.1963047492
 30
0.0
 10
9.0706872365
 20
3.2420455697
 30
0.0
 10
9.07441807
 20
3.2876479983
 30
0.0
 10
9.0808555424
 20
3.3329536909
 30
0.0
 10
9.0899774455
 20
3.3778052888
 30
0.0
 10
9.1017517418
 20
3.4220471175
 30
0.0
 10
9.1161372833
 20
3.4655256726
 30
0.0
 10
9.1330840671
 20
3.5080900729
 30
0.0
 10
9.1525331605
 20
3.5495926171
 30
0.0
 10
9.1744166054
 20
3.5898895613
 30
0.0
 10
9.1986581096
 20
3.6288411882
 30
0.0
 10
9.2251738892
 20
3.6663128822
 30
0.0
 10
9.2538702849
 20
3.7021733847
 30
0.0
 10
9.2743857443
 20
3.7249207633
 30
0.0
 10
9.2849697641
 20
3.735983183
 30
0.0
  0
SPLINE
  5
28D
100
AcDbEntity
  8
0
100
AcDbSpline
 62
9
  6
CONTINUOUS
 70
0
 71
3
 72
47
 73
43
 74
0
 42
0.0000001
 43
0.0000001
 44
0.0000000001
 40
0.0
 40
0.0
 40
0.0
 40
0.0
 40
0.0156129887
 40
0.0312176593
 40
0.0468142411
 40
0.06240308
 40
0.0935502837
 40
0.1246713095
 40
0.1402276717
 40
0.1557792136
 40
0.1713266102
 40
0.1868705613
 40
0.2179424586
 40
0.2490097055
 40
0.280078618
 40
0.3111554532
 40
0.3422461877
 40
0.373356307
 40
0.4044906129
 40
0.4356530569
 40
0.4668466034
 40
0.4980731287
 40
0.5293333583
 40
0.5606268454
 40
0.59195199
 40
0.6233060973
 40
0.6546854754
 40
0.6860855638
 40
0.7175010922
 40
0.7489262613
 40
0.7803549419
 40
0.8117808839
 40
0.8274950831
 40
0.8432063065
 40
0.8589138427
 40
0.8746169959
 40
0.9059992038
 40
0.9373566617
 40
0.9530291008
 40
0.968694009
 40
0.9843510576
 40
1.0
 40
1.0
 40
1.0
 40
1.0
 10
10.4253188265
 20
3.7054164541
 30
0.0
 10
10.4331342362
 20
3.6966491124
 30
0.0
 10
10.4483538653
 20
3.6787512341
 30
0.0
 10
10.4698943948
 20
3.6508752764
 30
0.0
 10
10.4900966685
 20
3.6220350239
 30
0.0
 10
10.5151771541
 20
3.5823987692
 30
0.0
 10
10.5429805513
 20
3.5307454012
 30
0.0
 10
10.5657986286
 20
3.4767305104
 30
0.0
 10
10.5809305396
 20
3.4324157371
 30
0.0
 10
10.5906991219
 20
3.3986915538
 30
0.0
 10
10.5988645296
 20
3.3645532634
 30
0.0
 10
10.6075893142
 20
3.3185967591
 30
0.0
 10
10.614412082
 20
3.260462838
 30
0.0
 10
10.6159823382
 20
3.1902615473
 30
0.0
 10
10.6109248997
 20
3.1202181991
 30
0.0
 10
10.5992830102
 20
3.0509472107
 30
0.0
 10
10.5811584573
 20
2.9830511875
 30
0.0
 10
10.5567092709
 20
2.9171220633
 30
0.0
 10
10.5261487908
 20
2.8537341649
 30
0.0
 10
10.4897435816
 20
2.7934396757
 30
0.0
 10
10.4478111103
 20
2.7367637059
 30
0.0
 10
10.4007169466
 20
2.6841997591
 30
0.0
 10
10.3488715571
 20
2.6362054424
 30
0.0
 10
10.2927267103
 20
2.5931985044
 30
0.0
 10
10.2327715356
 20
2.5555532231
 30
0.0
 10
10.1695282916
 20
2.523597087
 30
0.0
 10
10.1035477821
 20
2.4976080402
 30
0.0
 10
10.035404451
 20
2.4778121149
 30
0.0
 10
9.9656918448
 20
2.464381407
 30
0.0
 10
9.8950157913
 20
2.4574329055
 30
0.0
 10
9.8239954102
 20
2.4570263415
 30
0.0
 10
9.765021065
 20
2.4621449437
 30
0.0
 10
9.7182994661
 20
2.4694844827
 30
0.0
 10
9.6835510494
 20
2.4766000087
 30
0.0
 10
9.6491764395
 20
2.4853107147
 30
0.0
 10
9.6039584046
 20
2.4990211153
 30
0.0
 10
9.5487256354
 20
2.520046836
 30
0.0
 10
9.4956957485
 20
2.5460831719
 30
0.0
 10
9.454895784
 20
2.5697694867
 30
0.0
 10
9.4251676715
 20
2.5889258374
 30
0.0
 10
9.3963775938
 20
2.6094320091
 30
0.0
 10
9.3778437434
 20
2.6239781826
 30
0.0
 10
9.3687550408
 20
2.6314600578
 30
0.0
  0
SPLINE
  5
28E
100
AcDbEntity
  8
0
100
AcDbSpline
 62
9
  6
CONTINUOUS
 70
0
 71
3
 72
17
 73
13
 74
0
 42
0.0000001
 43
0.0000001
 44
0.0000000001
 40
0.0
 40
0.0
 40
0.0
 40
0.0
 40
0.0268240349
 40
0.0488570677
 40
0.0777356806
 40
0.1137633126
 40
0.1570899448
 40
0.2077978289
 40
0.2659352761
 40
0.4045938627
 40
0.5731648935
 40
1.0
 40
1.0
 40
1.0
 40
1.0
 10
12.2124612564
 20
11.1185021106
 30
0.0
 10
12.2123975224
 20
11.1185021864
 30
0.0
 10
12.212300187
 20
11.118601391
 30
0.0
 10
12.2122166122
 20
11.118759055
 30
0.0
 10
12.2121381328
 20
11.1189529027
 30
0.0
 10
12.2120617034
 20
11.1191977555
 30
0.0
 10
12.2119840772
 20
11.1194972594
 30
0.0
 10
12.2119065736
 20
11.1198503838
 30
0.0
 10
12.2117964085
 20
11.1204281391
 30
0.0
 10
12.2116623211
 20
11.1212860219
 30
0.0
 10
12.2114396589
 20
11.1230160073
 30
0.0
 10
12.2113016603
 20
11.1244242691
 30
0.0
 10
12.2112114184
 20
11.1254344079
 30
0.0
  0
SPLINE
  5
28F
100
AcDbEntity
  8
0
100
AcDbSpline
 62
9
  6
CONTINUOUS
 70
0
 71
3
 72
33
 73
29
 74
0
 42
0.0000001
 43
0.0000001
 44
0.0000000001
 40
0.0
 40
0.0
 40
0.0
 40
0.0
 40
0.0050826878
 40
0.0110509001
 40
0.01789474
 40
0.0256012952
 40
0.0435463958
 40
0.0647623449
 40
0.0890976931
 40
0.1163772877
 40
0.1789722475
 40
0.2507576891
 40
0.3296804796
 40
0.4134819158
 40
0.4997623655
 40
0.5860516105
 40
0.6698786752
 40
0.7488434758
 40
0.8206865985
 40
0.8532849794
 40
0.8833522201
 40
0.9106719106
 40
0.9350488885
 40
0.9563099661
 40
0.9743028396
 40
0.9889000105
 40
0.9948923597
 40
1.0
 40
1.0
 40
1.0
 40
1.0
 10
12.2110947362
 20
11.126804214
 30
0.0
 10
12.2109978341
 20
11.1279949097
 30
0.0
 10
12.2108096246
 20
11.1305855791
 30
0.0
 10
12.2105517897
 20
11.1347836907
 30
0.0
 10
12.2102966946
 20
11.1395996702
 30
0.0
 10
12.2099427164
 20
11.1472292276
 30
0.0
 10
12.2095211012
 20
11.1582370581
 30
0.0
 10
12.2090552962
 20
11.1731540224
 30
0.0
 10
12.2086118896
 20
11.1902664814
 30
0.0
 10
12.2080280059
 20
11.2171040251
 30
0.0
 10
12.2073998875
 20
11.2550955594
 30
0.0
 10
12.206809616
 20
11.3052268851
 30
0.0
 10
12.2063741082
 20
11.3603443214
 30
0.0
 10
12.2061069595
 20
11.4188697399
 30
0.0
 10
12.2060165574
 20
11.4791271035
 30
0.0
 10
12.2061056242
 20
11.5393904908
 30
0.0
 10
12.2063716148
 20
11.5979338856
 30
0.0
 10
12.2068063541
 20
11.6530807652
 30
0.0
 10
12.2073115111
 20
11.6961856854
 30
0.0
 10
12.2078011229
 20
11.7277967949
 30
0.0
 10
12.2081886477
 20
11.7489433793
 30
0.0
 10
12.208605744
 20
11.7681566462
 30
0.0
 10
12.2090491075
 20
11.7852989198
 30
0.0
 10
12.2095142757
 20
11.8002475719
 30
0.0
 10
12.2099978458
 20
11.8128955664
 30
0.0
 10
12.2104339939
 20
11.8219537804
 30
0.0
 10
12.2108024372
 20
11.8279824533
 30
0.0
 10
12.210990578
 20
11.8305846942
 30
0.0
 10
12.2110873821
 20
11.8317812821
 30
0.0
  0
SPLINE
  5
290
100
AcDbEntity
  8
0
100
AcDbSpline
 62
9
  6
CONTINUOUS
 70
0
 71
3
 72
17
 73
13
 74
0
 42
0.0000001
 43
0.0000001
 44
0.0000000001
 40
0.0
 40
0.0
 40
0.0
 40
0.0
 40
0.4269324855
 40
0.5955443455
 40
0.7342173127
 40
0.7923479358
 40
0.8430408806
 40
0.8863467716
 40
0.922350165
 40
0.9512033378
 40
0.9732120316
 40
1.0
 40
1.0
 40
1.0
 40
1.0
 10
12.2112100212
 20
11.8332266566
 30
0.0
 10
12.2113003398
 20
11.8342393484
 30
0.0
 10
12.2114384202
 20
11.835651181
 30
0.0
 10
12.2116612368
 20
11.8373855317
 30
0.0
 10
12.2117954478
 20
11.8382455208
 30
0.0
 10
12.2119057587
 20
11.838824599
 30
0.0
 10
12.21198337
 20
11.8391784421
 30
0.0
 10
12.2120611123
 20
11.8394784991
 30
0.0
 10
12.2121376569
 20
11.8397237549
 30
0.0
 10
12.2122162626
 20
11.8399178764
 30
0.0
 10
12.2122999469
 20
11.8400757168
 30
0.0
 10
12.2123974626
 20
11.8401749839
 30
0.0
 10
12.2124612564
 20
11.8401749991
 30
0.0
  0
SPLINE
  5
291
100
AcDbEntity
  8
0
100
AcDbSpline
 62
9
  6
CONTINUOUS
 70
0
 71
3
 72
47
 73
43
 74
0
 42
0.0000001
 43
0.0000001
 44
0.0000000001
 40
0.0
 40
0.0
 40
0.0
 40
0.0
 40
0.0156056392
 40
0.0312025912
 40
0.0467917679
 40
0.0623731539
 40
0.0935050384
 40
0.1246121179
 40
0.1401626736
 40
0.1557090845
 40
0.1712521278
 40
0.1867926115
 40
0.2178598459
 40
0.2489270572
 40
0.280001094
 40
0.3110885418
 40
0.3421954701
 40
0.3733272007
 40
0.4044881054
 40
0.4356814425
 40
0.466909235
 40
0.4981721974
 40
0.5294697127
 40
0.5607998605
 40
0.5921594942
 40
0.6235443623
 40
0.6549492696
 40
0.6863682723
 40
0.7177949016
 40
0.7492224051
 40
0.7806439987
 40
0.8120531181
 40
0.8277556361
 40
0.8434528022
 40
0.8591439654
 40
0.874828525
 40
0.9061665918
 40
0.9374727208
 40
0.9531176751
 40
0.9687539143
 40
0.9843813519
 40
1.0
 40
1.0
 40
1.0
 40
1.0
 10
10.4250657162
 20
3.6686542378
 30
0.0
 10
10.4325798745
 20
3.6595105995
 30
0.0
 10
10.4471602342
 20
3.6408583866
 30
0.0
 10
10.4676302997
 20
3.6118552268
 30
0.0
 10
10.4866489045
 20
3.5819000165
 30
0.0
 10
10.5099989243
 20
3.5408056926
 30
0.0
 10
10.535351734
 20
3.487399229
 30
0.0
 10
10.5553347529
 20
3.431784737
 30
0.0
 10
10.5679753051
 20
3.386318728
 30
0.0
 10
10.5757662267
 20
3.3518012996
 30
0.0
 10
10.5818470484
 20
3.3169495966
 30
0.0
 10
10.5876558101
 20
3.2701590193
 30
0.0
 10
10.5905826015
 20
3.2112201719
 30
0.0
 10
10.5871176203
 20
3.1405054473
 30
0.0
 10
10.5767109408
 20
3.0704559729
 30
0.0
 10
10.5594607384
 20
3.0017407869
 30
0.0
 10
10.5355309699
 20
2.9350106112
 30
0.0
 10
10.5051489348
 20
2.8708987122
 30
0.0
 10
10.4686032176
 20
2.8100129764
 30
0.0
 10
10.4262407882
 20
2.7529306914
 30
0.0
 10
10.3784637187
 20
2.7001929411
 30
0.0
 10
10.3257253195
 20
2.652299559
 30
0.0
 10
10.2685258974
 20
2.6097043381
 30
0.0
 10
10.2074080133
 20
2.5728106739
 30
0.0
 10
10.1429512046
 20
2.5419679202
 30
0.0
 10
10.075766519
 20
2.5174681013
 30
0.0
 10
10.006490771
 20
2.4995431745
 30
0.0
 10
9.9357804142
 20
2.4883629222
 30
0.0
 10
9.8643058493
 20
2.4840329933
 30
0.0
 10
9.79274325
 20
2.4865946754
 30
0.0
 10
9.7217748662
 20
2.4960223573
 30
0.0
 10
9.6636657818
 20
2.5095329777
 30
0.0
 10
9.6181568576
 20
2.523650449
 30
0.0
 10
9.5845838043
 20
2.535868911
 30
0.0
 10
9.5516526133
 20
2.5496892283
 30
0.0
 10
9.5087230945
 20
2.5701975341
 30
0.0
 10
9.4570328527
 20
2.5996699893
 30
0.0
 10
9.408463436
 20
2.6339921567
 30
0.0
 10
9.3717851169
 20
2.6641438286
 30
0.0
 10
9.3454234179
 20
2.6880536371
 30
0.0
 10
9.3202719138
 20
2.7132028742
 30
0.0
 10
9.3043437341
 20
2.730762678
 30
0.0
 10
9.2966021109
 20
2.7397275865
 30
0.0
  0
SPLINE
  5
292
100
AcDbEntity
  8
0
100
AcDbSpline
 62
9
  6
CONTINUOUS
 70
0
 71
3
 72
29
 73
25
 74
0
 42
0.0000001
 43
0.0000001
 44
0.0000000001
 40
0.0
 40
0.0
 40
0.0
 40
0.0
 40
0.0628168013
 40
0.125653182
 40
0.188493278
 40
0.251300721
 40
0.3140366651
 40
0.3453788543
 40
0.3766968889
 40
0.4079933353
 40
0.4392736838
 40
0.4705429799
 40
0.5018035869
 40
0.5642791364
 40
0.626703281
 40
0.6890510949
 40
0.7202000216
 40
0.751325814
 40
0.7824309227
 40
0.8135206385
 40
0.8446027997
 40
0.8756837755
 40
0.9378353767
 40
1.0
 40
1.0
 40
1.0
 40
1.0
 10
9.8551072896
 20
2.8058970394
 30
0.0
 10
9.836476951
 20
2.8058970394
 30
0.0
 10
9.7991851423
 20
2.807768513
 30
0.0
 10
9.7438100064
 20
2.8160180238
 30
0.0
 10
9.6894795745
 20
2.8295402513
 30
0.0
 10
9.6367172445
 20
2.8481666855
 30
0.0
 10
9.5944544186
 20
2.8678192316
 30
0.0
 10
9.5619560541
 20
2.8859268629
 30
0.0
 10
9.5383010759
 20
2.9006786013
 30
0.0
 10
9.5154284039
 20
2.9165838881
 30
0.0
 10
9.4933999919
 20
2.9336154937
 30
0.0
 10
9.4722543265
 20
2.9517154981
 30
0.0
 10
9.4453019508
 20
2.9771906505
 30
0.0
 10
9.4140081385
 20
3.0114418927
 30
0.0
 10
9.380636291
 20
3.055933444
 30
0.0
 10
9.3565545924
 20
3.0955056857
 30
0.0
 10
9.3397062242
 20
3.1284168029
 30
0.0
 10
9.3283161108
 20
3.1536740443
 30
0.0
 10
9.3182105792
 20
3.1794529419
 30
0.0
 10
9.3094331118
 20
3.205700466
 30
0.0
 10
9.3020093034
 20
3.2323553705
 30
0.0
 10
9.2939114261
 20
3.2683381072
 30
0.0
 10
9.2871609474
 20
3.3140080521
 30
0.0
 10
9.2853622262
 20
3.3509016406
 30
0.0
 10
9.2853622262
 20
3.3693385548
 30
0.0
  0
SPLINE
  5
293
100
AcDbEntity
  8
0
100
AcDbSpline
 62
9
  6
CONTINUOUS
 70
0
 71
3
 72
28
 73
24
 74
0
 42
0.0000001
 43
0.0000001
 44
0.0000000001
 40
0.0
 40
0.0
 40
0.0
 40
0.0
 40
0.0621314889
 40
0.0932012978
 40
0.1242715346
 40
0.1553473068
 40
0.1864355912
 40
0.2175418837
 40
0.2486691971
 40
0.3109728293
 40
0.3733540747
 40
0.4357917893
 40
0.4982667809
 40
0.5295245795
 40
0.5607925563
 40
0.5920749774
 40
0.6233769187
 40
0.6860317676
 40
0.7487711559
 40
0.8115689692
 40
0.8743900972
 40
0.9372042885
 40
1.0
 40
1.0
 40
1.0
 40
1.0
 10
10.4220440923
 20
3.3129955125
 30
0.0
 10
10.4203263472
 20
3.2958222896
 30
0.0
 10
10.4165637877
 20
3.2701583474
 30
0.0
 10
10.4091836162
 20
3.2364275382
 30
0.0
 10
10.4024644845
 20
3.2114101308
 30
0.0
 10
10.3945598808
 20
3.1867370229
 30
0.0
 10
10.3854807045
 20
3.1624608789
 30
0.0
 10
10.3752635107
 20
3.1386255611
 30
0.0
 10
10.3601645688
 20
3.107489137
 30
0.0
 10
10.3386015266
 20
3.0698853946
 30
0.0
 10
10.3087170518
 20
3.0272709042
 30
0.0
 10
10.2750726284
 20
2.9874953036
 30
0.0
 10
10.2441157338
 20
2.9570102093
 30
0.0
 10
10.217742102
 20
2.9344089238
 30
0.0
 10
10.1971797843
 20
2.9183860756
 30
0.0
 10
10.1758731272
 20
2.9033457117
 30
0.0
 10
10.1465325471
 20
2.8846337951
 30
0.0
 10
10.1082403283
 20
2.8637984178
 30
0.0
 10
10.0601849757
 20
2.8430458481
 30
0.0
 10
10.0104210503
 20
2.8266601534
 30
0.0
 10
9.9593715378
 20
2.8147784098
 30
0.0
 10
9.9074635422
 20
2.807537426
 30
0.0
 10
9.8725507151
 20
2.8058970394
 30
0.0
 10
9.8551072896
 20
2.8058970394
 30
0.0
  0
SPLINE
  5
294
100
AcDbEntity
  8
0
100
AcDbSpline
 62
9
  6
CONTINUOUS
 70
0
 71
3
 72
47
 73
43
 74
0
 42
0.0000001
 43
0.0000001
 44
0.0000000001
 40
0.0
 40
0.0
 40
0.0
 40
0.0
 40
0.0155368894
 40
0.0310771243
 40
0.0466177135
 40
0.0621607021
 40
0.0932488515
 40
0.1243566353
 40
0.1399244373
 40
0.155499123
 40
0.1710812093
 40
0.1866711509
 40
0.217866513
 40
0.249096673
 40
0.280362276
 40
0.3116626037
 40
0.3429956053
 40
0.3743579841
 40
0.4057453249
 40
0.4371522638
 40
0.4685726942
 40
0.5
 40
0.5314273058
 40
0.5628477362
 40
0.5942546751
 40
0.6256420159
 40
0.6570043947
 40
0.6883373963
 40
0.719637724
 40
0.750903327
 40
0.782133487
 40
0.8133288491
 40
0.8289187907
 40
0.844500877
 40
0.8600755627
 40
0.8756433647
 40
0.9067511485
 40
0.9378392979
 40
0.9533822865
 40
0.9689228757
 40
0.9844631106
 40
1.0
 40
1.0
 40
1.0
 40
1.0
 10
10.46534351
 20
3.3080779226
 30
0.0
 10
10.46534351
 20
3.2982095109
 30
0.0
 10
10.4648529281
 20
3.2784670327
 30
0.0
 10
10.4626490715
 20
3.2489279947
 30
0.0
 10
10.4589806123
 20
3.2195295417
 30
0.0
 10
10.4521509068
 20
3.1806219525
 30
0.0
 10
10.4400009572
 20
3.132674356
 30
0.0
 10
10.423157583
 20
3.0861510173
 30
0.0
 10
10.4069732289
 20
3.0500614475
 30
0.0
 10
10.3935005392
 20
3.0236041978
 30
0.0
 10
10.3787304448
 20
2.9978324938
 30
0.0
 10
10.3573551864
 20
2.9644654932
 30
0.0
 10
10.327562527
 20
2.9247602152
 30
0.0
 10
10.287279392
 20
2.8808316701
 30
0.0
 10
10.2428335939
 20
2.8410160838
 30
0.0
 10
10.1946553707
 20
2.8056998188
 30
0.0
 10
10.1432082876
 20
2.7752217533
 30
0.0
 10
10.0889879471
 20
2.7498752758
 30
0.0
 10
10.0325163663
 20
2.7299040994
 30
0.0
 10
9.9743372095
 20
2.7155002918
 30
0.0
 10
9.9150105131
 20
2.7068022657
 30
0.0
 10
9.8551072896
 20
2.7038936078
 30
0.0
 10
9.795204066
 20
2.7068022657
 30
0.0
 10
9.7358773696
 20
2.7155002918
 30
0.0
 10
9.6776982128
 20
2.7299040994
 30
0.0
 10
9.621226632
 20
2.7498752758
 30
0.0
 10
9.5670062915
 20
2.7752217533
 30
0.0
 10
9.5155592085
 20
2.8056998188
 30
0.0
 10
9.4673809852
 20
2.8410160838
 30
0.0
 10
9.4229351871
 20
2.8808316701
 30
0.0
 10
9.3826520521
 20
2.9247602152
 30
0.0
 10
9.3528593927
 20
2.9644654932
 30
0.0
 10
9.3314841343
 20
2.9978324938
 30
0.0
 10
9.3167140399
 20
3.0236041978
 30
0.0
 10
9.3032413502
 20
3.0500614475
 30
0.0
 10
9.2870569961
 20
3.0861510173
 30
0.0
 10
9.2702136219
 20
3.132674356
 30
0.0
 10
9.2580636723
 20
3.1806219525
 30
0.0
 10
9.2512339668
 20
3.2195295417
 30
0.0
 10
9.2475655076
 20
3.2489279947
 30
0.0
 10
9.245361651
 20
3.2784670327
 30
0.0
 10
9.2448710691
 20
3.2982095109
 30
0.0
 10
9.2448710691
 20
3.3080779226
 30
0.0
  0
SPLINE
  5
295
100
AcDbEntity
  8
0
100
AcDbSpline
 62
9
  6
CONTINUOUS
 70
0
 71
3
 72
47
 73
43
 74
0
 42
0.0000001
 43
0.0000001
 44
0.0000000001
 40
0.0
 40
0.0
 40
0.0
 40
0.0
 40
0.0155369286
 40
0.0310772471
 40
0.0466178708
 40
0.0621608507
 40
0.0932489801
 40
0.1243567493
 40
0.1399245515
 40
0.1554992367
 40
0.1710813195
 40
0.1866712549
 40
0.2178666037
 40
0.2490967542
 40
0.2803623479
 40
0.3116626651
 40
0.3429956564
 40
0.3743580251
 40
0.4057453557
 40
0.4371522843
 40
0.4685727044
 40
0.5
 40
0.5314272956
 40
0.5628477157
 40
0.5942546443
 40
0.6256419749
 40
0.6570043436
 40
0.6883373349
 40
0.7196376521
 40
0.7509032458
 40
0.7821333963
 40
0.8133287451
 40
0.8289186805
 40
0.8445007633
 40
0.8600754485
 40
0.8756432507
 40
0.9067510199
 40
0.9378391493
 40
0.9533821292
 40
0.9689227529
 40
0.9844630714
 40
1.0
 40
1.0
 40
1.0
 40
1.0
 10
10.524606209
 20
3.222419268
 30
0.0
 10
10.524606209
 20
3.2115924645
 30
0.0
 10
10.5240679664
 20
3.1899326231
 30
0.0
 10
10.5216500881
 20
3.15752481
 30
0.0
 10
10.5176253371
 20
3.1252712719
 30
0.0
 10
10.510132353
 20
3.0825851962
 30
0.0
 10
10.4968024517
 20
3.0299812345
 30
0.0
 10
10.4783233248
 20
2.9789398449
 30
0.0
 10
10.460567237
 20
2.939345471
 30
0.0
 10
10.4457861372
 20
2.910318855
 30
0.0
 10
10.4295816562
 20
2.8820443557
 30
0.0
 10
10.4061305426
 20
2.845436966
 30
0.0
 10
10.3734445927
 20
2.8018757579
 30
0.0
 10
10.3292493877
 20
2.7536811496
 30
0.0
 10
10.280487269
 20
2.7099989239
 30
0.0
 10
10.2276302567
 20
2.6712529669
 30
0.0
 10
10.1711869357
 20
2.637815065
 30
0.0
 10
10.1117010371
 20
2.6100070981
 30
0.0
 10
10.049745273
 20
2.5880964467
 30
0.0
 10
9.9859161044
 20
2.5722938327
 30
0.0
 10
9.9208279548
 20
2.5627511098
 30
0.0
 10
9.8551072896
 20
2.5595599816
 30
0.0
 10
9.7893866243
 20
2.5627511098
 30
0.0
 10
9.7242984747
 20
2.5722938327
 30
0.0
 10
9.6604693061
 20
2.5880964467
 30
0.0
 10
9.598513542
 20
2.6100070981
 30
0.0
 10
9.5390276434
 20
2.637815065
 30
0.0
 10
9.4825843224
 20
2.6712529669
 30
0.0
 10
9.4297273101
 20
2.7099989239
 30
0.0
 10
9.3809651914
 20
2.7536811496
 30
0.0
 10
9.3367699864
 20
2.8018757579
 30
0.0
 10
9.3040840365
 20
2.845436966
 30
0.0
 10
9.2806329229
 20
2.8820443557
 30
0.0
 10
9.2644284419
 20
2.910318855
 30
0.0
 10
9.2496473421
 20
2.939345471
 30
0.0
 10
9.2318912543
 20
2.9789398449
 30
0.0
 10
9.2134121274
 20
3.0299812345
 30
0.0
 10
9.2000822261
 20
3.0825851962
 30
0.0
 10
9.192589242
 20
3.1252712719
 30
0.0
 10
9.188564491
 20
3.15752481
 30
0.0
 10
9.1861466127
 20
3.1899326231
 30
0.0
 10
9.1856083701
 20
3.2115924645
 30
0.0
 10
9.1856083701
 20
3.222419268
 30
0.0
  0
LINE
  5
296
100
AcDbEntity
  8
0
100
AcDbLine
 62
9
  6
CONTINUOUS
 10
10.6798588697
 20
2.9013957381
 11
10.679858813
 21
2.9010936337
  0
SPLINE
  5
297
100
AcDbEntity
  8
0
100
AcDbSpline
 62
9
  6
CONTINUOUS
 70
0
 71
3
 72
51
 73
47
 74
0
 42
0.0000001
 43
0.0000001
 44
0.0000000001
 40
0.0
 40
0.0
 40
0.0
 40
0.0
 40
0.015536588
 40
0.0310760859
 40
0.0466160047
 40
0.0621585011
 40
0.0932454443
 40
0.1243520759
 40
0.1399193009
 40
0.1554934079
 40
0.171074922
 40
0.1866642805
 40
0.202261858
 40
0.2178679398
 40
0.2334827322
 40
0.2491063623
 40
0.2803707943
 40
0.3116699387
 40
0.3430017443
 40
0.3743629136
 40
0.4057490328
 40
0.4371547407
 40
0.4685739342
 40
0.5
 40
0.5314260658
 40
0.5628452593
 40
0.5942509672
 40
0.6256370864
 40
0.6569982557
 40
0.6883300613
 40
0.7196292057
 40
0.7508936377
 40
0.7665172678
 40
0.7821320602
 40
0.797738142
 40
0.8133357195
 40
0.828925078
 40
0.8445065921
 40
0.8600806991
 40
0.8756479241
 40
0.9067545557
 40
0.9378414989
 40
0.9533839953
 40
0.9689239141
 40
0.984463412
 40
1.0
 40
1.0
 40
1.0
 40
1.0
 10
10.679858813
 20
2.9010936337
 30
0.0
 10
10.6798538089
 20
2.887759077
 30
0.0
 10
10.6791811639
 20
2.8610829437
 30
0.0
 10
10.6761888699
 20
2.8211704918
 30
0.0
 10
10.6712183319
 20
2.7814487999
 30
0.0
 10
10.661972378
 20
2.7288795233
 30
0.0
 10
10.6455347174
 20
2.6640973764
 30
0.0
 10
10.6227575592
 20
2.6012410999
 30
0.0
 10
10.6008754277
 20
2.552482617
 30
0.0
 10
10.5826615912
 20
2.5167378008
 30
0.0
 10
10.5626958314
 20
2.4819203635
 30
0.0
 10
10.5410262781
 20
2.4481128385
 30
0.0
 10
10.5177051763
 20
2.4153968276
 30
0.0
 10
10.4927885412
 20
2.3838515434
 30
0.0
 10
10.4663359616
 20
2.3535517219
 30
0.0
 10
10.4291022413
 20
2.3149091711
 30
0.0
 10
10.3790248207
 20
2.2700629616
 30
0.0
 10
10.3139206937
 20
2.2223552552
 30
0.0
 10
10.2443990663
 20
2.1811813074
 30
0.0
 10
10.1711325998
 20
2.1469407028
 30
0.0
 10
10.094825495
 20
2.1199615218
 30
0.0
 10
10.0162122213
 20
2.1005034121
 30
0.0
 10
9.9360490717
 20
2.0887533446
 30
0.0
 10
9.8551072896
 20
2.0848240832
 30
0.0
 10
9.7741655074
 20
2.0887533446
 30
0.0
 10
9.6940023578
 20
2.1005034121
 30
0.0
 10
9.6153890841
 20
2.1199615218
 30
0.0
 10
9.5390819793
 20
2.1469407028
 30
0.0
 10
9.4658155129
 20
2.1811813074
 30
0.0
 10
9.3962938855
 20
2.2223552552
 30
0.0
 10
9.3311897584
 20
2.2700629616
 30
0.0
 10
9.2811123378
 20
2.3149091711
 30
0.0
 10
9.2438786175
 20
2.3535517219
 30
0.0
 10
9.2174260379
 20
2.3838515434
 30
0.0
 10
9.1925094028
 20
2.4153968276
 30
0.0
 10
9.169188301
 20
2.4481128385
 30
0.0
 10
9.1475187477
 20
2.4819203635
 30
0.0
 10
9.127552988
 20
2.5167378008
 30
0.0
 10
9.1093391514
 20
2.552482617
 30
0.0
 10
9.08745702
 20
2.6012410999
 30
0.0
 10
9.0646798617
 20
2.6640973764
 30
0.0
 10
9.0482422011
 20
2.7288795233
 30
0.0
 10
9.0389962473
 20
2.7814487999
 30
0.0
 10
9.0340257092
 20
2.8211704918
 30
0.0
 10
9.0310334152
 20
2.8610829437
 30
0.0
 10
9.0303607702
 20
2.887759077
 30
0.0
 10
9.0303557661
 20
2.9010936337
 30
0.0
  0
LINE
  5
298
100
AcDbEntity
  8
0
100
AcDbLine
 62
9
  6
CONTINUOUS
 10
9.0303557661
 20
2.9010936337
 11
9.0303557094
 21
2.9013957381
  0
SPLINE
  5
299
100
AcDbEntity
  8
0
100
AcDbSpline
 62
9
  6
CONTINUOUS
 70
0
 71
3
 72
33
 73
29
 74
0
 42
0.0000001
 43
0.0000001
 44
0.0000000001
 40
0.0
 40
0.0
 40
0.0
 40
0.0
 40
0.0313900285
 40
0.0627619961
 40
0.0941158455
 40
0.1254516744
 40
0.1880509709
 40
0.2505839396
 40
0.2818375612
 40
0.3130774715
 40
0.3443049305
 40
0.3755213085
 40
0.4067281139
 40
0.437926928
 40
0.4691194234
 40
0.5003073451
 40
0.5626566864
 40
0.6250093592
 40
0.6562014095
 40
0.6873996267
 40
0.7186056963
 40
0.7498212192
 40
0.8122666882
 40
0.8747665208
 40
0.9060494267
 40
0.9373488217
 40
0.9686654883
 40
1.0
 40
1.0
 40
1.0
 40
1.0
 10
9.3687550408
 20
2.6314600578
 30
0.0
 10
9.3590333649
 20
2.6394630007
 30
0.0
 10
9.3399910208
 20
2.6559518042
 30
0.0
 10
9.3127074454
 20
2.6820688264
 30
0.0
 10
9.2867760986
 20
2.7095016262
 30
0.0
 10
9.254108948
 20
2.7477193257
 30
0.0
 10
9.2169540004
 20
2.7984463879
 30
0.0
 10
9.185089029
 20
2.8526153231
 30
0.0
 10
9.1629825467
 20
2.8976540767
 30
0.0
 10
9.1481290911
 20
2.9322093455
 30
0.0
 10
9.1350406127
 20
2.9674541469
 30
0.0
 10
9.1237488656
 20
3.0033013109
 30
0.0
 10
9.1142820633
 20
3.0396611873
 30
0.0
 10
9.1066643379
 20
3.076442915
 30
0.0
 10
9.1009140508
 20
3.113555685
 30
0.0
 10
9.0957576488
 20
3.1633419788
 30
0.0
 10
9.0940399588
 20
3.2259666224
 30
0.0
 10
9.0986547159
 20
3.2884462152
 30
0.0
 10
9.1061100035
 20
3.3379458779
 30
0.0
 10
9.1135720484
 20
3.3747594955
 30
0.0
 10
9.1228846096
 20
3.4111587634
 30
0.0
 10
9.1377366463
 20
3.4590148132
 30
0.0
 10
9.160813075
 20
3.5173743854
 30
0.0
 10
9.1896543549
 20
3.5731407482
 30
0.0
 10
9.2160026607
 20
3.6158628143
 30
0.0
 10
9.2373682306
 20
3.646904545
 30
0.0
 10
9.2602741083
 20
3.6768514316
 30
0.0
 10
9.276531579
 20
3.6960335066
 30
0.0
 10
9.2848957159
 20
3.7054164129
 30
0.0
  0
SPLINE
  5
29A
100
AcDbEntity
  8
0
100
AcDbSpline
 62
9
  6
CONTINUOUS
 70
0
 71
3
 72
30
 73
26
 74
0
 42
0.0000001
 43
0.0000001
 44
0.0000000001
 40
0.0
 40
0.0
 40
0.0
 40
0.0
 40
0.0626635303
 40
0.0939801305
 40
0.1252822936
 40
0.1878309245
 40
0.2503303631
 40
0.281571438
 40
0.3128031521
 40
0.3440266636
 40
0.3752431575
 40
0.4376451717
 40
0.5000347329
 40
0.5624227508
 40
0.6248201817
 40
0.6560332903
 40
0.6872527131
 40
0.7184796705
 40
0.7497153542
 40
0.812202294
 40
0.8747363712
 40
0.906030845
 40
0.9373393079
 40
0.9686617183
 40
1.0
 40
1.0
 40
1.0
 40
1.0
 10
9.2966021109
 20
2.7397275865
 30
0.0
 10
9.2828193722
 20
2.7556881917
 30
0.0
 10
9.2631753214
 20
2.7805418808
 30
0.0
 10
9.2392432654
 20
2.8152637282
 30
0.0
 10
9.216865359
 20
2.8509645401
 30
0.0
 10
9.1918626386
 20
2.8973410938
 30
0.0
 10
9.171014287
 20
2.945706344
 30
0.0
 10
9.1569328155
 20
2.9853474786
 30
0.0
 10
9.1476862232
 20
3.0155035282
 30
0.0
 10
9.1397720709
 20
3.0460278662
 30
0.0
 10
9.1310182675
 20
3.0871299076
 30
0.0
 10
9.1234712619
 20
3.1391599166
 30
0.0
 10
9.1199267364
 20
3.2021309631
 30
0.0
 10
9.1219175528
 20
3.2651687275
 30
0.0
 10
9.1281795974
 20
3.3173657643
 30
0.0
 10
9.1359173879
 20
3.3586670116
 30
0.0
 10
9.1430767661
 20
3.3893729232
 30
0.0
 10
9.151576968
 20
3.4197428292
 30
0.0
 10
9.1646769771
 20
3.4597110454
 30
0.0
 10
9.1843263558
 20
3.5085637881
 30
0.0
 10
9.2081788255
 20
3.5555298605
 30
0.0
 10
9.2296693179
 20
3.5917586065
 30
0.0
 10
9.2469711238
 20
3.6182239491
 30
0.0
 10
9.2654174454
 20
3.6439213573
 30
0.0
 10
9.2784531545
 20
3.6605065383
 30
0.0
 10
9.2851490117
 20
3.6686544183
 30
0.0
  0
ENDSEC
  0
SECTION
  2
OBJECTS
  0
DICTIONARY
  5
C
100
AcDbDictionary
280
0
281
1
  3
ACAD_GROUP
350
D
  3
ACAD_MLINESTYLE
350
17
  3
ACAD_LAYOUT
350
1A
  3
ACAD_PLOTSETTINGS
350
19
  3
ACAD_PLOTSTYLENAME
350
E
  0
DICTIONARY
  5
D
102
{ACAD_REACTORS
330
C
102
}
100
AcDbDictionary
280
0
281
1
  0
ACDBDICTIONARYWDFLT
  5
E
102
{ACAD_REACTORS
330
C
102
}
100
AcDbDictionary
281
1
  3
Normal
350
F
100
AcDbDictionaryWithDefault
340
F
  0
DICTIONARY
  5
17
102
{ACAD_REACTORS
330
C
102
}
100
AcDbDictionary
280
0
281
1
  3
Standard
350
18
  0
DICTIONARY
  5
19
102
{ACAD_REACTORS
330
C
102
}
100
AcDbDictionary
281
1
  0
DICTIONARY
  5
1A
102
{ACAD_REACTORS
330
C
102
}
100
AcDbDictionary
281
1
  3
Model
350
29B
  3
Layout1
350
29C
  0
ACDBPLACEHOLDER
  5
F
102
{ACAD_REACTORS
330
E
102
}
  0
MLINESTYLE
  5
18
102
{ACAD_REACTORS
330
17
102
}
100
AcDbMlineStyle
  2
STANDARD
 70
0
  3

 62
256
 51
90.0
 52
90.0
 71
2
 49
0.5
 62
256
  6
BYLAYER
 49
-0.5
 62
256
  6
BYLAYER
  0
LAYOUT
  5
29B
102
{ACAD_REACTORS
330
1A
102
}
100
AcDbPlotSettings
  1

  2
none_device
  4
ANSI_C_(22.00_x_17.00_Inches)
  6

 40
0.0
 41
0.0
 42
0.0
 43
0.0
 44
558.8
 45
431.8
 46
0.0
 47
0.0
 48
0.0
 49
0.0
140
0.0
141
0.0
142
1.0
143
1.0
 70
1024
 72
0
 73
0
 74
0
  7

 75
0
147
1.0
148
0.0
149
0.0
100
AcDbLayout
  1
Model
 70
0
 71
0
 10
0.0
 20
0.0
 11
22.0
 21
17.0
 12
0.0
 22
0.0
 32
0.0
 14
0.0
 24
0.0
 34
0.0
 15
0.0
 25
0.0
 35
0.0
146
0.0
 13
0.0
 23
0.0
 33
0.0
 16
1.0
 26
0.0
 36
0.0
 17
0.0
 27
1.0
 37
0.0
 76
0
330
205
345
0
346
0
  0
LAYOUT
  5
29C
102
{ACAD_REACTORS
330
1A
102
}
100
AcDbPlotSettings
  1

  2
none_device
  4
ANSI_C_(22.00_x_17.00_Inches)
  6

 40
0.0
 41
0.0
 42
0.0
 43
0.0
 44
558.8
 45
431.8
 46
0.0
 47
0.0
 48
0.0
 49
0.0
140
0.0
141
0.0
142
1.0
143
1.0
 70
0
 72
0
 73
0
 74
0
  7

 75
0
147
1.0
148
0.0
149
0.0
100
AcDbLayout
  1
Layout1
 70
0
 71
1
 10
0.0
 20
0.0
 11
22.0
 21
17.0
 12
0.0
 22
0.0
 32
0.0
 14
0.0
 24
0.0
 34
0.0
 15
0.0
 25
0.0
 35
0.0
146
0.0
 13
0.0
 23
0.0
 33
0.0
 16
1.0
 26
0.0
 36
0.0
 17
0.0
 27
1.0
 37
0.0
 76
0
330
206
345
0
346
0
  0
ENDSEC
  0
EOF
