999
DXF file: E:\BT Custom\CADOUTPUT\_FRONT.dxf
999
Pro/ENGINEER 2018400 by Parametric Technology Corporation
  0
SECTION
  2
HEADER
  9
$ACADVER
  1
AC1018
  9
$DWGCODEPAGE
  3
ANSI_1252
  9
$EXTMAX
 10
22.0
 20
17.0
 30
0.0
  9
$EXTMIN
 10
0.0
 20
0.0
 30
0.0
  9
$LIMMIN
 10
0.0
 20
0.0
  9
$LIMMAX
 10
22.0
 20
17.0
  9
$VIEWCTR
 10
11.0
 20
8.5
  9
$VIEWSIZE
 40
17.0
  9
$CLAYER
  8
0
  9
$LTSCALE
 40
1.21
  9
$CELTYPE
  6
BYLAYER
  9
$DIMSCALE
 40
1.0
  9
$DIMASZ
 40
0.1
  9
$DIMEXO
 40
0.0625
  9
$DIMDLI
 40
0.836
  9
$DIMEXE
 40
0.125
  9
$DIMCEN
 40
0.198
  9
$DIMLFAC
 40
1.0
  9
$DIMBLK
  1
_FILLED
  9
$DIMALT
 70
1
  9
$DIMALTD
 70
2
  9
$DIMALTTD
 70
2
  9
$DIMALTF
 40
25.4
  9
$DIMTXT
 40
0.08
  9
$DIMTOL
 70
1
  9
$DIMLIM
 70
0
  9
$DIMTFAC
 40
1.0
  9
$DIMTP
 40
0.001
  9
$DIMTM
 40
0.001
  9
$DIMGAP
 40
0.09
  9
$DIMDSEP
 70
46
  9
$AUNITS
 70
0
  9
$PDMODE
 70
3
  9
$PDSIZE
 40
0.06
  9
$HANDSEED
  5
295
  9
$TILEMODE
 70
1
  9
$MEASUREMENT
 70
0
  9
$INSUNITS
 70
1
  0
ENDSEC
  0
SECTION
  2
CLASSES
  0
CLASS
  1
ACDBDICTIONARYWDFLT
  2
AcDbDictionaryWithDefault
  3
AutoCAD 2000
 90
0
 91
1
280
0
281
0
  0
CLASS
  1
ACDBPLACEHOLDER
  2
AcDbPlaceHolder
  3
AutoCAD 2000
 90
0
 91
1
280
0
281
0
  0
CLASS
  1
LAYOUT
  2
AcDbLayout
  3
AutoCAD 2000
 90
0
 91
0
280
0
281
0
  0
ENDSEC
  0
SECTION
  2
TABLES
  0
TABLE
  2
VPORT
  5
8
100
AcDbSymbolTable
 70
2
  0
VPORT
  5
1F4
100
AcDbSymbolTableRecord
100
AcDbViewportTableRecord
  2
*ACTIVE
 70
0
 10
0.0
 20
0.0
 11
1.0
 21
1.0
 12
11.0
 22
8.5
 13
0.0
 23
0.0
 14
1.0
 24
1.0
 15
0.0
 25
0.0
 16
0.0
 26
0.0
 36
1.0
 17
0.0
 27
0.0
 37
0.0
 40
17.0
 41
1.2941176471
 42
50.0
 43
0.0
 44
0.0
 50
0.0
 51
0.0
 71
0
 72
100
 73
1
 74
1
 75
0
 76
0
 77
0
 78
0
  0
ENDTAB
  0
TABLE
  2
LTYPE
  5
5
100
AcDbSymbolTable
 70
6
  0
LTYPE
  5
14
100
AcDbSymbolTableRecord
100
AcDbLinetypeTableRecord
  2
BYBLOCK
 70
0
  3

 72
65
 73
0
 40
0.0
  0
LTYPE
  5
15
100
AcDbSymbolTableRecord
100
AcDbLinetypeTableRecord
  2
BYLAYER
 70
0
  3

 72
65
 73
0
 40
0.0
  0
LTYPE
  5
16
100
AcDbSymbolTableRecord
100
AcDbLinetypeTableRecord
  2
CONTINUOUS
 70
64
  3
Solid line
 72
65
 73
0
 40
0.0
  0
LTYPE
  5
1F5
100
AcDbSymbolTableRecord
100
AcDbLinetypeTableRecord
  2
CENTER
 70
64
  3
____ _ ____ _ ____ _ ____ _ ____ _ ____ _ ____
 72
65
 73
4
 40
0.6
 49
0.375
 74
0
 49
-0.075
 74
0
 49
0.075
 74
0
 49
-0.075
 74
0
  0
LTYPE
  5
1F6
100
AcDbSymbolTableRecord
100
AcDbLinetypeTableRecord
  2
HIDDEN
 70
64
  3
- - - - - - - - - - - - - - - - - - - -
 72
65
 73
2
 40
0.2
 49
0.1
 74
0
 49
-0.1
 74
0
  0
LTYPE
  5
1F7
100
AcDbSymbolTableRecord
100
AcDbLinetypeTableRecord
  2
PHANTOM
 70
64
  3
_____ _ _ _____ _ _ _____ _ _ _____
 72
65
 73
6
 40
0.8
 49
0.45
 74
0
 49
-0.05
 74
0
 49
0.1
 74
0
 49
-0.05
 74
0
 49
0.1
 74
0
 49
-0.05
 74
0
  0
LTYPE
  5
1F8
100
AcDbSymbolTableRecord
100
AcDbLinetypeTableRecord
  2
DOT
 70
64
  3
. . . . . . . . . . . . . . . . . . . .
 72
65
 73
2
 40
0.2
 49
0.1
 74
0
 49
-0.1
 74
0
  0
LTYPE
  5
1F9
100
AcDbSymbolTableRecord
100
AcDbLinetypeTableRecord
  2
DASHED
 70
64
  3
- - - - - - - - - - - - - - - - - - - -
 72
65
 73
2
 40
0.2
 49
0.1
 74
0
 49
-0.1
 74
0
  0
ENDTAB
  0
TABLE
  2
LAYER
  5
2
100
AcDbSymbolTable
 70
36
  0
LAYER
  5
10
100
AcDbSymbolTableRecord
100
AcDbLayerTableRecord
  2
0
 70
0
 62
7
  6
CONTINUOUS
370
-3
390
F
  0
LAYER
  5
1FA
100
AcDbSymbolTableRecord
100
AcDbLayerTableRecord
  2
DEFAULT_1
 70
0
 62
7
  6
CENTER
370
-3
390
F
  0
LAYER
  5
1FB
100
AcDbSymbolTableRecord
100
AcDbLayerTableRecord
  2
DEFAULT_2
 70
0
 62
8
  6
HIDDEN
370
-3
390
F
  0
LAYER
  5
1FC
100
AcDbSymbolTableRecord
100
AcDbLayerTableRecord
  2
DEFAULT_3
 70
0
 62
7
  6
PHANTOM
370
-3
390
F
  0
LAYER
  5
1FD
100
AcDbSymbolTableRecord
100
AcDbLayerTableRecord
  2
ALL_FEATURES
 70
0
 62
7
  6
CONTINUOUS
370
-3
390
F
  0
LAYER
  5
1FE
100
AcDbSymbolTableRecord
100
AcDbLayerTableRecord
  2
AXES_FEATURES
 70
0
 62
7
  6
CONTINUOUS
370
-3
390
F
  0
LAYER
  5
1FF
100
AcDbSymbolTableRecord
100
AcDbLayerTableRecord
  2
DEFAULT_COORDINATE_SYSTEM
 70
0
 62
7
  6
CONTINUOUS
370
-3
390
F
  0
LAYER
  5
200
100
AcDbSymbolTableRecord
100
AcDbLayerTableRecord
  2
DEFAULT_DATUM_AXES
 70
0
 62
7
  6
CONTINUOUS
370
-3
390
F
  0
LAYER
  5
201
100
AcDbSymbolTableRecord
100
AcDbLayerTableRecord
  2
DEFAULT_DATUM_PLANES
 70
0
 62
7
  6
CONTINUOUS
370
-3
390
F
  0
LAYER
  5
202
100
AcDbSymbolTableRecord
100
AcDbLayerTableRecord
  2
DIMENSIONS
 70
0
 62
7
  6
CONTINUOUS
370
-3
390
F
  0
ENDTAB
  0
TABLE
  2
STYLE
  5
3
100
AcDbSymbolTable
 70
1
  0
STYLE
  5
11
100
AcDbSymbolTableRecord
100
AcDbTextStyleTableRecord
  2
STANDARD
 70
0
 40
0.0
 41
0.8
 50
0.0
 71
0
 42
0.2
  3
txt
  4

  0
STYLE
  5
203
100
AcDbSymbolTableRecord
100
AcDbTextStyleTableRecord
  2
TEXTSTYLE_1
 70
0
 40
0.0
 41
0.8
 50
0.0
 71
0
 42
0.2
  3
gdt
  4

  0
ENDTAB
  0
TABLE
  2
VIEW
  5
6
100
AcDbSymbolTable
 70
0
  0
ENDTAB
  0
TABLE
  2
UCS
  5
7
100
AcDbSymbolTable
 70
0
  0
ENDTAB
  0
TABLE
  2
APPID
  5
9
100
AcDbSymbolTable
 70
1
  0
APPID
  5
204
100
AcDbSymbolTableRecord
100
AcDbRegAppTableRecord
  2
ACAD
 70
0
  0
ENDTAB
  0
TABLE
  2
BLOCK_RECORD
  5
1
100
AcDbSymbolTable
 70
0
  0
BLOCK_RECORD
  5
205
100
AcDbSymbolTableRecord
100
AcDbBlockTableRecord
  2
*Model_Space
  0
BLOCK_RECORD
  5
206
100
AcDbSymbolTableRecord
100
AcDbBlockTableRecord
  2
*Paper_Space
  0
BLOCK_RECORD
  5
207
100
AcDbSymbolTableRecord
100
AcDbBlockTableRecord
  2
_FILLED
  0
ENDTAB
  0
TABLE
  2
DIMSTYLE
  5
A
100
AcDbSymbolTable
 70
1
100
AcDbDimStyleTable
 71
0
  0
DIMSTYLE
105
208
100
AcDbSymbolTableRecord
100
AcDbDimStyleTableRecord
  2
STANDARD
 70
0
  3

  4

 40
1.0
 41
0.1
 42
0.0625
 43
0.38
 44
0.125
 45
0.0
 46
0.0
 47
0.001
 48
0.001
140
0.08
141
0.09
142
0.0
143
25.4
144
1.0
145
0.0
146
1.0
147
0.09
 71
1.0
 72
0.0
 73
1
 74
1
 75
0
 76
0
 77
0
 78
4
 79
1
170
1
171
2
172
0
173
0
174
0
175
0
176
0
177
0
178
0
270
2
179
3
271
3
272
3
273
2
274
2
275
0
280
0
281
0
282
0
283
1
284
4
285
0
286
0
287
3
288
0
340
11
278
46
341
207
342
207
343
207
344
207
  0
ENDTAB
  0
ENDSEC
  0
SECTION
  2
BLOCKS
  0
BLOCK
  5
20
100
AcDbEntity
  8
0
100
AcDbBlockBegin
  2
*Model_Space
 70
0
 10
0.0
 20
0.0
 30
0.0
  3
*Model_Space
  1

  0
ENDBLK
  5
21
100
AcDbEntity
  8
0
100
AcDbBlockEnd
  0
BLOCK
  5
1C
100
AcDbEntity
  8
0
100
AcDbBlockBegin
  2
*Paper_Space
 70
0
 10
0.0
 20
0.0
 30
0.0
  3
*Paper_Space
  1

  0
ENDBLK
  5
1D
100
AcDbEntity
  8
0
100
AcDbBlockEnd
  0
BLOCK
  5
209
100
AcDbEntity
  8
0
100
AcDbBlockBegin
  2
_FILLED
 70
64
 10
0.0
 20
0.0
  3
_FILLED
  1

  0
SOLID
  5
20A
100
AcDbEntity
  8
0
  6
BYBLOCK
 62
0
100
AcDbTrace
 10
0.0
 20
0.0
 11
-1.0
 21
0.2
 12
-1.0
 22
-0.2
 13
-1.0
 23
-0.2
  0
ENDBLK
  5
20B
100
AcDbEntity
  8
0
  6
BYBLOCK
 62
0
100
AcDbBlockEnd
  0
ENDSEC
  0
SECTION
  2
ENTITIES
  0
LINE
  5
20C
100
AcDbEntity
  8
0
100
AcDbLine
 62
7
  6
CONTINUOUS
 10
11.0276923427
 20
4.7944485715
 11
10.8476928686
 21
4.7944485715
  0
LINE
  5
20D
100
AcDbEntity
  8
0
100
AcDbLine
 62
9
  6
CONTINUOUS
 10
11.2276923427
 20
4.8334485715
 11
10.6476923427
 21
4.8334485715
  0
LINE
  5
20E
100
AcDbEntity
  8
0
100
AcDbLine
 62
9
  6
CONTINUOUS
 10
10.6476923427
 20
4.9094485715
 11
11.2276923427
 21
4.9094485715
  0
LINE
  5
20F
100
AcDbEntity
  8
0
100
AcDbLine
 62
9
  6
CONTINUOUS
 10
10.6711422563
 20
5.01516072
 11
11.2042424292
 21
5.01516072
  0
LINE
  5
210
100
AcDbEntity
  8
0
100
AcDbLine
 62
9
  6
CONTINUOUS
 10
10.6898336522
 20
5.0944950492
 11
11.1855510333
 21
5.0944950492
  0
LINE
  5
211
100
AcDbEntity
  8
0
100
AcDbLine
 62
9
  6
CONTINUOUS
 10
10.7284236288
 20
6.568186802
 11
11.1469610566
 21
6.568186802
  0
LINE
  5
212
100
AcDbEntity
  8
0
100
AcDbLine
 62
7
  6
CONTINUOUS
 10
11.1956923427
 20
6.5784485715
 11
10.6796923427
 21
6.5784485715
  0
LINE
  5
213
100
AcDbEntity
  8
0
100
AcDbLine
 62
9
  6
CONTINUOUS
 10
11.2056923427
 20
6.5884485715
 11
10.6696923427
 21
6.5884485715
  0
LINE
  5
214
100
AcDbEntity
  8
0
100
AcDbLine
 62
9
  6
CONTINUOUS
 10
11.2056923427
 20
6.6999485715
 11
10.6696923427
 21
6.6999485715
  0
LINE
  5
215
100
AcDbEntity
  8
0
100
AcDbLine
 62
7
  6
CONTINUOUS
 10
10.757692924
 20
6.7944485715
 11
11.1176917615
 21
6.7944485715
  0
LINE
  5
216
100
AcDbEntity
  8
0
100
AcDbLine
 62
7
  6
CONTINUOUS
 10
10.3376923427
 20
13.7208904328
 11
10.3376923427
 21
12.0644485715
  0
LINE
  5
217
100
AcDbEntity
  8
0
100
AcDbLine
 62
7
  6
CONTINUOUS
 10
10.3376923427
 20
7.6684093834
 11
10.3376923427
 21
8.8844485715
  0
LINE
  5
218
100
AcDbEntity
  8
0
100
AcDbLine
 62
7
  6
CONTINUOUS
 10
10.3376923427
 20
9.2044485715
 11
10.3376923427
 21
11.7444485715
  0
LINE
  5
219
100
AcDbEntity
  8
0
100
AcDbLine
 62
7
  6
CONTINUOUS
 10
10.3776923427
 20
8.8844485715
 11
10.3776923427
 21
9.1844485715
  0
LINE
  5
21A
100
AcDbEntity
  8
0
100
AcDbLine
 62
7
  6
CONTINUOUS
 10
10.3776923427
 20
11.7444485715
 11
10.3776923427
 21
12.0444485715
  0
LINE
  5
21B
100
AcDbEntity
  8
0
100
AcDbLine
 62
7
  6
CONTINUOUS
 10
10.3876923427
 20
12.1044485715
 11
10.3876923427
 21
12.72859066
  0
LINE
  5
21C
100
AcDbEntity
  8
0
100
AcDbLine
 62
7
  6
CONTINUOUS
 10
10.4676923427
 20
9.1844485715
 11
10.4676923427
 21
9.2044485715
  0
LINE
  5
21D
100
AcDbEntity
  8
0
100
AcDbLine
 62
7
  6
CONTINUOUS
 10
10.4676923427
 20
12.0444485715
 11
10.4676923427
 21
12.0644485715
  0
LINE
  5
21E
100
AcDbEntity
  8
0
100
AcDbLine
 62
7
  6
CONTINUOUS
 10
10.4751923427
 20
11.9194485715
 11
10.4751923427
 21
12.1044485715
  0
LINE
  5
21F
100
AcDbEntity
  8
0
100
AcDbLine
 62
7
  6
CONTINUOUS
 10
10.5714423427
 20
11.7414485715
 11
10.5714423427
 21
11.7494485715
  0
LINE
  5
220
100
AcDbEntity
  8
0
100
AcDbLine
 62
7
  6
CONTINUOUS
 10
10.6476923427
 20
10.4894485715
 11
10.6476923427
 21
10.4134485715
  0
LINE
  5
221
100
AcDbEntity
  8
0
100
AcDbLine
 62
7
  6
CONTINUOUS
 10
10.6476923427
 20
4.9094485715
 11
10.6476923427
 21
4.8334485715
  0
LINE
  5
222
100
AcDbEntity
  8
0
100
AcDbLine
 62
7
  6
CONTINUOUS
 10
10.7284236288
 20
12.148186802
 11
10.6898336522
 21
10.6744950492
  0
LWPOLYLINE
  5
223
100
AcDbEntity
  8
0
100
AcDbPolyline
 62
7
  6
CONTINUOUS
 90
5
 70
0
 10
10.3376949179
 20
7.6684093833
 10
10.3375809191
 20
7.6647132398
 10
10.3367001724
 20
7.6575312709
 10
10.3349610554
 20
7.6505078957
 10
10.3325057104
 20
7.6440056463
  0
LINE
  5
224
100
AcDbEntity
  8
0
100
AcDbLine
 62
7
  6
CONTINUOUS
 10
10.3376923427
 20
8.8844485715
 11
10.3776923427
 21
8.8844485715
  0
LINE
  5
225
100
AcDbEntity
  8
0
100
AcDbLine
 62
7
  6
CONTINUOUS
 10
11.4976923427
 20
8.8844485715
 11
11.5376923427
 21
8.8844485715
  0
LINE
  5
226
100
AcDbEntity
  8
0
100
AcDbLine
 62
7
  6
CONTINUOUS
 10
10.6696923427
 20
12.2799485715
 11
10.6696923427
 21
12.1684485715
  0
LINE
  5
227
100
AcDbEntity
  8
0
100
AcDbLine
 62
7
  6
CONTINUOUS
 10
10.6696923427
 20
6.6999485715
 11
10.6696923427
 21
6.5884485715
  0
LINE
  5
228
100
AcDbEntity
  8
0
100
AcDbLine
 62
7
  6
CONTINUOUS
 10
10.7576923427
 20
6.7944485715
 11
10.7576923427
 21
6.8977019519
  0
LINE
  5
229
100
AcDbEntity
  8
0
100
AcDbLine
 62
7
  6
CONTINUOUS
 10
10.7576923427
 20
12.3744485715
 11
10.7576923427
 21
12.4777019519
  0
LINE
  5
22A
100
AcDbEntity
  8
0
100
AcDbLine
 62
7
  6
CONTINUOUS
 10
10.7284236288
 20
6.568186802
 11
10.6898336522
 21
5.0944950492
  0
LINE
  5
22B
100
AcDbEntity
  8
0
100
AcDbLine
 62
7
  6
CONTINUOUS
 10
10.3776923427
 20
9.1844485715
 11
11.4976923427
 21
9.1844485715
  0
LINE
  5
22C
100
AcDbEntity
  8
0
100
AcDbLine
 62
7
  6
CONTINUOUS
 10
10.3376929345
 20
9.2044485715
 11
11.5376917509
 21
9.2044485715
  0
LINE
  5
22D
100
AcDbEntity
  8
0
100
AcDbLine
 62
7
  6
CONTINUOUS
 10
11.5176917705
 20
9.3044485715
 11
10.357692915
 21
9.3044485715
  0
LWPOLYLINE
  5
22E
100
AcDbEntity
  8
0
100
AcDbPolyline
 62
7
  6
CONTINUOUS
 90
5
 70
0
 10
11.5428789668
 20
7.6440056884
 10
11.5404235842
 20
7.6505080575
 10
11.5386844384
 20
7.657531676
 10
11.5378037389
 20
7.6647136247
 10
11.5376897623
 20
7.6684094069
  0
LINE
  5
22F
100
AcDbEntity
  8
0
100
AcDbLine
 62
7
  6
CONTINUOUS
 10
11.1469610566
 20
6.568186802
 11
11.1855510333
 21
5.0944950492
  0
LINE
  5
230
100
AcDbEntity
  8
0
100
AcDbLine
 62
7
  6
CONTINUOUS
 10
11.1469610566
 20
12.148186802
 11
11.1855510333
 21
10.6744950492
  0
LINE
  5
231
100
AcDbEntity
  8
0
100
AcDbLine
 62
7
  6
CONTINUOUS
 10
11.1176923427
 20
6.7944485715
 11
11.1176923427
 21
6.8977019519
  0
LINE
  5
232
100
AcDbEntity
  8
0
100
AcDbLine
 62
7
  6
CONTINUOUS
 10
11.1176923427
 20
12.3744485715
 11
11.1176923427
 21
12.4777019519
  0
LINE
  5
233
100
AcDbEntity
  8
0
100
AcDbLine
 62
7
  6
CONTINUOUS
 10
11.2056923427
 20
12.2799485715
 11
11.2056923427
 21
12.1684485715
  0
LINE
  5
234
100
AcDbEntity
  8
0
100
AcDbLine
 62
7
  6
CONTINUOUS
 10
11.2056923427
 20
6.6999485715
 11
11.2056923427
 21
6.5884485715
  0
LINE
  5
235
100
AcDbEntity
  8
0
100
AcDbLine
 62
7
  6
CONTINUOUS
 10
11.2276923427
 20
10.4894485715
 11
11.2276923427
 21
10.4134485715
  0
LINE
  5
236
100
AcDbEntity
  8
0
100
AcDbLine
 62
7
  6
CONTINUOUS
 10
11.2276923427
 20
4.9094485715
 11
11.2276923427
 21
4.8334485715
  0
LINE
  5
237
100
AcDbEntity
  8
0
100
AcDbLine
 62
9
  6
CONTINUOUS
 10
11.5376923427
 20
9.3244485715
 11
10.3376923427
 21
9.3244485715
  0
LINE
  5
238
100
AcDbEntity
  8
0
100
AcDbLine
 62
7
  6
CONTINUOUS
 10
11.3039423427
 20
11.7414485715
 11
11.3039423427
 21
11.7494485715
  0
LINE
  5
239
100
AcDbEntity
  8
0
100
AcDbLine
 62
7
  6
CONTINUOUS
 10
11.4001923427
 20
11.9194485715
 11
11.4001923427
 21
12.1044485715
  0
LINE
  5
23A
100
AcDbEntity
  8
0
100
AcDbLine
 62
7
  6
CONTINUOUS
 10
11.4076923427
 20
9.1844485715
 11
11.4076923427
 21
9.2044485715
  0
LINE
  5
23B
100
AcDbEntity
  8
0
100
AcDbLine
 62
7
  6
CONTINUOUS
 10
11.4076923427
 20
12.0444485715
 11
11.4076923427
 21
12.0644485715
  0
LINE
  5
23C
100
AcDbEntity
  8
0
100
AcDbLine
 62
7
  6
CONTINUOUS
 10
11.4876923427
 20
12.1044485715
 11
11.4876923427
 21
12.72859066
  0
LINE
  5
23D
100
AcDbEntity
  8
0
100
AcDbLine
 62
7
  6
CONTINUOUS
 10
11.4976923427
 20
8.8844485715
 11
11.4976923427
 21
9.1844485715
  0
LINE
  5
23E
100
AcDbEntity
  8
0
100
AcDbLine
 62
7
  6
CONTINUOUS
 10
11.4976923427
 20
11.7444485715
 11
11.4976923427
 21
12.0444485715
  0
LINE
  5
23F
100
AcDbEntity
  8
0
100
AcDbLine
 62
7
  6
CONTINUOUS
 10
11.5376923427
 20
13.7208904328
 11
11.5376923427
 21
12.0644485715
  0
LINE
  5
240
100
AcDbEntity
  8
0
100
AcDbLine
 62
7
  6
CONTINUOUS
 10
11.5376923427
 20
7.668409407
 11
11.5376923427
 21
8.8844485715
  0
LINE
  5
241
100
AcDbEntity
  8
0
100
AcDbLine
 62
7
  6
CONTINUOUS
 10
11.5376923427
 20
9.2044485715
 11
11.5376923427
 21
11.7444485715
  0
LINE
  5
242
100
AcDbEntity
  8
0
100
AcDbLine
 62
7
  6
CONTINUOUS
 10
11.0276923427
 20
10.3744485715
 11
10.8476928686
 21
10.3744485715
  0
LINE
  5
243
100
AcDbEntity
  8
0
100
AcDbLine
 62
9
  6
CONTINUOUS
 10
11.2276923427
 20
10.4134485715
 11
10.6476923427
 21
10.4134485715
  0
LINE
  5
244
100
AcDbEntity
  8
0
100
AcDbLine
 62
9
  6
CONTINUOUS
 10
10.6476923427
 20
10.4894485715
 11
11.2276923427
 21
10.4894485715
  0
LINE
  5
245
100
AcDbEntity
  8
0
100
AcDbLine
 62
9
  6
CONTINUOUS
 10
10.6711422563
 20
10.59516072
 11
11.2042424292
 21
10.59516072
  0
LINE
  5
246
100
AcDbEntity
  8
0
100
AcDbLine
 62
9
  6
CONTINUOUS
 10
10.6898336522
 20
10.6744950492
 11
11.1855510333
 21
10.6744950492
  0
LINE
  5
247
100
AcDbEntity
  8
0
100
AcDbLine
 62
7
  6
CONTINUOUS
 10
11.3039423427
 20
11.7414485715
 11
11.157611872
 21
11.7414485715
  0
LINE
  5
248
100
AcDbEntity
  8
0
100
AcDbLine
 62
7
  6
CONTINUOUS
 10
10.7177728134
 20
11.7414485715
 11
10.5714423427
 21
11.7414485715
  0
LINE
  5
249
100
AcDbEntity
  8
0
100
AcDbLine
 62
7
  6
CONTINUOUS
 10
10.3376923427
 20
11.7444485715
 11
10.3776923427
 21
11.7444485715
  0
LINE
  5
24A
100
AcDbEntity
  8
0
100
AcDbLine
 62
7
  6
CONTINUOUS
 10
11.4976923427
 20
11.7444485715
 11
11.5376923427
 21
11.7444485715
  0
LINE
  5
24B
100
AcDbEntity
  8
0
100
AcDbLine
 62
7
  6
CONTINUOUS
 10
10.5195239579
 20
11.7494485715
 11
10.7179823008
 21
11.7494485715
  0
LINE
  5
24C
100
AcDbEntity
  8
0
100
AcDbLine
 62
7
  6
CONTINUOUS
 10
11.1574023847
 20
11.7494485715
 11
11.3558607276
 21
11.7494485715
  0
LINE
  5
24D
100
AcDbEntity
  8
0
100
AcDbLine
 62
9
  6
CONTINUOUS
 10
10.5104042557
 20
11.7553460074
 11
10.7181367306
 21
11.7553460074
  0
LINE
  5
24E
100
AcDbEntity
  8
0
100
AcDbLine
 62
9
  6
CONTINUOUS
 10
11.1572479549
 20
11.7553460074
 11
11.3649804298
 21
11.7553460074
  0
LINE
  5
24F
100
AcDbEntity
  8
0
100
AcDbLine
 62
9
  6
CONTINUOUS
 10
11.4001923427
 20
11.9194485715
 11
11.152950778
 21
11.9194485715
  0
LINE
  5
250
100
AcDbEntity
  8
0
100
AcDbLine
 62
9
  6
CONTINUOUS
 10
10.7224339075
 20
11.9194485715
 11
10.4751923427
 21
11.9194485715
  0
LINE
  5
251
100
AcDbEntity
  8
0
100
AcDbLine
 62
7
  6
CONTINUOUS
 10
10.3776923427
 20
12.0444485715
 11
10.4751923427
 21
12.0444485715
  0
LINE
  5
252
100
AcDbEntity
  8
0
100
AcDbLine
 62
7
  6
CONTINUOUS
 10
11.4001923427
 20
12.0444485715
 11
11.4976923427
 21
12.0444485715
  0
LINE
  5
253
100
AcDbEntity
  8
0
100
AcDbLine
 62
7
  6
CONTINUOUS
 10
10.4751923427
 20
12.0644485715
 11
10.3376929345
 21
12.0644485715
  0
LINE
  5
254
100
AcDbEntity
  8
0
100
AcDbLine
 62
7
  6
CONTINUOUS
 10
11.4001923427
 20
12.0644485715
 11
11.537691751
 21
12.0644485715
  0
LINE
  5
255
100
AcDbEntity
  8
0
100
AcDbLine
 62
7
  6
CONTINUOUS
 10
10.727278303
 20
12.1044485715
 11
10.3876928852
 21
12.1044485715
  0
LINE
  5
256
100
AcDbEntity
  8
0
100
AcDbLine
 62
7
  6
CONTINUOUS
 10
11.1481063825
 20
12.1044485715
 11
11.4876918003
 21
12.1044485715
  0
LINE
  5
257
100
AcDbEntity
  8
0
100
AcDbLine
 62
9
  6
CONTINUOUS
 10
10.7284236288
 20
12.148186802
 11
11.1469610566
 21
12.148186802
  0
LINE
  5
258
100
AcDbEntity
  8
0
100
AcDbLine
 62
7
  6
CONTINUOUS
 10
11.1956923427
 20
12.1584485715
 11
10.6796923427
 21
12.1584485715
  0
LINE
  5
259
100
AcDbEntity
  8
0
100
AcDbLine
 62
9
  6
CONTINUOUS
 10
11.2056923427
 20
12.1684485715
 11
10.6696923427
 21
12.1684485715
  0
LINE
  5
25A
100
AcDbEntity
  8
0
100
AcDbLine
 62
9
  6
CONTINUOUS
 10
11.2056923427
 20
12.2799485715
 11
10.6696923427
 21
12.2799485715
  0
LINE
  5
25B
100
AcDbEntity
  8
0
100
AcDbLine
 62
7
  6
CONTINUOUS
 10
10.757692924
 20
12.3744485715
 11
11.1176917615
 21
12.3744485715
  0
LINE
  5
25C
100
AcDbEntity
  8
0
100
AcDbLine
 62
9
  6
CONTINUOUS
 10
10.3376923427
 20
13.7208904328
 11
11.5376923427
 21
13.7208904328
  0
LINE
  5
25D
100
AcDbEntity
  8
0
100
AcDbLine
 62
7
  6
CONTINUOUS
 10
11.5176923427
 20
13.7408904328
 11
10.3576923427
 21
13.7408904328
  0
ARC
  5
25E
100
AcDbEntity
  8
0
100
AcDbCircle
 62
7
  6
CONTINUOUS
 10
10.8976923427
 20
4.9094485715
 40
0.25
100
AcDbArc
 50
154.9854377782
 51
180.0
  0
ARC
  5
25F
100
AcDbEntity
  8
0
100
AcDbCircle
 62
7
  6
CONTINUOUS
 10
10.4899021872
 20
5.0997304389
 40
0.2
100
AcDbArc
 50
334.9854377782
 51
358.5
  0
ARC
  5
260
100
AcDbEntity
  8
0
100
AcDbCircle
 62
7
  6
CONTINUOUS
 10
10.7641923427
 20
6.6999485715
 40
0.0945
100
AcDbArc
 50
93.9358315478
 51
180.0
  0
ARC
  5
261
100
AcDbEntity
  8
0
100
AcDbCircle
 62
7
  6
CONTINUOUS
 10
10.7184270556
 20
6.5684485715
 40
0.01
100
AcDbArc
 50
358.5
 51
90.0
  0
ARC
  5
262
100
AcDbEntity
  8
0
100
AcDbCircle
 62
7
  6
CONTINUOUS
 10
10.6796923427
 20
6.5884485715
 40
0.01
100
AcDbArc
 50
180.0
 51
270.0
  0
ARC
  5
263
100
AcDbEntity
  8
0
100
AcDbCircle
 62
7
  6
CONTINUOUS
 10
10.8751923427
 20
11.9194485715
 40
0.4
100
AcDbArc
 50
180.0
 51
204.220943109
  0
ARC
  5
264
100
AcDbEntity
  8
0
100
AcDbCircle
 62
7
  6
CONTINUOUS
 10
10.8976923427
 20
10.4894485715
 40
0.25
100
AcDbArc
 50
154.9854377782
 51
180.0
  0
ARC
  5
265
100
AcDbEntity
  8
0
100
AcDbCircle
 62
7
  6
CONTINUOUS
 10
10.4899021872
 20
10.6797304389
 40
0.2
100
AcDbArc
 50
334.9854377782
 51
358.5
  0
ARC
  5
266
100
AcDbEntity
  8
0
100
AcDbCircle
 62
7
  6
CONTINUOUS
 10
10.7641923427
 20
12.2799485715
 40
0.0945
100
AcDbArc
 50
93.9358315478
 51
180.0
  0
ARC
  5
267
100
AcDbEntity
  8
0
100
AcDbCircle
 62
7
  6
CONTINUOUS
 10
10.3576923427
 20
13.7208904328
 40
0.02
100
AcDbArc
 50
90.0
 51
180.0
  0
ARC
  5
268
100
AcDbEntity
  8
0
100
AcDbCircle
 62
7
  6
CONTINUOUS
 10
10.3576923427
 20
9.3244485715
 40
0.02
100
AcDbArc
 50
180.0
 51
270.0
  0
ARC
  5
269
100
AcDbEntity
  8
0
100
AcDbCircle
 62
7
  6
CONTINUOUS
 10
10.7184270556
 20
12.1484485715
 40
0.01
100
AcDbArc
 50
358.5
 51
90.0
  0
ARC
  5
26A
100
AcDbEntity
  8
0
100
AcDbCircle
 62
7
  6
CONTINUOUS
 10
10.6796923427
 20
12.1684485715
 40
0.01
100
AcDbArc
 50
180.0
 51
270.0
  0
ARC
  5
26B
100
AcDbEntity
  8
0
100
AcDbCircle
 62
7
  6
CONTINUOUS
 10
10.5195239579
 20
11.7594485715
 40
0.01
100
AcDbArc
 50
204.2209431095
 51
270.0
  0
ARC
  5
26C
100
AcDbEntity
  8
0
100
AcDbCircle
 62
7
  6
CONTINUOUS
 10
10.9376923427
 20
7.3744485715
 40
1.5
100
AcDbArc
 50
278.7050056022
 51
66.4181738299
  0
ARC
  5
26D
100
AcDbEntity
  8
0
100
AcDbCircle
 62
7
  6
CONTINUOUS
 10
10.9376923427
 20
7.3744485715
 40
1.5
100
AcDbArc
 50
113.5818261701
 51
261.2949943978
  0
ARC
  5
26E
100
AcDbEntity
  8
0
100
AcDbCircle
 62
9
  6
CONTINUOUS
 10
10.9376923427
 20
7.3744485715
 40
1.4371574762
100
AcDbArc
 50
279.0208618972
 51
65.314199753
  0
ARC
  5
26F
100
AcDbEntity
  8
0
100
AcDbCircle
 62
9
  6
CONTINUOUS
 10
10.9376923427
 20
7.3744485715
 40
1.4371574762
100
AcDbArc
 50
114.685800247
 51
260.9791381028
  0
ARC
  5
270
100
AcDbEntity
  8
0
100
AcDbCircle
 62
7
  6
CONTINUOUS
 10
10.9376923427
 20
7.3744485715
 40
1.32
100
AcDbArc
 50
279.6963424092
 51
62.9535726377
  0
ARC
  5
271
100
AcDbEntity
  8
0
100
AcDbCircle
 62
7
  6
CONTINUOUS
 10
10.9376923427
 20
7.3744485715
 40
1.32
100
AcDbArc
 50
117.0464273623
 51
260.3036575908
  0
ARC
  5
272
100
AcDbEntity
  8
0
100
AcDbCircle
 62
9
  6
CONTINUOUS
 10
10.9376923427
 20
7.3744485715
 40
1.25
100
AcDbArc
 50
280.1568635565
 51
61.3139029162
  0
ARC
  5
273
100
AcDbEntity
  8
0
100
AcDbCircle
 62
9
  6
CONTINUOUS
 10
10.9376923427
 20
7.3744485715
 40
1.25
100
AcDbArc
 50
118.6860970838
 51
259.8431364435
  0
ARC
  5
274
100
AcDbEntity
  8
0
100
AcDbCircle
 62
7
  6
CONTINUOUS
 10
10.9376923427
 20
7.3744485715
 40
0.6625
100
AcDbArc
 50
291.8488190206
 51
248.1511809794
  0
ARC
  5
275
100
AcDbEntity
  8
0
100
AcDbCircle
 62
7
  6
CONTINUOUS
 10
10.9376923427
 20
7.3744485715
 40
0.595
100
AcDbArc
 50
287.617429704
 51
252.382570296
  0
ARC
  5
276
100
AcDbEntity
  8
0
100
AcDbCircle
 62
9
  6
CONTINUOUS
 10
10.9376923427
 20
7.3744485715
 40
0.5879659807
100
AcDbArc
 50
287.8333738299
 51
252.1666261701
  0
CIRCLE
  5
277
100
AcDbEntity
  8
0
100
AcDbCircle
 62
7
  6
CONTINUOUS
 10
10.9376923427
 20
7.3744485715
 40
0.51
  0
CIRCLE
  5
278
100
AcDbEntity
  8
0
100
AcDbCircle
 62
9
  6
CONTINUOUS
 10
10.9376923427
 20
7.3744485715
 40
0.46
  0
ARC
  5
279
100
AcDbEntity
  8
0
100
AcDbCircle
 62
7
  6
CONTINUOUS
 10
10.9776923427
 20
4.9094485715
 40
0.25
100
AcDbArc
 50
0.0
 51
25.0145622218
  0
ARC
  5
27A
100
AcDbEntity
  8
0
100
AcDbCircle
 62
7
  6
CONTINUOUS
 10
11.3854824983
 20
5.0997304389
 40
0.2
100
AcDbArc
 50
181.5
 51
205.0145622218
  0
ARC
  5
27B
100
AcDbEntity
  8
0
100
AcDbCircle
 62
7
  6
CONTINUOUS
 10
11.1111923427
 20
6.6999485715
 40
0.0945
100
AcDbArc
 50
0.0
 51
86.0638164845
  0
ARC
  5
27C
100
AcDbEntity
  8
0
100
AcDbCircle
 62
7
  6
CONTINUOUS
 10
11.1569576299
 20
6.5684485715
 40
0.01
100
AcDbArc
 50
90.0
 51
181.5
  0
ARC
  5
27D
100
AcDbEntity
  8
0
100
AcDbCircle
 62
7
  6
CONTINUOUS
 10
11.1956923427
 20
6.5884485715
 40
0.01
100
AcDbArc
 50
270.0
 51
360.0
  0
ARC
  5
27E
100
AcDbEntity
  8
0
100
AcDbCircle
 62
7
  6
CONTINUOUS
 10
10.9376923427
 20
12.9544485715
 40
0.595
100
AcDbArc
 50
287.617429704
 51
252.382570296
  0
ARC
  5
27F
100
AcDbEntity
  8
0
100
AcDbCircle
 62
9
  6
CONTINUOUS
 10
10.9376923427
 20
12.9544485715
 40
0.5879659807
100
AcDbArc
 50
287.8333738299
 51
252.1666261701
  0
CIRCLE
  5
280
100
AcDbEntity
  8
0
100
AcDbCircle
 62
7
  6
CONTINUOUS
 10
10.9376923427
 20
12.9544485715
 40
0.51
  0
CIRCLE
  5
281
100
AcDbEntity
  8
0
100
AcDbCircle
 62
9
  6
CONTINUOUS
 10
10.9376923427
 20
12.9544485715
 40
0.46
  0
ARC
  5
282
100
AcDbEntity
  8
0
100
AcDbCircle
 62
7
  6
CONTINUOUS
 10
11.0001923427
 20
11.9194485715
 40
0.4
100
AcDbArc
 50
335.779056891
 51
360.0
  0
ARC
  5
283
100
AcDbEntity
  8
0
100
AcDbCircle
 62
7
  6
CONTINUOUS
 10
10.9776923427
 20
10.4894485715
 40
0.25
100
AcDbArc
 50
0.0
 51
25.0145622218
  0
ARC
  5
284
100
AcDbEntity
  8
0
100
AcDbCircle
 62
7
  6
CONTINUOUS
 10
11.3854824983
 20
10.6797304389
 40
0.2
100
AcDbArc
 50
181.5
 51
205.0145622218
  0
ARC
  5
285
100
AcDbEntity
  8
0
100
AcDbCircle
 62
7
  6
CONTINUOUS
 10
11.1111923427
 20
12.2799485715
 40
0.0945
100
AcDbArc
 50
0.0
 51
86.0638164845
  0
ARC
  5
286
100
AcDbEntity
  8
0
100
AcDbCircle
 62
7
  6
CONTINUOUS
 10
11.5176923427
 20
13.7208904328
 40
0.02
100
AcDbArc
 50
0.0
 51
90.0
  0
ARC
  5
287
100
AcDbEntity
  8
0
100
AcDbCircle
 62
7
  6
CONTINUOUS
 10
11.5176923427
 20
9.3244485715
 40
0.02
100
AcDbArc
 50
270.0
 51
360.0
  0
ARC
  5
288
100
AcDbEntity
  8
0
100
AcDbCircle
 62
7
  6
CONTINUOUS
 10
11.1569576299
 20
12.1484485715
 40
0.01
100
AcDbArc
 50
90.0
 51
181.5
  0
ARC
  5
289
100
AcDbEntity
  8
0
100
AcDbCircle
 62
7
  6
CONTINUOUS
 10
11.1956923427
 20
12.1684485715
 40
0.01
100
AcDbArc
 50
270.0
 51
360.0
  0
ARC
  5
28A
100
AcDbEntity
  8
0
100
AcDbCircle
 62
7
  6
CONTINUOUS
 10
11.3558607276
 20
11.7594485715
 40
0.01
100
AcDbArc
 50
270.0
 51
335.7790568905
  0
SPLINE
  5
28B
100
AcDbEntity
  8
0
100
AcDbSpline
 62
7
  6
CONTINUOUS
 70
0
 71
3
 72
31
 73
27
 74
0
 42
0.0000001
 43
0.0000001
 44
0.0000000001
 40
0.0
 40
0.0
 40
0.0
 40
0.0
 40
0.0083430326
 40
0.015948329
 40
0.0230331245
 40
0.0297775761
 40
0.0426919181
 40
0.0552305021
 40
0.0676698493
 40
0.0801589224
 40
0.1055425155
 40
0.1316556132
 40
0.1585437898
 40
0.1861521765
 40
0.2144289327
 40
0.2433129217
 40
0.272752174
 40
0.3330887178
 40
0.3951047312
 40
0.458560339
 40
0.5232346969
 40
0.5889764568
 40
0.6556544311
 40
0.7231677033
 40
0.8603559428
 40
1.0
 40
1.0
 40
1.0
 40
1.0
 10
11.2276923427
 20
10.4134485715
 30
0.0
 10
11.2276923427
 20
10.4128582074
 30
0.0
 10
11.227632527
 20
10.4117283045
 30
0.0
 10
11.2273547095
 20
10.4101186385
 30
0.0
 10
11.2269246115
 20
10.4086607519
 30
0.0
 10
11.2262026568
 20
10.4069089539
 30
0.0
 10
11.2250747799
 20
10.4049173076
 30
0.0
 10
11.223417322
 20
10.4028000107
 30
0.0
 10
11.2215469243
 20
10.4009140128
 30
0.0
 10
11.218803009
 20
10.3986389699
 30
0.0
 10
11.2149966283
 20
10.3961613295
 30
0.0
 10
11.2100503553
 20
10.393636937
 30
0.0
 10
11.2047752472
 20
10.3914549053
 30
0.0
 10
11.1992412604
 20
10.3895289784
 30
0.0
 10
11.1934887214
 20
10.3878231455
 30
0.0
 10
11.1875522391
 20
10.3862987815
 30
0.0
 10
11.1793575713
 20
10.3844638872
 30
0.0
 10
11.1687894369
 20
10.3825228265
 30
0.0
 10
11.1557760322
 20
10.380631184
 30
0.0
 10
11.142407782
 20
10.3790920531
 30
0.0
 10
11.1287458825
 20
10.3778353529
 30
0.0
 10
11.1148351224
 20
10.3768256141
 30
0.0
 10
11.1007097154
 20
10.3760257452
 30
0.0
 10
11.0815236659
 20
10.3752035643
 30
0.0
 10
11.057163149
 20
10.3745890801
 30
0.0
 10
11.0375737431
 20
10.3744485715
 30
0.0
 10
11.0276923427
 20
10.3744485715
 30
0.0
  0
SPLINE
  5
28C
100
AcDbEntity
  8
0
100
AcDbSpline
 62
7
  6
CONTINUOUS
 70
0
 71
3
 72
31
 73
27
 74
0
 42
0.0000001
 43
0.0000001
 44
0.0000000001
 40
0.0
 40
0.0
 40
0.0
 40
0.0
 40
0.0083430326
 40
0.015948329
 40
0.0230331245
 40
0.0297775761
 40
0.0426919181
 40
0.0552305021
 40
0.0676698493
 40
0.0801589224
 40
0.1055425155
 40
0.1316556132
 40
0.1585437898
 40
0.1861521765
 40
0.2144289327
 40
0.2433129217
 40
0.272752174
 40
0.3330887178
 40
0.3951047312
 40
0.458560339
 40
0.5232346969
 40
0.5889764568
 40
0.6556544311
 40
0.7231677033
 40
0.8603559428
 40
1.0
 40
1.0
 40
1.0
 40
1.0
 10
10.6476923427
 20
10.4134485715
 30
0.0
 10
10.6476923427
 20
10.4128582074
 30
0.0
 10
10.6477521584
 20
10.4117283045
 30
0.0
 10
10.648029976
 20
10.4101186385
 30
0.0
 10
10.648460074
 20
10.4086607519
 30
0.0
 10
10.6491820286
 20
10.4069089539
 30
0.0
 10
10.6503099056
 20
10.4049173076
 30
0.0
 10
10.6519673634
 20
10.4028000107
 30
0.0
 10
10.6538377612
 20
10.4009140128
 30
0.0
 10
10.6565816765
 20
10.3986389699
 30
0.0
 10
10.6603880572
 20
10.3961613295
 30
0.0
 10
10.6653343301
 20
10.393636937
 30
0.0
 10
10.6706094383
 20
10.3914549053
 30
0.0
 10
10.676143425
 20
10.3895289784
 30
0.0
 10
10.6818959641
 20
10.3878231455
 30
0.0
 10
10.6878324463
 20
10.3862987815
 30
0.0
 10
10.6960271142
 20
10.3844638872
 30
0.0
 10
10.7065952486
 20
10.3825228265
 30
0.0
 10
10.7196086533
 20
10.380631184
 30
0.0
 10
10.7329769035
 20
10.3790920531
 30
0.0
 10
10.746638803
 20
10.3778353529
 30
0.0
 10
10.7605495631
 20
10.3768256141
 30
0.0
 10
10.7746749701
 20
10.3760257452
 30
0.0
 10
10.7938610196
 20
10.3752035643
 30
0.0
 10
10.8182215365
 20
10.3745890801
 30
0.0
 10
10.8378109424
 20
10.3744485715
 30
0.0
 10
10.8476923427
 20
10.3744485715
 30
0.0
  0
SPLINE
  5
28D
100
AcDbEntity
  8
0
100
AcDbSpline
 62
7
  6
CONTINUOUS
 70
0
 71
3
 72
31
 73
27
 74
0
 42
0.0000001
 43
0.0000001
 44
0.0000000001
 40
0.0
 40
0.0
 40
0.0
 40
0.0
 40
0.0083430326
 40
0.015948329
 40
0.0230331245
 40
0.0297775761
 40
0.0426919181
 40
0.0552305021
 40
0.0676698493
 40
0.0801589224
 40
0.1055425155
 40
0.1316556132
 40
0.1585437898
 40
0.1861521765
 40
0.2144289327
 40
0.2433129217
 40
0.272752174
 40
0.3330887178
 40
0.3951047312
 40
0.458560339
 40
0.5232346969
 40
0.5889764568
 40
0.6556544311
 40
0.7231677033
 40
0.8603559428
 40
1.0
 40
1.0
 40
1.0
 40
1.0
 10
11.2276923427
 20
4.8334485715
 30
0.0
 10
11.2276923427
 20
4.8328582074
 30
0.0
 10
11.227632527
 20
4.8317283045
 30
0.0
 10
11.2273547095
 20
4.8301186385
 30
0.0
 10
11.2269246115
 20
4.8286607519
 30
0.0
 10
11.2262026568
 20
4.8269089539
 30
0.0
 10
11.2250747799
 20
4.8249173076
 30
0.0
 10
11.223417322
 20
4.8228000107
 30
0.0
 10
11.2215469243
 20
4.8209140128
 30
0.0
 10
11.218803009
 20
4.8186389699
 30
0.0
 10
11.2149966283
 20
4.8161613295
 30
0.0
 10
11.2100503553
 20
4.813636937
 30
0.0
 10
11.2047752472
 20
4.8114549053
 30
0.0
 10
11.1992412604
 20
4.8095289784
 30
0.0
 10
11.1934887214
 20
4.8078231455
 30
0.0
 10
11.1875522391
 20
4.8062987815
 30
0.0
 10
11.1793575713
 20
4.8044638872
 30
0.0
 10
11.1687894369
 20
4.8025228265
 30
0.0
 10
11.1557760322
 20
4.800631184
 30
0.0
 10
11.142407782
 20
4.7990920531
 30
0.0
 10
11.1287458825
 20
4.7978353529
 30
0.0
 10
11.1148351224
 20
4.7968256141
 30
0.0
 10
11.1007097154
 20
4.7960257452
 30
0.0
 10
11.0815236659
 20
4.7952035643
 30
0.0
 10
11.057163149
 20
4.7945890801
 30
0.0
 10
11.0375737431
 20
4.7944485715
 30
0.0
 10
11.0276923427
 20
4.7944485715
 30
0.0
  0
SPLINE
  5
28E
100
AcDbEntity
  8
0
100
AcDbSpline
 62
7
  6
CONTINUOUS
 70
0
 71
3
 72
31
 73
27
 74
0
 42
0.0000001
 43
0.0000001
 44
0.0000000001
 40
0.0
 40
0.0
 40
0.0
 40
0.0
 40
0.0083430326
 40
0.015948329
 40
0.0230331245
 40
0.0297775761
 40
0.0426919181
 40
0.0552305021
 40
0.0676698493
 40
0.0801589224
 40
0.1055425155
 40
0.1316556132
 40
0.1585437898
 40
0.1861521765
 40
0.2144289327
 40
0.2433129217
 40
0.272752174
 40
0.3330887178
 40
0.3951047312
 40
0.458560339
 40
0.5232346969
 40
0.5889764568
 40
0.6556544311
 40
0.7231677033
 40
0.8603559428
 40
1.0
 40
1.0
 40
1.0
 40
1.0
 10
10.6476923427
 20
4.8334485715
 30
0.0
 10
10.6476923427
 20
4.8328582074
 30
0.0
 10
10.6477521584
 20
4.8317283045
 30
0.0
 10
10.648029976
 20
4.8301186385
 30
0.0
 10
10.648460074
 20
4.8286607519
 30
0.0
 10
10.6491820286
 20
4.8269089539
 30
0.0
 10
10.6503099056
 20
4.8249173076
 30
0.0
 10
10.6519673634
 20
4.8228000107
 30
0.0
 10
10.6538377612
 20
4.8209140128
 30
0.0
 10
10.6565816765
 20
4.8186389699
 30
0.0
 10
10.6603880572
 20
4.8161613295
 30
0.0
 10
10.6653343301
 20
4.813636937
 30
0.0
 10
10.6706094383
 20
4.8114549053
 30
0.0
 10
10.676143425
 20
4.8095289784
 30
0.0
 10
10.6818959641
 20
4.8078231455
 30
0.0
 10
10.6878324463
 20
4.8062987815
 30
0.0
 10
10.6960271142
 20
4.8044638872
 30
0.0
 10
10.7065952486
 20
4.8025228265
 30
0.0
 10
10.7196086533
 20
4.800631184
 30
0.0
 10
10.7329769035
 20
4.7990920531
 30
0.0
 10
10.746638803
 20
4.7978353529
 30
0.0
 10
10.7605495631
 20
4.7968256141
 30
0.0
 10
10.7746749701
 20
4.7960257452
 30
0.0
 10
10.7938610196
 20
4.7952035643
 30
0.0
 10
10.8182215365
 20
4.7945890801
 30
0.0
 10
10.8378109424
 20
4.7944485715
 30
0.0
 10
10.8476923427
 20
4.7944485715
 30
0.0
  0
SPLINE
  5
28F
100
AcDbEntity
  8
0
100
AcDbSpline
 62
9
  6
CONTINUOUS
 70
0
 71
3
 72
14
 73
10
 74
0
 42
0.0000001
 43
0.0000001
 44
0.0000000001
 40
0.0
 40
0.0
 40
0.0
 40
0.0
 40
0.1188997384
 40
0.2392630073
 40
0.48486879
 40
0.6104888924
 40
0.7381447254
 40
0.8679529488
 40
1.0
 40
1.0
 40
1.0
 40
1.0
 10
11.3530429962
 20
12.5283624247
 30
0.0
 10
11.3469968572
 20
12.5201298846
 30
0.0
 10
11.3344251484
 20
12.5038552296
 30
0.0
 10
11.3073362796
 20
12.4721983316
 30
0.0
 10
11.2773822399
 20
12.4422887334
 30
0.0
 10
11.244602543
 20
12.4146514805
 30
0.0
 10
11.2182228239
 20
12.3949403999
 30
0.0
 10
11.1902190394
 20
12.3765872947
 30
0.0
 10
11.1706338579
 20
12.3654825417
 30
0.0
 10
11.1605857085
 20
12.3602181822
 30
0.0
  0
SPLINE
  5
290
100
AcDbEntity
  8
0
100
AcDbSpline
 62
9
  6
CONTINUOUS
 70
0
 71
3
 72
13
 73
9
 74
0
 42
0.0000001
 43
0.0000001
 44
0.0000000001
 40
0.0
 40
0.0
 40
0.0
 40
0.0
 40
0.1320569523
 40
0.2618749376
 40
0.3895403206
 40
0.5151698738
 40
0.7607940303
 40
1.0
 40
1.0
 40
1.0
 40
1.0
 10
10.7147990103
 20
12.3602181555
 30
0.0
 10
10.7047508279
 20
12.365482486
 30
0.0
 10
10.6851656567
 20
12.3765872831
 30
0.0
 10
10.6571617812
 20
12.3949405272
 30
0.0
 10
10.6307822228
 20
12.4146512426
 30
0.0
 10
10.5980013571
 20
12.4422902191
 30
0.0
 10
10.560815646
 20
12.479417665
 30
0.0
 10
10.5345044143
 20
12.5118014323
 30
0.0
 10
10.5223414856
 20
12.5283626604
 30
0.0
  0
SPLINE
  5
291
100
AcDbEntity
  8
0
100
AcDbSpline
 62
9
  6
CONTINUOUS
 70
0
 71
3
 72
56
 73
52
 74
0
 42
0.0000001
 43
0.0000001
 44
0.0000000001
 40
0.0
 40
0.0
 40
0.0
 40
0.0
 40
0.0000029714
 40
0.0000118629
 40
0.0000266753
 40
0.0000474094
 40
0.0001066454
 40
0.000189577
 40
0.0002962102
 40
0.0004265511
 40
0.0005806058
 40
0.0007583804
 40
0.0011851135
 40
0.0017067841
 40
0.0023227221
 40
0.003031275
 40
0.0038307172
 40
0.0047193238
 40
0.0067571295
 40
0.0091305651
 40
0.0118249102
 40
0.0148253943
 40
0.018117145
 40
0.0216849896
 40
0.0255137195
 40
0.0338935694
 40
0.0431394415
 40
0.0531395262
 40
0.0638063558
 40
0.0750633853
 40
0.0868434481
 40
0.1117417389
 40
0.1381316286
 40
0.1657597638
 40
0.1944440476
 40
0.2240465924
 40
0.2544753326
 40
0.2856620522
 40
0.3175634047
 40
0.350148392
 40
0.3833987109
 40
0.4518489186
 40
0.5229143156
 40
0.5966234035
 40
0.6729822106
 40
0.751896185
 40
0.7922482448
 40
0.8331173768
 40
0.9160616411
 40
0.957969035
 40
1.0
 40
1.0
 40
1.0
 40
1.0
 10
10.3376923427
 20
7.6684093834
 30
0.0
 10
10.3376923386
 20
7.6684101584
 30
0.0
 10
10.3376942415
 20
7.6684128789
 30
0.0
 10
10.3376961958
 20
7.668419447
 30
0.0
 10
10.337701009
 20
7.6684300865
 30
0.0
 10
10.3377101898
 20
7.6684529909
 30
0.0
 10
10.3377265506
 20
7.6684922456
 30
0.0
 10
10.3377511581
 20
7.6685522779
 30
0.0
 10
10.3377829143
 20
7.6686294507
 30
0.0
 10
10.3378216413
 20
7.6687238061
 30
0.0
 10
10.3378673897
 20
7.6688353419
 30
0.0
 10
10.3379423961
 20
7.6690184375
 30
0.0
 10
10.3380535909
 20
7.669290332
 30
0.0
 10
10.3382077282
 20
7.6696681431
 30
0.0
 10
10.3383894126
 20
7.6701141081
 30
0.0
 10
10.3385985382
 20
7.6706271296
 30
0.0
 10
10.3388348383
 20
7.671205879
 30
0.0
 10
10.3392029629
 20
7.6721053144
 30
0.0
 10
10.3397287575
 20
7.6733838351
 30
0.0
 10
10.3404382622
 20
7.6750960836
 30
0.0
 10
10.3412494722
 20
7.6770379895
 30
0.0
 10
10.3421596926
 20
7.6791981176
 30
0.0
 10
10.343166164
 20
7.6815649193
 30
0.0
 10
10.3442661315
 20
7.684126708
 30
0.0
 10
10.3459037119
 20
7.6879019817
 30
0.0
 10
10.3481614725
 20
7.6930225906
 30
0.0
 10
10.3511279599
 20
7.6995897057
 30
0.0
 10
10.3544138219
 20
7.7066667066
 30
0.0
 10
10.358002158
 20
7.7141811247
 30
0.0
 10
10.3618796551
 20
7.7220713991
 30
0.0
 10
10.3675268436
 20
7.7332272373
 30
0.0
 10
10.3752400441
 20
7.7477600401
 30
0.0
 10
10.3853854385
 20
7.7656738528
 30
0.0
 10
10.3965506507
 20
7.7841353827
 30
0.0
 10
10.4087216323
 20
7.8029566369
 30
0.0
 10
10.4218972627
 20
7.8219849326
 30
0.0
 10
10.4360784952
 20
7.8410958369
 30
0.0
 10
10.4512756029
 20
7.8601825602
 30
0.0
 10
10.4674980568
 20
7.8791526316
 30
0.0
 10
10.4847619168
 20
7.8979195415
 30
0.0
 10
10.5094280535
 20
7.922798303
 30
0.0
 10
10.5430092846
 20
7.9529269373
 30
0.0
 10
10.5873595448
 20
7.986595536
 30
0.0
 10
10.6362254046
 20
8.0173880448
 30
0.0
 10
10.6895496869
 20
8.0444869342
 30
0.0
 10
10.737160565
 20
8.0630990185
 30
0.0
 10
10.7771220161
 20
8.0753134522
 30
0.0
 10
10.8186864332
 20
8.0856742899
 30
0.0
 10
10.8614311857
 20
8.0927592201
 30
0.0
 10
10.904829055
 20
8.0963383215
 30
0.0
 10
10.9267289653
 20
8.0969472662
 30
0.0
 10
10.9376923427
 20
8.0969485715
 30
0.0
  0
SPLINE
  5
292
100
AcDbEntity
  8
0
100
AcDbSpline
 62
9
  6
CONTINUOUS
 70
0
 71
3
 72
62
 73
58
 74
0
 42
0.0000001
 43
0.0000001
 44
0.0000000001
 40
0.0
 40
0.0
 40
0.0
 40
0.0
 40
0.0420308698
 40
0.0839381702
 40
0.1668822511
 40
0.2077512839
 40
0.248103257
 40
0.3270170495
 40
0.4033756939
 40
0.4770846275
 40
0.5481498827
 40
0.6165999361
 40
0.6498501951
 40
0.6824351442
 40
0.7143364401
 40
0.7455230835
 40
0.7759517632
 40
0.8055542731
 40
0.8342385242
 40
0.8618666218
 40
0.8752311728
 40
0.8882571194
 40
0.9009114642
 40
0.9131559627
 40
0.9249360418
 40
0.9361930748
 40
0.946859901
 40
0.956859995
 40
0.9661059162
 40
0.970411373
 40
0.9744858796
 40
0.9783146631
 40
0.9818825372
 40
0.9851742669
 40
0.9881746655
 40
0.9908689177
 40
0.9932423366
 40
0.9943041422
 40
0.9952802737
 40
0.9961689898
 40
0.9969685515
 40
0.9976772191
 40
0.9982932523
 40
0.998814984
 40
0.9990402327
 40
0.9992417409
 40
0.9994195156
 40
0.9995735641
 40
0.9997038934
 40
0.9998105106
 40
0.9998934228
 40
0.9999259917
 40
0.999952637
 40
0.9999733597
 40
0.9999881604
 40
0.9999970403
 40
1.0
 40
1.0
 40
1.0
 40
1.0
 10
10.9376923427
 20
8.0969485715
 30
0.0
 10
10.9486557083
 20
8.0969472087
 30
0.0
 10
10.9705555933
 20
8.0963383165
 30
0.0
 10
11.0139534285
 20
8.0927593029
 30
0.0
 10
11.0566981197
 20
8.085674299
 30
0.0
 10
11.0982625099
 20
8.0753135379
 30
0.0
 10
11.1382238777
 20
8.0630989915
 30
0.0
 10
11.1858347653
 20
8.0444870886
 30
0.0
 10
11.2391589897
 20
8.017388204
 30
0.0
 10
11.2880248287
 20
7.9865957609
 30
0.0
 10
11.3323750397
 20
7.9529271844
 30
0.0
 10
11.3659563095
 20
7.922798654
 30
0.0
 10
11.3906224434
 20
7.8979199221
 30
0.0
 10
11.407886264
 20
7.8791529894
 30
0.0
 10
11.4241087169
 20
7.8601829388
 30
0.0
 10
11.4393058613
 20
7.8410962698
 30
0.0
 10
11.4534870984
 20
7.8219853972
 30
0.0
 10
11.4666627569
 20
7.8029571003
 30
0.0
 10
11.4788336266
 20
7.7841358685
 30
0.0
 10
11.4882407238
 20
7.7685819248
 30
0.0
 10
11.4952685927
 20
7.7563690184
 30
0.0
 10
11.5002245874
 20
7.7474713319
 30
0.0
 10
11.5049200044
 20
7.7387640231
 30
0.0
 10
11.5093481374
 20
7.7302827971
 30
0.0
 10
11.513504823
 20
7.7220718767
 30
0.0
 10
11.5173822791
 20
7.7141815776
 30
0.0
 10
11.5209706507
 20
7.7066671591
 30
0.0
 10
11.5242565274
 20
7.6995901431
 30
0.0
 10
11.5267855218
 20
7.6939915533
 30
0.0
 10
11.5286490964
 20
7.6897886192
 30
0.0
 10
11.529927705
 20
7.6868720271
 30
0.0
 10
11.5311183921
 20
7.6841269855
 30
0.0
 10
11.5322183675
 20
7.6815651793
 30
0.0
 10
11.5332248477
 20
7.6791983998
 30
0.0
 10
11.5341350901
 20
7.6770383344
 30
0.0
 10
11.5349463305
 20
7.6750964937
 30
0.0
 10
11.5355583848
 20
7.6736194648
 30
0.0
 10
11.5359966642
 20
7.6725555409
 30
0.0
 10
11.5362865553
 20
7.6718493337
 30
0.0
 10
11.5365497822
 20
7.6712061245
 30
0.0
 10
11.5367860864
 20
7.6706272791
 30
0.0
 10
11.5369952164
 20
7.670114166
 30
0.0
 10
11.5371769055
 20
7.669668126
 30
0.0
 10
11.5373111945
 20
7.6693389334
 30
0.0
 10
11.5374048037
 20
7.6691099217
 30
0.0
 10
11.5374645255
 20
7.6689639825
 30
0.0
 10
11.537517266
 20
7.6688352519
 30
0.0
 10
11.5375630157
 20
7.6687237256
 30
0.0
 10
11.5376017542
 20
7.6686293722
 30
0.0
 10
11.5376334937
 20
7.6685522393
 30
0.0
 10
11.5376555158
 20
7.6684985957
 30
0.0
 10
11.537669685
 20
7.6684644298
 30
0.0
 10
11.5376775371
 20
7.6684449212
 30
0.0
 10
11.537683969
 20
7.6684305295
 30
0.0
 10
11.5376878299
 20
7.6684184697
 30
0.0
 10
11.5376914639
 20
7.668414422
 30
0.0
 10
11.5376916299
 20
7.6684091106
 30
0.0
 10
11.5376923427
 20
7.668409407
 30
0.0
  0
ENDSEC
  0
SECTION
  2
OBJECTS
  0
DICTIONARY
  5
C
100
AcDbDictionary
280
0
281
1
  3
ACAD_GROUP
350
D
  3
ACAD_MLINESTYLE
350
17
  3
ACAD_LAYOUT
350
1A
  3
ACAD_PLOTSETTINGS
350
19
  3
ACAD_PLOTSTYLENAME
350
E
  0
DICTIONARY
  5
D
102
{ACAD_REACTORS
330
C
102
}
100
AcDbDictionary
280
0
281
1
  0
ACDBDICTIONARYWDFLT
  5
E
102
{ACAD_REACTORS
330
C
102
}
100
AcDbDictionary
281
1
  3
Normal
350
F
100
AcDbDictionaryWithDefault
340
F
  0
DICTIONARY
  5
17
102
{ACAD_REACTORS
330
C
102
}
100
AcDbDictionary
280
0
281
1
  3
Standard
350
18
  0
DICTIONARY
  5
19
102
{ACAD_REACTORS
330
C
102
}
100
AcDbDictionary
281
1
  0
DICTIONARY
  5
1A
102
{ACAD_REACTORS
330
C
102
}
100
AcDbDictionary
281
1
  3
Model
350
293
  3
Layout1
350
294
  0
ACDBPLACEHOLDER
  5
F
102
{ACAD_REACTORS
330
E
102
}
  0
MLINESTYLE
  5
18
102
{ACAD_REACTORS
330
17
102
}
100
AcDbMlineStyle
  2
STANDARD
 70
0
  3

 62
256
 51
90.0
 52
90.0
 71
2
 49
0.5
 62
256
  6
BYLAYER
 49
-0.5
 62
256
  6
BYLAYER
  0
LAYOUT
  5
293
102
{ACAD_REACTORS
330
1A
102
}
100
AcDbPlotSettings
  1

  2
none_device
  4
ANSI_C_(22.00_x_17.00_Inches)
  6

 40
0.0
 41
0.0
 42
0.0
 43
0.0
 44
558.8
 45
431.8
 46
0.0
 47
0.0
 48
0.0
 49
0.0
140
0.0
141
0.0
142
1.0
143
1.0
 70
1024
 72
0
 73
0
 74
0
  7

 75
0
147
1.0
148
0.0
149
0.0
100
AcDbLayout
  1
Model
 70
0
 71
0
 10
0.0
 20
0.0
 11
22.0
 21
17.0
 12
0.0
 22
0.0
 32
0.0
 14
0.0
 24
0.0
 34
0.0
 15
0.0
 25
0.0
 35
0.0
146
0.0
 13
0.0
 23
0.0
 33
0.0
 16
1.0
 26
0.0
 36
0.0
 17
0.0
 27
1.0
 37
0.0
 76
0
330
205
345
0
346
0
  0
LAYOUT
  5
294
102
{ACAD_REACTORS
330
1A
102
}
100
AcDbPlotSettings
  1

  2
none_device
  4
ANSI_C_(22.00_x_17.00_Inches)
  6

 40
0.0
 41
0.0
 42
0.0
 43
0.0
 44
558.8
 45
431.8
 46
0.0
 47
0.0
 48
0.0
 49
0.0
140
0.0
141
0.0
142
1.0
143
1.0
 70
0
 72
0
 73
0
 74
0
  7

 75
0
147
1.0
148
0.0
149
0.0
100
AcDbLayout
  1
Layout1
 70
0
 71
1
 10
0.0
 20
0.0
 11
22.0
 21
17.0
 12
0.0
 22
0.0
 32
0.0
 14
0.0
 24
0.0
 34
0.0
 15
0.0
 25
0.0
 35
0.0
146
0.0
 13
0.0
 23
0.0
 33
0.0
 16
1.0
 26
0.0
 36
0.0
 17
0.0
 27
1.0
 37
0.0
 76
0
330
206
345
0
346
0
  0
ENDSEC
  0
EOF
