999
DXF file: E:\BT Custom\CADOUTPUT\_RIGHT.dxf
999
Pro/ENGINEER 2018400 by Parametric Technology Corporation
  0
SECTION
  2
HEADER
  9
$ACADVER
  1
AC1018
  9
$DWGCODEPAGE
  3
ANSI_1252
  9
$EXTMAX
 10
22.0
 20
17.0
 30
0.0
  9
$EXTMIN
 10
0.0
 20
0.0
 30
0.0
  9
$LIMMIN
 10
0.0
 20
0.0
  9
$LIMMAX
 10
22.0
 20
17.0
  9
$VIEWCTR
 10
11.0
 20
8.5
  9
$VIEWSIZE
 40
17.0
  9
$CLAYER
  8
0
  9
$LTSCALE
 40
1.21
  9
$CELTYPE
  6
BYLAYER
  9
$DIMSCALE
 40
1.0
  9
$DIMASZ
 40
0.1
  9
$DIMEXO
 40
0.0625
  9
$DIMDLI
 40
0.836
  9
$DIMEXE
 40
0.125
  9
$DIMCEN
 40
0.198
  9
$DIMLFAC
 40
1.0
  9
$DIMBLK
  1
_FILLED
  9
$DIMALT
 70
1
  9
$DIMALTD
 70
2
  9
$DIMALTTD
 70
2
  9
$DIMALTF
 40
25.4
  9
$DIMTXT
 40
0.08
  9
$DIMTOL
 70
1
  9
$DIMLIM
 70
0
  9
$DIMTFAC
 40
1.0
  9
$DIMTP
 40
0.001
  9
$DIMTM
 40
0.001
  9
$DIMGAP
 40
0.09
  9
$DIMDSEP
 70
46
  9
$AUNITS
 70
0
  9
$PDMODE
 70
3
  9
$PDSIZE
 40
0.06
  9
$HANDSEED
  5
2ED
  9
$TILEMODE
 70
1
  9
$MEASUREMENT
 70
0
  9
$INSUNITS
 70
1
  0
ENDSEC
  0
SECTION
  2
CLASSES
  0
CLASS
  1
ACDBDICTIONARYWDFLT
  2
AcDbDictionaryWithDefault
  3
AutoCAD 2000
 90
0
 91
1
280
0
281
0
  0
CLASS
  1
ACDBPLACEHOLDER
  2
AcDbPlaceHolder
  3
AutoCAD 2000
 90
0
 91
1
280
0
281
0
  0
CLASS
  1
LAYOUT
  2
AcDbLayout
  3
AutoCAD 2000
 90
0
 91
0
280
0
281
0
  0
ENDSEC
  0
SECTION
  2
TABLES
  0
TABLE
  2
VPORT
  5
8
100
AcDbSymbolTable
 70
2
  0
VPORT
  5
1F4
100
AcDbSymbolTableRecord
100
AcDbViewportTableRecord
  2
*ACTIVE
 70
0
 10
0.0
 20
0.0
 11
1.0
 21
1.0
 12
11.0
 22
8.5
 13
0.0
 23
0.0
 14
1.0
 24
1.0
 15
0.0
 25
0.0
 16
0.0
 26
0.0
 36
1.0
 17
0.0
 27
0.0
 37
0.0
 40
17.0
 41
1.2941176471
 42
50.0
 43
0.0
 44
0.0
 50
0.0
 51
0.0
 71
0
 72
100
 73
1
 74
1
 75
0
 76
0
 77
0
 78
0
  0
ENDTAB
  0
TABLE
  2
LTYPE
  5
5
100
AcDbSymbolTable
 70
6
  0
LTYPE
  5
14
100
AcDbSymbolTableRecord
100
AcDbLinetypeTableRecord
  2
BYBLOCK
 70
0
  3

 72
65
 73
0
 40
0.0
  0
LTYPE
  5
15
100
AcDbSymbolTableRecord
100
AcDbLinetypeTableRecord
  2
BYLAYER
 70
0
  3

 72
65
 73
0
 40
0.0
  0
LTYPE
  5
16
100
AcDbSymbolTableRecord
100
AcDbLinetypeTableRecord
  2
CONTINUOUS
 70
64
  3
Solid line
 72
65
 73
0
 40
0.0
  0
LTYPE
  5
1F5
100
AcDbSymbolTableRecord
100
AcDbLinetypeTableRecord
  2
CENTER
 70
64
  3
____ _ ____ _ ____ _ ____ _ ____ _ ____ _ ____
 72
65
 73
4
 40
0.6
 49
0.375
 74
0
 49
-0.075
 74
0
 49
0.075
 74
0
 49
-0.075
 74
0
  0
LTYPE
  5
1F6
100
AcDbSymbolTableRecord
100
AcDbLinetypeTableRecord
  2
HIDDEN
 70
64
  3
- - - - - - - - - - - - - - - - - - - -
 72
65
 73
2
 40
0.2
 49
0.1
 74
0
 49
-0.1
 74
0
  0
LTYPE
  5
1F7
100
AcDbSymbolTableRecord
100
AcDbLinetypeTableRecord
  2
PHANTOM
 70
64
  3
_____ _ _ _____ _ _ _____ _ _ _____
 72
65
 73
6
 40
0.8
 49
0.45
 74
0
 49
-0.05
 74
0
 49
0.1
 74
0
 49
-0.05
 74
0
 49
0.1
 74
0
 49
-0.05
 74
0
  0
LTYPE
  5
1F8
100
AcDbSymbolTableRecord
100
AcDbLinetypeTableRecord
  2
DOT
 70
64
  3
. . . . . . . . . . . . . . . . . . . .
 72
65
 73
2
 40
0.2
 49
0.1
 74
0
 49
-0.1
 74
0
  0
LTYPE
  5
1F9
100
AcDbSymbolTableRecord
100
AcDbLinetypeTableRecord
  2
DASHED
 70
64
  3
- - - - - - - - - - - - - - - - - - - -
 72
65
 73
2
 40
0.2
 49
0.1
 74
0
 49
-0.1
 74
0
  0
ENDTAB
  0
TABLE
  2
LAYER
  5
2
100
AcDbSymbolTable
 70
36
  0
LAYER
  5
10
100
AcDbSymbolTableRecord
100
AcDbLayerTableRecord
  2
0
 70
0
 62
7
  6
CONTINUOUS
370
-3
390
F
  0
LAYER
  5
1FA
100
AcDbSymbolTableRecord
100
AcDbLayerTableRecord
  2
DEFAULT_1
 70
0
 62
7
  6
CENTER
370
-3
390
F
  0
LAYER
  5
1FB
100
AcDbSymbolTableRecord
100
AcDbLayerTableRecord
  2
DEFAULT_2
 70
0
 62
8
  6
HIDDEN
370
-3
390
F
  0
LAYER
  5
1FC
100
AcDbSymbolTableRecord
100
AcDbLayerTableRecord
  2
DEFAULT_3
 70
0
 62
7
  6
PHANTOM
370
-3
390
F
  0
LAYER
  5
1FD
100
AcDbSymbolTableRecord
100
AcDbLayerTableRecord
  2
ALL_FEATURES
 70
0
 62
7
  6
CONTINUOUS
370
-3
390
F
  0
LAYER
  5
1FE
100
AcDbSymbolTableRecord
100
AcDbLayerTableRecord
  2
AXES_FEATURES
 70
0
 62
7
  6
CONTINUOUS
370
-3
390
F
  0
LAYER
  5
1FF
100
AcDbSymbolTableRecord
100
AcDbLayerTableRecord
  2
DEFAULT_COORDINATE_SYSTEM
 70
0
 62
7
  6
CONTINUOUS
370
-3
390
F
  0
LAYER
  5
200
100
AcDbSymbolTableRecord
100
AcDbLayerTableRecord
  2
DEFAULT_DATUM_AXES
 70
0
 62
7
  6
CONTINUOUS
370
-3
390
F
  0
LAYER
  5
201
100
AcDbSymbolTableRecord
100
AcDbLayerTableRecord
  2
DEFAULT_DATUM_PLANES
 70
0
 62
7
  6
CONTINUOUS
370
-3
390
F
  0
LAYER
  5
202
100
AcDbSymbolTableRecord
100
AcDbLayerTableRecord
  2
DIMENSIONS
 70
0
 62
7
  6
CONTINUOUS
370
-3
390
F
  0
ENDTAB
  0
TABLE
  2
STYLE
  5
3
100
AcDbSymbolTable
 70
1
  0
STYLE
  5
11
100
AcDbSymbolTableRecord
100
AcDbTextStyleTableRecord
  2
STANDARD
 70
0
 40
0.0
 41
0.8
 50
0.0
 71
0
 42
0.2
  3
txt
  4

  0
STYLE
  5
203
100
AcDbSymbolTableRecord
100
AcDbTextStyleTableRecord
  2
TEXTSTYLE_1
 70
0
 40
0.0
 41
0.8
 50
0.0
 71
0
 42
0.2
  3
gdt
  4

  0
ENDTAB
  0
TABLE
  2
VIEW
  5
6
100
AcDbSymbolTable
 70
0
  0
ENDTAB
  0
TABLE
  2
UCS
  5
7
100
AcDbSymbolTable
 70
0
  0
ENDTAB
  0
TABLE
  2
APPID
  5
9
100
AcDbSymbolTable
 70
1
  0
APPID
  5
204
100
AcDbSymbolTableRecord
100
AcDbRegAppTableRecord
  2
ACAD
 70
0
  0
ENDTAB
  0
TABLE
  2
BLOCK_RECORD
  5
1
100
AcDbSymbolTable
 70
0
  0
BLOCK_RECORD
  5
205
100
AcDbSymbolTableRecord
100
AcDbBlockTableRecord
  2
*Model_Space
  0
BLOCK_RECORD
  5
206
100
AcDbSymbolTableRecord
100
AcDbBlockTableRecord
  2
*Paper_Space
  0
BLOCK_RECORD
  5
207
100
AcDbSymbolTableRecord
100
AcDbBlockTableRecord
  2
_FILLED
  0
ENDTAB
  0
TABLE
  2
DIMSTYLE
  5
A
100
AcDbSymbolTable
 70
1
100
AcDbDimStyleTable
 71
0
  0
DIMSTYLE
105
208
100
AcDbSymbolTableRecord
100
AcDbDimStyleTableRecord
  2
STANDARD
 70
0
  3

  4

 40
1.0
 41
0.1
 42
0.0625
 43
0.38
 44
0.125
 45
0.0
 46
0.0
 47
0.001
 48
0.001
140
0.08
141
0.09
142
0.0
143
25.4
144
1.0
145
0.0
146
1.0
147
0.09
 71
1.0
 72
0.0
 73
1
 74
1
 75
0
 76
0
 77
0
 78
4
 79
1
170
1
171
2
172
0
173
0
174
0
175
0
176
0
177
0
178
0
270
2
179
3
271
3
272
3
273
2
274
2
275
0
280
0
281
0
282
0
283
1
284
4
285
0
286
0
287
3
288
0
340
11
278
46
341
207
342
207
343
207
344
207
  0
ENDTAB
  0
ENDSEC
  0
SECTION
  2
BLOCKS
  0
BLOCK
  5
20
100
AcDbEntity
  8
0
100
AcDbBlockBegin
  2
*Model_Space
 70
0
 10
0.0
 20
0.0
 30
0.0
  3
*Model_Space
  1

  0
ENDBLK
  5
21
100
AcDbEntity
  8
0
100
AcDbBlockEnd
  0
BLOCK
  5
1C
100
AcDbEntity
  8
0
100
AcDbBlockBegin
  2
*Paper_Space
 70
0
 10
0.0
 20
0.0
 30
0.0
  3
*Paper_Space
  1

  0
ENDBLK
  5
1D
100
AcDbEntity
  8
0
100
AcDbBlockEnd
  0
BLOCK
  5
209
100
AcDbEntity
  8
0
100
AcDbBlockBegin
  2
_FILLED
 70
64
 10
0.0
 20
0.0
  3
_FILLED
  1

  0
SOLID
  5
20A
100
AcDbEntity
  8
0
  6
BYBLOCK
 62
0
100
AcDbTrace
 10
0.0
 20
0.0
 11
-1.0
 21
0.2
 12
-1.0
 22
-0.2
 13
-1.0
 23
-0.2
  0
ENDBLK
  5
20B
100
AcDbEntity
  8
0
  6
BYBLOCK
 62
0
100
AcDbBlockEnd
  0
ENDSEC
  0
SECTION
  2
ENTITIES
  0
LINE
  5
20C
100
AcDbEntity
  8
0
100
AcDbLine
 62
7
  6
CONTINUOUS
 10
-2.8665165109
 20
12.2366708734
 11
-2.8665165109
 21
13.1566708734
  0
LINE
  5
20D
100
AcDbEntity
  8
0
100
AcDbLine
 62
7
  6
CONTINUOUS
 10
-2.7665165109
 20
12.2366708734
 11
-2.7665165109
 21
13.1566708734
  0
LINE
  5
20E
100
AcDbEntity
  8
0
100
AcDbLine
 62
7
  6
CONTINUOUS
 10
-2.7280165109
 20
10.2316708734
 11
-2.7280165109
 21
10.1556708734
  0
LINE
  5
20F
100
AcDbEntity
  8
0
100
AcDbLine
 62
7
  6
CONTINUOUS
 10
-2.7060165109
 20
12.0221708734
 11
-2.7060165109
 21
11.9106708734
  0
LINE
  5
210
100
AcDbEntity
  8
0
100
AcDbLine
 62
7
  6
CONTINUOUS
 10
-2.6180165109
 20
12.1166708734
 11
-2.6180165109
 21
12.2497396618
  0
LINE
  5
211
100
AcDbEntity
  8
0
100
AcDbLine
 62
7
  6
CONTINUOUS
 10
-2.6472852248
 20
11.8904091039
 11
-2.6858752014
 21
10.4167173511
  0
LINE
  5
212
100
AcDbEntity
  8
0
100
AcDbLine
 62
7
  6
CONTINUOUS
 10
-2.228747797
 20
11.8904091039
 11
-2.1901578203
 21
10.4167173511
  0
LINE
  5
213
100
AcDbEntity
  8
0
100
AcDbLine
 62
7
  6
CONTINUOUS
 10
-2.2580165109
 20
12.1166708734
 11
-2.2580165109
 21
12.2497396618
  0
LINE
  5
214
100
AcDbEntity
  8
0
100
AcDbLine
 62
7
  6
CONTINUOUS
 10
-2.1700165109
 20
12.0221708734
 11
-2.1700165109
 21
11.9106708734
  0
LINE
  5
215
100
AcDbEntity
  8
0
100
AcDbLine
 62
7
  6
CONTINUOUS
 10
-2.1480165109
 20
10.2316708734
 11
-2.1480165109
 21
10.1556708734
  0
LINE
  5
216
100
AcDbEntity
  8
0
100
AcDbLine
 62
9
  6
CONTINUOUS
 10
-2.0311175912
 20
13.1466708734
 11
-2.0311175912
 21
12.2466708734
  0
LINE
  5
217
100
AcDbEntity
  8
0
100
AcDbLine
 62
9
  6
CONTINUOUS
 10
-1.9865930193
 20
13.1739208734
 11
-1.9865930193
 21
12.2194208734
  0
LINE
  5
218
100
AcDbEntity
  8
0
100
AcDbLine
 62
9
  6
CONTINUOUS
 10
-1.9398420706
 20
13.2011212813
 11
-1.9398420706
 21
12.1922204655
  0
LINE
  5
219
100
AcDbEntity
  8
0
100
AcDbLine
 62
9
  6
CONTINUOUS
 10
-1.5192281091
 20
13.2846368541
 11
-1.5192281091
 21
12.1087048927
  0
LINE
  5
21A
100
AcDbEntity
  8
0
100
AcDbLine
 62
9
  6
CONTINUOUS
 10
-1.4875165109
 20
13.2916708734
 11
-1.4875165109
 21
12.1016708734
  0
LINE
  5
21B
100
AcDbEntity
  8
0
100
AcDbLine
 62
7
  6
CONTINUOUS
 10
-1.3965165109
 20
12.1016708734
 11
-1.3965165109
 21
13.2916708734
  0
LINE
  5
21C
100
AcDbEntity
  8
0
100
AcDbLine
 62
7
  6
CONTINUOUS
 10
-1.3635165109
 20
12.1466714159
 11
-1.3635165109
 21
13.2466703309
  0
LINE
  5
21D
100
AcDbEntity
  8
0
100
AcDbLine
 62
7
  6
CONTINUOUS
 10
-1.1635165109
 20
11.8466708734
 11
-1.1635165109
 21
12.0466708734
  0
LINE
  5
21E
100
AcDbEntity
  8
0
100
AcDbLine
 62
7
  6
CONTINUOUS
 10
-1.0760165109
 20
11.8466708734
 11
-1.0760165109
 21
11.6616708734
  0
LINE
  5
21F
100
AcDbEntity
  8
0
100
AcDbLine
 62
7
  6
CONTINUOUS
 10
-0.9797665109
 20
11.4916708734
 11
-0.9797665109
 21
11.4836708734
  0
LINE
  5
220
100
AcDbEntity
  8
0
100
AcDbLine
 62
7
  6
CONTINUOUS
 10
-0.2472665109
 20
11.4916708734
 11
-0.2472665109
 21
11.4836708734
  0
LINE
  5
221
100
AcDbEntity
  8
0
100
AcDbLine
 62
7
  6
CONTINUOUS
 10
-0.1510165109
 20
11.8466708734
 11
-0.1510165109
 21
11.6616708734
  0
LINE
  5
222
100
AcDbEntity
  8
0
100
AcDbLine
 62
7
  6
CONTINUOUS
 10
-0.0635165109
 20
11.8466708734
 11
-0.0635165109
 21
12.0466708734
  0
LINE
  5
223
100
AcDbEntity
  8
0
100
AcDbLine
 62
7
  6
CONTINUOUS
 10
0.7364834891
 20
12.1466714159
 11
0.7364834891
 21
13.2466703309
  0
LINE
  5
224
100
AcDbEntity
  8
0
100
AcDbLine
 62
7
  6
CONTINUOUS
 10
18.8999834891
 20
4.5366708734
 11
18.7199834891
 21
4.5366708734
  0
LINE
  5
225
100
AcDbEntity
  8
0
100
AcDbLine
 62
9
  6
CONTINUOUS
 10
19.0999834891
 20
4.5756708734
 11
18.5199834891
 21
4.5756708734
  0
LINE
  5
226
100
AcDbEntity
  8
0
100
AcDbLine
 62
9
  6
CONTINUOUS
 10
19.0999834891
 20
4.6516708734
 11
18.5199834891
 21
4.6516708734
  0
LINE
  5
227
100
AcDbEntity
  8
0
100
AcDbLine
 62
9
  6
CONTINUOUS
 10
19.0765335755
 20
4.7573830219
 11
18.5434334027
 21
4.7573830219
  0
LINE
  5
228
100
AcDbEntity
  8
0
100
AcDbLine
 62
9
  6
CONTINUOUS
 10
19.0578421797
 20
4.8367173511
 11
18.5621247986
 21
4.8367173511
  0
LINE
  5
229
100
AcDbEntity
  8
0
100
AcDbLine
 62
9
  6
CONTINUOUS
 10
18.6007147752
 20
6.3104091039
 11
19.019252203
 21
6.3104091039
  0
LINE
  5
22A
100
AcDbEntity
  8
0
100
AcDbLine
 62
7
  6
CONTINUOUS
 10
19.0679834891
 20
6.3206708734
 11
18.5519834891
 21
6.3206708734
  0
LINE
  5
22B
100
AcDbEntity
  8
0
100
AcDbLine
 62
9
  6
CONTINUOUS
 10
19.0779834891
 20
6.3306708734
 11
18.5419834891
 21
6.3306708734
  0
LINE
  5
22C
100
AcDbEntity
  8
0
100
AcDbLine
 62
9
  6
CONTINUOUS
 10
19.0779834891
 20
6.4421708734
 11
18.5419834891
 21
6.4421708734
  0
LINE
  5
22D
100
AcDbEntity
  8
0
100
AcDbLine
 62
7
  6
CONTINUOUS
 10
19.8764834891
 20
6.4541708734
 11
23.3164834891
 21
6.4541708734
  0
LINE
  5
22E
100
AcDbEntity
  8
0
100
AcDbLine
 62
7
  6
CONTINUOUS
 10
23.4314834891
 20
6.4642283472
 11
23.7164834891
 21
6.4642283472
  0
LINE
  5
22F
100
AcDbEntity
  8
0
100
AcDbLine
 62
7
  6
CONTINUOUS
 10
19.7604834891
 20
6.5216708734
 11
19.8514834891
 21
6.5216708734
  0
LINE
  5
230
100
AcDbEntity
  8
0
100
AcDbLine
 62
7
  6
CONTINUOUS
 10
18.6299834891
 20
6.5366708734
 11
18.9899834891
 21
6.5366708734
  0
LINE
  5
231
100
AcDbEntity
  8
0
100
AcDbLine
 62
7
  6
CONTINUOUS
 10
19.8764834891
 20
6.6016708734
 11
19.8514834891
 21
6.6016708734
  0
LINE
  5
232
100
AcDbEntity
  8
0
100
AcDbLine
 62
7
  6
CONTINUOUS
 10
18.4814834891
 20
6.6666708734
 11
18.6224834891
 21
6.6666708734
  0
LINE
  5
233
100
AcDbEntity
  8
0
100
AcDbLine
 62
7
  6
CONTINUOUS
 10
18.9974834891
 20
6.6666708734
 11
19.2168824088
 21
6.6666708734
  0
LINE
  5
234
100
AcDbEntity
  8
0
100
AcDbLine
 62
7
  6
CONTINUOUS
 10
9.1464834891
 20
13.1666708734
 11
9.1464834891
 21
12.2266708734
  0
LINE
  5
235
100
AcDbEntity
  8
0
100
AcDbLine
 62
7
  6
CONTINUOUS
 10
9.6064834891
 20
9.0666708734
 11
9.6064834891
 21
11.7866708734
  0
LINE
  5
236
100
AcDbEntity
  8
0
100
AcDbLine
 62
7
  6
CONTINUOUS
 10
9.6064834891
 20
11.8066708734
 11
9.6064834891
 21
12.1666708734
  0
LINE
  5
237
100
AcDbEntity
  8
0
100
AcDbLine
 62
7
  6
CONTINUOUS
 10
9.6064834891
 20
13.2266708734
 11
9.6064834891
 21
13.4631127347
  0
LINE
  5
238
100
AcDbEntity
  8
0
100
AcDbLine
 62
7
  6
CONTINUOUS
 10
9.7364834891
 20
11.7866708734
 11
9.7364834891
 21
11.8066708734
  0
LINE
  5
239
100
AcDbEntity
  8
0
100
AcDbLine
 62
7
  6
CONTINUOUS
 10
18.4814834891
 20
7.5666708734
 11
19.2168824088
 21
7.5666708734
  0
LINE
  5
23A
100
AcDbEntity
  8
0
100
AcDbLine
 62
7
  6
CONTINUOUS
 10
19.8514834891
 20
7.6316708734
 11
19.8764834891
 21
7.6316708734
  0
LINE
  5
23B
100
AcDbEntity
  8
0
100
AcDbLine
 62
7
  6
CONTINUOUS
 10
19.7604834891
 20
7.7116708734
 11
19.8514834891
 21
7.7116708734
  0
LINE
  5
23C
100
AcDbEntity
  8
0
100
AcDbLine
 62
7
  6
CONTINUOUS
 10
23.7164834891
 20
7.7791708734
 11
21.4364834891
 21
7.7791708734
  0
LINE
  5
23D
100
AcDbEntity
  8
0
100
AcDbLine
 62
7
  6
CONTINUOUS
 10
20.1164834891
 20
7.7791708734
 11
19.8764834891
 21
7.7791708734
  0
LINE
  5
23E
100
AcDbEntity
  8
0
100
AcDbLine
 62
7
  6
CONTINUOUS
 10
9.9910768968
 20
11.4866708734
 11
9.9910768968
 21
11.7866708734
  0
LINE
  5
23F
100
AcDbEntity
  8
0
100
AcDbLine
 62
7
  6
CONTINUOUS
 10
10.4218900814
 20
11.4866708734
 11
10.4218900814
 21
11.7866708734
  0
LINE
  5
240
100
AcDbEntity
  8
0
100
AcDbLine
 62
7
  6
CONTINUOUS
 10
10.6764834891
 20
11.7866708734
 11
10.6764834891
 21
11.8066708734
  0
LINE
  5
241
100
AcDbEntity
  8
0
100
AcDbLine
 62
7
  6
CONTINUOUS
 10
10.8064834891
 20
9.3066708734
 11
10.8064834891
 21
9.0666708734
  0
LINE
  5
242
100
AcDbEntity
  8
0
100
AcDbLine
 62
7
  6
CONTINUOUS
 10
10.8064834891
 20
10.3666708734
 11
10.8064834891
 21
11.7866708734
  0
LINE
  5
243
100
AcDbEntity
  8
0
100
AcDbLine
 62
7
  6
CONTINUOUS
 10
10.8064834891
 20
11.8066708734
 11
10.8064834891
 21
13.4631127347
  0
LINE
  5
244
100
AcDbEntity
  8
0
100
AcDbLine
 62
7
  6
CONTINUOUS
 10
20.5610768968
 20
8.6266708734
 11
20.9918900814
 21
8.6266708734
  0
LINE
  5
245
100
AcDbEntity
  8
0
100
AcDbLine
 62
7
  6
CONTINUOUS
 10
20.1764834891
 20
8.9266708734
 11
21.3764834891
 21
8.9266708734
  0
LINE
  5
246
100
AcDbEntity
  8
0
100
AcDbLine
 62
7
  6
CONTINUOUS
 10
20.1764834891
 20
8.9466708734
 11
21.3764834891
 21
8.9466708734
  0
LINE
  5
247
100
AcDbEntity
  8
0
100
AcDbLine
 62
7
  6
CONTINUOUS
 10
10.7864834891
 20
9.0466708734
 11
9.6264834891
 21
9.0466708734
  0
LINE
  5
248
100
AcDbEntity
  8
0
100
AcDbLine
 62
9
  6
CONTINUOUS
 10
10.8064834891
 20
9.0666708734
 11
9.6064834891
 21
9.0666708734
  0
LINE
  5
249
100
AcDbEntity
  8
0
100
AcDbLine
 62
7
  6
CONTINUOUS
 10
11.2664834891
 20
9.3666708734
 11
11.2664834891
 21
10.3066708734
  0
LINE
  5
24A
100
AcDbEntity
  8
0
100
AcDbLine
 62
7
  6
CONTINUOUS
 10
11.2664834891
 20
9.3666708734
 11
10.8664834891
 21
9.3666708734
  0
LINE
  5
24B
100
AcDbEntity
  8
0
100
AcDbLine
 62
7
  6
CONTINUOUS
 10
19.7164834891
 20
9.3666708734
 11
20.1164834891
 21
9.3666708734
  0
LINE
  5
24C
100
AcDbEntity
  8
0
100
AcDbLine
 62
7
  6
CONTINUOUS
 10
19.7164834891
 20
9.4616708734
 11
11.2664834891
 21
9.4616708734
  0
LINE
  5
24D
100
AcDbEntity
  8
0
100
AcDbLine
 62
7
  6
CONTINUOUS
 10
-2.3480165109
 20
10.1166708734
 11
-2.5280165109
 21
10.1166708734
  0
LINE
  5
24E
100
AcDbEntity
  8
0
100
AcDbLine
 62
9
  6
CONTINUOUS
 10
-2.1480165109
 20
10.1556708734
 11
-2.7280165109
 21
10.1556708734
  0
LINE
  5
24F
100
AcDbEntity
  8
0
100
AcDbLine
 62
7
  6
CONTINUOUS
 10
19.7164834891
 20
10.2116708734
 11
11.2664834891
 21
10.2116708734
  0
LINE
  5
250
100
AcDbEntity
  8
0
100
AcDbLine
 62
9
  6
CONTINUOUS
 10
-2.1480165109
 20
10.2316708734
 11
-2.7280165109
 21
10.2316708734
  0
LINE
  5
251
100
AcDbEntity
  8
0
100
AcDbLine
 62
7
  6
CONTINUOUS
 10
11.2664834891
 20
10.3066708734
 11
10.8664834891
 21
10.3066708734
  0
LINE
  5
252
100
AcDbEntity
  8
0
100
AcDbLine
 62
7
  6
CONTINUOUS
 10
19.7164834891
 20
10.3066708734
 11
20.1164834891
 21
10.3066708734
  0
LINE
  5
253
100
AcDbEntity
  8
0
100
AcDbLine
 62
9
  6
CONTINUOUS
 10
-2.1714664245
 20
10.3373830219
 11
-2.7045665973
 21
10.3373830219
  0
LINE
  5
254
100
AcDbEntity
  8
0
100
AcDbLine
 62
9
  6
CONTINUOUS
 10
-2.1901578203
 20
10.4167173511
 11
-2.6858752014
 21
10.4167173511
  0
LINE
  5
255
100
AcDbEntity
  8
0
100
AcDbLine
 62
9
  6
CONTINUOUS
 10
20.1764834891
 20
10.6031127347
 11
21.3764834891
 21
10.6031127347
  0
LINE
  5
256
100
AcDbEntity
  8
0
100
AcDbLine
 62
7
  6
CONTINUOUS
 10
20.1964834891
 20
10.6231127347
 11
21.3564834891
 21
10.6231127347
  0
LINE
  5
257
100
AcDbEntity
  8
0
100
AcDbLine
 62
7
  6
CONTINUOUS
 10
-0.2472670678
 20
11.4836708734
 11
-0.979765954
 21
11.4836708734
  0
LINE
  5
258
100
AcDbEntity
  8
0
100
AcDbLine
 62
7
  6
CONTINUOUS
 10
9.9910768968
 20
11.4866708734
 11
10.4218900814
 21
11.4866708734
  0
LINE
  5
259
100
AcDbEntity
  8
0
100
AcDbLine
 62
7
  6
CONTINUOUS
 10
-1.0316848957
 20
11.4916708734
 11
-0.195348126
 21
11.4916708734
  0
LINE
  5
25A
100
AcDbEntity
  8
0
100
AcDbLine
 62
9
  6
CONTINUOUS
 10
-1.0408045979
 20
11.4975683093
 11
-0.1862284238
 21
11.4975683093
  0
LINE
  5
25B
100
AcDbEntity
  8
0
100
AcDbLine
 62
9
  6
CONTINUOUS
 10
-0.1510165109
 20
11.6616708734
 11
-1.0760165109
 21
11.6616708734
  0
LINE
  5
25C
100
AcDbEntity
  8
0
100
AcDbLine
 62
7
  6
CONTINUOUS
 10
9.6064834891
 20
11.7866708734
 11
10.8064834891
 21
11.7866708734
  0
LINE
  5
25D
100
AcDbEntity
  8
0
100
AcDbLine
 62
7
  6
CONTINUOUS
 10
9.6064834891
 20
11.8066708734
 11
10.8064834891
 21
11.8066708734
  0
LINE
  5
25E
100
AcDbEntity
  8
0
100
AcDbLine
 62
7
  6
CONTINUOUS
 10
-1.1635165109
 20
11.8466708734
 11
-0.0635165109
 21
11.8466708734
  0
LINE
  5
25F
100
AcDbEntity
  8
0
100
AcDbLine
 62
9
  6
CONTINUOUS
 10
-2.6472852248
 20
11.8904091039
 11
-2.228747797
 21
11.8904091039
  0
LINE
  5
260
100
AcDbEntity
  8
0
100
AcDbLine
 62
7
  6
CONTINUOUS
 10
-2.1800165109
 20
11.9006708734
 11
-2.6960165109
 21
11.9006708734
  0
LINE
  5
261
100
AcDbEntity
  8
0
100
AcDbLine
 62
9
  6
CONTINUOUS
 10
-2.1700165109
 20
11.9106708734
 11
-2.7060165109
 21
11.9106708734
  0
LINE
  5
262
100
AcDbEntity
  8
0
100
AcDbLine
 62
9
  6
CONTINUOUS
 10
-2.1700165109
 20
12.0221708734
 11
-2.7060165109
 21
12.0221708734
  0
LINE
  5
263
100
AcDbEntity
  8
0
100
AcDbLine
 62
7
  6
CONTINUOUS
 10
-1.4875165109
 20
12.1016708734
 11
-1.3965165109
 21
12.1016708734
  0
LINE
  5
264
100
AcDbEntity
  8
0
100
AcDbLine
 62
7
  6
CONTINUOUS
 10
-2.6180165109
 20
12.1166708734
 11
-2.2580165109
 21
12.1166708734
  0
LINE
  5
265
100
AcDbEntity
  8
0
100
AcDbLine
 62
7
  6
CONTINUOUS
 10
0.7364834891
 20
12.1466708734
 11
0.0364832856
 21
12.1466708734
  0
LINE
  5
266
100
AcDbEntity
  8
0
100
AcDbLine
 62
7
  6
CONTINUOUS
 10
-1.2635163073
 20
12.1466708734
 11
-1.3635165109
 21
12.1466708734
  0
LINE
  5
267
100
AcDbEntity
  8
0
100
AcDbLine
 62
7
  6
CONTINUOUS
 10
-1.3635165109
 20
12.1816708734
 11
-1.3965165109
 21
12.1816708734
  0
LINE
  5
268
100
AcDbEntity
  8
0
100
AcDbLine
 62
7
  6
CONTINUOUS
 10
9.1464834891
 20
12.2266708734
 11
9.5464834891
 21
12.2266708734
  0
LINE
  5
269
100
AcDbEntity
  8
0
100
AcDbLine
 62
7
  6
CONTINUOUS
 10
-2.7665165109
 20
12.2466708734
 11
-2.6255165109
 21
12.2466708734
  0
LINE
  5
26A
100
AcDbEntity
  8
0
100
AcDbLine
 62
7
  6
CONTINUOUS
 10
-2.2505165109
 20
12.2466708734
 11
-2.0311175912
 21
12.2466708734
  0
LINE
  5
26B
100
AcDbEntity
  8
0
100
AcDbLine
 62
7
  6
CONTINUOUS
 10
9.1464834891
 20
12.3216708734
 11
0.7364834891
 21
12.3216708734
  0
LINE
  5
26C
100
AcDbEntity
  8
0
100
AcDbLine
 62
7
  6
CONTINUOUS
 10
9.1464834891
 20
13.0716708734
 11
0.7364834891
 21
13.0716708734
  0
LINE
  5
26D
100
AcDbEntity
  8
0
100
AcDbLine
 62
7
  6
CONTINUOUS
 10
-2.7665165109
 20
13.1466708734
 11
-2.0311175912
 21
13.1466708734
  0
LINE
  5
26E
100
AcDbEntity
  8
0
100
AcDbLine
 62
7
  6
CONTINUOUS
 10
9.1464834891
 20
13.1666708734
 11
9.5464834891
 21
13.1666708734
  0
LINE
  5
26F
100
AcDbEntity
  8
0
100
AcDbLine
 62
7
  6
CONTINUOUS
 10
-1.3965165109
 20
13.2116708734
 11
-1.3635165109
 21
13.2116708734
  0
LINE
  5
270
100
AcDbEntity
  8
0
100
AcDbLine
 62
7
  6
CONTINUOUS
 10
0.7364834891
 20
13.2466708734
 11
-1.3635165109
 21
13.2466708734
  0
LINE
  5
271
100
AcDbEntity
  8
0
100
AcDbLine
 62
7
  6
CONTINUOUS
 10
-1.4875165109
 20
13.2916708734
 11
-1.3965165109
 21
13.2916708734
  0
LINE
  5
272
100
AcDbEntity
  8
0
100
AcDbLine
 62
9
  6
CONTINUOUS
 10
9.6064834891
 20
13.4631127347
 11
10.8064834891
 21
13.4631127347
  0
LINE
  5
273
100
AcDbEntity
  8
0
100
AcDbLine
 62
7
  6
CONTINUOUS
 10
9.6264834891
 20
13.4831127347
 11
10.7864834891
 21
13.4831127347
  0
LINE
  5
274
100
AcDbEntity
  8
0
100
AcDbLine
 62
7
  6
CONTINUOUS
 10
18.3814834891
 20
6.6566708734
 11
18.3814834891
 21
7.5766708734
  0
LINE
  5
275
100
AcDbEntity
  8
0
100
AcDbLine
 62
7
  6
CONTINUOUS
 10
19.019252203
 20
6.3104091039
 11
19.0578421797
 21
4.8367173511
  0
LINE
  5
276
100
AcDbEntity
  8
0
100
AcDbLine
 62
7
  6
CONTINUOUS
 10
18.4814834891
 20
6.6566708734
 11
18.4814834891
 21
7.5766708734
  0
LINE
  5
277
100
AcDbEntity
  8
0
100
AcDbLine
 62
7
  6
CONTINUOUS
 10
18.5199834891
 20
4.6516708734
 11
18.5199834891
 21
4.5756708734
  0
LINE
  5
278
100
AcDbEntity
  8
0
100
AcDbLine
 62
7
  6
CONTINUOUS
 10
18.5419834891
 20
6.4421708734
 11
18.5419834891
 21
6.3306708734
  0
LINE
  5
279
100
AcDbEntity
  8
0
100
AcDbLine
 62
7
  6
CONTINUOUS
 10
18.6299834891
 20
6.5366708734
 11
18.6299834891
 21
6.6697396618
  0
LINE
  5
27A
100
AcDbEntity
  8
0
100
AcDbLine
 62
7
  6
CONTINUOUS
 10
18.9899834891
 20
6.5366708734
 11
18.9899834891
 21
6.6697396618
  0
LINE
  5
27B
100
AcDbEntity
  8
0
100
AcDbLine
 62
7
  6
CONTINUOUS
 10
19.0779834891
 20
6.4421708734
 11
19.0779834891
 21
6.3306708734
  0
LINE
  5
27C
100
AcDbEntity
  8
0
100
AcDbLine
 62
7
  6
CONTINUOUS
 10
19.0999834891
 20
4.6516708734
 11
19.0999834891
 21
4.5756708734
  0
LINE
  5
27D
100
AcDbEntity
  8
0
100
AcDbLine
 62
9
  6
CONTINUOUS
 10
19.2168824088
 20
7.5666708734
 11
19.2168824088
 21
6.6666708734
  0
LINE
  5
27E
100
AcDbEntity
  8
0
100
AcDbLine
 62
9
  6
CONTINUOUS
 10
19.2614069807
 20
7.5939208734
 11
19.2614069807
 21
6.6394208734
  0
LINE
  5
27F
100
AcDbEntity
  8
0
100
AcDbLine
 62
9
  6
CONTINUOUS
 10
19.3081579294
 20
7.6211212813
 11
19.3081579294
 21
6.6122204655
  0
LINE
  5
280
100
AcDbEntity
  8
0
100
AcDbLine
 62
7
  6
CONTINUOUS
 10
18.6007147752
 20
6.3104091039
 11
18.5621247986
 21
4.8367173511
  0
LINE
  5
281
100
AcDbEntity
  8
0
100
AcDbLine
 62
7
  6
CONTINUOUS
 10
19.7164834891
 20
10.3066708734
 11
19.7164834891
 21
9.3666708734
  0
LINE
  5
282
100
AcDbEntity
  8
0
100
AcDbLine
 62
9
  6
CONTINUOUS
 10
19.7287718909
 20
7.7046368541
 11
19.7287718909
 21
6.5287048927
  0
LINE
  5
283
100
AcDbEntity
  8
0
100
AcDbLine
 62
9
  6
CONTINUOUS
 10
19.7604834891
 20
7.7116708734
 11
19.7604834891
 21
6.5216708734
  0
LINE
  5
284
100
AcDbEntity
  8
0
100
AcDbLine
 62
7
  6
CONTINUOUS
 10
19.8514834891
 20
6.5216708734
 11
19.8514834891
 21
7.7116708734
  0
LINE
  5
285
100
AcDbEntity
  8
0
100
AcDbLine
 62
7
  6
CONTINUOUS
 10
19.8764834891
 20
7.7791708734
 11
19.8764834891
 21
6.4541708734
  0
LINE
  5
286
100
AcDbEntity
  8
0
100
AcDbLine
 62
7
  6
CONTINUOUS
 10
20.1764834891
 20
7.8391708734
 11
20.1764834891
 21
8.9266708734
  0
LINE
  5
287
100
AcDbEntity
  8
0
100
AcDbLine
 62
7
  6
CONTINUOUS
 10
20.1764834891
 20
8.9466708734
 11
20.1764834891
 21
9.3066708734
  0
LINE
  5
288
100
AcDbEntity
  8
0
100
AcDbLine
 62
7
  6
CONTINUOUS
 10
20.1764834891
 20
10.3666708734
 11
20.1764834891
 21
10.6031127347
  0
LINE
  5
289
100
AcDbEntity
  8
0
100
AcDbLine
 62
7
  6
CONTINUOUS
 10
20.3064834891
 20
8.9266708734
 11
20.3064834891
 21
8.9466708734
  0
LINE
  5
28A
100
AcDbEntity
  8
0
100
AcDbLine
 62
7
  6
CONTINUOUS
 10
20.5610768968
 20
8.6266708734
 11
20.5610768968
 21
8.9266708734
  0
LINE
  5
28B
100
AcDbEntity
  8
0
100
AcDbLine
 62
7
  6
CONTINUOUS
 10
20.9918900814
 20
8.6266708734
 11
20.9918900814
 21
8.9266708734
  0
LINE
  5
28C
100
AcDbEntity
  8
0
100
AcDbLine
 62
7
  6
CONTINUOUS
 10
21.2464834891
 20
8.9266708734
 11
21.2464834891
 21
8.9466708734
  0
LINE
  5
28D
100
AcDbEntity
  8
0
100
AcDbLine
 62
7
  6
CONTINUOUS
 10
21.3764834891
 20
7.8391708734
 11
21.3764834891
 21
8.9266708734
  0
LINE
  5
28E
100
AcDbEntity
  8
0
100
AcDbLine
 62
7
  6
CONTINUOUS
 10
21.3764834891
 20
8.9466708734
 11
21.3764834891
 21
10.6031127347
  0
LINE
  5
28F
100
AcDbEntity
  8
0
100
AcDbLine
 62
7
  6
CONTINUOUS
 10
23.7164834891
 20
8.3666708734
 11
23.7164834891
 21
5.8666714581
  0
LINE
  5
290
100
AcDbEntity
  8
0
100
AcDbLine
 62
9
  6
CONTINUOUS
 10
23.8424054667
 20
5.8245670443
 11
23.8424054667
 21
8.4087747025
  0
LINE
  5
291
100
AcDbEntity
  8
0
100
AcDbLine
 62
9
  6
CONTINUOUS
 10
23.9236507567
 20
5.8477221598
 11
23.9236507567
 21
8.385619587
  0
LINE
  5
292
100
AcDbEntity
  8
0
100
AcDbLine
 62
9
  6
CONTINUOUS
 10
24.0936431856
 20
5.6795133973
 11
24.0936431856
 21
8.5538283496
  0
LINE
  5
293
100
AcDbEntity
  8
0
100
AcDbLine
 62
7
  6
CONTINUOUS
 10
24.2864834891
 20
8.5166708734
 11
24.2864834891
 21
5.7166714277
  0
ARC
  5
294
100
AcDbEntity
  8
0
100
AcDbCircle
 62
7
  6
CONTINUOUS
 10
9.6264834891
 20
9.0666708734
 40
0.02
100
AcDbArc
 50
180.0
 51
270.0
  0
ARC
  5
295
100
AcDbEntity
  8
0
100
AcDbCircle
 62
7
  6
CONTINUOUS
 10
-1.899767288
 20
11.2931131239
 40
0.9
100
AcDbArc
 50
64.9871628475
 51
92.5520837091
  0
ARC
  5
296
100
AcDbEntity
  8
0
100
AcDbCircle
 62
7
  6
CONTINUOUS
 10
-1.899767288
 20
14.1002286229
 40
0.9
100
AcDbArc
 50
267.4479162909
 51
295.0128371525
  0
ARC
  5
297
100
AcDbEntity
  8
0
100
AcDbCircle
 62
7
  6
CONTINUOUS
 10
-0.5510165109
 20
11.6616708734
 40
0.4
100
AcDbArc
 50
335.779056891
 51
360.0
  0
ARC
  5
298
100
AcDbEntity
  8
0
100
AcDbCircle
 62
7
  6
CONTINUOUS
 10
-0.6760165109
 20
11.6616708734
 40
0.4
100
AcDbArc
 50
180.0
 51
204.220943109
  0
ARC
  5
299
100
AcDbEntity
  8
0
100
AcDbCircle
 62
7
  6
CONTINUOUS
 10
-2.4780165109
 20
10.2316708734
 40
0.25
100
AcDbArc
 50
154.9854377782
 51
180.0
  0
ARC
  5
29A
100
AcDbEntity
  8
0
100
AcDbCircle
 62
7
  6
CONTINUOUS
 10
-2.3980165109
 20
10.2316708734
 40
0.25
100
AcDbArc
 50
0.0
 51
25.0145622218
  0
ARC
  5
29B
100
AcDbEntity
  8
0
100
AcDbCircle
 62
7
  6
CONTINUOUS
 10
-2.8858066664
 20
10.4219527408
 40
0.2
100
AcDbArc
 50
334.9854377782
 51
358.5
  0
ARC
  5
29C
100
AcDbEntity
  8
0
100
AcDbCircle
 62
7
  6
CONTINUOUS
 10
-1.9902263553
 20
10.4219527408
 40
0.2
100
AcDbArc
 50
181.5
 51
205.0145622218
  0
ARC
  5
29D
100
AcDbEntity
  8
0
100
AcDbCircle
 62
7
  6
CONTINUOUS
 10
0.0364831427
 20
12.0466712198
 40
0.0999999467
100
AcDbArc
 50
89.9998015311
 51
180.000198469
  0
ARC
  5
29E
100
AcDbEntity
  8
0
100
AcDbCircle
 62
7
  6
CONTINUOUS
 10
-1.2635161646
 20
12.0466712197
 40
0.0999999467
100
AcDbArc
 50
359.9998015829
 51
90.0001984171
  0
ARC
  5
29F
100
AcDbEntity
  8
0
100
AcDbCircle
 62
7
  6
CONTINUOUS
 10
-2.6115165109
 20
12.0221708734
 40
0.0945
100
AcDbArc
 50
93.9361835155
 51
180.0
  0
ARC
  5
2A0
100
AcDbEntity
  8
0
100
AcDbCircle
 62
7
  6
CONTINUOUS
 10
-2.2645165109
 20
12.0221708734
 40
0.0945
100
AcDbArc
 50
0.0
 51
86.0638164845
  0
ARC
  5
2A1
100
AcDbEntity
  8
0
100
AcDbCircle
 62
7
  6
CONTINUOUS
 10
-1.4875165109
 20
12.1766708734
 40
0.075
100
AcDbArc
 50
244.9871628475
 51
270.0
  0
ARC
  5
2A2
100
AcDbEntity
  8
0
100
AcDbCircle
 62
7
  6
CONTINUOUS
 10
-1.4875165109
 20
13.2166708734
 40
0.075
100
AcDbArc
 50
90.0
 51
115.0128371525
  0
ARC
  5
2A3
100
AcDbEntity
  8
0
100
AcDbCircle
 62
7
  6
CONTINUOUS
 10
9.5464836632
 20
12.1666710684
 40
0.0599999779
100
AcDbArc
 50
359.9998137873
 51
90.0001662565
  0
ARC
  5
2A4
100
AcDbEntity
  8
0
100
AcDbCircle
 62
7
  6
CONTINUOUS
 10
9.5464836811
 20
13.226670659
 40
0.0599999757
100
AcDbArc
 50
269.9998167122
 51
0.0002047332
  0
ARC
  5
2A5
100
AcDbEntity
  8
0
100
AcDbCircle
 62
7
  6
CONTINUOUS
 10
-2.0311175912
 20
12.1966708734
 40
0.05
100
AcDbArc
 50
27.0649342288
 51
90.0
  0
ARC
  5
2A6
100
AcDbEntity
  8
0
100
AcDbCircle
 62
7
  6
CONTINUOUS
 10
-2.0311175912
 20
13.1966708734
 40
0.05
100
AcDbArc
 50
270.0
 51
332.9350657712
  0
ARC
  5
2A7
100
AcDbEntity
  8
0
100
AcDbCircle
 62
7
  6
CONTINUOUS
 10
-1.9420684475
 20
12.2421708734
 40
0.05
100
AcDbArc
 50
207.0649342288
 51
272.5520837091
  0
ARC
  5
2A8
100
AcDbEntity
  8
0
100
AcDbCircle
 62
7
  6
CONTINUOUS
 10
-1.9420684475
 20
13.1511708734
 40
0.05
100
AcDbArc
 50
87.4479162909
 51
152.9350657712
  0
ARC
  5
2A9
100
AcDbEntity
  8
0
100
AcDbCircle
 62
7
  6
CONTINUOUS
 10
-2.8165165109
 20
12.2366708734
 40
0.05
100
AcDbArc
 50
180.0
 51
360.0
  0
ARC
  5
2AA
100
AcDbEntity
  8
0
100
AcDbCircle
 62
7
  6
CONTINUOUS
 10
-2.8165165109
 20
13.1566708734
 40
0.05
100
AcDbArc
 50
0.0
 51
180.0
  0
ARC
  5
2AB
100
AcDbEntity
  8
0
100
AcDbCircle
 62
7
  6
CONTINUOUS
 10
9.6264834891
 20
13.4631127347
 40
0.02
100
AcDbArc
 50
90.0
 51
180.0
  0
ARC
  5
2AC
100
AcDbEntity
  8
0
100
AcDbCircle
 62
7
  6
CONTINUOUS
 10
-0.195348126
 20
11.5016708734
 40
0.01
100
AcDbArc
 50
270.0
 51
335.779056891
  0
ARC
  5
2AD
100
AcDbEntity
  8
0
100
AcDbCircle
 62
7
  6
CONTINUOUS
 10
-1.0316848957
 20
11.5016708734
 40
0.01
100
AcDbArc
 50
204.220943109
 51
270.0
  0
ARC
  5
2AE
100
AcDbEntity
  8
0
100
AcDbCircle
 62
7
  6
CONTINUOUS
 10
-2.657281798
 20
11.8906708734
 40
0.01
100
AcDbArc
 50
358.4999999994
 51
89.9999999986
  0
ARC
  5
2AF
100
AcDbEntity
  8
0
100
AcDbCircle
 62
7
  6
CONTINUOUS
 10
-2.2187512237
 20
11.8906708734
 40
0.01
100
AcDbArc
 50
90.0000000014
 51
181.5000000006
  0
ARC
  5
2B0
100
AcDbEntity
  8
0
100
AcDbCircle
 62
7
  6
CONTINUOUS
 10
-2.1800165109
 20
11.9106708734
 40
0.01
100
AcDbArc
 50
270.0
 51
360.0
  0
ARC
  5
2B1
100
AcDbEntity
  8
0
100
AcDbCircle
 62
7
  6
CONTINUOUS
 10
-2.6960165109
 20
11.9106708734
 40
0.01
100
AcDbArc
 50
180.0
 51
270.0
  0
ARC
  5
2B2
100
AcDbEntity
  8
0
100
AcDbCircle
 62
7
  6
CONTINUOUS
 10
19.348232712
 20
8.5202286229
 40
0.9
100
AcDbArc
 50
267.4479162909
 51
295.0128371525
  0
ARC
  5
2B3
100
AcDbEntity
  8
0
100
AcDbCircle
 62
7
  6
CONTINUOUS
 10
19.348232712
 20
5.7131131239
 40
0.9
100
AcDbArc
 50
64.9871628475
 51
92.5520837091
  0
ARC
  5
2B4
100
AcDbEntity
  8
0
100
AcDbCircle
 62
7
  6
CONTINUOUS
 10
23.8151222749
 20
8.6653007781
 40
0.3
100
AcDbArc
 50
291.2084217618
 51
338.1872302638
  0
ARC
  5
2B5
100
AcDbEntity
  8
0
100
AcDbCircle
 62
7
  6
CONTINUOUS
 10
23.8151222749
 20
5.5680409688
 40
0.3
100
AcDbArc
 50
21.8127697362
 51
68.7915782382
  0
ARC
  5
2B6
100
AcDbEntity
  8
0
100
AcDbCircle
 62
7
  6
CONTINUOUS
 10
18.8499834891
 20
4.6516708734
 40
0.25
100
AcDbArc
 50
0.0
 51
25.0145622218
  0
ARC
  5
2B7
100
AcDbEntity
  8
0
100
AcDbCircle
 62
7
  6
CONTINUOUS
 10
18.7699834891
 20
4.6516708734
 40
0.25
100
AcDbArc
 50
154.9854377782
 51
180.0
  0
ARC
  5
2B8
100
AcDbEntity
  8
0
100
AcDbCircle
 62
7
  6
CONTINUOUS
 10
19.2577736447
 20
4.8419527408
 40
0.2
100
AcDbArc
 50
181.5
 51
205.0145622218
  0
ARC
  5
2B9
100
AcDbEntity
  8
0
100
AcDbCircle
 62
7
  6
CONTINUOUS
 10
18.3621933336
 20
4.8419527408
 40
0.2
100
AcDbArc
 50
334.9854377782
 51
358.5
  0
ARC
  5
2BA
100
AcDbEntity
  8
0
100
AcDbCircle
 62
7
  6
CONTINUOUS
 10
24.1864834891
 20
8.5166708734
 40
0.1
100
AcDbArc
 50
0.0
 51
158.1872302638
  0
ARC
  5
2BB
100
AcDbEntity
  8
0
100
AcDbCircle
 62
7
  6
CONTINUOUS
 10
24.1864834891
 20
5.7166708734
 40
0.1
100
AcDbArc
 50
201.8127697362
 51
360.0
  0
ARC
  5
2BC
100
AcDbEntity
  8
0
100
AcDbCircle
 62
7
  6
CONTINUOUS
 10
18.9834834891
 20
6.4421708734
 40
0.0945
100
AcDbArc
 50
0.0
 51
86.0638164845
  0
ARC
  5
2BD
100
AcDbEntity
  8
0
100
AcDbCircle
 62
7
  6
CONTINUOUS
 10
18.6364834891
 20
6.4421708734
 40
0.0945
100
AcDbArc
 50
93.9361835155
 51
180.0
  0
ARC
  5
2BE
100
AcDbEntity
  8
0
100
AcDbCircle
 62
7
  6
CONTINUOUS
 10
19.7604834891
 20
7.6366708734
 40
0.075
100
AcDbArc
 50
90.0
 51
115.0128371525
  0
ARC
  5
2BF
100
AcDbEntity
  8
0
100
AcDbCircle
 62
7
  6
CONTINUOUS
 10
19.7604834891
 20
6.5966708734
 40
0.075
100
AcDbArc
 50
244.9871628475
 51
270.0
  0
ARC
  5
2C0
100
AcDbEntity
  8
0
100
AcDbCircle
 62
7
  6
CONTINUOUS
 10
23.7864834891
 20
8.3666708734
 40
0.07
100
AcDbArc
 50
36.9762032489
 51
180.0
  0
ARC
  5
2C1
100
AcDbEntity
  8
0
100
AcDbCircle
 62
7
  6
CONTINUOUS
 10
23.8983274443
 20
8.4508785316
 40
0.07
100
AcDbArc
 50
216.9762032489
 51
291.2084217618
  0
ARC
  5
2C2
100
AcDbEntity
  8
0
100
AcDbCircle
 62
7
  6
CONTINUOUS
 10
23.7864834891
 20
5.8666708734
 40
0.07
100
AcDbArc
 50
180.0
 51
323.0237967511
  0
ARC
  5
2C3
100
AcDbEntity
  8
0
100
AcDbCircle
 62
7
  6
CONTINUOUS
 10
23.8983274443
 20
5.7824632152
 40
0.07
100
AcDbArc
 50
68.7915782382
 51
143.0237967511
  0
ARC
  5
2C4
100
AcDbEntity
  8
0
100
AcDbCircle
 62
7
  6
CONTINUOUS
 10
20.1164836632
 20
9.3066710684
 40
0.0599999779
100
AcDbArc
 50
359.9998137873
 51
90.0001662565
  0
ARC
  5
2C5
100
AcDbEntity
  8
0
100
AcDbCircle
 62
7
  6
CONTINUOUS
 10
10.8664832969
 20
9.3066710881
 40
0.0599999757
100
AcDbArc
 50
89.9998164655
 51
180.0002050015
  0
ARC
  5
2C6
100
AcDbEntity
  8
0
100
AcDbCircle
 62
7
  6
CONTINUOUS
 10
21.43648292
 20
7.8391703264
 40
0.0599999483
100
AcDbArc
 50
179.9994776148
 51
270.0005435045
  0
ARC
  5
2C7
100
AcDbEntity
  8
0
100
AcDbCircle
 62
7
  6
CONTINUOUS
 10
20.116484138
 20
7.839170249
 40
0.059999941
100
AcDbArc
 50
269.999380419
 51
0.0005963077
  0
ARC
  5
2C8
100
AcDbEntity
  8
0
100
AcDbCircle
 62
7
  6
CONTINUOUS
 10
18.4314834891
 20
7.5766708734
 40
0.05
100
AcDbArc
 50
0.0
 51
180.0
  0
ARC
  5
2C9
100
AcDbEntity
  8
0
100
AcDbCircle
 62
7
  6
CONTINUOUS
 10
18.4314834891
 20
6.6566708734
 40
0.05
100
AcDbArc
 50
180.0
 51
360.0
  0
ARC
  5
2CA
100
AcDbEntity
  8
0
100
AcDbCircle
 62
7
  6
CONTINUOUS
 10
19.3059315525
 20
7.5711708734
 40
0.05
100
AcDbArc
 50
87.4479162909
 51
152.9350657712
  0
ARC
  5
2CB
100
AcDbEntity
  8
0
100
AcDbCircle
 62
7
  6
CONTINUOUS
 10
19.3059315525
 20
6.6621708734
 40
0.05
100
AcDbArc
 50
207.0649342288
 51
272.5520837091
  0
ARC
  5
2CC
100
AcDbEntity
  8
0
100
AcDbCircle
 62
7
  6
CONTINUOUS
 10
19.2168824088
 20
7.6166708734
 40
0.05
100
AcDbArc
 50
270.0
 51
332.9350657712
  0
ARC
  5
2CD
100
AcDbEntity
  8
0
100
AcDbCircle
 62
7
  6
CONTINUOUS
 10
19.2168824088
 20
6.6166708734
 40
0.05
100
AcDbArc
 50
27.0649342288
 51
90.0
  0
ARC
  5
2CE
100
AcDbEntity
  8
0
100
AcDbCircle
 62
7
  6
CONTINUOUS
 10
10.7864834891
 20
9.0666708734
 40
0.02
100
AcDbArc
 50
270.0
 51
360.0
  0
ARC
  5
2CF
100
AcDbEntity
  8
0
100
AcDbCircle
 62
7
  6
CONTINUOUS
 10
18.5519834891
 20
6.3306708734
 40
0.01
100
AcDbArc
 50
180.0
 51
270.0
  0
ARC
  5
2D0
100
AcDbEntity
  8
0
100
AcDbCircle
 62
7
  6
CONTINUOUS
 10
19.0679834891
 20
6.3306708734
 40
0.01
100
AcDbArc
 50
270.0
 51
360.0
  0
ARC
  5
2D1
100
AcDbEntity
  8
0
100
AcDbCircle
 62
7
  6
CONTINUOUS
 10
19.0292487763
 20
6.3106708734
 40
0.01
100
AcDbArc
 50
90.0000000014
 51
181.5000000006
  0
ARC
  5
2D2
100
AcDbEntity
  8
0
100
AcDbCircle
 62
7
  6
CONTINUOUS
 10
18.590718202
 20
6.3106708734
 40
0.01
100
AcDbArc
 50
358.4999999994
 51
89.9999999986
  0
ARC
  5
2D3
100
AcDbEntity
  8
0
100
AcDbCircle
 62
7
  6
CONTINUOUS
 10
10.8664833148
 20
10.3666706782
 40
0.0599999779
100
AcDbArc
 50
179.9998135444
 51
270.0001664793
  0
ARC
  5
2D4
100
AcDbEntity
  8
0
100
AcDbCircle
 62
7
  6
CONTINUOUS
 10
20.1164836811
 20
10.366670659
 40
0.0599999757
100
AcDbArc
 50
269.9998167122
 51
0.0002047332
  0
ARC
  5
2D5
100
AcDbEntity
  8
0
100
AcDbCircle
 62
7
  6
CONTINUOUS
 10
21.3564834891
 20
10.6031127347
 40
0.02
100
AcDbArc
 50
0.0
 51
90.0
  0
ARC
  5
2D6
100
AcDbEntity
  8
0
100
AcDbCircle
 62
7
  6
CONTINUOUS
 10
20.1964834891
 20
10.6031127347
 40
0.02
100
AcDbArc
 50
90.0
 51
180.0
  0
ARC
  5
2D7
100
AcDbEntity
  8
0
100
AcDbCircle
 62
7
  6
CONTINUOUS
 10
10.7864834891
 20
13.4631127347
 40
0.02
100
AcDbArc
 50
0.0
 51
90.0
  0
SPLINE
  5
2D8
100
AcDbEntity
  8
0
100
AcDbSpline
 62
7
  6
CONTINUOUS
 70
0
 71
3
 72
11
 73
7
 74
0
 42
0.0000001
 43
0.0000001
 44
0.0000000001
 40
0.0
 40
0.0
 40
0.0
 40
0.0
 40
0.076983526
 40
0.2946851364
 40
0.6185430647
 40
1.0
 40
1.0
 40
1.0
 40
1.0
 10
23.3164834891
 20
6.4541708734
 30
0.0
 10
23.3194053448
 20
6.4546780903
 30
0.0
 10
23.3306022859
 20
6.4565499187
 30
0.0
 10
23.3541973292
 20
6.4599107137
 30
0.0
 10
23.3896089922
 20
6.4633074349
 30
0.0
 10
23.4167888317
 20
6.4642283472
 30
0.0
 10
23.4314834891
 20
6.4642283472
 30
0.0
  0
SPLINE
  5
2D9
100
AcDbEntity
  8
0
100
AcDbSpline
 62
7
  6
CONTINUOUS
 70
0
 71
3
 72
25
 73
21
 74
0
 42
0.0000001
 43
0.0000001
 44
0.0000000001
 40
0.0
 40
0.0
 40
0.0
 40
0.0
 40
0.0404420591
 40
0.0883670651
 40
0.1514339874
 40
0.2269075841
 40
0.3121044147
 40
0.3574899804
 40
0.4042209303
 40
0.4518751165
 40
0.5
 40
0.5481248836
 40
0.5957790697
 40
0.6425100196
 40
0.6878955853
 40
0.7730924159
 40
0.8485660126
 40
0.9116329349
 40
0.9595579409
 40
1.0
 40
1.0
 40
1.0
 40
1.0
 10
18.6224834891
 20
6.6666708734
 30
0.0
 10
18.6272911899
 20
6.6686740297
 30
0.0
 10
18.6378458935
 20
6.6729328173
 30
0.0
 10
18.6561202048
 20
6.6797516666
 30
0.0
 10
18.6789118482
 20
6.687338804
 30
0.0
 10
18.7066788857
 20
6.6950892103
 30
0.0
 10
18.732662466
 20
6.7005994181
 30
0.0
 10
18.7552376822
 20
6.7040706662
 30
0.0
 10
18.7731322303
 20
6.7060705705
 30
0.0
 10
18.791449244
 20
6.7073134538
 30
0.0
 10
18.8099834891
 20
6.7077352166
 30
0.0
 10
18.8285177343
 20
6.7073134538
 30
0.0
 10
18.846834748
 20
6.7060705705
 30
0.0
 10
18.8647292961
 20
6.7040706662
 30
0.0
 10
18.8873045122
 20
6.7005994181
 30
0.0
 10
18.9132880926
 20
6.6950892103
 30
0.0
 10
18.94105513
 20
6.687338804
 30
0.0
 10
18.9638467735
 20
6.6797516666
 30
0.0
 10
18.9821210848
 20
6.6729328173
 30
0.0
 10
18.9926757884
 20
6.6686740297
 30
0.0
 10
18.9974834891
 20
6.6666708734
 30
0.0
  0
SPLINE
  5
2DA
100
AcDbEntity
  8
0
100
AcDbSpline
 62
7
  6
CONTINUOUS
 70
0
 71
3
 72
31
 73
27
 74
0
 42
0.0000001
 43
0.0000001
 44
0.0000000001
 40
0.0
 40
0.0
 40
0.0
 40
0.0
 40
0.1396440572
 40
0.2768322967
 40
0.3443455689
 40
0.4110235432
 40
0.4767653031
 40
0.541439661
 40
0.6048952688
 40
0.6669112822
 40
0.727247826
 40
0.7566870783
 40
0.7855710673
 40
0.8138478235
 40
0.8414562102
 40
0.8683443868
 40
0.8944574845
 40
0.9198410776
 40
0.9323301507
 40
0.9447694979
 40
0.9573080819
 40
0.9702224239
 40
0.9769668755
 40
0.984051671
 40
0.9916569674
 40
1.0
 40
1.0
 40
1.0
 40
1.0
 10
18.7199834891
 20
4.5366708734
 30
0.0
 10
18.7101020888
 20
4.5366708734
 30
0.0
 10
18.6905126829
 20
4.536811382
 30
0.0
 10
18.666152166
 20
4.5374258662
 30
0.0
 10
18.6469661165
 20
4.5382480471
 30
0.0
 10
18.6328407095
 20
4.539047916
 30
0.0
 10
18.6189299494
 20
4.5400576548
 30
0.0
 10
18.6052680499
 20
4.541314355
 30
0.0
 10
18.5918997997
 20
4.5428534859
 30
0.0
 10
18.578886395
 20
4.5447451284
 30
0.0
 10
18.5683182606
 20
4.5466861891
 30
0.0
 10
18.5601235927
 20
4.5485210834
 30
0.0
 10
18.5541871105
 20
4.5500454474
 30
0.0
 10
18.5484345714
 20
4.5517512803
 30
0.0
 10
18.5429005847
 20
4.5536772072
 30
0.0
 10
18.5376254765
 20
4.5558592389
 30
0.0
 10
18.5326792036
 20
4.5583836314
 30
0.0
 10
18.5288728229
 20
4.5608612718
 30
0.0
 10
18.5261289076
 20
4.5631363147
 30
0.0
 10
18.5242585098
 20
4.5650223126
 30
0.0
 10
18.522601052
 20
4.5671396095
 30
0.0
 10
18.521473175
 20
4.5691312558
 30
0.0
 10
18.5207512204
 20
4.5708830538
 30
0.0
 10
18.5203211224
 20
4.5723409404
 30
0.0
 10
18.5200433048
 20
4.5739506064
 30
0.0
 10
18.5199834891
 20
4.5750805093
 30
0.0
 10
18.5199834891
 20
4.5756708734
 30
0.0
  0
SPLINE
  5
2DB
100
AcDbEntity
  8
0
100
AcDbSpline
 62
7
  6
CONTINUOUS
 70
0
 71
3
 72
31
 73
27
 74
0
 42
0.0000001
 43
0.0000001
 44
0.0000000001
 40
0.0
 40
0.0
 40
0.0
 40
0.0
 40
0.1396440572
 40
0.2768322967
 40
0.3443455689
 40
0.4110235432
 40
0.4767653031
 40
0.541439661
 40
0.6048952688
 40
0.6669112822
 40
0.727247826
 40
0.7566870783
 40
0.7855710673
 40
0.8138478235
 40
0.8414562102
 40
0.8683443868
 40
0.8944574845
 40
0.9198410776
 40
0.9323301507
 40
0.9447694979
 40
0.9573080819
 40
0.9702224239
 40
0.9769668755
 40
0.984051671
 40
0.9916569674
 40
1.0
 40
1.0
 40
1.0
 40
1.0
 10
18.8999834891
 20
4.5366708734
 30
0.0
 10
18.9098648895
 20
4.5366708734
 30
0.0
 10
18.9294542954
 20
4.536811382
 30
0.0
 10
18.9538148123
 20
4.5374258662
 30
0.0
 10
18.9730008618
 20
4.5382480471
 30
0.0
 10
18.9871262688
 20
4.539047916
 30
0.0
 10
19.0010370289
 20
4.5400576548
 30
0.0
 10
19.0146989284
 20
4.541314355
 30
0.0
 10
19.0280671786
 20
4.5428534859
 30
0.0
 10
19.0410805833
 20
4.5447451284
 30
0.0
 10
19.0516487177
 20
4.5466861891
 30
0.0
 10
19.0598433855
 20
4.5485210834
 30
0.0
 10
19.0657798678
 20
4.5500454474
 30
0.0
 10
19.0715324068
 20
4.5517512803
 30
0.0
 10
19.0770663936
 20
4.5536772072
 30
0.0
 10
19.0823415017
 20
4.5558592389
 30
0.0
 10
19.0872877747
 20
4.5583836314
 30
0.0
 10
19.0910941554
 20
4.5608612718
 30
0.0
 10
19.0938380707
 20
4.5631363147
 30
0.0
 10
19.0957084684
 20
4.5650223126
 30
0.0
 10
19.0973659263
 20
4.5671396095
 30
0.0
 10
19.0984938032
 20
4.5691312558
 30
0.0
 10
19.0992157579
 20
4.5708830538
 30
0.0
 10
19.0996458559
 20
4.5723409404
 30
0.0
 10
19.0999236734
 20
4.5739506064
 30
0.0
 10
19.0999834891
 20
4.5750805093
 30
0.0
 10
19.0999834891
 20
4.5756708734
 30
0.0
  0
SPLINE
  5
2DC
100
AcDbEntity
  8
0
100
AcDbSpline
 62
7
  6
CONTINUOUS
 70
0
 71
3
 72
31
 73
27
 74
0
 42
0.0000001
 43
0.0000001
 44
0.0000000001
 40
0.0
 40
0.0
 40
0.0
 40
0.0
 40
0.1396440572
 40
0.2768322967
 40
0.3443455689
 40
0.4110235432
 40
0.4767653031
 40
0.541439661
 40
0.6048952688
 40
0.6669112822
 40
0.727247826
 40
0.7566870783
 40
0.7855710673
 40
0.8138478235
 40
0.8414562102
 40
0.8683443868
 40
0.8944574845
 40
0.9198410776
 40
0.9323301507
 40
0.9447694979
 40
0.9573080819
 40
0.9702224239
 40
0.9769668755
 40
0.984051671
 40
0.9916569674
 40
1.0
 40
1.0
 40
1.0
 40
1.0
 10
-2.3480165109
 20
10.1166708734
 30
0.0
 10
-2.3381351105
 20
10.1166708734
 30
0.0
 10
-2.3185457046
 20
10.116811382
 30
0.0
 10
-2.2941851877
 20
10.1174258662
 30
0.0
 10
-2.2749991382
 20
10.1182480471
 30
0.0
 10
-2.2608737312
 20
10.119047916
 30
0.0
 10
-2.2469629711
 20
10.1200576548
 30
0.0
 10
-2.2333010716
 20
10.121314355
 30
0.0
 10
-2.2199328214
 20
10.1228534859
 30
0.0
 10
-2.2069194167
 20
10.1247451284
 30
0.0
 10
-2.1963512823
 20
10.1266861891
 30
0.0
 10
-2.1881566145
 20
10.1285210834
 30
0.0
 10
-2.1822201322
 20
10.1300454474
 30
0.0
 10
-2.1764675932
 20
10.1317512803
 30
0.0
 10
-2.1709336064
 20
10.1336772072
 30
0.0
 10
-2.1656584983
 20
10.1358592389
 30
0.0
 10
-2.1607122253
 20
10.1383836314
 30
0.0
 10
-2.1569058446
 20
10.1408612718
 30
0.0
 10
-2.1541619293
 20
10.1431363147
 30
0.0
 10
-2.1522915316
 20
10.1450223126
 30
0.0
 10
-2.1506340737
 20
10.1471396095
 30
0.0
 10
-2.1495061968
 20
10.1491312558
 30
0.0
 10
-2.1487842421
 20
10.1508830538
 30
0.0
 10
-2.1483541441
 20
10.1523409404
 30
0.0
 10
-2.1480763266
 20
10.1539506064
 30
0.0
 10
-2.1480165109
 20
10.1550805093
 30
0.0
 10
-2.1480165109
 20
10.1556708734
 30
0.0
  0
SPLINE
  5
2DD
100
AcDbEntity
  8
0
100
AcDbSpline
 62
7
  6
CONTINUOUS
 70
0
 71
3
 72
31
 73
27
 74
0
 42
0.0000001
 43
0.0000001
 44
0.0000000001
 40
0.0
 40
0.0
 40
0.0
 40
0.0
 40
0.1396440572
 40
0.2768322967
 40
0.3443455689
 40
0.4110235432
 40
0.4767653031
 40
0.541439661
 40
0.6048952688
 40
0.6669112822
 40
0.727247826
 40
0.7566870783
 40
0.7855710673
 40
0.8138478235
 40
0.8414562102
 40
0.8683443868
 40
0.8944574845
 40
0.9198410776
 40
0.9323301507
 40
0.9447694979
 40
0.9573080819
 40
0.9702224239
 40
0.9769668755
 40
0.984051671
 40
0.9916569674
 40
1.0
 40
1.0
 40
1.0
 40
1.0
 10
-2.5280165109
 20
10.1166708734
 30
0.0
 10
-2.5378979112
 20
10.1166708734
 30
0.0
 10
-2.5574873171
 20
10.116811382
 30
0.0
 10
-2.581847834
 20
10.1174258662
 30
0.0
 10
-2.6010338835
 20
10.1182480471
 30
0.0
 10
-2.6151592905
 20
10.119047916
 30
0.0
 10
-2.6290700506
 20
10.1200576548
 30
0.0
 10
-2.6427319501
 20
10.121314355
 30
0.0
 10
-2.6561002003
 20
10.1228534859
 30
0.0
 10
-2.669113605
 20
10.1247451284
 30
0.0
 10
-2.6796817394
 20
10.1266861891
 30
0.0
 10
-2.6878764073
 20
10.1285210834
 30
0.0
 10
-2.6938128895
 20
10.1300454474
 30
0.0
 10
-2.6995654286
 20
10.1317512803
 30
0.0
 10
-2.7050994153
 20
10.1336772072
 30
0.0
 10
-2.7103745235
 20
10.1358592389
 30
0.0
 10
-2.7153207964
 20
10.1383836314
 30
0.0
 10
-2.7191271771
 20
10.1408612718
 30
0.0
 10
-2.7218710924
 20
10.1431363147
 30
0.0
 10
-2.7237414902
 20
10.1450223126
 30
0.0
 10
-2.725398948
 20
10.1471396095
 30
0.0
 10
-2.726526825
 20
10.1491312558
 30
0.0
 10
-2.7272487796
 20
10.1508830538
 30
0.0
 10
-2.7276788776
 20
10.1523409404
 30
0.0
 10
-2.7279566952
 20
10.1539506064
 30
0.0
 10
-2.7280165109
 20
10.1550805093
 30
0.0
 10
-2.7280165109
 20
10.1556708734
 30
0.0
  0
SPLINE
  5
2DE
100
AcDbEntity
  8
0
100
AcDbSpline
 62
7
  6
CONTINUOUS
 70
0
 71
3
 72
25
 73
21
 74
0
 42
0.0000001
 43
0.0000001
 44
0.0000000001
 40
0.0
 40
0.0
 40
0.0
 40
0.0
 40
0.0404420591
 40
0.0883670651
 40
0.1514339874
 40
0.2269075841
 40
0.3121044147
 40
0.3574899804
 40
0.4042209303
 40
0.4518751165
 40
0.5
 40
0.5481248836
 40
0.5957790697
 40
0.6425100196
 40
0.6878955853
 40
0.7730924159
 40
0.8485660126
 40
0.9116329349
 40
0.9595579409
 40
1.0
 40
1.0
 40
1.0
 40
1.0
 10
-2.6255165109
 20
12.2466708734
 30
0.0
 10
-2.6207088101
 20
12.2486740297
 30
0.0
 10
-2.6101541065
 20
12.2529328173
 30
0.0
 10
-2.5918797952
 20
12.2597516666
 30
0.0
 10
-2.5690881518
 20
12.267338804
 30
0.0
 10
-2.5413211143
 20
12.2750892103
 30
0.0
 10
-2.515337534
 20
12.2805994181
 30
0.0
 10
-2.4927623178
 20
12.2840706662
 30
0.0
 10
-2.4748677697
 20
12.2860705705
 30
0.0
 10
-2.456550756
 20
12.2873134538
 30
0.0
 10
-2.4380165109
 20
12.2877352166
 30
0.0
 10
-2.4194822657
 20
12.2873134538
 30
0.0
 10
-2.401165252
 20
12.2860705705
 30
0.0
 10
-2.3832707039
 20
12.2840706662
 30
0.0
 10
-2.3606954878
 20
12.2805994181
 30
0.0
 10
-2.3347119074
 20
12.2750892103
 30
0.0
 10
-2.30694487
 20
12.267338804
 30
0.0
 10
-2.2841532265
 20
12.2597516666
 30
0.0
 10
-2.2658789152
 20
12.2529328173
 30
0.0
 10
-2.2553242116
 20
12.2486740297
 30
0.0
 10
-2.2505165109
 20
12.2466708734
 30
0.0
  0
SPLINE
  5
2DF
100
AcDbEntity
  8
0
100
AcDbSpline
 62
9
  6
CONTINUOUS
 70
0
 71
3
 72
107
 73
103
 74
0
 42
0.0000001
 43
0.0000001
 44
0.0000000001
 40
0.0
 40
0.0
 40
0.0
 40
0.0
 40
0.0000033092
 40
0.0000130358
 40
0.0000291752
 40
0.0000517229
 40
0.0000806741
 40
0.0001160243
 40
0.0002059029
 40
0.0003213215
 40
0.0004622429
 40
0.0006286299
 40
0.0008204455
 40
0.0012802131
 40
0.0018411975
 40
0.0025028874
 40
0.0032647399
 40
0.0041262119
 40
0.0050867603
 40
0.0061457227
 40
0.0073020833
 40
0.0099026764
 40
0.0128798693
 40
0.016224466
 40
0.0199267692
 40
0.023976816
 40
0.0283633275
 40
0.0330745937
 40
0.0380989883
 40
0.0490414246
 40
0.0610988448
 40
0.074178938
 40
0.0881954001
 40
0.1030671803
 40
0.1187177073
 40
0.1350773165
 40
0.1696784735
 40
0.2064284403
 40
0.2449743825
 40
0.264826766
 40
0.285023302
 40
0.3055369264
 40
0.3263396996
 40
0.3474058254
 40
0.3687125917
 40
0.3902341685
 40
0.4119428512
 40
0.4338097015
 40
0.4558007117
 40
0.4668317975
 40
0.4778791831
 40
0.4999999962
 40
0.5221208083
 40
0.5331681956
 40
0.5441992838
 40
0.5661902919
 40
0.5880571386
 40
0.6097658223
 40
0.6312874064
 40
0.6525941719
 40
0.6736602873
 40
0.6944630576
 40
0.7149766932
 40
0.7351732529
 40
0.7550256432
 40
0.7935715383
 40
0.8303215517
 40
0.864922667
 40
0.8812822983
 40
0.8969328277
 40
0.9118045896
 40
0.9258210572
 40
0.9389011657
 40
0.9509585842
 40
0.9619009962
 40
0.9669253839
 40
0.971636657
 40
0.9760231836
 40
0.9800732423
 40
0.9837755475
 40
0.9871201438
 40
0.9900973437
 40
0.9926979459
 40
0.9938543052
 40
0.9949132586
 40
0.9958737886
 40
0.9967352363
 40
0.9974970641
 40
0.9981587344
 40
0.9987197094
 40
0.9991794822
 40
0.9993713048
 40
0.9995377009
 40
0.9996786326
 40
0.9997940621
 40
0.9998839515
 40
0.9999193068
 40
0.9999482628
 40
0.9999708149
 40
0.9999869582
 40
0.9999966881
 40
1.0
 40
1.0
 40
1.0
 40
1.0
 10
20.1764834891
 20
9.3066708734
 30
0.0
 10
20.1764838029
 20
9.3066721416
 30
0.0
 10
20.1764878377
 20
9.306675856
 30
0.0
 10
20.1764935982
 20
9.3066856355
 30
0.0
 10
20.1765053724
 20
9.3067008598
 30
0.0
 10
20.1765208094
 20
9.306722582
 30
0.0
 10
20.1765410542
 20
9.3067502797
 30
0.0
 10
20.1765767946
 20
9.3067995362
 30
0.0
 10
20.1766327075
 20
9.306876351
 30
0.0
 10
20.1767131276
 20
9.3069868646
 30
0.0
 10
20.1768113736
 20
9.3071217657
 30
0.0
 10
20.1769274025
 20
9.3072810249
 30
0.0
 10
20.1771176059
 20
9.3075419823
 30
0.0
 10
20.1773996777
 20
9.3079287459
 30
0.0
 10
20.1777912088
 20
9.3084652687
 30
0.0
 10
20.1782530085
 20
9.3090981477
 30
0.0
 10
20.1787845695
 20
9.3098269726
 30
0.0
 10
20.1793853663
 20
9.3106513306
 30
0.0
 10
20.180054845
 20
9.3115707708
 30
0.0
 10
20.1807923528
 20
9.3125846837
 30
0.0
 10
20.1819100273
 20
9.3141226893
 30
0.0
 10
20.1834714523
 20
9.3162743385
 30
0.0
 10
20.1855381249
 20
9.3191267036
 30
0.0
 10
20.1878570669
 20
9.3223333828
 30
0.0
 10
20.1904199687
 20
9.3258863212
 30
0.0
 10
20.1932181719
 20
9.3297766952
 30
0.0
 10
20.1962428218
 20
9.3339948373
 30
0.0
 10
20.1994847467
 20
9.3385304949
 30
0.0
 10
20.2042209346
 20
9.3451793952
 30
0.0
 10
20.2106137784
 20
9.3542088549
 30
0.0
 10
20.218792405
 20
9.3658704335
 30
0.0
 10
20.2276058815
 20
9.3785688389
 30
0.0
 10
20.2369750593
 20
9.3922337075
 30
0.0
 10
20.2468223806
 20
9.4068006831
 30
0.0
 10
20.257076061
 20
9.4222090024
 30
0.0
 10
20.2714638949
 20
9.4442209026
 30
0.0
 10
20.2899879577
 20
9.4734789728
 30
0.0
 10
20.3123351925
 20
9.5106715008
 30
0.0
 10
20.3306880086
 20
9.5434549206
 30
0.0
 10
20.3450710644
 20
9.5709496993
 30
0.0
 10
20.3556815771
 20
9.5923777162
 30
0.0
 10
20.3659064105
 20
9.6144074032
 30
0.0
 10
20.3756410922
 20
9.6370330939
 30
0.0
 10
20.3847655582
 20
9.6602497269
 30
0.0
 10
20.3931291611
 20
9.6840537392
 30
0.0
 10
20.4005912104
 20
9.7084224152
 30
0.0
 10
20.4070060093
 20
9.7333181309
 30
0.0
 10
20.4121947478
 20
9.7586888161
 30
0.0
 10
20.4153879179
 20
9.7801336401
 30
0.0
 10
20.4172106296
 20
9.7974378325
 30
0.0
 10
20.4185225007
 20
9.8148397286
 30
0.0
 10
20.419177131
 20
9.8366708673
 30
0.0
 10
20.4185224531
 20
9.8585020039
 30
0.0
 10
20.4172106012
 20
9.8759039022
 30
0.0
 10
20.415387947
 20
9.8932081013
 30
0.0
 10
20.412194788
 20
9.9146529279
 30
0.0
 10
20.407005968
 20
9.9400235943
 30
0.0
 10
20.4005911799
 20
9.964919313
 30
0.0
 10
20.3931291854
 20
9.9892880089
 30
0.0
 10
20.3847655916
 20
10.0130920242
 30
0.0
 10
20.3756410464
 20
10.0363086204
 30
0.0
 10
20.3659063388
 20
10.0589342981
 30
0.0
 10
20.3556815423
 20
10.0809640156
 30
0.0
 10
20.3450711005
 20
10.1023920855
 30
0.0
 10
20.330688106
 20
10.1298868912
 30
0.0
 10
20.312335049
 20
10.1626701766
 30
0.0
 10
20.289988096
 20
10.1998628537
 30
0.0
 10
20.2714638296
 20
10.2291208094
 30
0.0
 10
20.2570760765
 20
10.2511327534
 30
0.0
 10
20.2468224042
 20
10.2665410815
 30
0.0
 10
20.2369750438
 20
10.2811080257
 30
0.0
 10
20.2276058755
 20
10.2947729017
 30
0.0
 10
20.2187924176
 20
10.3074713293
 30
0.0
 10
20.210613793
 20
10.3191329042
 30
0.0
 10
20.2042209322
 20
10.328162336
 30
0.0
 10
20.1994847387
 20
10.3348112206
 30
0.0
 10
20.1962428164
 20
10.3393468874
 30
0.0
 10
20.1932181727
 20
10.3435650503
 30
0.0
 10
20.1904199744
 20
10.3474554419
 30
0.0
 10
20.1878570702
 20
10.3510083851
 30
0.0
 10
20.1855381237
 20
10.3542150652
 30
0.0
 10
20.183471452
 20
10.3570674388
 30
0.0
 10
20.181910032
 20
10.3592190988
 30
0.0
 10
20.1807923571
 20
10.3607571034
 30
0.0
 10
20.1800548502
 20
10.3617710029
 30
0.0
 10
20.1793853699
 20
10.3626904168
 30
0.0
 10
20.1787845708
 20
10.3635147402
 30
0.0
 10
20.1782530074
 20
10.3642435299
 30
0.0
 10
20.1777912054
 20
10.3648763809
 30
0.0
 10
20.1773996722
 20
10.3654128906
 30
0.0
 10
20.1771176033
 20
10.3657996577
 30
0.0
 10
20.1769274026
 20
10.3660606275
 30
0.0
 10
20.1768113745
 20
10.3662199
 30
0.0
 10
20.176713129
 20
10.3663548164
 30
0.0
 10
20.1766327092
 20
10.3664653459
 30
0.0
 10
20.1765767968
 20
10.3665421741
 30
0.0
 10
20.1765410563
 20
10.3665914406
 30
0.0
 10
20.1765208118
 20
10.3666191453
 30
0.0
 10
20.1765053732
 20
10.3666408732
 30
0.0
 10
20.1764936012
 20
10.3666561037
 30
0.0
 10
20.1764878354
 20
10.3666658859
 30
0.0
 10
20.1764838046
 20
10.3666696046
 30
0.0
 10
20.1764834891
 20
10.3666708734
 30
0.0
  0
LINE
  5
2E0
100
AcDbEntity
  8
0
100
AcDbLine
 62
9
  6
CONTINUOUS
 10
-0.6135165109
 20
12.6966708734
 11
-1.1635165107
 21
12.0466708723
  0
LINE
  5
2E1
100
AcDbEntity
  8
0
100
AcDbLine
 62
9
  6
CONTINUOUS
 10
-0.0635165109
 20
12.0466708734
 11
-0.6135165109
 21
12.6966708734
  0
SPLINE
  5
2E2
100
AcDbEntity
  8
0
100
AcDbSpline
 62
9
  6
CONTINUOUS
 70
0
 71
3
 72
119
 73
115
 74
0
 42
0.0000001
 43
0.0000001
 44
0.0000000001
 40
0.0
 40
0.0
 40
0.0
 40
0.0
 40
0.000003504
 40
0.0000136622
 40
0.0000304698
 40
0.0000539218
 40
0.0000840131
 40
0.0001207388
 40
0.0002140731
 40
0.0003338842
 40
0.0004801319
 40
0.0006527759
 40
0.0008517759
 40
0.0013286782
 40
0.001910411
 40
0.0025964473
 40
0.0033862557
 40
0.0042793048
 40
0.0052749587
 40
0.0063721398
 40
0.0075696537
 40
0.0102609021
 40
0.0133389358
 40
0.0167934911
 40
0.0206140184
 40
0.0247884485
 40
0.0293040606
 40
0.0341480867
 40
0.0393076932
 40
0.0505224554
 40
0.0628468234
 40
0.076182122
 40
0.0904344808
 40
0.1055175335
 40
0.1213518252
 40
0.1378641054
 40
0.1549888891
 40
0.1726664138
 40
0.2094720052
 40
0.2479158253
 40
0.2877051912
 40
0.3080302082
 40
0.3286075295
 40
0.3389845523
 40
0.3494167937
 40
0.3599022175
 40
0.3704390186
 40
0.3916547323
 40
0.413049429
 40
0.4238109581
 40
0.4346103775
 40
0.4454458651
 40
0.4563131309
 40
0.4672080524
 40
0.4781253944
 40
0.4835907712
 40
0.4890591613
 40
0.5000000011
 40
0.5109408398
 40
0.5164092318
 40
0.521874611
 40
0.5327919482
 40
0.5436868682
 40
0.554554139
 40
0.565389625
 40
0.5761890432
 40
0.5869505727
 40
0.6083452697
 40
0.6295609835
 40
0.6400977839
 40
0.6505832076
 40
0.6610154491
 40
0.6713924723
 40
0.6919697944
 40
0.7122948109
 40
0.7520841762
 40
0.7905279991
 40
0.8273335827
 40
0.8450111123
 40
0.8621358978
 40
0.8786481767
 40
0.8944824677
 40
0.9095655188
 40
0.9238178766
 40
0.9371531793
 40
0.9494775427
 40
0.9606923018
 40
0.9658519171
 40
0.9706959506
 40
0.9752115593
 40
0.9793859786
 40
0.9832064999
 40
0.9866610597
 40
0.9897390994
 40
0.9924303467
 40
0.9936278579
 40
0.994725036
 40
0.9957206877
 40
0.996613736
 40
0.9974035449
 40
0.9980895831
 40
0.9986713192
 40
0.9991482261
 40
0.9993472286
 40
0.9995198749
 40
0.9996661243
 40
0.9997859364
 40
0.9998792706
 40
0.9999159958
 40
0.9999460862
 40
0.9999695369
 40
0.9999863428
 40
0.9999964987
 40
1.0
 40
1.0
 40
1.0
 40
1.0
 10
20.1764834891
 20
7.8391708734
 30
0.0
 10
20.1764842079
 20
7.8391692708
 30
0.0
 10
20.1764900938
 20
7.8391650891
 30
0.0
 10
20.1764997148
 20
7.8391534751
 30
0.0
 10
20.1765180259
 20
7.8391358421
 30
0.0
 10
20.176542507
 20
7.8391105441
 30
0.0
 10
20.1765743843
 20
7.8390783976
 30
0.0
 10
20.1766307447
 20
7.8390212478
 30
0.0
 10
20.1767188544
 20
7.8389322193
 30
0.0
 10
20.1768456166
 20
7.8388042205
 30
0.0
 10
20.1770004732
 20
7.8386480879
 30
0.0
 10
20.1771833819
 20
7.8384638734
 30
0.0
 10
20.1774832379
 20
7.8381622095
 30
0.0
 10
20.177928047
 20
7.8377155012
 30
0.0
 10
20.1785455379
 20
7.8370962207
 30
0.0
 10
20.1792739374
 20
7.8363660342
 30
0.0
 10
20.1801125407
 20
7.8355253639
 30
0.0
 10
20.181060583
 20
7.8345746497
 30
0.0
 10
20.1821171188
 20
7.8335145381
 30
0.0
 10
20.1832813227
 20
7.8323462643
 30
0.0
 10
20.1850456423
 20
7.8305761249
 30
0.0
 10
20.1875118616
 20
7.8281036859
 30
0.0
 10
20.1907795131
 20
7.8248326915
 30
0.0
 10
20.1944491493
 20
7.8211631517
 30
0.0
 10
20.1985090649
 20
7.8171066723
 30
0.0
 10
20.2029477685
 20
7.8126768162
 30
0.0
 10
20.2077532245
 20
7.8078881788
 30
0.0
 10
20.2129129036
 20
7.8027554071
 30
0.0
 10
20.2204600331
 20
7.795261212
 30
0.0
 10
20.2306828147
 20
7.7851401095
 30
0.0
 10
20.2438458669
 20
7.7721640532
 30
0.0
 10
20.2581292354
 20
7.7581556573
 30
0.0
 10
20.273445605
 20
7.7432257883
 30
0.0
 10
20.2897131116
 20
7.7274772745
 30
0.0
 10
20.3068597707
 20
7.7110084842
 30
0.0
 10
20.3248224882
 20
7.6939122405
 30
0.0
 10
20.3435476191
 20
7.6762773125
 30
0.0
 10
20.3698270115
 20
7.6518276748
 30
0.0
 10
20.4042650591
 20
7.6204595422
 30
0.0
 10
20.4476298825
 20
7.5824449879
 30
0.0
 10
20.4856294895
 20
7.5508595013
 30
0.0
 10
20.5174550059
 20
7.5258927087
 30
0.0
 10
20.5380503232
 20
7.5105073678
 30
0.0
 10
20.554934052
 20
7.4984516964
 30
0.0
 10
20.567846714
 20
7.4895432865
 30
0.0
 10
20.5809840064
 20
7.4808234807
 30
0.0
 10
20.5988530349
 20
7.4694654835
 30
0.0
 10
20.6218212857
 20
7.4559457352
 30
0.0
 10
20.6456387169
 20
7.4437157002
 30
0.0
 10
20.6652993971
 20
7.4349244021
 30
0.0
 10
20.6803894747
 20
7.4289106466
 30
0.0
 10
20.6957924854
 20
7.4235830279
 30
0.0
 10
20.7114949543
 20
7.4190355073
 30
0.0
 10
20.727467586
 20
7.4153612371
 30
0.0
 10
20.7409629205
 20
7.4131032684
 30
0.0
 10
20.7518425055
 20
7.4118215508
 30
0.0
 10
20.7627708136
 20
7.4109053246
 30
0.0
 10
20.7764834892
 20
7.4104492228
 30
0.0
 10
20.7901961564
 20
7.4109054836
 30
0.0
 10
20.8011244675
 20
7.4118216769
 30
0.0
 10
20.8120040703
 20
7.4131032285
 30
0.0
 10
20.8254994449
 20
7.4153609816
 30
0.0
 10
20.8414720311
 20
7.4190354705
 30
0.0
 10
20.8571744589
 20
7.4235831201
 30
0.0
 10
20.8725774849
 20
7.4289106942
 30
0.0
 10
20.8876675765
 20
7.4349244125
 30
0.0
 10
20.9073282668
 20
7.4437156888
 30
0.0
 10
20.9311456792
 20
7.4559457623
 30
0.0
 10
20.9541139359
 20
7.4694654981
 30
0.0
 10
20.9719829746
 20
7.480823479
 30
0.0
 10
20.9851202676
 20
7.4895432834
 30
0.0
 10
20.9980329281
 20
7.4984516957
 30
0.0
 10
21.0149166517
 20
7.5105073754
 30
0.0
 10
21.0355119626
 20
7.5258927254
 30
0.0
 10
21.0673374833
 20
7.5508595117
 30
0.0
 10
21.1053371097
 20
7.5824449776
 30
0.0
 10
21.1487018799
 20
7.6204595876
 30
0.0
 10
21.1831400021
 20
7.6518276381
 30
0.0
 10
21.209419356
 20
7.6762773167
 30
0.0
 10
21.2281444825
 20
7.6939122531
 30
0.0
 10
21.2461072078
 20
7.7110084885
 30
0.0
 10
21.2632538661
 20
7.727477277
 30
0.0
 10
21.2795213735
 20
7.7432257875
 30
0.0
 10
21.2948377498
 20
7.7581556508
 30
0.0
 10
21.3091211051
 20
7.772164059
 30
0.0
 10
21.3222841624
 20
7.7851401076
 30
0.0
 10
21.3325069597
 20
7.7952611951
 30
0.0
 10
21.3400540749
 20
7.802755414
 30
0.0
 10
21.3452137455
 20
7.8078882032
 30
0.0
 10
21.350019203
 20
7.8126768342
 30
0.0
 10
21.3544579158
 20
7.8171066669
 30
0.0
 10
21.3585178372
 20
7.8211631317
 30
0.0
 10
21.3621874682
 20
7.82483268
 30
0.0
 10
21.3654551129
 20
7.8281036877
 30
0.0
 10
21.3679213343
 20
7.8305761262
 30
0.0
 10
21.3696856561
 20
7.8323462586
 30
0.0
 10
21.3708498605
 20
7.8335145262
 30
0.0
 10
21.3719063965
 20
7.8345746334
 30
0.0
 10
21.3728544381
 20
7.8355253465
 30
0.0
 10
21.3736930407
 20
7.8363660187
 30
0.0
 10
21.3744214398
 20
7.8370962097
 30
0.0
 10
21.3750389313
 20
7.8377154965
 30
0.0
 10
21.3754837415
 20
7.8381622111
 30
0.0
 10
21.375783599
 20
7.8384638802
 30
0.0
 10
21.3759665089
 20
7.838648098
 30
0.0
 10
21.3761213665
 20
7.8388042331
 30
0.0
 10
21.3762481292
 20
7.8389322333
 30
0.0
 10
21.3763362392
 20
7.8390212619
 30
0.0
 10
21.3763925993
 20
7.8390784109
 30
0.0
 10
21.3764244761
 20
7.8391105559
 30
0.0
 10
21.3764489561
 20
7.8391358522
 30
0.0
 10
21.3764672666
 20
7.839153482
 30
0.0
 10
21.3764768851
 20
7.839165094
 30
0.0
 10
21.3764827706
 20
7.8391692722
 30
0.0
 10
21.3764834891
 20
7.8391708734
 30
0.0
  0
LINE
  5
2E3
100
AcDbEntity
  8
0
100
AcDbLine
 62
9
  6
CONTINUOUS
 10
0.0364834891
 20
12.1466708734
 11
-0.6135165109
 21
12.6966708734
  0
SPLINE
  5
2E4
100
AcDbEntity
  8
0
100
AcDbSpline
 62
9
  6
CONTINUOUS
 70
0
 71
3
 72
113
 73
109
 74
0
 42
0.0000001
 43
0.0000001
 44
0.0000000001
 40
0.0
 40
0.0
 40
0.0
 40
0.0
 40
0.0000032392
 40
0.0000127495
 40
0.000028527
 40
0.000050568
 40
0.0000788685
 40
0.0001134247
 40
0.0002012883
 40
0.0003141276
 40
0.0004519116
 40
0.0006146089
 40
0.0008021885
 40
0.0012518699
 40
0.0018006796
 40
0.0024481457
 40
0.003193709
 40
0.0040368102
 40
0.0049768897
 40
0.0060133754
 40
0.0071454631
 40
0.0096924067
 40
0.0126096115
 40
0.0158886655
 40
0.0195202609
 40
0.0234949145
 40
0.0278025906
 40
0.0324324002
 40
0.0373733868
 40
0.0481450288
 40
0.0600299289
 40
0.0729417396
 40
0.086796766
 40
0.1015165203
 40
0.1170278065
 40
0.1332628712
 40
0.1501599732
 40
0.1676620885
 40
0.1857190228
 40
0.2042847292
 40
0.2233180496
 40
0.2427815783
 40
0.2626427026
 40
0.2828725352
 40
0.3034441106
 40
0.3243341315
 40
0.345520339
 40
0.3669816156
 40
0.3886966323
 40
0.4106407499
 40
0.4216910361
 40
0.432787162
 40
0.4550936418
 40
0.4775162921
 40
0.499999997
 40
0.5224837047
 40
0.544906358
 40
0.5672128387
 40
0.5783089633
 40
0.589359249
 40
0.6113033696
 40
0.6330183821
 40
0.6544796627
 40
0.6756658726
 40
0.6965558832
 40
0.717127465
 40
0.73735731
 40
0.7572184232
 40
0.7766819378
 40
0.7957152681
 40
0.8142809872
 40
0.8323379138
 40
0.8498400178
 40
0.8667371221
 40
0.8829721937
 40
0.8984834821
 40
0.9132032303
 40
0.9270582533
 40
0.9399700788
 40
0.9518549768
 40
0.9626265924
 40
0.9675675807
 40
0.9721974044
 40
0.9765050947
 40
0.9804797511
 40
0.9841113408
 40
0.9873903933
 40
0.9903076096
 40
0.9928545637
 40
0.9939866497
 40
0.9950231254
 40
0.9959631873
 40
0.9968062673
 40
0.9975518103
 40
0.998199261
 40
0.9987480647
 40
0.9991977515
 40
0.9993853371
 40
0.9995480419
 40
0.9996858342
 40
0.9997986823
 40
0.9998865547
 40
0.999921115
 40
0.9999494195
 40
0.9999714642
 40
0.9999872451
 40
0.9999967583
 40
1.0
 40
1.0
 40
1.0
 40
1.0
 10
20.1164834891
 20
9.3666708734
 30
0.0
 10
20.1164845717
 20
9.3666713713
 30
0.0
 10
20.116487132
 20
9.3666756897
 30
0.0
 10
20.1164948113
 20
9.3666825975
 30
0.0
 10
20.1165062177
 20
9.366695924
 30
0.0
 10
20.1165227536
 20
9.3667136897
 30
0.0
 10
20.1165437272
 20
9.3667368587
 30
0.0
 10
20.1165810741
 20
9.3667778251
 30
0.0
 10
20.1166392768
 20
9.3668418833
 30
0.0
 10
20.1167230091
 20
9.3669340406
 30
0.0
 10
20.1168251962
 20
9.3670466303
 30
0.0
 10
20.1169458183
 20
9.3671796165
 30
0.0
 10
20.1171434492
 20
9.3673976574
 30
0.0
 10
20.117436308
 20
9.3677210853
 30
0.0
 10
20.1178424473
 20
9.3681701655
 30
0.0
 10
20.1183213712
 20
9.3687001764
 30
0.0
 10
20.1188726984
 20
9.3693106737
 30
0.0
 10
20.119496025
 20
9.3700011904
 30
0.0
 10
20.1201909411
 20
9.3707712583
 30
0.0
 10
20.1209569941
 20
9.3716203267
 30
0.0
 10
20.122118803
 20
9.372908475
 30
0.0
 10
20.1237431279
 20
9.3747111549
 30
0.0
 10
20.125893909
 20
9.3771025898
 30
0.0
 10
20.1283084475
 20
9.3797934479
 30
0.0
 10
20.1309792497
 20
9.3827770018
 30
0.0
 10
20.1338984392
 20
9.3860460618
 30
0.0
 10
20.1370574985
 20
9.3895932278
 30
0.0
 10
20.140447034
 20
9.3934111477
 30
0.0
 10
20.1454055891
 20
9.3990158547
 30
0.0
 10
20.1521104936
 20
9.4066390053
 30
0.0
 10
20.1607102862
 20
9.4165003886
 30
0.0
 10
20.1700025453
 20
9.4272626951
 30
0.0
 10
20.179910417
 20
9.4388709597
 30
0.0
 10
20.1903589065
 20
9.4512746132
 30
0.0
 10
20.2012750527
 20
9.4644285541
 30
0.0
 10
20.2125886547
 20
9.4782928056
 30
0.0
 10
20.2242284923
 20
9.492835127
 30
0.0
 10
20.2361254301
 20
9.5080288409
 30
0.0
 10
20.24820972
 20
9.5238537538
 30
0.0
 10
20.2604146255
 20
9.5402931635
 30
0.0
 10
20.2726621126
 20
9.5573425092
 30
0.0
 10
20.2848749067
 20
9.5749997404
 30
0.0
 10
20.2969663178
 20
9.5932710019
 30
0.0
 10
20.3088495748
 20
9.6121623647
 30
0.0
 10
20.3204120755
 20
9.6316938795
 30
0.0
 10
20.3315346493
 20
9.6518831127
 30
0.0
 10
20.3420752431
 20
9.6727511579
 30
0.0
 10
20.351873619
 20
9.6943140065
 30
0.0
 10
20.3607359309
 20
9.7165807998
 30
0.0
 10
20.3671561589
 20
9.735668185
 30
0.0
 10
20.3716147577
 20
9.7512654382
 30
0.0
 10
20.3755907226
 20
9.7671300771
 30
0.0
 10
20.379549392
 20
9.7873002607
 30
0.0
 10
20.3825023876
 20
9.8118733056
 30
0.0
 10
20.3834894874
 20
9.83667087
 30
0.0
 10
20.3825023832
 20
9.8614684357
 30
0.0
 10
20.3795493814
 20
9.8860414812
 30
0.0
 10
20.3755907457
 20
9.9062116727
 30
0.0
 10
20.3716147635
 20
9.9220763076
 30
0.0
 10
20.3671561153
 20
9.937673547
 30
0.0
 10
20.3607359328
 20
9.9567609432
 30
0.0
 10
20.3518737208
 20
9.9790277819
 30
0.0
 10
20.3420751339
 20
10.0005905369
 30
0.0
 10
20.3315345898
 20
10.0214586
 30
0.0
 10
20.3204121997
 20
10.0416479359
 30
0.0
 10
20.3088495756
 20
10.0611793845
 30
0.0
 10
20.2969661796
 20
10.0800706609
 30
0.0
 10
20.2848748804
 20
10.098341989
 30
0.0
 10
20.2726621988
 20
10.1159992927
 30
0.0
 10
20.2604146411
 20
10.1330485925
 30
0.0
 10
20.2482096576
 20
10.1494879504
 30
0.0
 10
20.2361254094
 20
10.1653128917
 30
0.0
 10
20.2242285239
 20
10.180506639
 30
0.0
 10
20.2125886732
 20
10.1950489492
 30
0.0
 10
20.2012750466
 20
10.208913186
 30
0.0
 10
20.1903588966
 20
10.2220671251
 30
0.0
 10
20.1799104209
 20
10.2344707867
 30
0.0
 10
20.1700025618
 20
10.2460790647
 30
0.0
 10
20.1607102705
 20
10.256841348
 30
0.0
 10
20.1521104736
 20
10.2667027206
 30
0.0
 10
20.1454056227
 20
10.2743259052
 30
0.0
 10
20.1404470694
 20
10.2799306087
 30
0.0
 10
20.1370575088
 20
10.2837485211
 30
0.0
 10
20.1338984228
 20
10.2872956786
 30
0.0
 10
20.130979227
 20
10.2905647385
 30
0.0
 10
20.1283084339
 20
10.2935482984
 30
0.0
 10
20.1258938997
 20
10.2962391626
 30
0.0
 10
20.123743101
 20
10.2986305917
 30
0.0
 10
20.1221187587
 20
10.3004332661
 30
0.0
 10
20.1209569513
 20
10.3017214151
 30
0.0
 10
20.1201909145
 20
10.3025704836
 30
0.0
 10
20.1194960276
 20
10.3033405537
 30
0.0
 10
20.1188727362
 20
10.3040310728
 30
0.0
 10
20.1183214427
 20
10.3046415723
 30
0.0
 10
20.1178425441
 20
10.3051715853
 30
0.0
 10
20.1174364146
 20
10.3056206667
 30
0.0
 10
20.117143549
 20
10.3059440911
 30
0.0
 10
20.1169459047
 20
10.3061621291
 30
0.0
 10
20.1168252698
 20
10.3062951145
 30
0.0
 10
20.1167230685
 20
10.3064077035
 30
0.0
 10
20.1166393217
 20
10.3064998605
 30
0.0
 10
20.1165811068
 20
10.3065639183
 30
0.0
 10
20.1165437507
 20
10.3066048849
 30
0.0
 10
20.1165227709
 20
10.306628054
 30
0.0
 10
20.1165062299
 20
10.3066458208
 30
0.0
 10
20.1164948179
 20
10.3066591469
 30
0.0
 10
20.1164871364
 20
10.3066660575
 30
0.0
 10
20.1164845724
 20
10.3066703747
 30
0.0
 10
20.1164834891
 20
10.3066708734
 30
0.0
  0
SPLINE
  5
2E5
100
AcDbEntity
  8
0
100
AcDbSpline
 62
9
  6
CONTINUOUS
 70
0
 71
3
 72
107
 73
103
 74
0
 42
0.0000001
 43
0.0000001
 44
0.0000000001
 40
0.0
 40
0.0
 40
0.0
 40
0.0
 40
0.0000033092
 40
0.0000130359
 40
0.0000291753
 40
0.000051723
 40
0.0000806743
 40
0.0001160245
 40
0.0002059031
 40
0.0003213217
 40
0.0004622431
 40
0.0006286301
 40
0.0008204456
 40
0.0012802132
 40
0.0018411975
 40
0.0025028874
 40
0.0032647399
 40
0.0041262119
 40
0.0050867603
 40
0.0061457227
 40
0.0073020834
 40
0.0099026765
 40
0.0128798693
 40
0.016224466
 40
0.0199267692
 40
0.0239768161
 40
0.0283633276
 40
0.0330745938
 40
0.0380989883
 40
0.0490414246
 40
0.0610988448
 40
0.074178938
 40
0.0881954
 40
0.1030671802
 40
0.1187177072
 40
0.1350773164
 40
0.1696784731
 40
0.2064284406
 40
0.2449743825
 40
0.2648267664
 40
0.2850233026
 40
0.3055369268
 40
0.3263396997
 40
0.3474058256
 40
0.368712592
 40
0.3902341686
 40
0.4119428512
 40
0.4338097016
 40
0.4558007118
 40
0.4668317977
 40
0.4778791832
 40
0.4999999963
 40
0.5221208085
 40
0.5331681957
 40
0.5441992839
 40
0.566190292
 40
0.5880571388
 40
0.6097658224
 40
0.6312874064
 40
0.6525941719
 40
0.6736602874
 40
0.6944630573
 40
0.7149766926
 40
0.7351732525
 40
0.7550256432
 40
0.7935715379
 40
0.8303215521
 40
0.8649226671
 40
0.8812822985
 40
0.8969328279
 40
0.9118045897
 40
0.9258210572
 40
0.9389011657
 40
0.9509585843
 40
0.9619009962
 40
0.9669253839
 40
0.9716366569
 40
0.9760231836
 40
0.9800732423
 40
0.9837755475
 40
0.9871201437
 40
0.9900973437
 40
0.9926979459
 40
0.9938543052
 40
0.9949132586
 40
0.9958737886
 40
0.9967352363
 40
0.9974970641
 40
0.9981587344
 40
0.9987197094
 40
0.9991794821
 40
0.9993713046
 40
0.9995377007
 40
0.9996786324
 40
0.9997940619
 40
0.9998839513
 40
0.9999193066
 40
0.9999482627
 40
0.9999708147
 40
0.9999869581
 40
0.9999966881
 40
1.0
 40
1.0
 40
1.0
 40
1.0
 10
10.8064834891
 20
10.3666708734
 30
0.0
 10
10.8064831754
 20
10.3666696052
 30
0.0
 10
10.8064791405
 20
10.3666658908
 30
0.0
 10
10.80647338
 20
10.3666561112
 30
0.0
 10
10.8064616058
 20
10.3666408869
 30
0.0
 10
10.8064461688
 20
10.3666191646
 30
0.0
 10
10.806425924
 20
10.3665914669
 30
0.0
 10
10.8063901836
 20
10.3665422104
 30
0.0
 10
10.8063342707
 20
10.3664653956
 30
0.0
 10
10.8062538507
 20
10.366354882
 30
0.0
 10
10.8061556046
 20
10.3662199808
 30
0.0
 10
10.8060395758
 20
10.3660607217
 30
0.0
 10
10.8058493723
 20
10.3657997644
 30
0.0
 10
10.8055673005
 20
10.3654130008
 30
0.0
 10
10.8051757695
 20
10.364876478
 30
0.0
 10
10.8047139697
 20
10.3642435991
 30
0.0
 10
10.8041824087
 20
10.3635147742
 30
0.0
 10
10.803581612
 20
10.3626904162
 30
0.0
 10
10.8029121333
 20
10.361770976
 30
0.0
 10
10.8021746255
 20
10.360757063
 30
0.0
 10
10.8010569509
 20
10.3592190574
 30
0.0
 10
10.799495526
 20
10.3570674083
 30
0.0
 10
10.7974288534
 20
10.3542150431
 30
0.0
 10
10.7951099114
 20
10.351008364
 30
0.0
 10
10.7925470095
 20
10.3474554256
 30
0.0
 10
10.7897488064
 20
10.3435650515
 30
0.0
 10
10.7867241565
 20
10.3393469094
 30
0.0
 10
10.7834822316
 20
10.3348112518
 30
0.0
 10
10.7787460437
 20
10.3281623516
 30
0.0
 10
10.7723531998
 20
10.3191328919
 30
0.0
 10
10.7641745732
 20
10.3074713134
 30
0.0
 10
10.7553610968
 20
10.2947729079
 30
0.0
 10
10.745991919
 20
10.2811080394
 30
0.0
 10
10.7361445975
 20
10.2665410639
 30
0.0
 10
10.7258909173
 20
10.2511327445
 30
0.0
 10
10.7115030838
 20
10.2291208443
 30
0.0
 10
10.6929790191
 20
10.1998627751
 30
0.0
 10
10.6706317879
 20
10.1626702449
 30
0.0
 10
10.6522789686
 20
10.1298868266
 30
0.0
 10
10.6378959143
 20
10.1023920468
 30
0.0
 10
10.6272854023
 20
10.0809640295
 30
0.0
 10
10.6170605677
 20
10.0589343432
 30
0.0
 10
10.6073258857
 20
10.0363086528
 30
0.0
 10
10.5982014206
 20
10.0130920195
 30
0.0
 10
10.5898378173
 20
9.9892880073
 30
0.0
 10
10.5823757674
 20
9.9649193316
 30
0.0
 10
10.5759609685
 20
9.9400236159
 30
0.0
 10
10.5707722308
 20
9.9146529305
 30
0.0
 10
10.5675790608
 20
9.8932081065
 30
0.0
 10
10.5657563485
 20
9.8759039141
 30
0.0
 10
10.5644444774
 20
9.8585020181
 30
0.0
 10
10.5637898484
 20
9.8366708794
 30
0.0
 10
10.5644445252
 20
9.8148397428
 30
0.0
 10
10.5657563769
 20
9.7974378445
 30
0.0
 10
10.5675790317
 20
9.7801336454
 30
0.0
 10
10.5707721909
 20
9.7586888189
 30
0.0
 10
10.5759610097
 20
9.7333181522
 30
0.0
 10
10.5823757979
 20
9.7084224335
 30
0.0
 10
10.5898377932
 20
9.684053738
 30
0.0
 10
10.5982013872
 20
9.6602497227
 30
0.0
 10
10.6073259316
 20
9.6370331264
 30
0.0
 10
10.6170606395
 20
9.6144074491
 30
0.0
 10
10.6272854371
 20
9.5923777323
 30
0.0
 10
10.6378958782
 20
9.5709496619
 30
0.0
 10
10.6522788712
 20
9.5434548553
 30
0.0
 10
10.6706319315
 20
9.5106715714
 30
0.0
 10
10.6929788807
 20
9.473478892
 30
0.0
 10
10.7115031492
 20
9.4442209374
 30
0.0
 10
10.7258909018
 20
9.4222089933
 30
0.0
 10
10.736144574
 20
9.4068006651
 30
0.0
 10
10.7459919346
 20
9.3922337211
 30
0.0
 10
10.7553611028
 20
9.3785688451
 30
0.0
 10
10.7641745607
 20
9.3658704174
 30
0.0
 10
10.7723531852
 20
9.3542088425
 30
0.0
 10
10.7787460461
 20
9.3451794108
 30
0.0
 10
10.7834822396
 20
9.3385305264
 30
0.0
 10
10.7867241619
 20
9.3339948595
 30
0.0
 10
10.7897488056
 20
9.3297766965
 30
0.0
 10
10.7925470039
 20
9.325886305
 30
0.0
 10
10.7951099081
 20
9.3223333618
 30
0.0
 10
10.7974288546
 20
9.3191266817
 30
0.0
 10
10.7994955263
 20
9.3162743082
 30
0.0
 10
10.8010569462
 20
9.3141226481
 30
0.0
 10
10.8021746212
 20
9.3125846435
 30
0.0
 10
10.8029121281
 20
9.3115707439
 30
0.0
 10
10.8035816083
 20
9.31065133
 30
0.0
 10
10.8041824074
 20
9.3098270067
 30
0.0
 10
10.8047139708
 20
9.309098217
 30
0.0
 10
10.8051757729
 20
9.3084653659
 30
0.0
 10
10.805567306
 20
9.3079288563
 30
0.0
 10
10.805849375
 20
9.3075420893
 30
0.0
 10
10.8060395756
 20
9.3072811195
 30
0.0
 10
10.8061556037
 20
9.307121847
 30
0.0
 10
10.8062538492
 20
9.3069869306
 30
0.0
 10
10.806334269
 20
9.3068764012
 30
0.0
 10
10.8063901814
 20
9.306799573
 30
0.0
 10
10.8064259219
 20
9.3067503064
 30
0.0
 10
10.8064461665
 20
9.3067226017
 30
0.0
 10
10.806461605
 20
9.3067008738
 30
0.0
 10
10.8064733771
 20
9.3066856432
 30
0.0
 10
10.8064791428
 20
9.306675861
 30
0.0
 10
10.8064831737
 20
9.3066721423
 30
0.0
 10
10.8064834891
 20
9.3066708734
 30
0.0
  0
SPLINE
  5
2E6
100
AcDbEntity
  8
0
100
AcDbSpline
 62
9
  6
CONTINUOUS
 70
0
 71
3
 72
125
 73
121
 74
0
 42
0.0000001
 43
0.0000001
 44
0.0000000001
 40
0.0
 40
0.0
 40
0.0
 40
0.0
 40
0.0000035393
 40
0.0000138302
 40
0.0000308673
 40
0.0000546449
 40
0.0000851571
 40
0.0001223981
 40
0.0002170437
 40
0.000338535
 40
0.0004868258
 40
0.0006618696
 40
0.0008636199
 40
0.0010920304
 40
0.0013470486
 40
0.0019366515
 40
0.0026319097
 40
0.0034323032
 40
0.0043373105
 40
0.0053461922
 40
0.0064577622
 40
0.0076707796
 40
0.0103961867
 40
0.0135121943
 40
0.017008188
 40
0.0208730252
 40
0.0250939451
 40
0.0296578432
 40
0.0345514302
 40
0.0397613054
 40
0.051077019
 40
0.0635008304
 40
0.0769308304
 40
0.0912711269
 40
0.1064338887
 40
0.1223387066
 40
0.1389117012
 40
0.1560857637
 40
0.1738018665
 40
0.2106515874
 40
0.2490944421
 40
0.2688196261
 40
0.2888384355
 40
0.3091229403
 40
0.319357149
 40
0.3296488946
 40
0.339995097
 40
0.3503931056
 40
0.3713345142
 40
0.3924545606
 40
0.4030770936
 40
0.4137374942
 40
0.424433048
 40
0.4351606061
 40
0.4459181974
 40
0.4567014194
 40
0.4675059833
 40
0.4729150472
 40
0.4783279288
 40
0.489161059
 40
0.4999999895
 40
0.510838934
 40
0.5216720713
 40
0.5270849482
 40
0.5324940082
 40
0.5432985726
 40
0.5540817929
 40
0.5648393797
 40
0.575566939
 40
0.5862624978
 40
0.5969228991
 40
0.607545432
 40
0.6286654799
 40
0.649606891
 40
0.6600049004
 40
0.6703511032
 40
0.6806428485
 40
0.6908770561
 40
0.7111615594
 40
0.7311803731
 40
0.7509055605
 40
0.7893484023
 40
0.8261981418
 40
0.8439142335
 40
0.8610882918
 40
0.8776613005
 40
0.8935661156
 40
0.9087288652
 40
0.9230691688
 40
0.936499175
 40
0.9489229797
 40
0.9602386875
 40
0.965448571
 40
0.9703421682
 40
0.9749060665
 40
0.9791269746
 40
0.9829918019
 40
0.9864877985
 40
0.9896038139
 40
0.9923292212
 40
0.9935422355
 40
0.9946538018
 40
0.9956626806
 40
0.9965676869
 40
0.9973680814
 40
0.9980633422
 40
0.9986529487
 40
0.9989079689
 40
0.9991363817
 40
0.9993381342
 40
0.9995131799
 40
0.999661472
 40
0.9997829642
 40
0.9998776096
 40
0.9999148502
 40
0.9999453617
 40
0.9999691381
 40
0.9999861738
 40
0.9999964629
 40
1.0
 40
1.0
 40
1.0
 40
1.0
 10
20.1164834891
 20
7.7791708734
 30
0.0
 10
20.1164852629
 20
7.7791703759
 30
0.0
 10
20.1164900984
 20
7.779164337
 30
0.0
 10
20.1165032073
 20
7.7791555382
 30
0.0
 10
20.1165233041
 20
7.7791377832
 30
0.0
 10
20.1165520571
 20
7.7791144359
 30
0.0
 10
20.1165886375
 20
7.7790838591
 30
0.0
 10
20.1166536615
 20
7.779029876
 30
0.0
 10
20.1167549806
 20
7.7789454337
 30
0.0
 10
20.1169006658
 20
7.7788239666
 30
0.0
 10
20.1170783937
 20
7.7786755732
 30
0.0
 10
20.1172881063
 20
7.7785003109
 30
0.0
 10
20.1175297226
 20
7.7782981912
 30
0.0
 10
20.1178031647
 20
7.7780692407
 30
0.0
 10
20.1182312527
 20
7.7777105244
 30
0.0
 10
20.1188454348
 20
7.7771955544
 30
0.0
 10
20.1196771611
 20
7.7764982235
 30
0.0
 10
20.120634905
 20
7.7756956749
 30
0.0
 10
20.1217181767
 20
7.7747887674
 30
0.0
 10
20.1229261426
 20
7.77377849
 30
0.0
 10
20.1242574399
 20
7.7726657827
 30
0.0
 10
20.1262746564
 20
7.7709805629
 30
0.0
 10
20.1290929375
 20
7.7686269186
 30
0.0
 10
20.1328239565
 20
7.7655123924
 30
0.0
 10
20.1370122252
 20
7.7620201527
 30
0.0
 10
20.1416449767
 20
7.7581629471
 30
0.0
 10
20.1467078766
 20
7.753953669
 30
0.0
 10
20.152185724
 20
7.7494059181
 30
0.0
 10
20.1580633637
 20
7.7445338723
 30
0.0
 10
20.1666526469
 20
7.7374263186
 30
0.0
 10
20.1782753658
 20
7.7278366209
 30
0.0
 10
20.1932281473
 20
7.7155601645
 30
0.0
 10
20.2094325567
 20
7.7023273328
 30
0.0
 10
20.2267833413
 20
7.6882445387
 30
0.0
 10
20.245187183
 20
7.6734153427
 30
0.0
 10
20.2645598052
 20
7.6579365601
 30
0.0
 10
20.2848260352
 20
7.6418995019
 30
0.0
 10
20.3059189472
 20
7.6253883537
 30
0.0
 10
20.3354648725
 20
7.6025547076
 30
0.0
 10
20.3740943387
 20
7.5733726555
 30
0.0
 10
20.4141266743
 20
7.544323382
 30
0.0
 10
20.4475348527
 20
7.5210813524
 30
0.0
 10
20.4734688233
 20
7.5036525371
 30
0.0
 10
20.4955807984
 20
7.4894005366
 30
0.0
 10
20.5136357088
 20
7.4782087231
 30
0.0
 10
20.5274009575
 20
7.4699174798
 30
0.0
 10
20.5413566407
 20
7.4617799857
 30
0.0
 10
20.5602705846
 20
7.4511466037
 30
0.0
 10
20.5844128685
 20
7.4383762275
 30
0.0
 10
20.6091946106
 20
7.4266083743
 30
0.0
 10
20.6294947257
 20
7.4179402135
 30
0.0
 10
20.6449886049
 20
7.4118511712
 30
0.0
 10
20.6607221295
 20
7.4062444089
 30
0.0
 10
20.6766972469
 20
7.4011950534
 30
0.0
 10
20.6929053376
 20
7.3967731506
 30
0.0
 10
20.7093252732
 20
7.3930311459
 30
0.0
 10
20.7231586031
 20
7.3905303605
 30
0.0
 10
20.7343027042
 20
7.3889353807
 30
0.0
 10
20.7454984495
 20
7.3876221813
 30
0.0
 10
20.7595596726
 20
7.3865177015
 30
0.0
 10
20.7764834818
 20
7.3860750967
 30
0.0
 10
20.793407272
 20
7.3865180995
 30
0.0
 10
20.807468527
 20
7.3876221928
 30
0.0
 10
20.8186643003
 20
7.3889351655
 30
0.0
 10
20.8298084064
 20
7.3905300888
 30
0.0
 10
20.8436417092
 20
7.3930310241
 30
0.0
 10
20.8600616033
 20
7.3967731904
 30
0.0
 10
20.8762696701
 20
7.401195166
 30
0.0
 10
20.8922447952
 20
7.4062444959
 30
0.0
 10
20.9079783535
 20
7.411851174
 30
0.0
 10
20.9234722506
 20
7.4179401809
 30
0.0
 10
20.9437723502
 20
7.4266083822
 30
0.0
 10
20.9685540796
 20
7.4383762633
 30
0.0
 10
20.9926963896
 20
7.4511465954
 30
0.0
 10
21.0116103375
 20
7.4617799744
 30
0.0
 10
21.0255660184
 20
7.4699174733
 30
0.0
 10
21.0393312611
 20
7.4782087257
 30
0.0
 10
21.0573861621
 20
7.4894005516
 30
0.0
 10
21.0794981298
 20
7.5036525649
 30
0.0
 10
21.1054321167
 20
7.521081361
 30
0.0
 10
21.1388403271
 20
7.5443233411
 30
0.0
 10
21.1788725718
 20
7.5733727469
 30
0.0
 10
21.2175021451
 20
7.6025546517
 30
0.0
 10
21.2470480269
 20
7.6253883577
 30
0.0
 10
21.2681409146
 20
7.6418995355
 30
0.0
 10
21.2884071919
 20
7.6579365398
 30
0.0
 10
21.307779811
 20
7.6734153258
 30
0.0
 10
21.3261836137
 20
7.6882445636
 30
0.0
 10
21.3435344185
 20
7.7023273336
 30
0.0
 10
21.3597388427
 20
7.7155601529
 30
0.0
 10
21.3746916109
 20
7.7278366203
 30
0.0
 10
21.386314315
 20
7.7374263325
 30
0.0
 10
21.394903616
 20
7.7445338748
 30
0.0
 10
21.4007812763
 20
7.7494059112
 30
0.0
 10
21.4062591251
 20
7.7539536592
 30
0.0
 10
21.4113220028
 20
7.7581629466
 30
0.0
 10
21.4159547338
 20
7.7620201614
 30
0.0
 10
21.4201430062
 20
7.7655123972
 30
0.0
 10
21.4238740399
 20
7.7686269149
 30
0.0
 10
21.4266923236
 20
7.7709805598
 30
0.0
 10
21.4287095333
 20
7.7726657825
 30
0.0
 10
21.4300408233
 20
7.7737784906
 30
0.0
 10
21.4312487835
 20
7.7747887687
 30
0.0
 10
21.4323320533
 20
7.7756956762
 30
0.0
 10
21.4332897994
 20
7.7764982244
 30
0.0
 10
21.4341215308
 20
7.7771955549
 30
0.0
 10
21.4347357187
 20
7.7777105245
 30
0.0
 10
21.4351638122
 20
7.7780692408
 30
0.0
 10
21.4354372584
 20
7.7782981917
 30
0.0
 10
21.4356788787
 20
7.7785003117
 30
0.0
 10
21.4358885947
 20
7.7786755743
 30
0.0
 10
21.4360663252
 20
7.7788239679
 30
0.0
 10
21.4362120118
 20
7.7789454352
 30
0.0
 10
21.4363133309
 20
7.7790298774
 30
0.0
 10
21.436378354
 20
7.7790838608
 30
0.0
 10
21.436414933
 20
7.7791144368
 30
0.0
 10
21.436443684
 20
7.7791377854
 30
0.0
 10
21.4364637785
 20
7.7791555364
 30
0.0
 10
21.4364768838
 20
7.7791643408
 30
0.0
 10
21.4364817176
 20
7.7791703724
 30
0.0
 10
21.4364834891
 20
7.7791708734
 30
0.0
  0
SPLINE
  5
2E7
100
AcDbEntity
  8
0
100
AcDbSpline
 62
9
  6
CONTINUOUS
 70
0
 71
3
 72
113
 73
109
 74
0
 42
0.0000001
 43
0.0000001
 44
0.0000000001
 40
0.0
 40
0.0
 40
0.0
 40
0.0
 40
0.0000032393
 40
0.0000127496
 40
0.0000285272
 40
0.0000505682
 40
0.0000788687
 40
0.0001134249
 40
0.0002012885
 40
0.0003141278
 40
0.0004519117
 40
0.0006146091
 40
0.0008021887
 40
0.00125187
 40
0.0018006796
 40
0.0024481457
 40
0.003193709
 40
0.0040368102
 40
0.0049768897
 40
0.0060133754
 40
0.0071454631
 40
0.0096924068
 40
0.0126096115
 40
0.0158886655
 40
0.0195202609
 40
0.0234949145
 40
0.0278025906
 40
0.0324324003
 40
0.0373733868
 40
0.0481450287
 40
0.0600299288
 40
0.0729417396
 40
0.0867967659
 40
0.1015165201
 40
0.1170278063
 40
0.133262871
 40
0.1501599731
 40
0.1676620883
 40
0.1857190224
 40
0.2042847289
 40
0.2233180494
 40
0.2427815781
 40
0.2626427023
 40
0.2828725349
 40
0.3034441104
 40
0.3243341314
 40
0.345520339
 40
0.3669816156
 40
0.3886966322
 40
0.4106407498
 40
0.421691036
 40
0.4327871618
 40
0.4550936416
 40
0.477516292
 40
0.499999997
 40
0.5224837047
 40
0.544906358
 40
0.5672128387
 40
0.5783089633
 40
0.589359249
 40
0.6113033695
 40
0.633018382
 40
0.6544796627
 40
0.6756658726
 40
0.6965558834
 40
0.7171274652
 40
0.7373573101
 40
0.7572184234
 40
0.7766819379
 40
0.7957152684
 40
0.8142809874
 40
0.8323379139
 40
0.8498400179
 40
0.8667371222
 40
0.8829721938
 40
0.8984834823
 40
0.9132032304
 40
0.9270582534
 40
0.9399700788
 40
0.9518549769
 40
0.9626265923
 40
0.9675675806
 40
0.9721974044
 40
0.9765050947
 40
0.9804797511
 40
0.9841113407
 40
0.9873903932
 40
0.9903076095
 40
0.9928545637
 40
0.9939866496
 40
0.9950231254
 40
0.9959631873
 40
0.9968062673
 40
0.9975518103
 40
0.998199261
 40
0.9987480647
 40
0.9991977514
 40
0.9993853369
 40
0.9995480417
 40
0.999685834
 40
0.9997986821
 40
0.9998865545
 40
0.9999211148
 40
0.9999494193
 40
0.999971464
 40
0.999987245
 40
0.9999967582
 40
1.0
 40
1.0
 40
1.0
 40
1.0
 10
10.8664834891
 20
10.3066708734
 30
0.0
 10
10.8664824065
 20
10.3066703755
 30
0.0
 10
10.8664798462
 20
10.3066660571
 30
0.0
 10
10.8664721669
 20
10.3066591493
 30
0.0
 10
10.8664607604
 20
10.3066458227
 30
0.0
 10
10.8664442245
 20
10.306628057
 30
0.0
 10
10.8664232509
 20
10.3066048881
 30
0.0
 10
10.8663859039
 20
10.3065639216
 30
0.0
 10
10.8663277012
 20
10.3064998634
 30
0.0
 10
10.8662439689
 20
10.3064077061
 30
0.0
 10
10.8661417818
 20
10.3062951165
 30
0.0
 10
10.8660211597
 20
10.3061621303
 30
0.0
 10
10.8658235289
 20
10.3059440894
 30
0.0
 10
10.8655306702
 20
10.3056206616
 30
0.0
 10
10.8651245309
 20
10.3051715813
 30
0.0
 10
10.8646456071
 20
10.3046415704
 30
0.0
 10
10.8640942798
 20
10.3040310732
 30
0.0
 10
10.8634709533
 20
10.3033405564
 30
0.0
 10
10.8627760372
 20
10.3025704885
 30
0.0
 10
10.8620099841
 20
10.3017214202
 30
0.0
 10
10.8608481752
 20
10.3004332719
 30
0.0
 10
10.8592238503
 20
10.298630592
 30
0.0
 10
10.8570730693
 20
10.2962391571
 30
0.0
 10
10.8546585308
 20
10.2935482989
 30
0.0
 10
10.8519877286
 20
10.290564745
 30
0.0
 10
10.8490685391
 20
10.287295685
 30
0.0
 10
10.8459094797
 20
10.2837485191
 30
0.0
 10
10.8425199442
 20
10.2799305992
 30
0.0
 10
10.8375613891
 20
10.2743258922
 30
0.0
 10
10.8308564848
 20
10.2667027415
 30
0.0
 10
10.8222566922
 20
10.2568413583
 30
0.0
 10
10.812964433
 20
10.2460790519
 30
0.0
 10
10.8030565614
 20
10.2344707873
 30
0.0
 10
10.792608072
 20
10.2220671337
 30
0.0
 10
10.7816919258
 20
10.2089131928
 30
0.0
 10
10.7703783235
 20
10.1950489415
 30
0.0
 10
10.7587384857
 20
10.1805066203
 30
0.0
 10
10.7468415484
 20
10.1653129061
 30
0.0
 10
10.7347572589
 20
10.149487993
 30
0.0
 10
10.7225523532
 20
10.1330485834
 30
0.0
 10
10.7103048658
 20
10.1159992379
 30
0.0
 10
10.6980920719
 20
10.0983420065
 30
0.0
 10
10.6860006613
 20
10.0800707447
 30
0.0
 10
10.6741174044
 20
10.0611793819
 30
0.0
 10
10.6625549034
 20
10.0416478672
 30
0.0
 10
10.6514323289
 20
10.0214586343
 30
0.0
 10
10.6408917351
 20
10.000590589
 30
0.0
 10
10.6310933598
 20
9.9790277401
 30
0.0
 10
10.6222310473
 20
9.9567609472
 30
0.0
 10
10.6158108189
 20
9.9376735621
 30
0.0
 10
10.6113522205
 20
9.9220763088
 30
0.0
 10
10.6073762559
 20
9.9062116698
 30
0.0
 10
10.6034175867
 20
9.8860414862
 30
0.0
 10
10.6004645903
 20
9.8614684414
 30
0.0
 10
10.5994774918
 20
9.8366708769
 30
0.0
 10
10.6004645947
 20
9.8118733111
 30
0.0
 10
10.6034175973
 20
9.7873002656
 30
0.0
 10
10.6073762328
 20
9.7671300741
 30
0.0
 10
10.6113522147
 20
9.7512654391
 30
0.0
 10
10.6158108626
 20
9.7356681997
 30
0.0
 10
10.6222310454
 20
9.7165808035
 30
0.0
 10
10.631093258
 20
9.6943139652
 30
0.0
 10
10.6408918442
 20
9.6727512099
 30
0.0
 10
10.6514323883
 20
9.6518831467
 30
0.0
 10
10.6625547792
 20
9.6316938111
 30
0.0
 10
10.6741174036
 20
9.6121623626
 30
0.0
 10
10.6860007994
 20
9.5932710861
 30
0.0
 10
10.6980920982
 20
9.5749997577
 30
0.0
 10
10.7103047796
 20
9.5573424539
 30
0.0
 10
10.7225523375
 20
9.5402931542
 30
0.0
 10
10.7347573213
 20
9.5238537965
 30
0.0
 10
10.746841569
 20
9.5080288549
 30
0.0
 10
10.7587384541
 20
9.4928351074
 30
0.0
 10
10.770378305
 20
9.4782927974
 30
0.0
 10
10.7816919319
 20
9.4644285608
 30
0.0
 10
10.7926080818
 20
9.4512746216
 30
0.0
 10
10.8030565575
 20
9.43887096
 30
0.0
 10
10.8129644164
 20
9.427262682
 30
0.0
 10
10.8222567078
 20
9.4165003988
 30
0.0
 10
10.8308565047
 20
9.4066390262
 30
0.0
 10
10.8375613555
 20
9.3990158415
 30
0.0
 10
10.8425199087
 20
9.3934111381
 30
0.0
 10
10.8459094694
 20
9.3895932257
 30
0.0
 10
10.8490685555
 20
9.3860460683
 30
0.0
 10
10.8519877513
 20
9.3827770083
 30
0.0
 10
10.8546585443
 20
9.3797934484
 30
0.0
 10
10.8570730785
 20
9.3771025842
 30
0.0
 10
10.8592238772
 20
9.3747111551
 30
0.0
 10
10.8608482195
 20
9.3729084807
 30
0.0
 10
10.8620100269
 20
9.3716203317
 30
0.0
 10
10.8627760637
 20
9.3707712632
 30
0.0
 10
10.8634709506
 20
9.3700011931
 30
0.0
 10
10.8640942421
 20
9.369310674
 30
0.0
 10
10.8646455356
 20
9.3687001745
 30
0.0
 10
10.8651244341
 20
9.3681701615
 30
0.0
 10
10.8655305636
 20
9.3677210802
 30
0.0
 10
10.8658234291
 20
9.3673976558
 30
0.0
 10
10.8660210734
 20
9.3671796178
 30
0.0
 10
10.8661417083
 20
9.3670466324
 30
0.0
 10
10.8662439095
 20
9.3669340434
 30
0.0
 10
10.8663276563
 20
9.3668418864
 30
0.0
 10
10.8663858713
 20
9.3667778286
 30
0.0
 10
10.8664232274
 20
9.366736862
 30
0.0
 10
10.8664442072
 20
9.3667136929
 30
0.0
 10
10.8664607482
 20
9.3666959261
 30
0.0
 10
10.8664721603
 20
9.3666826
 30
0.0
 10
10.8664798418
 20
9.3666756893
 30
0.0
 10
10.8664824059
 20
9.3666713721
 30
0.0
 10
10.8664834891
 20
9.3666708734
 30
0.0
  0
SPLINE
  5
2E8
100
AcDbEntity
  8
0
100
AcDbSpline
 62
9
  6
CONTINUOUS
 70
0
 71
3
 72
107
 73
103
 74
0
 42
0.0000001
 43
0.0000001
 44
0.0000000001
 40
0.0
 40
0.0
 40
0.0
 40
0.0
 40
0.0000033092
 40
0.0000130358
 40
0.0000291752
 40
0.0000517229
 40
0.0000806741
 40
0.0001160243
 40
0.0002059029
 40
0.0003213215
 40
0.0004622429
 40
0.0006286299
 40
0.0008204455
 40
0.0012802131
 40
0.0018411975
 40
0.0025028874
 40
0.0032647399
 40
0.0041262119
 40
0.0050867603
 40
0.0061457227
 40
0.0073020833
 40
0.0099026764
 40
0.0128798692
 40
0.0162244659
 40
0.0199267692
 40
0.023976816
 40
0.0283633275
 40
0.0330745937
 40
0.0380989883
 40
0.0490414246
 40
0.0610988448
 40
0.0741789379
 40
0.0881954
 40
0.1030671802
 40
0.1187177072
 40
0.1350773163
 40
0.1696784734
 40
0.2064284402
 40
0.2449743827
 40
0.2648267664
 40
0.2850233025
 40
0.3055369268
 40
0.3263396998
 40
0.3474058255
 40
0.3687125918
 40
0.3902341686
 40
0.4119428512
 40
0.4338097015
 40
0.4558007118
 40
0.4668317976
 40
0.4778791832
 40
0.4999999962
 40
0.5221208083
 40
0.5331681956
 40
0.5441992838
 40
0.5661902919
 40
0.5880571386
 40
0.6097658223
 40
0.6312874064
 40
0.6525941718
 40
0.6736602872
 40
0.6944630573
 40
0.7149766928
 40
0.7351732526
 40
0.7550256431
 40
0.7935715384
 40
0.8303215518
 40
0.8649226672
 40
0.8812822985
 40
0.8969328278
 40
0.9118045897
 40
0.9258210572
 40
0.9389011657
 40
0.9509585843
 40
0.9619009962
 40
0.966925384
 40
0.971636657
 40
0.9760231836
 40
0.9800732423
 40
0.9837755475
 40
0.9871201438
 40
0.9900973437
 40
0.9926979459
 40
0.9938543052
 40
0.9949132586
 40
0.9958737886
 40
0.9967352363
 40
0.9974970641
 40
0.9981587344
 40
0.9987197094
 40
0.9991794822
 40
0.9993713048
 40
0.9995377009
 40
0.9996786326
 40
0.9997940621
 40
0.9998839515
 40
0.9999193068
 40
0.9999482628
 40
0.9999708149
 40
0.9999869582
 40
0.9999966881
 40
1.0
 40
1.0
 40
1.0
 40
1.0
 10
9.6064834891
 20
12.1666708734
 30
0.0
 10
9.6064838029
 20
12.1666721416
 30
0.0
 10
9.6064878377
 20
12.166675856
 30
0.0
 10
9.6064935982
 20
12.1666856355
 30
0.0
 10
9.6065053724
 20
12.1667008598
 30
0.0
 10
9.6065208094
 20
12.166722582
 30
0.0
 10
9.6065410542
 20
12.1667502797
 30
0.0
 10
9.6065767946
 20
12.1667995362
 30
0.0
 10
9.6066327075
 20
12.166876351
 30
0.0
 10
9.6067131276
 20
12.1669868646
 30
0.0
 10
9.6068113736
 20
12.1671217657
 30
0.0
 10
9.6069274024
 20
12.1672810249
 30
0.0
 10
9.6071176059
 20
12.1675419823
 30
0.0
 10
9.6073996777
 20
12.1679287459
 30
0.0
 10
9.6077912088
 20
12.1684652687
 30
0.0
 10
9.6082530085
 20
12.1690981477
 30
0.0
 10
9.6087845695
 20
12.1698269726
 30
0.0
 10
9.6093853663
 20
12.1706513306
 30
0.0
 10
9.610054845
 20
12.1715707708
 30
0.0
 10
9.6107923528
 20
12.1725846837
 30
0.0
 10
9.6119100273
 20
12.1741226893
 30
0.0
 10
9.6134714523
 20
12.1762743385
 30
0.0
 10
9.6155381249
 20
12.1791267036
 30
0.0
 10
9.6178570669
 20
12.1823333828
 30
0.0
 10
9.6204199687
 20
12.1858863212
 30
0.0
 10
9.6232181719
 20
12.1897766952
 30
0.0
 10
9.6262428217
 20
12.1939948373
 30
0.0
 10
9.6294847466
 20
12.1985304949
 30
0.0
 10
9.6342209346
 20
12.2051793952
 30
0.0
 10
9.6406137784
 20
12.2142088549
 30
0.0
 10
9.648792405
 20
12.2258704334
 30
0.0
 10
9.6576058815
 20
12.2385688389
 30
0.0
 10
9.6669750592
 20
12.2522337074
 30
0.0
 10
9.6768223806
 20
12.266800683
 30
0.0
 10
9.6870760609
 20
12.2822090023
 30
0.0
 10
9.7014638948
 20
12.3042209025
 30
0.0
 10
9.7199879577
 20
12.3334789726
 30
0.0
 10
9.7423351924
 20
12.3706715008
 30
0.0
 10
9.7606880086
 20
12.4034549207
 30
0.0
 10
9.7750710646
 20
12.4309496997
 30
0.0
 10
9.7856815774
 20
12.4523777166
 30
0.0
 10
9.7959064108
 20
12.4744074035
 30
0.0
 10
9.8056410922
 20
12.4970330942
 30
0.0
 10
9.8147655582
 20
12.520249727
 30
0.0
 10
9.8231291612
 20
12.5440537393
 30
0.0
 10
9.8305912104
 20
12.5684224153
 30
0.0
 10
9.8370060093
 20
12.593318131
 30
0.0
 10
9.8421947479
 20
12.6186888162
 30
0.0
 10
9.8453879179
 20
12.6401336402
 30
0.0
 10
9.8472106296
 20
12.6574378326
 30
0.0
 10
9.8485225008
 20
12.6748397287
 30
0.0
 10
9.849177131
 20
12.6966708673
 30
0.0
 10
9.8485224531
 20
12.7185020039
 30
0.0
 10
9.8472106012
 20
12.7359039021
 30
0.0
 10
9.845387947
 20
12.7532081013
 30
0.0
 10
9.842194788
 20
12.7746529278
 30
0.0
 10
9.8370059681
 20
12.8000235943
 30
0.0
 10
9.8305911799
 20
12.824919313
 30
0.0
 10
9.8231291854
 20
12.8492880089
 30
0.0
 10
9.8147655916
 20
12.8730920242
 30
0.0
 10
9.8056410464
 20
12.8963086202
 30
0.0
 10
9.7959063391
 20
12.9189342979
 30
0.0
 10
9.7856815425
 20
12.9409640153
 30
0.0
 10
9.7750711006
 20
12.9623920853
 30
0.0
 10
9.760688106
 20
12.9898868911
 30
0.0
 10
9.7423350489
 20
13.0226701766
 30
0.0
 10
9.719988096
 20
13.0598628539
 30
0.0
 10
9.7014638295
 20
13.0891208095
 30
0.0
 10
9.6870760764
 20
13.1111327535
 30
0.0
 10
9.6768224041
 20
13.1265410816
 30
0.0
 10
9.6669750437
 20
13.1411080257
 30
0.0
 10
9.6576058755
 20
13.1547729018
 30
0.0
 10
9.6487924176
 20
13.1674713294
 30
0.0
 10
9.640613793
 20
13.1791329043
 30
0.0
 10
9.6342209322
 20
13.188162336
 30
0.0
 10
9.6294847387
 20
13.1948112206
 30
0.0
 10
9.6262428164
 20
13.1993468874
 30
0.0
 10
9.6232181727
 20
13.2035650503
 30
0.0
 10
9.6204199744
 20
13.2074554419
 30
0.0
 10
9.6178570702
 20
13.2110083851
 30
0.0
 10
9.6155381237
 20
13.2142150653
 30
0.0
 10
9.613471452
 20
13.2170674388
 30
0.0
 10
9.611910032
 20
13.2192190988
 30
0.0
 10
9.6107923571
 20
13.2207571034
 30
0.0
 10
9.6100548502
 20
13.2217710029
 30
0.0
 10
9.6093853699
 20
13.2226904168
 30
0.0
 10
9.6087845708
 20
13.2235147402
 30
0.0
 10
9.6082530074
 20
13.2242435299
 30
0.0
 10
9.6077912054
 20
13.2248763809
 30
0.0
 10
9.6073996722
 20
13.2254128906
 30
0.0
 10
9.6071176033
 20
13.2257996577
 30
0.0
 10
9.6069274026
 20
13.2260606275
 30
0.0
 10
9.6068113745
 20
13.2262199
 30
0.0
 10
9.606713129
 20
13.2263548164
 30
0.0
 10
9.6066327092
 20
13.2264653459
 30
0.0
 10
9.6065767968
 20
13.2265421741
 30
0.0
 10
9.6065410563
 20
13.2265914406
 30
0.0
 10
9.6065208118
 20
13.2266191453
 30
0.0
 10
9.6065053732
 20
13.2266408732
 30
0.0
 10
9.6064936012
 20
13.2266561037
 30
0.0
 10
9.6064878354
 20
13.2266658859
 30
0.0
 10
9.6064838046
 20
13.2266696046
 30
0.0
 10
9.6064834891
 20
13.2266708734
 30
0.0
  0
LINE
  5
2E9
100
AcDbEntity
  8
0
100
AcDbLine
 62
9
  6
CONTINUOUS
 10
-0.6135165109
 20
12.6966708734
 11
-1.2635165122
 21
12.1466708733
  0
SPLINE
  5
2EA
100
AcDbEntity
  8
0
100
AcDbSpline
 62
9
  6
CONTINUOUS
 70
0
 71
3
 72
113
 73
109
 74
0
 42
0.0000001
 43
0.0000001
 44
0.0000000001
 40
0.0
 40
0.0
 40
0.0
 40
0.0
 40
0.0000032392
 40
0.0000127495
 40
0.000028527
 40
0.000050568
 40
0.0000788685
 40
0.0001134247
 40
0.0002012883
 40
0.0003141276
 40
0.0004519116
 40
0.0006146089
 40
0.0008021885
 40
0.0012518699
 40
0.0018006796
 40
0.0024481456
 40
0.003193709
 40
0.0040368102
 40
0.0049768897
 40
0.0060133754
 40
0.0071454631
 40
0.0096924067
 40
0.0126096115
 40
0.0158886655
 40
0.0195202608
 40
0.0234949144
 40
0.0278025905
 40
0.0324324001
 40
0.0373733867
 40
0.0481450286
 40
0.0600299287
 40
0.0729417395
 40
0.0867967658
 40
0.10151652
 40
0.1170278063
 40
0.1332628709
 40
0.1501599729
 40
0.1676620882
 40
0.1857190224
 40
0.2042847289
 40
0.2233180493
 40
0.242781578
 40
0.2626427023
 40
0.2828725349
 40
0.3034441104
 40
0.3243341315
 40
0.345520339
 40
0.3669816157
 40
0.3886966322
 40
0.4106407498
 40
0.4216910361
 40
0.4327871619
 40
0.4550936416
 40
0.477516292
 40
0.4999999969
 40
0.5224837047
 40
0.5449063581
 40
0.5672128388
 40
0.5783089634
 40
0.589359249
 40
0.6113033695
 40
0.6330183819
 40
0.6544796626
 40
0.6756658726
 40
0.6965558835
 40
0.7171274653
 40
0.7373573102
 40
0.7572184235
 40
0.7766819381
 40
0.7957152685
 40
0.8142809875
 40
0.8323379141
 40
0.8498400181
 40
0.8667371223
 40
0.8829721939
 40
0.8984834823
 40
0.9132032305
 40
0.9270582535
 40
0.9399700789
 40
0.9518549769
 40
0.9626265924
 40
0.9675675807
 40
0.9721974045
 40
0.9765050948
 40
0.9804797511
 40
0.9841113408
 40
0.9873903933
 40
0.9903076096
 40
0.9928545638
 40
0.9939866497
 40
0.9950231254
 40
0.9959631873
 40
0.9968062673
 40
0.9975518103
 40
0.998199261
 40
0.9987480648
 40
0.9991977515
 40
0.9993853371
 40
0.9995480419
 40
0.9996858342
 40
0.9997986823
 40
0.9998865547
 40
0.999921115
 40
0.9999494195
 40
0.9999714642
 40
0.9999872451
 40
0.9999967583
 40
1.0
 40
1.0
 40
1.0
 40
1.0
 10
9.5464834891
 20
12.2266708734
 30
0.0
 10
9.5464845717
 20
12.2266713713
 30
0.0
 10
9.546487132
 20
12.2266756897
 30
0.0
 10
9.5464948113
 20
12.2266825975
 30
0.0
 10
9.5465062177
 20
12.226695924
 30
0.0
 10
9.5465227536
 20
12.2267136897
 30
0.0
 10
9.5465437272
 20
12.2267368587
 30
0.0
 10
9.5465810741
 20
12.2267778251
 30
0.0
 10
9.5466392768
 20
12.2268418833
 30
0.0
 10
9.5467230091
 20
12.2269340406
 30
0.0
 10
9.5468251962
 20
12.2270466302
 30
0.0
 10
9.5469458183
 20
12.2271796165
 30
0.0
 10
9.5471434492
 20
12.2273976574
 30
0.0
 10
9.547436308
 20
12.2277210852
 30
0.0
 10
9.5478424473
 20
12.2281701655
 30
0.0
 10
9.5483213711
 20
12.2287001764
 30
0.0
 10
9.5488726984
 20
12.2293106737
 30
0.0
 10
9.5494960249
 20
12.2300011904
 30
0.0
 10
9.550190941
 20
12.2307712583
 30
0.0
 10
9.5509569941
 20
12.2316203267
 30
0.0
 10
9.552118803
 20
12.2329084749
 30
0.0
 10
9.5537431279
 20
12.2347111548
 30
0.0
 10
9.5558939089
 20
12.2371025897
 30
0.0
 10
9.5583084474
 20
12.2397934479
 30
0.0
 10
9.5609792496
 20
12.2427770018
 30
0.0
 10
9.5638984391
 20
12.2460460618
 30
0.0
 10
9.5670574984
 20
12.2495932278
 30
0.0
 10
9.5704470339
 20
12.2534111476
 30
0.0
 10
9.575405589
 20
12.2590158546
 30
0.0
 10
9.5821104934
 20
12.2666390052
 30
0.0
 10
9.5907102861
 20
12.2765003885
 30
0.0
 10
9.6000025452
 20
12.2872626949
 30
0.0
 10
9.6099104168
 20
12.2988709595
 30
0.0
 10
9.6203589063
 20
12.311274613
 30
0.0
 10
9.6312750525
 20
12.3244285538
 30
0.0
 10
9.6425886545
 20
12.3382928053
 30
0.0
 10
9.6542284921
 20
12.3528351267
 30
0.0
 10
9.6661254297
 20
12.3680288406
 30
0.0
 10
9.6782097197
 20
12.3838537535
 30
0.0
 10
9.6904146253
 20
12.4002931632
 30
0.0
 10
9.7026621124
 20
12.4173425089
 30
0.0
 10
9.7148749064
 20
12.4349997402
 30
0.0
 10
9.7269663175
 20
12.4532710017
 30
0.0
 10
9.7388495747
 20
12.4721623644
 30
0.0
 10
9.7504120754
 20
12.4916938793
 30
0.0
 10
9.7615346493
 20
12.5118831126
 30
0.0
 10
9.7720752431
 20
12.5327511579
 30
0.0
 10
9.7818736191
 20
12.5543140065
 30
0.0
 10
9.7907359309
 20
12.5765807998
 30
0.0
 10
9.7971561589
 20
12.5956681849
 30
0.0
 10
9.8016147577
 20
12.6112654381
 30
0.0
 10
9.8055907226
 20
12.627130077
 30
0.0
 10
9.809549392
 20
12.6473002606
 30
0.0
 10
9.8125023876
 20
12.6718733054
 30
0.0
 10
9.8134894874
 20
12.6966708699
 30
0.0
 10
9.8125023832
 20
12.7214684357
 30
0.0
 10
9.8095493815
 20
12.7460414813
 30
0.0
 10
9.8055907456
 20
12.7662116728
 30
0.0
 10
9.8016147635
 20
12.7820763077
 30
0.0
 10
9.7971561153
 20
12.797673547
 30
0.0
 10
9.7907359328
 20
12.8167609432
 30
0.0
 10
9.7818737209
 20
12.8390277819
 30
0.0
 10
9.7720751339
 20
12.8605905368
 30
0.0
 10
9.7615345899
 20
12.8814586001
 30
0.0
 10
9.7504121997
 20
12.9016479361
 30
0.0
 10
9.7388495754
 20
12.9211793847
 30
0.0
 10
9.7269661794
 20
12.9400706611
 30
0.0
 10
9.7148748802
 20
12.9583419892
 30
0.0
 10
9.7026621986
 20
12.975999293
 30
0.0
 10
9.690414641
 20
12.9930485929
 30
0.0
 10
9.6782096573
 20
13.0094879507
 30
0.0
 10
9.6661254091
 20
13.025312892
 30
0.0
 10
9.6542285237
 20
13.0405066393
 30
0.0
 10
9.642588673
 20
13.0550489495
 30
0.0
 10
9.6312750464
 20
13.0689131862
 30
0.0
 10
9.6203588965
 20
13.0820671253
 30
0.0
 10
9.6099104207
 20
13.0944707868
 30
0.0
 10
9.6000025617
 20
13.1060790649
 30
0.0
 10
9.5907102704
 20
13.1168413481
 30
0.0
 10
9.5821104735
 20
13.1267027207
 30
0.0
 10
9.5754056227
 20
13.1343259053
 30
0.0
 10
9.5704470694
 20
13.1399306088
 30
0.0
 10
9.5670575088
 20
13.1437485211
 30
0.0
 10
9.5638984227
 20
13.1472956786
 30
0.0
 10
9.5609792269
 20
13.1505647385
 30
0.0
 10
9.5583084339
 20
13.1535482984
 30
0.0
 10
9.5558938997
 20
13.1562391626
 30
0.0
 10
9.5537431009
 20
13.1586305918
 30
0.0
 10
9.5521187587
 20
13.1604332661
 30
0.0
 10
9.5509569513
 20
13.1617214151
 30
0.0
 10
9.5501909145
 20
13.1625704836
 30
0.0
 10
9.5494960276
 20
13.1633405537
 30
0.0
 10
9.5488727361
 20
13.1640310728
 30
0.0
 10
9.5483214427
 20
13.1646415723
 30
0.0
 10
9.5478425441
 20
13.1651715854
 30
0.0
 10
9.5474364146
 20
13.1656206667
 30
0.0
 10
9.547143549
 20
13.1659440911
 30
0.0
 10
9.5469459047
 20
13.1661621291
 30
0.0
 10
9.5468252698
 20
13.1662951145
 30
0.0
 10
9.5467230685
 20
13.1664077035
 30
0.0
 10
9.5466393217
 20
13.1664998605
 30
0.0
 10
9.5465811068
 20
13.1665639183
 30
0.0
 10
9.5465437507
 20
13.1666048849
 30
0.0
 10
9.5465227709
 20
13.166628054
 30
0.0
 10
9.5465062299
 20
13.1666458208
 30
0.0
 10
9.5464948179
 20
13.1666591469
 30
0.0
 10
9.5464871364
 20
13.1666660575
 30
0.0
 10
9.5464845724
 20
13.1666703747
 30
0.0
 10
9.5464834891
 20
13.1666708734
 30
0.0
  0
ENDSEC
  0
SECTION
  2
OBJECTS
  0
DICTIONARY
  5
C
100
AcDbDictionary
280
0
281
1
  3
ACAD_GROUP
350
D
  3
ACAD_MLINESTYLE
350
17
  3
ACAD_LAYOUT
350
1A
  3
ACAD_PLOTSETTINGS
350
19
  3
ACAD_PLOTSTYLENAME
350
E
  0
DICTIONARY
  5
D
102
{ACAD_REACTORS
330
C
102
}
100
AcDbDictionary
280
0
281
1
  0
ACDBDICTIONARYWDFLT
  5
E
102
{ACAD_REACTORS
330
C
102
}
100
AcDbDictionary
281
1
  3
Normal
350
F
100
AcDbDictionaryWithDefault
340
F
  0
DICTIONARY
  5
17
102
{ACAD_REACTORS
330
C
102
}
100
AcDbDictionary
280
0
281
1
  3
Standard
350
18
  0
DICTIONARY
  5
19
102
{ACAD_REACTORS
330
C
102
}
100
AcDbDictionary
281
1
  0
DICTIONARY
  5
1A
102
{ACAD_REACTORS
330
C
102
}
100
AcDbDictionary
281
1
  3
Model
350
2EB
  3
Layout1
350
2EC
  0
ACDBPLACEHOLDER
  5
F
102
{ACAD_REACTORS
330
E
102
}
  0
MLINESTYLE
  5
18
102
{ACAD_REACTORS
330
17
102
}
100
AcDbMlineStyle
  2
STANDARD
 70
0
  3

 62
256
 51
90.0
 52
90.0
 71
2
 49
0.5
 62
256
  6
BYLAYER
 49
-0.5
 62
256
  6
BYLAYER
  0
LAYOUT
  5
2EB
102
{ACAD_REACTORS
330
1A
102
}
100
AcDbPlotSettings
  1

  2
none_device
  4
ANSI_C_(22.00_x_17.00_Inches)
  6

 40
0.0
 41
0.0
 42
0.0
 43
0.0
 44
558.8
 45
431.8
 46
0.0
 47
0.0
 48
0.0
 49
0.0
140
0.0
141
0.0
142
1.0
143
1.0
 70
1024
 72
0
 73
0
 74
0
  7

 75
0
147
1.0
148
0.0
149
0.0
100
AcDbLayout
  1
Model
 70
0
 71
0
 10
0.0
 20
0.0
 11
22.0
 21
17.0
 12
0.0
 22
0.0
 32
0.0
 14
0.0
 24
0.0
 34
0.0
 15
0.0
 25
0.0
 35
0.0
146
0.0
 13
0.0
 23
0.0
 33
0.0
 16
1.0
 26
0.0
 36
0.0
 17
0.0
 27
1.0
 37
0.0
 76
0
330
205
345
0
346
0
  0
LAYOUT
  5
2EC
102
{ACAD_REACTORS
330
1A
102
}
100
AcDbPlotSettings
  1

  2
none_device
  4
ANSI_C_(22.00_x_17.00_Inches)
  6

 40
0.0
 41
0.0
 42
0.0
 43
0.0
 44
558.8
 45
431.8
 46
0.0
 47
0.0
 48
0.0
 49
0.0
140
0.0
141
0.0
142
1.0
143
1.0
 70
0
 72
0
 73
0
 74
0
  7

 75
0
147
1.0
148
0.0
149
0.0
100
AcDbLayout
  1
Layout1
 70
0
 71
1
 10
0.0
 20
0.0
 11
22.0
 21
17.0
 12
0.0
 22
0.0
 32
0.0
 14
0.0
 24
0.0
 34
0.0
 15
0.0
 25
0.0
 35
0.0
146
0.0
 13
0.0
 23
0.0
 33
0.0
 16
1.0
 26
0.0
 36
0.0
 17
0.0
 27
1.0
 37
0.0
 76
0
330
206
345
0
346
0
  0
ENDSEC
  0
EOF
