999
DXF file: E:\BT Custom\CADOUTPUT\_TOP.dxf
999
Pro/ENGINEER 2018400 by Parametric Technology Corporation
  0
SECTION
  2
HEADER
  9
$ACADVER
  1
AC1018
  9
$DWGCODEPAGE
  3
ANSI_1252
  9
$EXTMAX
 10
22.0
 20
17.0
 30
0.0
  9
$EXTMIN
 10
0.0
 20
0.0
 30
0.0
  9
$LIMMIN
 10
0.0
 20
0.0
  9
$LIMMAX
 10
22.0
 20
17.0
  9
$VIEWCTR
 10
11.0
 20
8.5
  9
$VIEWSIZE
 40
17.0
  9
$CLAYER
  8
0
  9
$LTSCALE
 40
1.21
  9
$CELTYPE
  6
BYLAYER
  9
$DIMSCALE
 40
1.0
  9
$DIMASZ
 40
0.1
  9
$DIMEXO
 40
0.0625
  9
$DIMDLI
 40
0.836
  9
$DIMEXE
 40
0.125
  9
$DIMCEN
 40
0.198
  9
$DIMLFAC
 40
1.0
  9
$DIMBLK
  1
_FILLED
  9
$DIMALT
 70
1
  9
$DIMALTD
 70
2
  9
$DIMALTTD
 70
2
  9
$DIMALTF
 40
25.4
  9
$DIMTXT
 40
0.08
  9
$DIMTOL
 70
1
  9
$DIMLIM
 70
0
  9
$DIMTFAC
 40
1.0
  9
$DIMTP
 40
0.001
  9
$DIMTM
 40
0.001
  9
$DIMGAP
 40
0.09
  9
$DIMDSEP
 70
46
  9
$AUNITS
 70
0
  9
$PDMODE
 70
3
  9
$PDSIZE
 40
0.06
  9
$HANDSEED
  5
27C
  9
$TILEMODE
 70
1
  9
$MEASUREMENT
 70
0
  9
$INSUNITS
 70
1
  0
ENDSEC
  0
SECTION
  2
CLASSES
  0
CLASS
  1
ACDBDICTIONARYWDFLT
  2
AcDbDictionaryWithDefault
  3
AutoCAD 2000
 90
0
 91
1
280
0
281
0
  0
CLASS
  1
ACDBPLACEHOLDER
  2
AcDbPlaceHolder
  3
AutoCAD 2000
 90
0
 91
1
280
0
281
0
  0
CLASS
  1
LAYOUT
  2
AcDbLayout
  3
AutoCAD 2000
 90
0
 91
0
280
0
281
0
  0
ENDSEC
  0
SECTION
  2
TABLES
  0
TABLE
  2
VPORT
  5
8
100
AcDbSymbolTable
 70
2
  0
VPORT
  5
1F4
100
AcDbSymbolTableRecord
100
AcDbViewportTableRecord
  2
*ACTIVE
 70
0
 10
0.0
 20
0.0
 11
1.0
 21
1.0
 12
11.0
 22
8.5
 13
0.0
 23
0.0
 14
1.0
 24
1.0
 15
0.0
 25
0.0
 16
0.0
 26
0.0
 36
1.0
 17
0.0
 27
0.0
 37
0.0
 40
17.0
 41
1.2941176471
 42
50.0
 43
0.0
 44
0.0
 50
0.0
 51
0.0
 71
0
 72
100
 73
1
 74
1
 75
0
 76
0
 77
0
 78
0
  0
ENDTAB
  0
TABLE
  2
LTYPE
  5
5
100
AcDbSymbolTable
 70
6
  0
LTYPE
  5
14
100
AcDbSymbolTableRecord
100
AcDbLinetypeTableRecord
  2
BYBLOCK
 70
0
  3

 72
65
 73
0
 40
0.0
  0
LTYPE
  5
15
100
AcDbSymbolTableRecord
100
AcDbLinetypeTableRecord
  2
BYLAYER
 70
0
  3

 72
65
 73
0
 40
0.0
  0
LTYPE
  5
16
100
AcDbSymbolTableRecord
100
AcDbLinetypeTableRecord
  2
CONTINUOUS
 70
64
  3
Solid line
 72
65
 73
0
 40
0.0
  0
LTYPE
  5
1F5
100
AcDbSymbolTableRecord
100
AcDbLinetypeTableRecord
  2
CENTER
 70
64
  3
____ _ ____ _ ____ _ ____ _ ____ _ ____ _ ____
 72
65
 73
4
 40
0.6
 49
0.375
 74
0
 49
-0.075
 74
0
 49
0.075
 74
0
 49
-0.075
 74
0
  0
LTYPE
  5
1F6
100
AcDbSymbolTableRecord
100
AcDbLinetypeTableRecord
  2
HIDDEN
 70
64
  3
- - - - - - - - - - - - - - - - - - - -
 72
65
 73
2
 40
0.2
 49
0.1
 74
0
 49
-0.1
 74
0
  0
LTYPE
  5
1F7
100
AcDbSymbolTableRecord
100
AcDbLinetypeTableRecord
  2
PHANTOM
 70
64
  3
_____ _ _ _____ _ _ _____ _ _ _____
 72
65
 73
6
 40
0.8
 49
0.45
 74
0
 49
-0.05
 74
0
 49
0.1
 74
0
 49
-0.05
 74
0
 49
0.1
 74
0
 49
-0.05
 74
0
  0
LTYPE
  5
1F8
100
AcDbSymbolTableRecord
100
AcDbLinetypeTableRecord
  2
DOT
 70
64
  3
. . . . . . . . . . . . . . . . . . . .
 72
65
 73
2
 40
0.2
 49
0.1
 74
0
 49
-0.1
 74
0
  0
LTYPE
  5
1F9
100
AcDbSymbolTableRecord
100
AcDbLinetypeTableRecord
  2
DASHED
 70
64
  3
- - - - - - - - - - - - - - - - - - - -
 72
65
 73
2
 40
0.2
 49
0.1
 74
0
 49
-0.1
 74
0
  0
ENDTAB
  0
TABLE
  2
LAYER
  5
2
100
AcDbSymbolTable
 70
36
  0
LAYER
  5
10
100
AcDbSymbolTableRecord
100
AcDbLayerTableRecord
  2
0
 70
0
 62
7
  6
CONTINUOUS
370
-3
390
F
  0
LAYER
  5
1FA
100
AcDbSymbolTableRecord
100
AcDbLayerTableRecord
  2
DEFAULT_1
 70
0
 62
7
  6
CENTER
370
-3
390
F
  0
LAYER
  5
1FB
100
AcDbSymbolTableRecord
100
AcDbLayerTableRecord
  2
DEFAULT_2
 70
0
 62
8
  6
HIDDEN
370
-3
390
F
  0
LAYER
  5
1FC
100
AcDbSymbolTableRecord
100
AcDbLayerTableRecord
  2
DEFAULT_3
 70
0
 62
7
  6
PHANTOM
370
-3
390
F
  0
LAYER
  5
1FD
100
AcDbSymbolTableRecord
100
AcDbLayerTableRecord
  2
ALL_FEATURES
 70
0
 62
7
  6
CONTINUOUS
370
-3
390
F
  0
LAYER
  5
1FE
100
AcDbSymbolTableRecord
100
AcDbLayerTableRecord
  2
AXES_FEATURES
 70
0
 62
7
  6
CONTINUOUS
370
-3
390
F
  0
LAYER
  5
1FF
100
AcDbSymbolTableRecord
100
AcDbLayerTableRecord
  2
DEFAULT_COORDINATE_SYSTEM
 70
0
 62
7
  6
CONTINUOUS
370
-3
390
F
  0
LAYER
  5
200
100
AcDbSymbolTableRecord
100
AcDbLayerTableRecord
  2
DEFAULT_DATUM_AXES
 70
0
 62
7
  6
CONTINUOUS
370
-3
390
F
  0
LAYER
  5
201
100
AcDbSymbolTableRecord
100
AcDbLayerTableRecord
  2
DEFAULT_DATUM_PLANES
 70
0
 62
7
  6
CONTINUOUS
370
-3
390
F
  0
LAYER
  5
202
100
AcDbSymbolTableRecord
100
AcDbLayerTableRecord
  2
DIMENSIONS
 70
0
 62
7
  6
CONTINUOUS
370
-3
390
F
  0
ENDTAB
  0
TABLE
  2
STYLE
  5
3
100
AcDbSymbolTable
 70
1
  0
STYLE
  5
11
100
AcDbSymbolTableRecord
100
AcDbTextStyleTableRecord
  2
STANDARD
 70
0
 40
0.0
 41
0.8
 50
0.0
 71
0
 42
0.2
  3
txt
  4

  0
STYLE
  5
203
100
AcDbSymbolTableRecord
100
AcDbTextStyleTableRecord
  2
TEXTSTYLE_1
 70
0
 40
0.0
 41
0.8
 50
0.0
 71
0
 42
0.2
  3
gdt
  4

  0
ENDTAB
  0
TABLE
  2
VIEW
  5
6
100
AcDbSymbolTable
 70
0
  0
ENDTAB
  0
TABLE
  2
UCS
  5
7
100
AcDbSymbolTable
 70
0
  0
ENDTAB
  0
TABLE
  2
APPID
  5
9
100
AcDbSymbolTable
 70
1
  0
APPID
  5
204
100
AcDbSymbolTableRecord
100
AcDbRegAppTableRecord
  2
ACAD
 70
0
  0
ENDTAB
  0
TABLE
  2
BLOCK_RECORD
  5
1
100
AcDbSymbolTable
 70
0
  0
BLOCK_RECORD
  5
205
100
AcDbSymbolTableRecord
100
AcDbBlockTableRecord
  2
*Model_Space
  0
BLOCK_RECORD
  5
206
100
AcDbSymbolTableRecord
100
AcDbBlockTableRecord
  2
*Paper_Space
  0
BLOCK_RECORD
  5
207
100
AcDbSymbolTableRecord
100
AcDbBlockTableRecord
  2
_FILLED
  0
ENDTAB
  0
TABLE
  2
DIMSTYLE
  5
A
100
AcDbSymbolTable
 70
1
100
AcDbDimStyleTable
 71
0
  0
DIMSTYLE
105
208
100
AcDbSymbolTableRecord
100
AcDbDimStyleTableRecord
  2
STANDARD
 70
0
  3

  4

 40
1.0
 41
0.1
 42
0.0625
 43
0.38
 44
0.125
 45
0.0
 46
0.0
 47
0.001
 48
0.001
140
0.08
141
0.09
142
0.0
143
25.4
144
1.0
145
0.0
146
1.0
147
0.09
 71
1.0
 72
0.0
 73
1
 74
1
 75
0
 76
0
 77
0
 78
4
 79
1
170
1
171
2
172
0
173
0
174
0
175
0
176
0
177
0
178
0
270
2
179
3
271
3
272
3
273
2
274
2
275
0
280
0
281
0
282
0
283
1
284
4
285
0
286
0
287
3
288
0
340
11
278
46
341
207
342
207
343
207
344
207
  0
ENDTAB
  0
ENDSEC
  0
SECTION
  2
BLOCKS
  0
BLOCK
  5
20
100
AcDbEntity
  8
0
100
AcDbBlockBegin
  2
*Model_Space
 70
0
 10
0.0
 20
0.0
 30
0.0
  3
*Model_Space
  1

  0
ENDBLK
  5
21
100
AcDbEntity
  8
0
100
AcDbBlockEnd
  0
BLOCK
  5
1C
100
AcDbEntity
  8
0
100
AcDbBlockBegin
  2
*Paper_Space
 70
0
 10
0.0
 20
0.0
 30
0.0
  3
*Paper_Space
  1

  0
ENDBLK
  5
1D
100
AcDbEntity
  8
0
100
AcDbBlockEnd
  0
BLOCK
  5
209
100
AcDbEntity
  8
0
100
AcDbBlockBegin
  2
_FILLED
 70
64
 10
0.0
 20
0.0
  3
_FILLED
  1

  0
SOLID
  5
20A
100
AcDbEntity
  8
0
  6
BYBLOCK
 62
0
100
AcDbTrace
 10
0.0
 20
0.0
 11
-1.0
 21
0.2
 12
-1.0
 22
-0.2
 13
-1.0
 23
-0.2
  0
ENDBLK
  5
20B
100
AcDbEntity
  8
0
  6
BYBLOCK
 62
0
100
AcDbBlockEnd
  0
ENDSEC
  0
SECTION
  2
ENTITIES
  0
LINE
  5
20C
100
AcDbEntity
  8
0
100
AcDbLine
 62
7
  6
CONTINUOUS
 10
10.5873188985
 20
-6.0941681396
 11
11.5073177781
 21
-6.0941681396
  0
LINE
  5
20D
100
AcDbEntity
  8
0
100
AcDbLine
 62
7
  6
CONTINUOUS
 10
10.5873188985
 20
-5.9941681396
 11
11.5073177781
 21
-5.9941681396
  0
LINE
  5
20E
100
AcDbEntity
  8
0
100
AcDbLine
 62
9
  6
CONTINUOUS
 10
10.5973183383
 20
-5.2587692199
 11
11.4973183383
 21
-5.2587692199
  0
LINE
  5
20F
100
AcDbEntity
  8
0
100
AcDbLine
 62
9
  6
CONTINUOUS
 10
10.5700683383
 20
-5.214244648
 11
11.5245683383
 21
-5.214244648
  0
LINE
  5
210
100
AcDbEntity
  8
0
100
AcDbLine
 62
9
  6
CONTINUOUS
 10
10.5428679304
 20
-5.1674936994
 11
11.5517687462
 21
-5.1674936994
  0
LINE
  5
211
100
AcDbEntity
  8
0
100
AcDbLine
 62
9
  6
CONTINUOUS
 10
10.4593523576
 20
-4.7468797378
 11
11.635284319
 21
-4.7468797378
  0
LINE
  5
212
100
AcDbEntity
  8
0
100
AcDbLine
 62
9
  6
CONTINUOUS
 10
10.4523183383
 20
-4.7151681396
 11
11.6423183383
 21
-4.7151681396
  0
LINE
  5
213
100
AcDbEntity
  8
0
100
AcDbLine
 62
7
  6
CONTINUOUS
 10
10.4523189248
 20
-4.6241681396
 11
11.6423177517
 21
-4.6241681396
  0
LINE
  5
214
100
AcDbEntity
  8
0
100
AcDbLine
 62
7
  6
CONTINUOUS
 10
11.5973183383
 20
-4.5911681396
 11
10.4973183383
 21
-4.5911681396
  0
LINE
  5
215
100
AcDbEntity
  8
0
100
AcDbLine
 62
7
  6
CONTINUOUS
 10
11.5973183383
 20
-2.4911681396
 11
10.4973183383
 21
-2.4911681396
  0
LINE
  5
216
100
AcDbEntity
  8
0
100
AcDbLine
 62
7
  6
CONTINUOUS
 10
10.5773189105
 20
5.9188318604
 11
11.5173177661
 21
5.9188318604
  0
LWPOLYLINE
  5
217
100
AcDbEntity
  8
0
100
AcDbPolyline
 62
7
  6
CONTINUOUS
 90
6
 70
0
 10
10.5655020943
 20
6.6212620465
 10
10.5699160653
 20
6.6143794424
 10
10.5734361014
 20
6.6067429312
 10
10.5758538658
 20
6.5986893097
 10
10.5771218618
 20
6.5903767873
 10
10.5773197104
 20
6.5855085187
  0
LINE
  5
218
100
AcDbEntity
  8
0
100
AcDbLine
 62
7
  6
CONTINUOUS
 10
10.3848183383
 20
16.6488318604
 11
10.3848183383
 21
20.4888318604
  0
LINE
  5
219
100
AcDbEntity
  8
0
100
AcDbLine
 62
7
  6
CONTINUOUS
 10
10.4523183383
 20
-4.7151681396
 11
10.4523183383
 21
-4.6241681396
  0
LINE
  5
21A
100
AcDbEntity
  8
0
100
AcDbLine
 62
7
  6
CONTINUOUS
 10
10.4523183383
 20
16.5328318604
 11
10.4523183383
 21
16.6238318604
  0
LINE
  5
21B
100
AcDbEntity
  8
0
100
AcDbLine
 62
7
  6
CONTINUOUS
 10
10.4973183383
 20
-2.4911681396
 11
10.4973183383
 21
-4.5911681396
  0
LINE
  5
21C
100
AcDbEntity
  8
0
100
AcDbLine
 62
7
  6
CONTINUOUS
 10
10.5323183383
 20
-4.6241681396
 11
10.5323183383
 21
-4.5911681396
  0
LINE
  5
21D
100
AcDbEntity
  8
0
100
AcDbLine
 62
7
  6
CONTINUOUS
 10
10.5323183383
 20
16.6238318604
 11
10.5323183383
 21
16.6488318604
  0
LINE
  5
21E
100
AcDbEntity
  8
0
100
AcDbLine
 62
7
  6
CONTINUOUS
 10
10.5773183383
 20
17.1555085187
 11
10.5773183383
 21
16.4888318604
  0
LINE
  5
21F
100
AcDbEntity
  8
0
100
AcDbLine
 62
7
  6
CONTINUOUS
 10
10.5773183383
 20
6.5855085187
 11
10.5773183383
 21
5.9188318604
  0
LINE
  5
220
100
AcDbEntity
  8
0
100
AcDbLine
 62
7
  6
CONTINUOUS
 10
10.5773183383
 20
7.3721552026
 11
10.5773183383
 21
8.0388318604
  0
LINE
  5
221
100
AcDbEntity
  8
0
100
AcDbLine
 62
7
  6
CONTINUOUS
 10
10.5973183383
 20
-5.9941681396
 11
10.5973183383
 21
-5.2587692199
  0
LINE
  5
222
100
AcDbEntity
  8
0
100
AcDbLine
 62
7
  6
CONTINUOUS
 10
10.5973183383
 20
15.2538318604
 11
10.5973183383
 21
15.9892307801
  0
LINE
  5
223
100
AcDbEntity
  8
0
100
AcDbLine
 62
7
  6
CONTINUOUS
 10
10.6723183383
 20
16.4888318604
 11
10.6723183383
 21
8.0388318604
  0
LINE
  5
224
100
AcDbEntity
  8
0
100
AcDbLine
 62
7
  6
CONTINUOUS
 10
10.6723183383
 20
5.9188318604
 11
10.6723183383
 21
-2.4911681396
  0
LWPOLYLINE
  5
225
100
AcDbEntity
  8
0
100
AcDbPolyline
 62
7
  6
CONTINUOUS
 90
6
 70
0
 10
10.5773197106
 20
7.3721552026
 10
10.5771218618
 20
7.367286931
 10
10.5758538646
 20
7.3589744057
 10
10.5734360983
 20
7.3509207817
 10
10.5699160595
 20
7.3432842684
 10
10.5655020946
 20
7.3364016752
  0
LWPOLYLINE
  5
226
100
AcDbEntity
  8
0
100
AcDbPolyline
 62
7
  6
CONTINUOUS
 90
6
 70
0
 10
11.5173169688
 20
17.1555085266
 10
11.5175148167
 20
17.1603767879
 10
11.5187828054
 20
17.1686892832
 10
11.5212005475
 20
17.1767428614
 10
11.5247205396
 20
17.1843793181
 10
11.5291345861
 20
17.1912620602
  0
LINE
  5
227
100
AcDbEntity
  8
0
100
AcDbLine
 62
7
  6
CONTINUOUS
 10
11.4223183383
 20
16.4888318604
 11
11.4223183383
 21
8.0388318604
  0
LINE
  5
228
100
AcDbEntity
  8
0
100
AcDbLine
 62
7
  6
CONTINUOUS
 10
11.4223183383
 20
5.9188318604
 11
11.4223183383
 21
-2.4911681396
  0
LINE
  5
229
100
AcDbEntity
  8
0
100
AcDbLine
 62
7
  6
CONTINUOUS
 10
11.4973183383
 20
-5.9941681396
 11
11.4973183383
 21
-5.2587692199
  0
LINE
  5
22A
100
AcDbEntity
  8
0
100
AcDbLine
 62
7
  6
CONTINUOUS
 10
11.4973183383
 20
15.2538318604
 11
11.4973183383
 21
15.9892307801
  0
LINE
  5
22B
100
AcDbEntity
  8
0
100
AcDbLine
 62
7
  6
CONTINUOUS
 10
11.5173183383
 20
17.1555085266
 11
11.5173183383
 21
16.4888318604
  0
LINE
  5
22C
100
AcDbEntity
  8
0
100
AcDbLine
 62
7
  6
CONTINUOUS
 10
11.5173183383
 20
6.5855085266
 11
11.5173183383
 21
5.9188318604
  0
LINE
  5
22D
100
AcDbEntity
  8
0
100
AcDbLine
 62
7
  6
CONTINUOUS
 10
11.5173183383
 20
7.3721551948
 11
11.5173183383
 21
8.0388318604
  0
LINE
  5
22E
100
AcDbEntity
  8
0
100
AcDbLine
 62
7
  6
CONTINUOUS
 10
11.5623183383
 20
-4.6241681396
 11
11.5623183383
 21
-4.5911681396
  0
LINE
  5
22F
100
AcDbEntity
  8
0
100
AcDbLine
 62
7
  6
CONTINUOUS
 10
11.5623183383
 20
16.6238318604
 11
11.5623183383
 21
16.6488318604
  0
LINE
  5
230
100
AcDbEntity
  8
0
100
AcDbLine
 62
7
  6
CONTINUOUS
 10
11.5973183383
 20
-2.4911681396
 11
11.5973183383
 21
-4.5911681396
  0
LINE
  5
231
100
AcDbEntity
  8
0
100
AcDbLine
 62
7
  6
CONTINUOUS
 10
11.6423183383
 20
-4.7151681396
 11
11.6423183383
 21
-4.6241681396
  0
LINE
  5
232
100
AcDbEntity
  8
0
100
AcDbLine
 62
7
  6
CONTINUOUS
 10
11.6423183383
 20
16.5328318604
 11
11.6423183383
 21
16.6238318604
  0
LINE
  5
233
100
AcDbEntity
  8
0
100
AcDbLine
 62
7
  6
CONTINUOUS
 10
11.7098183383
 20
16.6488318604
 11
11.7098183383
 21
20.4888318604
  0
LWPOLYLINE
  5
234
100
AcDbEntity
  8
0
100
AcDbPolyline
 62
7
  6
CONTINUOUS
 90
6
 70
0
 10
11.5173169688
 20
6.5855085266
 10
11.5175148167
 20
6.5903767879
 10
11.5187828054
 20
6.5986892832
 10
11.5212005475
 20
6.6067428614
 10
11.5247205396
 20
6.6143793181
 10
11.5291345861
 20
6.6212620602
  0
LINE
  5
235
100
AcDbEntity
  8
0
100
AcDbLine
 62
7
  6
CONTINUOUS
 10
10.5773189105
 20
8.0388318604
 11
11.5173177661
 21
8.0388318604
  0
LWPOLYLINE
  5
236
100
AcDbEntity
  8
0
100
AcDbPolyline
 62
7
  6
CONTINUOUS
 90
6
 70
0
 10
11.5291345859
 20
7.3364016615
 10
11.5247205453
 20
7.3432843927
 10
11.5212005505
 20
7.3509208516
 10
11.5187828065
 20
7.3589744323
 10
11.5175148168
 20
7.3672869304
 10
11.5173169686
 20
7.3721551947
  0
LWPOLYLINE
  5
237
100
AcDbEntity
  8
0
100
AcDbPolyline
 62
7
  6
CONTINUOUS
 90
6
 70
0
 10
10.5655020943
 20
17.1912620465
 10
10.5699160653
 20
17.1843794424
 10
10.5734361014
 20
17.1767429312
 10
10.5758538658
 20
17.1686893097
 10
10.5771218618
 20
17.1603767873
 10
10.5773197104
 20
17.1555085187
  0
LINE
  5
238
100
AcDbEntity
  8
0
100
AcDbLine
 62
7
  6
CONTINUOUS
 10
11.5073177781
 20
15.1538318604
 11
11.4223183383
 21
15.1538318604
  0
LINE
  5
239
100
AcDbEntity
  8
0
100
AcDbLine
 62
7
  6
CONTINUOUS
 10
10.5873188985
 20
15.1538318604
 11
10.6723183383
 21
15.1538318604
  0
LINE
  5
23A
100
AcDbEntity
  8
0
100
AcDbLine
 62
7
  6
CONTINUOUS
 10
11.5073177781
 20
15.2538318604
 11
11.4223183383
 21
15.2538318604
  0
LINE
  5
23B
100
AcDbEntity
  8
0
100
AcDbLine
 62
7
  6
CONTINUOUS
 10
10.5873188985
 20
15.2538318604
 11
10.6723183383
 21
15.2538318604
  0
LINE
  5
23C
100
AcDbEntity
  8
0
100
AcDbLine
 62
9
  6
CONTINUOUS
 10
10.6723183383
 20
15.9892307801
 11
10.5973183383
 21
15.9892307801
  0
LINE
  5
23D
100
AcDbEntity
  8
0
100
AcDbLine
 62
9
  6
CONTINUOUS
 10
11.4223183383
 20
15.9892307801
 11
11.4973183383
 21
15.9892307801
  0
LINE
  5
23E
100
AcDbEntity
  8
0
100
AcDbLine
 62
9
  6
CONTINUOUS
 10
10.6723183383
 20
16.033755352
 11
10.5700683383
 21
16.033755352
  0
LINE
  5
23F
100
AcDbEntity
  8
0
100
AcDbLine
 62
9
  6
CONTINUOUS
 10
11.4223183383
 20
16.033755352
 11
11.5245683383
 21
16.033755352
  0
LINE
  5
240
100
AcDbEntity
  8
0
100
AcDbLine
 62
9
  6
CONTINUOUS
 10
10.6723183383
 20
16.0805063006
 11
10.5428679304
 21
16.0805063006
  0
LINE
  5
241
100
AcDbEntity
  8
0
100
AcDbLine
 62
9
  6
CONTINUOUS
 10
11.4223183383
 20
16.0805063006
 11
11.5517687462
 21
16.0805063006
  0
LINE
  5
242
100
AcDbEntity
  8
0
100
AcDbLine
 62
7
  6
CONTINUOUS
 10
10.5773189105
 20
16.4888318604
 11
11.5173177661
 21
16.4888318604
  0
LINE
  5
243
100
AcDbEntity
  8
0
100
AcDbLine
 62
9
  6
CONTINUOUS
 10
10.5773183383
 20
16.5011202622
 11
10.4593523576
 21
16.5011202622
  0
LINE
  5
244
100
AcDbEntity
  8
0
100
AcDbLine
 62
9
  6
CONTINUOUS
 10
11.5173183383
 20
16.5011202622
 11
11.635284319
 21
16.5011202622
  0
LINE
  5
245
100
AcDbEntity
  8
0
100
AcDbLine
 62
9
  6
CONTINUOUS
 10
10.5773183383
 20
16.5328318604
 11
10.4523183383
 21
16.5328318604
  0
LINE
  5
246
100
AcDbEntity
  8
0
100
AcDbLine
 62
9
  6
CONTINUOUS
 10
11.5173183383
 20
16.5328318604
 11
11.6423183383
 21
16.5328318604
  0
LINE
  5
247
100
AcDbEntity
  8
0
100
AcDbLine
 62
7
  6
CONTINUOUS
 10
11.6423177517
 20
16.6238318604
 11
11.5173183383
 21
16.6238318604
  0
LINE
  5
248
100
AcDbEntity
  8
0
100
AcDbLine
 62
7
  6
CONTINUOUS
 10
10.4523189248
 20
16.6238318604
 11
10.5773183383
 21
16.6238318604
  0
LINE
  5
249
100
AcDbEntity
  8
0
100
AcDbLine
 62
7
  6
CONTINUOUS
 10
10.3848183383
 20
16.6488318604
 11
10.5773183383
 21
16.6488318604
  0
LINE
  5
24A
100
AcDbEntity
  8
0
100
AcDbLine
 62
7
  6
CONTINUOUS
 10
11.5173183383
 20
16.6488318604
 11
11.7098183383
 21
16.6488318604
  0
LINE
  5
24B
100
AcDbEntity
  8
0
100
AcDbLine
 62
7
  6
CONTINUOUS
 10
12.2973183383
 20
20.4888318604
 11
9.7973183383
 21
20.4888318604
  0
LINE
  5
24C
100
AcDbEntity
  8
0
100
AcDbLine
 62
9
  6
CONTINUOUS
 10
12.3394221674
 20
20.614753838
 11
9.7552145092
 21
20.614753838
  0
LINE
  5
24D
100
AcDbEntity
  8
0
100
AcDbLine
 62
9
  6
CONTINUOUS
 10
12.3162670519
 20
20.695999128
 11
9.7783696247
 21
20.695999128
  0
LINE
  5
24E
100
AcDbEntity
  8
0
100
AcDbLine
 62
9
  6
CONTINUOUS
 10
12.4844758144
 20
20.8659915568
 11
9.6101608621
 21
20.8659915568
  0
LINE
  5
24F
100
AcDbEntity
  8
0
100
AcDbLine
 62
7
  6
CONTINUOUS
 10
12.4473183383
 20
21.0588318604
 11
9.6473183383
 21
21.0588318604
  0
ARC
  5
250
100
AcDbEntity
  8
0
100
AcDbCircle
 62
7
  6
CONTINUOUS
 10
9.6437605888
 20
-5.1274189168
 40
0.9
100
AcDbArc
 50
357.4479162909
 51
25.0128371525
  0
ARC
  5
251
100
AcDbEntity
  8
0
100
AcDbCircle
 62
7
  6
CONTINUOUS
 10
10.5273183383
 20
-4.7151681396
 40
0.075
100
AcDbArc
 50
180.0
 51
205.0128371525
  0
ARC
  5
252
100
AcDbEntity
  8
0
100
AcDbCircle
 62
7
  6
CONTINUOUS
 10
10.5473183383
 20
-5.2587692199
 40
0.05
100
AcDbArc
 50
0.0
 51
62.9350657712
  0
ARC
  5
253
100
AcDbEntity
  8
0
100
AcDbCircle
 62
7
  6
CONTINUOUS
 10
10.5928183383
 20
-5.1697200762
 40
0.05
100
AcDbArc
 50
177.4479162909
 51
242.9350657712
  0
ARC
  5
254
100
AcDbEntity
  8
0
100
AcDbCircle
 62
7
  6
CONTINUOUS
 10
10.5873183383
 20
-6.0441681396
 40
0.05
100
AcDbArc
 50
90.0
 51
270.0
  0
ARC
  5
255
100
AcDbEntity
  8
0
100
AcDbCircle
 62
7
  6
CONTINUOUS
 10
9.6437605888
 20
16.1205810832
 40
0.9
100
AcDbArc
 50
357.4479162909
 51
25.0128371525
  0
ARC
  5
256
100
AcDbEntity
  8
0
100
AcDbCircle
 62
7
  6
CONTINUOUS
 10
9.4986884336
 20
20.5874706462
 40
0.3
100
AcDbArc
 50
21.2084217618
 51
68.1872302638
  0
ARC
  5
257
100
AcDbEntity
  8
0
100
AcDbCircle
 62
7
  6
CONTINUOUS
 10
9.6473183383
 20
20.9588318604
 40
0.1
100
AcDbArc
 50
90.0
 51
248.1872302638
  0
ARC
  5
258
100
AcDbEntity
  8
0
100
AcDbCircle
 62
7
  6
CONTINUOUS
 10
10.5273183383
 20
16.5328318604
 40
0.075
100
AcDbArc
 50
180.0
 51
205.0128371525
  0
ARC
  5
259
100
AcDbEntity
  8
0
100
AcDbCircle
 62
7
  6
CONTINUOUS
 10
9.7131106801
 20
20.6706758156
 40
0.07
100
AcDbArc
 50
306.9762032489
 51
21.2084217618
  0
ARC
  5
25A
100
AcDbEntity
  8
0
100
AcDbCircle
 62
7
  6
CONTINUOUS
 10
9.7973183383
 20
20.5588318604
 40
0.07
100
AcDbArc
 50
126.9762032489
 51
270.0
  0
ARC
  5
25B
100
AcDbEntity
  8
0
100
AcDbCircle
 62
7
  6
CONTINUOUS
 10
10.5473183383
 20
15.9892307801
 40
0.05
100
AcDbArc
 50
0.0
 51
62.9350657712
  0
ARC
  5
25C
100
AcDbEntity
  8
0
100
AcDbCircle
 62
7
  6
CONTINUOUS
 10
10.5928183383
 20
16.0782799238
 40
0.05
100
AcDbArc
 50
177.4479162909
 51
242.9350657712
  0
ARC
  5
25D
100
AcDbEntity
  8
0
100
AcDbCircle
 62
7
  6
CONTINUOUS
 10
10.5873183383
 20
15.2038318604
 40
0.05
100
AcDbArc
 50
90.0
 51
270.0
  0
ARC
  5
25E
100
AcDbEntity
  8
0
100
AcDbCircle
 62
7
  6
CONTINUOUS
 10
12.4508760878
 20
-5.1274189168
 40
0.9
100
AcDbArc
 50
154.9871628475
 51
182.5520837091
  0
CIRCLE
  5
25F
100
AcDbEntity
  8
0
100
AcDbCircle
 62
7
  6
CONTINUOUS
 10
11.0473183383
 20
6.9788318604
 40
0.6
  0
CIRCLE
  5
260
100
AcDbEntity
  8
0
100
AcDbCircle
 62
9
  6
CONTINUOUS
 10
11.0473183383
 20
6.9788318604
 40
0.58
  0
ARC
  5
261
100
AcDbEntity
  8
0
100
AcDbCircle
 62
7
  6
CONTINUOUS
 10
11.5673183383
 20
-4.7151681396
 40
0.075
100
AcDbArc
 50
334.9871628475
 51
360.0
  0
ARC
  5
262
100
AcDbEntity
  8
0
100
AcDbCircle
 62
7
  6
CONTINUOUS
 10
11.5473183383
 20
-5.2587692199
 40
0.05
100
AcDbArc
 50
117.0649342288
 51
180.0
  0
ARC
  5
263
100
AcDbEntity
  8
0
100
AcDbCircle
 62
7
  6
CONTINUOUS
 10
11.5018183383
 20
-5.1697200762
 40
0.05
100
AcDbArc
 50
297.0649342288
 51
2.5520837091
  0
ARC
  5
264
100
AcDbEntity
  8
0
100
AcDbCircle
 62
7
  6
CONTINUOUS
 10
11.5073183383
 20
-6.0441681396
 40
0.05
100
AcDbArc
 50
270.0
 51
90.0
  0
ARC
  5
265
100
AcDbEntity
  8
0
100
AcDbCircle
 62
7
  6
CONTINUOUS
 10
12.4508760878
 20
16.1205810832
 40
0.9
100
AcDbArc
 50
154.9871628475
 51
182.5520837091
  0
CIRCLE
  5
266
100
AcDbEntity
  8
0
100
AcDbCircle
 62
7
  6
CONTINUOUS
 10
11.0473183383
 20
17.5488318604
 40
0.6
  0
ARC
  5
267
100
AcDbEntity
  8
0
100
AcDbCircle
 62
7
  6
CONTINUOUS
 10
11.0473183383
 20
17.5488318604
 40
0.6
100
AcDbArc
 50
274.0971452903
 51
323.419819246
  0
ARC
  5
268
100
AcDbEntity
  8
0
100
AcDbCircle
 62
7
  6
CONTINUOUS
 10
11.0473183383
 20
17.5488318604
 40
0.6
100
AcDbArc
 50
216.5801820168
 51
219.1499688033
  0
CIRCLE
  5
269
100
AcDbEntity
  8
0
100
AcDbCircle
 62
9
  6
CONTINUOUS
 10
11.0473183383
 20
17.5488318604
 40
0.58
  0
ARC
  5
26A
100
AcDbEntity
  8
0
100
AcDbCircle
 62
7
  6
CONTINUOUS
 10
12.5959482429
 20
20.5874706462
 40
0.3
100
AcDbArc
 50
111.8127697362
 51
158.7915782382
  0
ARC
  5
26B
100
AcDbEntity
  8
0
100
AcDbCircle
 62
7
  6
CONTINUOUS
 10
12.4473183383
 20
20.9588318604
 40
0.1
100
AcDbArc
 50
291.8127697362
 51
90.0
  0
ARC
  5
26C
100
AcDbEntity
  8
0
100
AcDbCircle
 62
7
  6
CONTINUOUS
 10
11.5673183383
 20
16.5328318604
 40
0.075
100
AcDbArc
 50
334.9871628475
 51
360.0
  0
ARC
  5
26D
100
AcDbEntity
  8
0
100
AcDbCircle
 62
7
  6
CONTINUOUS
 10
12.3815259965
 20
20.6706758156
 40
0.07
100
AcDbArc
 50
158.7915782382
 51
233.0237967511
  0
ARC
  5
26E
100
AcDbEntity
  8
0
100
AcDbCircle
 62
7
  6
CONTINUOUS
 10
12.2973183383
 20
20.5588318604
 40
0.07
100
AcDbArc
 50
270.0
 51
53.0237967511
  0
ARC
  5
26F
100
AcDbEntity
  8
0
100
AcDbCircle
 62
7
  6
CONTINUOUS
 10
11.5473183383
 20
15.9892307801
 40
0.05
100
AcDbArc
 50
117.0649342288
 51
180.0
  0
ARC
  5
270
100
AcDbEntity
  8
0
100
AcDbCircle
 62
7
  6
CONTINUOUS
 10
11.5018183383
 20
16.0782799238
 40
0.05
100
AcDbArc
 50
297.0649342288
 51
2.5520837091
  0
ARC
  5
271
100
AcDbEntity
  8
0
100
AcDbCircle
 62
7
  6
CONTINUOUS
 10
11.5073183383
 20
15.2038318604
 40
0.05
100
AcDbArc
 50
270.0
 51
90.0
  0
SPLINE
  5
272
100
AcDbEntity
  8
0
100
AcDbSpline
 62
9
  6
CONTINUOUS
 70
0
 71
3
 72
38
 73
34
 74
0
 42
0.0000001
 43
0.0000001
 44
0.0000000001
 40
0.0
 40
0.0
 40
0.0
 40
0.0
 40
0.0005270735
 40
0.0021048246
 40
0.0047236644
 40
0.0083506807
 40
0.0129453182
 40
0.0184651561
 40
0.0321006932
 40
0.0488501637
 40
0.0683104066
 40
0.0901229694
 40
0.113971251
 40
0.1395947212
 40
0.1667780078
 40
0.1953506517
 40
0.2251700421
 40
0.2561322045
 40
0.2881502258
 40
0.3211574065
 40
0.3550994932
 40
0.425631058
 40
0.4995240639
 40
0.5766148286
 40
0.6163173603
 40
0.6567513556
 40
0.7396486313
 40
0.7820304672
 40
0.8249402304
 40
0.8682948878
 40
0.9119955057
 40
0.9559388276
 40
1.0
 40
1.0
 40
1.0
 40
1.0
 10
10.5773183383
 20
7.3721552026
 30
0.0
 10
10.577372333
 20
7.3722381196
 30
0.0
 10
10.5775923853
 20
7.3725663313
 30
0.0
 10
10.5780800245
 20
7.3733069879
 30
0.0
 10
10.5788906781
 20
7.3745317393
 30
0.0
 10
10.5800174525
 20
7.3762264317
 30
0.0
 10
10.5814557294
 20
7.378367985
 30
0.0
 10
10.5839585428
 20
7.3820578528
 30
0.0
 10
10.587783903
 20
7.3876078134
 30
0.0
 10
10.5931959813
 20
7.3952418175
 30
0.0
 10
10.5996362472
 20
7.4040271293
 30
0.0
 10
10.6070378299
 20
7.4137580135
 30
0.0
 10
10.6153524144
 20
7.4242450709
 30
0.0
 10
10.624537274
 20
7.4353247667
 30
0.0
 10
10.6345609527
 20
7.4468560265
 30
0.0
 10
10.6454011215
 20
7.4587150088
 30
0.0
 10
10.6570458321
 20
7.470792012
 30
0.0
 10
10.6694825863
 20
7.4829948971
 30
0.0
 10
10.6827069916
 20
7.4952390756
 30
0.0
 10
10.6967189956
 20
7.507444279
 30
0.0
 10
10.7167113218
 20
7.5237725386
 30
0.0
 10
10.7436904115
 20
7.5436534374
 30
0.0
 10
10.778852093
 20
7.5659224896
 30
0.0
 10
10.8104867638
 20
7.5827616688
 30
0.0
 10
10.8373277213
 20
7.595058448
 30
0.0
 10
10.8656620057
 20
7.6066489904
 30
0.0
 10
10.8951965527
 20
7.6165702433
 30
0.0
 10
10.9257355496
 20
7.6246211473
 30
0.0
 10
10.9493532716
 20
7.6297102488
 30
0.0
 10
10.9734245499
 20
7.633744912
 30
0.0
 10
10.9978523838
 20
7.6366653114
 30
0.0
 10
11.0225229532
 20
7.6384336082
 30
0.0
 10
11.0390467165
 20
7.6388312236
 30
0.0
 10
11.0473183383
 20
7.6388318604
 30
0.0
  0
SPLINE
  5
273
100
AcDbEntity
  8
0
100
AcDbSpline
 62
9
  6
CONTINUOUS
 70
0
 71
3
 72
53
 73
49
 74
0
 42
0.0000001
 43
0.0000001
 44
0.0000000001
 40
0.0
 40
0.0
 40
0.0
 40
0.0
 40
0.0440619342
 40
0.0880060083
 40
0.1317073878
 40
0.1750627901
 40
0.217973292
 40
0.2603558599
 40
0.3432545576
 40
0.4233753632
 40
0.5004674514
 40
0.5743617086
 40
0.6448944903
 40
0.6788371673
 40
0.7118448649
 40
0.7438633941
 40
0.774826144
 40
0.8046460909
 40
0.8332191177
 40
0.8604027802
 40
0.8860267773
 40
0.9098754611
 40
0.9210555804
 40
0.9316884764
 40
0.941734312
 40
0.9511492216
 40
0.9598867428
 40
0.967899071
 40
0.9751332207
 40
0.9815347796
 40
0.9870546808
 40
0.9894703853
 40
0.9916493706
 40
0.9935863944
 40
0.9952764097
 40
0.9967143743
 40
0.9978952442
 40
0.9983879024
 40
0.9988151287
 40
0.9991768443
 40
0.9994729703
 40
0.9997034277
 40
0.9997940061
 40
0.9998681378
 40
0.9999258129
 40
0.9999670215
 40
0.9999917538
 40
1.0
 40
1.0
 40
1.0
 40
1.0
 10
11.0473183383
 20
16.8888318604
 30
0.0
 10
11.03904671
 20
16.8888324753
 30
0.0
 10
11.0225229318
 20
16.8892299651
 30
0.0
 10
10.9978523444
 20
16.8909983726
 30
0.0
 10
10.9734245197
 20
16.8939188946
 30
0.0
 10
10.9493531747
 20
16.8979534846
 30
0.0
 10
10.9257355679
 20
16.9030425865
 30
0.0
 10
10.8951959442
 20
16.9110936987
 30
0.0
 10
10.8585926828
 20
16.9233889877
 30
0.0
 10
10.817188936
 20
16.9413340091
 30
0.0
 10
10.7788526465
 20
16.961741084
 30
0.0
 10
10.7436900375
 20
16.9840104476
 30
0.0
 10
10.7167111513
 20
17.0038913155
 30
0.0
 10
10.6967188448
 20
17.0202196537
 30
0.0
 10
10.6827068049
 20
17.0324248017
 30
0.0
 10
10.66948235
 20
17.044668938
 30
0.0
 10
10.6570456511
 20
17.0568719128
 30
0.0
 10
10.6454010121
 20
17.0689489977
 30
0.0
 10
10.6345607857
 20
17.080807898
 30
0.0
 10
10.6245370332
 20
17.0923390906
 30
0.0
 10
10.6153522957
 20
17.1034188683
 30
0.0
 10
10.6082778439
 20
17.1123417619
 30
0.0
 10
10.6030564748
 20
17.1191401057
 30
0.0
 10
10.5994583985
 20
17.1239176147
 30
0.0
 10
10.5961000707
 20
17.1284605346
 30
0.0
 10
10.5929891181
 20
17.1327435983
 30
0.0
 10
10.5901340258
 20
17.1367404839
 30
0.0
 10
10.5875442317
 20
17.1404236047
 30
0.0
 10
10.5852287371
 20
17.1437633944
 30
0.0
 10
10.5831960951
 20
17.1467298587
 30
0.0
 10
10.5816852508
 20
17.1489572917
 30
0.0
 10
10.5806251215
 20
17.1505325744
 30
0.0
 10
10.5799428602
 20
17.1515514179
 30
0.0
 10
10.5793383741
 20
17.1524583843
 30
0.0
 10
10.5788124961
 20
17.1532505636
 30
0.0
 10
10.578366068
 20
17.1539251044
 30
0.0
 10
10.5780440284
 20
17.1544124174
 30
0.0
 10
10.5778264682
 20
17.1547413527
 30
0.0
 10
10.5776937041
 20
17.1549419822
 30
0.0
 10
10.5775812411
 20
17.1551118601
 30
0.0
 10
10.5774891954
 20
17.1552507994
 30
0.0
 10
10.5774250987
 20
17.1553475735
 30
0.0
 10
10.577384254
 20
17.1554091016
 30
0.0
 10
10.5773608753
 20
17.1554445282
 30
0.0
 10
10.5773437142
 20
17.1554699594
 30
0.0
 10
10.5773290929
 20
17.1554929983
 30
0.0
 10
10.5773245361
 20
17.1554981092
 30
0.0
 10
10.5773178576
 20
17.1555099902
 30
0.0
 10
10.5773183383
 20
17.1555085187
 30
0.0
  0
SPLINE
  5
274
100
AcDbEntity
  8
0
100
AcDbSpline
 62
9
  6
CONTINUOUS
 70
0
 71
3
 72
54
 73
50
 74
0
 42
0.0000001
 43
0.0000001
 44
0.0000000001
 40
0.0
 40
0.0
 40
0.0
 40
0.0
 40
0.0440619331
 40
0.0880060088
 40
0.1317073852
 40
0.1750627878
 40
0.2179732891
 40
0.2603558552
 40
0.3432545531
 40
0.4233753579
 40
0.5004674433
 40
0.574361701
 40
0.6448944782
 40
0.6788371519
 40
0.7118448543
 40
0.7438633879
 40
0.7748261285
 40
0.8046460656
 40
0.8332191007
 40
0.8604027722
 40
0.8860267603
 40
0.909875439
 40
0.9210555628
 40
0.931688464
 40
0.9417343025
 40
0.951149212
 40
0.9598867309
 40
0.967899056
 40
0.9751332046
 40
0.9815347675
 40
0.984407667
 40
0.9870546786
 40
0.9894703846
 40
0.9916493692
 40
0.9935863902
 40
0.9952764021
 40
0.9967143641
 40
0.9978952339
 40
0.998387893
 40
0.9988151208
 40
0.9991768381
 40
0.9994729659
 40
0.9997034251
 40
0.9997940043
 40
0.9998681366
 40
0.9999258122
 40
0.9999670213
 40
0.9999917538
 40
1.0
 40
1.0
 40
1.0
 40
1.0
 10
11.0473183383
 20
7.6388318604
 30
0.0
 10
11.0555899665
 20
7.6388312675
 30
0.0
 10
11.0721137452
 20
7.6384337465
 30
0.0
 10
11.0967843317
 20
7.6366653443
 30
0.0
 10
11.1212121597
 20
7.6337448408
 30
0.0
 10
11.1452834992
 20
7.6297102213
 30
0.0
 10
11.1689011128
 20
7.6246211516
 30
0.0
 10
11.1994407318
 20
7.6165700195
 30
0.0
 10
11.2360439967
 20
7.6042747415
 30
0.0
 10
11.2774477365
 20
7.5863297033
 30
0.0
 10
11.315784034
 20
7.5659226434
 30
0.0
 10
11.3509466358
 20
7.5436532685
 30
0.0
 10
11.3779255242
 20
7.5237724062
 30
0.0
 10
11.3979178383
 20
7.5074440771
 30
0.0
 10
11.4119298726
 20
7.4952389202
 30
0.0
 10
11.4251543202
 20
7.4829947758
 30
0.0
 10
11.4375910257
 20
7.4707918115
 30
0.0
 10
11.4492356741
 20
7.4587147378
 30
0.0
 10
11.4600758937
 20
7.4468558287
 30
0.0
 10
11.4700996375
 20
7.4353246265
 30
0.0
 10
11.4792843823
 20
7.4242448558
 30
0.0
 10
11.4863588368
 20
7.4153219662
 30
0.0
 10
11.4915802031
 20
7.408523619
 30
0.0
 10
11.495178278
 20
7.4037461059
 30
0.0
 10
11.4985366052
 20
7.3992031836
 30
0.0
 10
11.501647558
 20
7.3949201198
 30
0.0
 10
11.5045026509
 20
7.3909232357
 30
0.0
 10
11.5070924448
 20
7.387240116
 30
0.0
 10
11.5094079425
 20
7.3839003291
 30
0.0
 10
11.5111596981
 20
7.3813437753
 30
0.0
 10
11.5124179271
 20
7.3794929783
 30
0.0
 10
11.5132525369
 20
7.3782589878
 30
0.0
 10
11.5140115552
 20
7.3771311401
 30
0.0
 10
11.5146938158
 20
7.3761122967
 30
0.0
 10
11.5152983023
 20
7.3752053321
 30
0.0
 10
11.5158241805
 20
7.3744131548
 30
0.0
 10
11.5162706088
 20
7.3737386156
 30
0.0
 10
11.5165926486
 20
7.3732513031
 30
0.0
 10
11.5168102083
 20
7.3729223671
 30
0.0
 10
11.5169429732
 20
7.3727217367
 30
0.0
 10
11.517055434
 20
7.3725518571
 30
0.0
 10
11.5171474854
 20
7.3724129182
 30
0.0
 10
11.517211569
 20
7.3723161397
 30
0.0
 10
11.5172524337
 20
7.3722546159
 30
0.0
 10
11.5172757703
 20
7.372219178
 30
0.0
 10
11.51729304
 20
7.3721937747
 30
0.0
 10
11.5173074155
 20
7.3721706716
 30
0.0
 10
11.5173124035
 20
7.3721656727
 30
0.0
 10
11.5173186356
 20
7.3721536755
 30
0.0
 10
11.5173183383
 20
7.3721551947
 30
0.0
  0
SPLINE
  5
275
100
AcDbEntity
  8
0
100
AcDbSpline
 62
9
  6
CONTINUOUS
 70
0
 71
3
 72
41
 73
37
 74
0
 42
0.0000001
 43
0.0000001
 44
0.0000000001
 40
0.0
 40
0.0
 40
0.0
 40
0.0
 40
0.0001318945
 40
0.0005270911
 40
0.0011849573
 40
0.0021048603
 40
0.0047237073
 40
0.0083507261
 40
0.0129453707
 40
0.0184652209
 40
0.024866736
 40
0.0321008363
 40
0.0488503052
 40
0.0683105452
 40
0.0901231435
 40
0.113971421
 40
0.1395948629
 40
0.1667781666
 40
0.1953508317
 40
0.2251702041
 40
0.2561323449
 40
0.2881503695
 40
0.3211575554
 40
0.3550996329
 40
0.4256311803
 40
0.4995241756
 40
0.5766149231
 40
0.6163174488
 40
0.6567514348
 40
0.7396486951
 40
0.7820305202
 40
0.8249402739
 40
0.8682949229
 40
0.9119955282
 40
0.9559388408
 40
1.0
 40
1.0
 40
1.0
 40
1.0
 10
11.5173183383
 20
17.1555085266
 30
0.0
 10
11.5173049781
 20
17.1554876796
 30
0.0
 10
11.5172494722
 20
17.1554057479
 30
0.0
 10
11.517127358
 20
17.1552198149
 30
0.0
 10
11.5169224257
 20
17.154911284
 30
0.0
 10
11.5164880425
 20
17.154254026
 30
0.0
 10
11.5157462166
 20
17.1531318181
 30
0.0
 10
11.5146191221
 20
17.1514373325
 30
0.0
 10
11.5131809544
 20
17.1492957031
 30
0.0
 10
11.5114404769
 20
17.1467297215
 30
0.0
 10
11.5094078138
 20
17.1437632304
 30
0.0
 10
11.506157836
 20
17.1390753834
 30
0.0
 10
11.5014406107
 20
17.1324219002
 30
0.0
 10
11.4950004062
 20
17.1236365478
 30
0.0
 10
11.4875988217
 20
17.1139056526
 30
0.0
 10
11.4792842335
 20
17.1034185973
 30
0.0
 10
11.4700993479
 20
17.0923389254
 30
0.0
 10
11.4600756868
 20
17.080807647
 30
0.0
 10
11.4492355334
 20
17.0689486433
 30
0.0
 10
11.4375908047
 20
17.0568716603
 30
0.0
 10
11.4251540362
 20
17.0446687983
 30
0.0
 10
11.411929643
 20
17.032424609
 30
0.0
 10
11.3979176494
 20
17.0202193916
 30
0.0
 10
11.3779253119
 20
17.0038911488
 30
0.0
 10
11.350946219
 20
16.9840102642
 30
0.0
 10
11.3157845523
 20
16.9617411976
 30
0.0
 10
11.2841498708
 20
16.9449020473
 30
0.0
 10
11.2573089259
 20
16.9326052509
 30
0.0
 10
11.2289746419
 20
16.9210147157
 30
0.0
 10
11.1994400976
 20
16.9110934736
 30
0.0
 10
11.1689011112
 20
16.903042544
 30
0.0
 10
11.1452833834
 20
16.8979534883
 30
0.0
 10
11.1212121156
 20
16.8939187898
 30
0.0
 10
11.0967842818
 20
16.8909984142
 30
0.0
 10
11.0721137187
 20
16.889230122
 30
0.0
 10
11.0555899582
 20
16.8888324656
 30
0.0
 10
11.0473183383
 20
16.8888318604
 30
0.0
  0
SPLINE
  5
276
100
AcDbEntity
  8
0
100
AcDbSpline
 62
9
  6
CONTINUOUS
 70
0
 71
3
 72
53
 73
49
 74
0
 42
0.0000001
 43
0.0000001
 44
0.0000000001
 40
0.0
 40
0.0
 40
0.0
 40
0.0
 40
0.0171082794
 40
0.0341953865
 40
0.0512346906
 40
0.0682068513
 40
0.0850927961
 40
0.1018753358
 40
0.1350703052
 40
0.1677225023
 40
0.1997979324
 40
0.2312993901
 40
0.2622572769
 40
0.2927234147
 40
0.3227640238
 40
0.3524561951
 40
0.3818885954
 40
0.4111588543
 40
0.4403772929
 40
0.4696715715
 40
0.4991917989
 40
0.5291159635
 40
0.544293473
 40
0.5596500771
 40
0.575216555
 40
0.5910187515
 40
0.6070756328
 40
0.6233997846
 40
0.6399880921
 40
0.6568084285
 40
0.6738077703
 40
0.6909053695
 40
0.7080044962
 40
0.7250081944
 40
0.7418348086
 40
0.7584306913
 40
0.7747630945
 40
0.7908279689
 40
0.8066376047
 40
0.8222108911
 40
0.8375734169
 40
0.8527559481
 40
0.8826877428
 40
0.9122126875
 40
0.9415092165
 40
0.956121391
 40
0.970731395
 40
1.0
 40
1.0
 40
1.0
 40
1.0
 10
11.0473183383
 20
18.2088318604
 30
0.0
 10
11.0391169517
 20
18.2088308789
 30
0.0
 10
11.0227220915
 20
18.2084635522
 30
0.0
 10
10.9982078723
 20
18.20683235
 30
0.0
 10
10.9738532546
 20
18.2041326888
 30
0.0
 10
10.9497373525
 20
18.2003744016
 30
0.0
 10
10.9259282727
 20
18.1955948904
 30
0.0
 10
10.8947945202
 20
18.1879391325
 30
0.0
 10
10.8569626918
 20
18.1760283172
 30
0.0
 10
10.8134618377
 20
18.1582512662
 30
0.0
 10
10.772256612
 20
18.1374033651
 30
0.0
 10
10.7334966667
 20
18.1138364844
 30
0.0
 10
10.6972424243
 20
18.0878817662
 30
0.0
 10
10.6635099459
 20
18.0598120939
 30
0.0
 10
10.6322717954
 20
18.0298652039
 30
0.0
 10
10.6034755969
 20
17.9982331906
 30
0.0
 10
10.5770728451
 20
17.9650505304
 30
0.0
 10
10.5529998629
 20
17.9304190272
 30
0.0
 10
10.5312030652
 20
17.8943901279
 30
0.0
 10
10.5116434349
 20
17.85696449
 30
0.0
 10
10.4943014774
 20
17.8180911593
 30
0.0
 10
10.481770644
 20
17.7845587873
 30
0.0
 10
10.4728887111
 20
17.7569668151
 30
0.0
 10
10.4667732452
 20
17.7357260856
 30
0.0
 10
10.4612610051
 20
17.7140118325
 30
0.0
 10
10.4563734126
 20
17.6918045573
 30
0.0
 10
10.4521285486
 20
17.6690957843
 30
0.0
 10
10.4485721266
 20
17.6458873653
 30
0.0
 10
10.4457504161
 20
17.6222095993
 30
0.0
 10
10.4436806294
 20
17.5981292459
 30
0.0
 10
10.4424226209
 20
17.5737480687
 30
0.0
 10
10.4419955404
 20
17.5492046495
 30
0.0
 10
10.4423977498
 20
17.524658739
 30
0.0
 10
10.4436298715
 20
17.5002703971
 30
0.0
 10
10.4456764016
 20
17.4761792767
 30
0.0
 10
10.4484757185
 20
17.4524881904
 30
0.0
 10
10.4520101984
 20
17.4292648628
 30
0.0
 10
10.4562349764
 20
17.4065407848
 30
0.0
 10
10.4611034265
 20
17.3843183887
 30
0.0
 10
10.4665970631
 20
17.3625894474
 30
0.0
 10
10.472694557
 20
17.3413346878
 30
0.0
 10
10.4815533041
 20
17.3137259311
 30
0.0
 10
10.4940555125
 20
17.2801738137
 30
0.0
 10
10.5113636629
 20
17.2412784616
 30
0.0
 10
10.5276506824
 20
17.210042183
 30
0.0
 10
10.5417752584
 20
17.1857999266
 30
0.0
 10
10.5566451208
 20
17.1620244021
 30
0.0
 10
10.5686455423
 20
17.1447259102
 30
0.0
 10
10.5770098618
 20
17.1334608315
 30
0.0
  0
SPLINE
  5
277
100
AcDbEntity
  8
0
100
AcDbSpline
 62
9
  6
CONTINUOUS
 70
0
 71
3
 72
53
 73
49
 74
0
 42
0.0000001
 43
0.0000001
 44
0.0000000001
 40
0.0
 40
0.0
 40
0.0
 40
0.0
 40
0.0292686091
 40
0.0438786234
 40
0.0584907983
 40
0.0877873117
 40
0.1173122585
 40
0.1472440591
 40
0.1624265834
 40
0.1777891001
 40
0.1933623928
 40
0.2091720364
 40
0.2252368851
 40
0.2415692781
 40
0.2581651936
 40
0.2749918311
 40
0.2919955102
 40
0.3090946086
 40
0.3261922397
 40
0.3431915993
 40
0.3600119047
 40
0.3766001874
 40
0.3929243607
 40
0.4089812664
 40
0.4247834421
 40
0.4403499038
 40
0.4557065171
 40
0.4708840443
 40
0.5008082206
 40
0.5303284224
 40
0.5596227031
 40
0.588841148
 40
0.6181114081
 40
0.6475438117
 40
0.6772359829
 40
0.7072765882
 40
0.7377427278
 40
0.768700613
 40
0.8002020697
 40
0.8322775011
 40
0.8649296965
 40
0.8981246659
 40
0.9149072049
 40
0.9317931504
 40
0.9487653098
 40
0.9658046129
 40
0.9828917201
 40
1.0
 40
1.0
 40
1.0
 40
1.0
 10
11.5176268415
 20
17.1334607996
 30
0.0
 10
11.5259911825
 20
17.1447258649
 30
0.0
 10
11.5379915839
 20
17.162024382
 30
0.0
 10
11.552861401
 20
17.1857999428
 30
0.0
 10
11.5669859797
 20
17.2100421943
 30
0.0
 10
11.5832730506
 20
17.2412784397
 30
0.0
 10
11.6005811787
 20
17.2801738004
 30
0.0
 10
11.613083358
 20
17.3137259284
 30
0.0
 10
11.621942125
 20
17.3413346735
 30
0.0
 10
11.6280396438
 20
17.3625894215
 30
0.0
 10
11.6335332565
 20
17.3843183723
 30
0.0
 10
11.6384016617
 20
17.4065407718
 30
0.0
 10
11.6426265235
 20
17.4292648202
 30
0.0
 10
11.6461610341
 20
17.4524881426
 30
0.0
 10
11.6489602657
 20
17.4761792648
 30
0.0
 10
11.6510065475
 20
17.5002704188
 30
0.0
 10
11.6522391443
 20
17.5246587248
 30
0.0
 10
11.6526410992
 20
17.5492046401
 30
0.0
 10
11.6522138494
 20
17.573748058
 30
0.0
 10
11.6509563219
 20
17.5981292714
 30
0.0
 10
11.6488862268
 20
17.6222095851
 30
0.0
 10
11.6460644723
 20
17.6458873254
 30
0.0
 10
11.6425081148
 20
17.6690957643
 30
0.0
 10
11.6382633318
 20
17.6918045659
 30
0.0
 10
11.6333756638
 20
17.7140118197
 30
0.0
 10
11.6278633814
 20
17.7357260474
 30
0.0
 10
11.6217479402
 20
17.7569667892
 30
0.0
 10
11.6128660572
 20
17.784558797
 30
0.0
 10
11.6003352552
 20
17.818091186
 30
0.0
 10
11.5829931945
 20
17.8569644648
 30
0.0
 10
11.5634335934
 20
17.8943901064
 30
0.0
 10
11.5416368133
 20
17.9304190236
 30
0.0
 10
11.5175638237
 20
17.9650505281
 30
0.0
 10
11.4911610896
 20
17.998233205
 30
0.0
 10
11.4623648951
 20
18.029865224
 30
0.0
 10
11.4311267163
 20
18.0598120824
 30
0.0
 10
11.3973942636
 20
18.0878817822
 30
0.0
 10
11.3611400104
 20
18.1138364895
 30
0.0
 10
11.3223800476
 20
18.1374033354
 30
0.0
 10
11.2811748573
 20
18.1582513107
 30
0.0
 10
11.2376739662
 20
18.176028268
 30
0.0
 10
11.1998421679
 20
18.1879391772
 30
0.0
 10
11.1687083938
 20
18.1955948538
 30
0.0
 10
11.144899318
 20
18.2003743734
 30
0.0
 10
11.1207834261
 20
18.2041327255
 30
0.0
 10
11.0964288075
 20
18.2068323798
 30
0.0
 10
11.0719145846
 20
18.2084635327
 30
0.0
 10
11.0555197252
 20
18.2088308517
 30
0.0
 10
11.0473183383
 20
18.2088318604
 30
0.0
  0
SPLINE
  5
278
100
AcDbEntity
  8
0
100
AcDbSpline
 62
9
  6
CONTINUOUS
 70
0
 71
3
 72
41
 73
37
 74
0
 42
0.0000001
 43
0.0000001
 44
0.0000000001
 40
0.0
 40
0.0
 40
0.0
 40
0.0
 40
0.0001318945
 40
0.0005270912
 40
0.0011849573
 40
0.0021048603
 40
0.0047237074
 40
0.0083507262
 40
0.0129453708
 40
0.018465221
 40
0.0248667361
 40
0.0321008363
 40
0.0488503053
 40
0.0683105452
 40
0.0901231435
 40
0.113971421
 40
0.1395948632
 40
0.166778167
 40
0.1953508322
 40
0.2251702046
 40
0.2561323454
 40
0.2881503701
 40
0.3211575561
 40
0.3550996336
 40
0.425631181
 40
0.4995241762
 40
0.5766149236
 40
0.6163174493
 40
0.6567514352
 40
0.7396486954
 40
0.7820305204
 40
0.8249402741
 40
0.868294923
 40
0.9119955283
 40
0.9559388408
 40
1.0
 40
1.0
 40
1.0
 40
1.0
 10
11.5173183383
 20
6.5855085266
 30
0.0
 10
11.5173049691
 20
6.5854876854
 30
0.0
 10
11.5172494852
 20
6.5854057396
 30
0.0
 10
11.5171273497
 20
6.5852198202
 30
0.0
 10
11.5169224294
 20
6.5849112816
 30
0.0
 10
11.5164880389
 20
6.5842540282
 30
0.0
 10
11.5157462184
 20
6.5831318169
 30
0.0
 10
11.5146191214
 20
6.581437333
 30
0.0
 10
11.5131809546
 20
6.5792957029
 30
0.0
 10
11.5114404768
 20
6.5767297215
 30
0.0
 10
11.5094078137
 20
6.5737632304
 30
0.0
 10
11.506157836
 20
6.5690753834
 30
0.0
 10
11.5014406107
 20
6.5624219002
 30
0.0
 10
11.4950004062
 20
6.5536365478
 30
0.0
 10
11.4875988217
 20
6.5439056526
 30
0.0
 10
11.4792842334
 20
6.5334185973
 30
0.0
 10
11.4700993477
 20
6.5223389253
 30
0.0
 10
11.4600756867
 20
6.5108076468
 30
0.0
 10
11.4492355333
 20
6.4989486431
 30
0.0
 10
11.4375908045
 20
6.4868716601
 30
0.0
 10
11.425154036
 20
6.4746687981
 30
0.0
 10
11.4119296427
 20
6.4624246088
 30
0.0
 10
11.3979176491
 20
6.4502193913
 30
0.0
 10
11.3779253117
 20
6.4338911485
 30
0.0
 10
11.3509462186
 20
6.414010264
 30
0.0
 10
11.315784552
 20
6.3917411973
 30
0.0
 10
11.2841498705
 20
6.3749020472
 30
0.0
 10
11.2573089257
 20
6.3626052508
 30
0.0
 10
11.2289746417
 20
6.3510147156
 30
0.0
 10
11.1994400974
 20
6.3410934736
 30
0.0
 10
11.1689011111
 20
6.3330425439
 30
0.0
 10
11.1452833833
 20
6.3279534883
 30
0.0
 10
11.1212121155
 20
6.3239187898
 30
0.0
 10
11.0967842817
 20
6.3209984142
 30
0.0
 10
11.0721137187
 20
6.319230122
 30
0.0
 10
11.0555899582
 20
6.3188324656
 30
0.0
 10
11.0473183383
 20
6.3188318604
 30
0.0
  0
SPLINE
  5
279
100
AcDbEntity
  8
0
100
AcDbSpline
 62
9
  6
CONTINUOUS
 70
0
 71
3
 72
52
 73
48
 74
0
 42
0.0000001
 43
0.0000001
 44
0.0000000001
 40
0.0
 40
0.0
 40
0.0
 40
0.0
 40
0.0440619341
 40
0.0880060081
 40
0.1317073876
 40
0.1750627898
 40
0.2179732916
 40
0.2603558595
 40
0.3432545572
 40
0.4233753627
 40
0.5004674508
 40
0.5743617079
 40
0.6448944896
 40
0.6788371667
 40
0.7118448644
 40
0.7438633937
 40
0.7748261436
 40
0.8046460905
 40
0.8332191174
 40
0.8604027801
 40
0.8860267774
 40
0.9098754612
 40
0.9210555806
 40
0.9316884765
 40
0.9417343121
 40
0.9511492216
 40
0.9598867428
 40
0.9678990711
 40
0.9751332207
 40
0.9815347796
 40
0.9870546808
 40
0.9894703853
 40
0.9916493706
 40
0.9935863944
 40
0.9952764097
 40
0.9967143743
 40
0.9978952442
 40
0.9983879024
 40
0.9988151287
 40
0.9991768443
 40
0.9994729702
 40
0.9997034277
 40
0.9998681378
 40
0.9999258129
 40
0.9999670215
 40
0.9999917538
 40
1.0
 40
1.0
 40
1.0
 40
1.0
 10
11.0473183383
 20
6.3188318604
 30
0.0
 10
11.03904671
 20
6.3188324753
 30
0.0
 10
11.0225229319
 20
6.3192299651
 30
0.0
 10
10.9978523445
 20
6.3209983725
 30
0.0
 10
10.9734245198
 20
6.3239188946
 30
0.0
 10
10.9493531748
 20
6.3279534846
 30
0.0
 10
10.925735568
 20
6.3330425864
 30
0.0
 10
10.8951959444
 20
6.3410936987
 30
0.0
 10
10.858592683
 20
6.3533889875
 30
0.0
 10
10.8171889363
 20
6.371334009
 30
0.0
 10
10.7788526468
 20
6.3917410837
 30
0.0
 10
10.7436900378
 20
6.4140104475
 30
0.0
 10
10.7167111516
 20
6.4338913152
 30
0.0
 10
10.696718845
 20
6.4502196534
 30
0.0
 10
10.6827068052
 20
6.4624248015
 30
0.0
 10
10.6694823503
 20
6.4746689378
 30
0.0
 10
10.6570456513
 20
6.4868719126
 30
0.0
 10
10.6454010121
 20
6.4989489975
 30
0.0
 10
10.6345607858
 20
6.5108078979
 30
0.0
 10
10.6245370333
 20
6.5223390906
 30
0.0
 10
10.6153522957
 20
6.5334188683
 30
0.0
 10
10.6082778439
 20
6.542341762
 30
0.0
 10
10.6030564748
 20
6.5491401057
 30
0.0
 10
10.5994583984
 20
6.5539176147
 30
0.0
 10
10.5961000707
 20
6.5584605346
 30
0.0
 10
10.5929891181
 20
6.5627435983
 30
0.0
 10
10.5901340258
 20
6.566740484
 30
0.0
 10
10.5875442317
 20
6.5704236047
 30
0.0
 10
10.5852287371
 20
6.5737633945
 30
0.0
 10
10.5831960952
 20
6.5767298587
 30
0.0
 10
10.5816852508
 20
6.5789572917
 30
0.0
 10
10.5806251215
 20
6.5805325744
 30
0.0
 10
10.5799428602
 20
6.5815514181
 30
0.0
 10
10.5793383743
 20
6.5824583838
 30
0.0
 10
10.5788124954
 20
6.583250565
 30
0.0
 10
10.5783660699
 20
6.5839251005
 30
0.0
 10
10.5780440241
 20
6.5844124263
 30
0.0
 10
10.5778264742
 20
6.5847413405
 30
0.0
 10
10.5776936859
 20
6.5849420192
 30
0.0
 10
10.5775812935
 20
6.5851117534
 30
0.0
 10
10.5774890526
 20
6.5852510904
 30
0.0
 10
10.5774177576
 20
6.5853584679
 30
0.0
 10
10.5773699648
 20
6.585430978
 30
0.0
 10
10.5773437107
 20
6.5854699865
 30
0.0
 10
10.5773290762
 20
6.5854929889
 30
0.0
 10
10.5773245646
 20
6.585498119
 30
0.0
 10
10.5773178377
 20
6.5855099835
 30
0.0
 10
10.5773183383
 20
6.5855085187
 30
0.0
  0
ENDSEC
  0
SECTION
  2
OBJECTS
  0
DICTIONARY
  5
C
100
AcDbDictionary
280
0
281
1
  3
ACAD_GROUP
350
D
  3
ACAD_MLINESTYLE
350
17
  3
ACAD_LAYOUT
350
1A
  3
ACAD_PLOTSETTINGS
350
19
  3
ACAD_PLOTSTYLENAME
350
E
  0
DICTIONARY
  5
D
102
{ACAD_REACTORS
330
C
102
}
100
AcDbDictionary
280
0
281
1
  0
ACDBDICTIONARYWDFLT
  5
E
102
{ACAD_REACTORS
330
C
102
}
100
AcDbDictionary
281
1
  3
Normal
350
F
100
AcDbDictionaryWithDefault
340
F
  0
DICTIONARY
  5
17
102
{ACAD_REACTORS
330
C
102
}
100
AcDbDictionary
280
0
281
1
  3
Standard
350
18
  0
DICTIONARY
  5
19
102
{ACAD_REACTORS
330
C
102
}
100
AcDbDictionary
281
1
  0
DICTIONARY
  5
1A
102
{ACAD_REACTORS
330
C
102
}
100
AcDbDictionary
281
1
  3
Model
350
27A
  3
Layout1
350
27B
  0
ACDBPLACEHOLDER
  5
F
102
{ACAD_REACTORS
330
E
102
}
  0
MLINESTYLE
  5
18
102
{ACAD_REACTORS
330
17
102
}
100
AcDbMlineStyle
  2
STANDARD
 70
0
  3

 62
256
 51
90.0
 52
90.0
 71
2
 49
0.5
 62
256
  6
BYLAYER
 49
-0.5
 62
256
  6
BYLAYER
  0
LAYOUT
  5
27A
102
{ACAD_REACTORS
330
1A
102
}
100
AcDbPlotSettings
  1

  2
none_device
  4
ANSI_C_(22.00_x_17.00_Inches)
  6

 40
0.0
 41
0.0
 42
0.0
 43
0.0
 44
558.8
 45
431.8
 46
0.0
 47
0.0
 48
0.0
 49
0.0
140
0.0
141
0.0
142
1.0
143
1.0
 70
1024
 72
0
 73
0
 74
0
  7

 75
0
147
1.0
148
0.0
149
0.0
100
AcDbLayout
  1
Model
 70
0
 71
0
 10
0.0
 20
0.0
 11
22.0
 21
17.0
 12
0.0
 22
0.0
 32
0.0
 14
0.0
 24
0.0
 34
0.0
 15
0.0
 25
0.0
 35
0.0
146
0.0
 13
0.0
 23
0.0
 33
0.0
 16
1.0
 26
0.0
 36
0.0
 17
0.0
 27
1.0
 37
0.0
 76
0
330
205
345
0
346
0
  0
LAYOUT
  5
27B
102
{ACAD_REACTORS
330
1A
102
}
100
AcDbPlotSettings
  1

  2
none_device
  4
ANSI_C_(22.00_x_17.00_Inches)
  6

 40
0.0
 41
0.0
 42
0.0
 43
0.0
 44
558.8
 45
431.8
 46
0.0
 47
0.0
 48
0.0
 49
0.0
140
0.0
141
0.0
142
1.0
143
1.0
 70
0
 72
0
 73
0
 74
0
  7

 75
0
147
1.0
148
0.0
149
0.0
100
AcDbLayout
  1
Layout1
 70
0
 71
1
 10
0.0
 20
0.0
 11
22.0
 21
17.0
 12
0.0
 22
0.0
 32
0.0
 14
0.0
 24
0.0
 34
0.0
 15
0.0
 25
0.0
 35
0.0
146
0.0
 13
0.0
 23
0.0
 33
0.0
 16
1.0
 26
0.0
 36
0.0
 17
0.0
 27
1.0
 37
0.0
 76
0
330
206
345
0
346
0
  0
ENDSEC
  0
EOF
