999
DXF file: E:\BT Custom\CADOUTPUT\_TOP.dxf
999
Pro/ENGINEER 2018400 by Parametric Technology Corporation
  0
SECTION
  2
HEADER
  9
$ACADVER
  1
AC1018
  9
$DWGCODEPAGE
  3
ANSI_1252
  9
$EXTMAX
 10
22.0
 20
17.0
 30
0.0
  9
$EXTMIN
 10
0.0
 20
0.0
 30
0.0
  9
$LIMMIN
 10
0.0
 20
0.0
  9
$LIMMAX
 10
22.0
 20
17.0
  9
$VIEWCTR
 10
11.0
 20
8.5
  9
$VIEWSIZE
 40
17.0
  9
$CLAYER
  8
0
  9
$LTSCALE
 40
1.21
  9
$CELTYPE
  6
BYLAYER
  9
$DIMSCALE
 40
1.0
  9
$DIMASZ
 40
0.1
  9
$DIMEXO
 40
0.0625
  9
$DIMDLI
 40
0.836
  9
$DIMEXE
 40
0.125
  9
$DIMCEN
 40
0.198
  9
$DIMLFAC
 40
1.0
  9
$DIMBLK
  1
_FILLED
  9
$DIMALT
 70
1
  9
$DIMALTD
 70
2
  9
$DIMALTTD
 70
2
  9
$DIMALTF
 40
25.4
  9
$DIMTXT
 40
0.08
  9
$DIMTOL
 70
1
  9
$DIMLIM
 70
0
  9
$DIMTFAC
 40
1.0
  9
$DIMTP
 40
0.001
  9
$DIMTM
 40
0.001
  9
$DIMGAP
 40
0.09
  9
$DIMDSEP
 70
46
  9
$AUNITS
 70
0
  9
$PDMODE
 70
3
  9
$PDSIZE
 40
0.06
  9
$HANDSEED
  5
280
  9
$TILEMODE
 70
1
  9
$MEASUREMENT
 70
0
  9
$INSUNITS
 70
1
  0
ENDSEC
  0
SECTION
  2
CLASSES
  0
CLASS
  1
ACDBDICTIONARYWDFLT
  2
AcDbDictionaryWithDefault
  3
AutoCAD 2000
 90
0
 91
1
280
0
281
0
  0
CLASS
  1
ACDBPLACEHOLDER
  2
AcDbPlaceHolder
  3
AutoCAD 2000
 90
0
 91
1
280
0
281
0
  0
CLASS
  1
LAYOUT
  2
AcDbLayout
  3
AutoCAD 2000
 90
0
 91
0
280
0
281
0
  0
ENDSEC
  0
SECTION
  2
TABLES
  0
TABLE
  2
VPORT
  5
8
100
AcDbSymbolTable
 70
2
  0
VPORT
  5
1F4
100
AcDbSymbolTableRecord
100
AcDbViewportTableRecord
  2
*ACTIVE
 70
0
 10
0.0
 20
0.0
 11
1.0
 21
1.0
 12
11.0
 22
8.5
 13
0.0
 23
0.0
 14
1.0
 24
1.0
 15
0.0
 25
0.0
 16
0.0
 26
0.0
 36
1.0
 17
0.0
 27
0.0
 37
0.0
 40
17.0
 41
1.2941176471
 42
50.0
 43
0.0
 44
0.0
 50
0.0
 51
0.0
 71
0
 72
100
 73
1
 74
1
 75
0
 76
0
 77
0
 78
0
  0
ENDTAB
  0
TABLE
  2
LTYPE
  5
5
100
AcDbSymbolTable
 70
6
  0
LTYPE
  5
14
100
AcDbSymbolTableRecord
100
AcDbLinetypeTableRecord
  2
BYBLOCK
 70
0
  3

 72
65
 73
0
 40
0.0
  0
LTYPE
  5
15
100
AcDbSymbolTableRecord
100
AcDbLinetypeTableRecord
  2
BYLAYER
 70
0
  3

 72
65
 73
0
 40
0.0
  0
LTYPE
  5
16
100
AcDbSymbolTableRecord
100
AcDbLinetypeTableRecord
  2
CONTINUOUS
 70
64
  3
Solid line
 72
65
 73
0
 40
0.0
  0
LTYPE
  5
1F5
100
AcDbSymbolTableRecord
100
AcDbLinetypeTableRecord
  2
CENTER
 70
64
  3
____ _ ____ _ ____ _ ____ _ ____ _ ____ _ ____
 72
65
 73
4
 40
0.6
 49
0.375
 74
0
 49
-0.075
 74
0
 49
0.075
 74
0
 49
-0.075
 74
0
  0
LTYPE
  5
1F6
100
AcDbSymbolTableRecord
100
AcDbLinetypeTableRecord
  2
HIDDEN
 70
64
  3
- - - - - - - - - - - - - - - - - - - -
 72
65
 73
2
 40
0.2
 49
0.1
 74
0
 49
-0.1
 74
0
  0
LTYPE
  5
1F7
100
AcDbSymbolTableRecord
100
AcDbLinetypeTableRecord
  2
PHANTOM
 70
64
  3
_____ _ _ _____ _ _ _____ _ _ _____
 72
65
 73
6
 40
0.8
 49
0.45
 74
0
 49
-0.05
 74
0
 49
0.1
 74
0
 49
-0.05
 74
0
 49
0.1
 74
0
 49
-0.05
 74
0
  0
LTYPE
  5
1F8
100
AcDbSymbolTableRecord
100
AcDbLinetypeTableRecord
  2
DOT
 70
64
  3
. . . . . . . . . . . . . . . . . . . .
 72
65
 73
2
 40
0.2
 49
0.1
 74
0
 49
-0.1
 74
0
  0
LTYPE
  5
1F9
100
AcDbSymbolTableRecord
100
AcDbLinetypeTableRecord
  2
DASHED
 70
64
  3
- - - - - - - - - - - - - - - - - - - -
 72
65
 73
2
 40
0.2
 49
0.1
 74
0
 49
-0.1
 74
0
  0
ENDTAB
  0
TABLE
  2
LAYER
  5
2
100
AcDbSymbolTable
 70
36
  0
LAYER
  5
10
100
AcDbSymbolTableRecord
100
AcDbLayerTableRecord
  2
0
 70
0
 62
7
  6
CONTINUOUS
370
-3
390
F
  0
LAYER
  5
1FA
100
AcDbSymbolTableRecord
100
AcDbLayerTableRecord
  2
DEFAULT_1
 70
0
 62
7
  6
CENTER
370
-3
390
F
  0
LAYER
  5
1FB
100
AcDbSymbolTableRecord
100
AcDbLayerTableRecord
  2
DEFAULT_2
 70
0
 62
8
  6
HIDDEN
370
-3
390
F
  0
LAYER
  5
1FC
100
AcDbSymbolTableRecord
100
AcDbLayerTableRecord
  2
DEFAULT_3
 70
0
 62
7
  6
PHANTOM
370
-3
390
F
  0
LAYER
  5
1FD
100
AcDbSymbolTableRecord
100
AcDbLayerTableRecord
  2
ALL_FEATURES
 70
0
 62
7
  6
CONTINUOUS
370
-3
390
F
  0
LAYER
  5
1FE
100
AcDbSymbolTableRecord
100
AcDbLayerTableRecord
  2
AXES_FEATURES
 70
0
 62
7
  6
CONTINUOUS
370
-3
390
F
  0
LAYER
  5
1FF
100
AcDbSymbolTableRecord
100
AcDbLayerTableRecord
  2
DEFAULT_COORDINATE_SYSTEM
 70
0
 62
7
  6
CONTINUOUS
370
-3
390
F
  0
LAYER
  5
200
100
AcDbSymbolTableRecord
100
AcDbLayerTableRecord
  2
DEFAULT_DATUM_AXES
 70
0
 62
7
  6
CONTINUOUS
370
-3
390
F
  0
LAYER
  5
201
100
AcDbSymbolTableRecord
100
AcDbLayerTableRecord
  2
DEFAULT_DATUM_PLANES
 70
0
 62
7
  6
CONTINUOUS
370
-3
390
F
  0
LAYER
  5
202
100
AcDbSymbolTableRecord
100
AcDbLayerTableRecord
  2
DIMENSIONS
 70
0
 62
7
  6
CONTINUOUS
370
-3
390
F
  0
ENDTAB
  0
TABLE
  2
STYLE
  5
3
100
AcDbSymbolTable
 70
1
  0
STYLE
  5
11
100
AcDbSymbolTableRecord
100
AcDbTextStyleTableRecord
  2
STANDARD
 70
0
 40
0.0
 41
0.8
 50
0.0
 71
0
 42
0.2
  3
txt
  4

  0
STYLE
  5
203
100
AcDbSymbolTableRecord
100
AcDbTextStyleTableRecord
  2
TEXTSTYLE_1
 70
0
 40
0.0
 41
0.8
 50
0.0
 71
0
 42
0.2
  3
gdt
  4

  0
ENDTAB
  0
TABLE
  2
VIEW
  5
6
100
AcDbSymbolTable
 70
0
  0
ENDTAB
  0
TABLE
  2
UCS
  5
7
100
AcDbSymbolTable
 70
0
  0
ENDTAB
  0
TABLE
  2
APPID
  5
9
100
AcDbSymbolTable
 70
1
  0
APPID
  5
204
100
AcDbSymbolTableRecord
100
AcDbRegAppTableRecord
  2
ACAD
 70
0
  0
ENDTAB
  0
TABLE
  2
BLOCK_RECORD
  5
1
100
AcDbSymbolTable
 70
0
  0
BLOCK_RECORD
  5
205
100
AcDbSymbolTableRecord
100
AcDbBlockTableRecord
  2
*Model_Space
  0
BLOCK_RECORD
  5
206
100
AcDbSymbolTableRecord
100
AcDbBlockTableRecord
  2
*Paper_Space
  0
BLOCK_RECORD
  5
207
100
AcDbSymbolTableRecord
100
AcDbBlockTableRecord
  2
_FILLED
  0
ENDTAB
  0
TABLE
  2
DIMSTYLE
  5
A
100
AcDbSymbolTable
 70
1
100
AcDbDimStyleTable
 71
0
  0
DIMSTYLE
105
208
100
AcDbSymbolTableRecord
100
AcDbDimStyleTableRecord
  2
STANDARD
 70
0
  3

  4

 40
1.0
 41
0.1
 42
0.0625
 43
0.38
 44
0.125
 45
0.0
 46
0.0
 47
0.001
 48
0.001
140
0.08
141
0.09
142
0.0
143
25.4
144
1.0
145
0.0
146
1.0
147
0.09
 71
1.0
 72
0.0
 73
1
 74
1
 75
0
 76
0
 77
0
 78
4
 79
1
170
1
171
2
172
0
173
0
174
0
175
0
176
0
177
0
178
0
270
2
179
3
271
3
272
3
273
2
274
2
275
0
280
0
281
0
282
0
283
1
284
4
285
0
286
0
287
3
288
0
340
11
278
46
341
207
342
207
343
207
344
207
  0
ENDTAB
  0
ENDSEC
  0
SECTION
  2
BLOCKS
  0
BLOCK
  5
20
100
AcDbEntity
  8
0
100
AcDbBlockBegin
  2
*Model_Space
 70
0
 10
0.0
 20
0.0
 30
0.0
  3
*Model_Space
  1

  0
ENDBLK
  5
21
100
AcDbEntity
  8
0
100
AcDbBlockEnd
  0
BLOCK
  5
1C
100
AcDbEntity
  8
0
100
AcDbBlockBegin
  2
*Paper_Space
 70
0
 10
0.0
 20
0.0
 30
0.0
  3
*Paper_Space
  1

  0
ENDBLK
  5
1D
100
AcDbEntity
  8
0
100
AcDbBlockEnd
  0
BLOCK
  5
209
100
AcDbEntity
  8
0
100
AcDbBlockBegin
  2
_FILLED
 70
64
 10
0.0
 20
0.0
  3
_FILLED
  1

  0
SOLID
  5
20A
100
AcDbEntity
  8
0
  6
BYBLOCK
 62
0
100
AcDbTrace
 10
0.0
 20
0.0
 11
-1.0
 21
0.2
 12
-1.0
 22
-0.2
 13
-1.0
 23
-0.2
  0
ENDBLK
  5
20B
100
AcDbEntity
  8
0
  6
BYBLOCK
 62
0
100
AcDbBlockEnd
  0
ENDSEC
  0
SECTION
  2
ENTITIES
  0
LINE
  5
20C
100
AcDbEntity
  8
0
100
AcDbLine
 62
7
  6
CONTINUOUS
 10
8.4493183383
 20
9.8582264268
 11
8.4493183383
 21
8.9382264268
  0
LINE
  5
20D
100
AcDbEntity
  8
0
100
AcDbLine
 62
7
  6
CONTINUOUS
 10
8.5493183383
 20
9.8582264268
 11
8.5493183383
 21
8.9382264268
  0
LINE
  5
20E
100
AcDbEntity
  8
0
100
AcDbLine
 62
9
  6
CONTINUOUS
 10
9.284717258
 20
8.9482264268
 11
9.284717258
 21
9.8482264268
  0
LINE
  5
20F
100
AcDbEntity
  8
0
100
AcDbLine
 62
9
  6
CONTINUOUS
 10
9.3292418298
 20
8.9209764268
 11
9.3292418298
 21
9.8754764268
  0
LINE
  5
210
100
AcDbEntity
  8
0
100
AcDbLine
 62
9
  6
CONTINUOUS
 10
9.3759927785
 20
8.893776019
 11
9.3759927785
 21
9.9026768347
  0
LINE
  5
211
100
AcDbEntity
  8
0
100
AcDbLine
 62
9
  6
CONTINUOUS
 10
9.79660674
 20
8.8102604461
 11
9.79660674
 21
9.9861924076
  0
LINE
  5
212
100
AcDbEntity
  8
0
100
AcDbLine
 62
9
  6
CONTINUOUS
 10
9.8283183383
 20
8.8032264268
 11
9.8283183383
 21
9.9932264268
  0
LINE
  5
213
100
AcDbEntity
  8
0
100
AcDbLine
 62
7
  6
CONTINUOUS
 10
9.9193183383
 20
8.8032263506
 11
9.9193183383
 21
9.993226503
  0
LINE
  5
214
100
AcDbEntity
  8
0
100
AcDbLine
 62
7
  6
CONTINUOUS
 10
11.3438932824
 20
4.9547985917
 11
11.3510361109
 21
4.943003188
  0
LINE
  5
215
100
AcDbEntity
  8
0
100
AcDbLine
 62
7
  6
CONTINUOUS
 10
10.7973183383
 20
9.3982264268
 11
10.7973183383
 21
4.780823124
  0
LINE
  5
216
100
AcDbEntity
  8
0
100
AcDbLine
 62
7
  6
CONTINUOUS
 10
11.2973183383
 20
9.3982264268
 11
11.2973183383
 21
4.780823124
  0
LINE
  5
217
100
AcDbEntity
  8
0
100
AcDbLine
 62
7
  6
CONTINUOUS
 10
10.7436005658
 20
4.943003188
 11
10.7507433908
 21
4.9547985862
  0
LINE
  5
218
100
AcDbEntity
  8
0
100
AcDbLine
 62
7
  6
CONTINUOUS
 10
12.1753183383
 20
8.8032264268
 11
12.1753183383
 21
9.9932264268
  0
LINE
  5
219
100
AcDbEntity
  8
0
100
AcDbLine
 62
9
  6
CONTINUOUS
 10
12.2663183383
 20
8.8032264268
 11
12.2663183383
 21
9.9932264268
  0
LINE
  5
21A
100
AcDbEntity
  8
0
100
AcDbLine
 62
9
  6
CONTINUOUS
 10
12.2980299365
 20
8.8102604461
 11
12.2980299365
 21
9.9861924076
  0
LINE
  5
21B
100
AcDbEntity
  8
0
100
AcDbLine
 62
7
  6
CONTINUOUS
 10
12.2663183383
 20
8.8032264268
 11
12.1753183383
 21
8.8032264268
  0
LINE
  5
21C
100
AcDbEntity
  8
0
100
AcDbLine
 62
7
  6
CONTINUOUS
 10
9.8283183383
 20
8.8032264268
 11
9.9193183383
 21
8.8032264268
  0
LINE
  5
21D
100
AcDbEntity
  8
0
100
AcDbLine
 62
7
  6
CONTINUOUS
 10
12.1753183383
 20
8.9182264268
 11
11.795534119
 21
8.9182264268
  0
LINE
  5
21E
100
AcDbEntity
  8
0
100
AcDbLine
 62
7
  6
CONTINUOUS
 10
10.2991025576
 20
8.9182264268
 11
9.9193183383
 21
8.9182264268
  0
LINE
  5
21F
100
AcDbEntity
  8
0
100
AcDbLine
 62
7
  6
CONTINUOUS
 10
13.5453183383
 20
8.9482264268
 11
12.8099194186
 21
8.9482264268
  0
LINE
  5
220
100
AcDbEntity
  8
0
100
AcDbLine
 62
7
  6
CONTINUOUS
 10
8.5493183383
 20
8.9482264268
 11
9.284717258
 21
8.9482264268
  0
LINE
  5
221
100
AcDbEntity
  8
0
100
AcDbLine
 62
9
  6
CONTINUOUS
 10
12.7186438981
 20
8.893776019
 11
12.7186438981
 21
9.9026768347
  0
LINE
  5
222
100
AcDbEntity
  8
0
100
AcDbLine
 62
9
  6
CONTINUOUS
 10
12.7653948467
 20
8.9209764268
 11
12.7653948467
 21
9.8754764268
  0
LINE
  5
223
100
AcDbEntity
  8
0
100
AcDbLine
 62
9
  6
CONTINUOUS
 10
12.8099194186
 20
8.9482264268
 11
12.8099194186
 21
9.8482264268
  0
LINE
  5
224
100
AcDbEntity
  8
0
100
AcDbLine
 62
7
  6
CONTINUOUS
 10
13.5453183383
 20
9.8482264268
 11
12.8099194186
 21
9.8482264268
  0
LINE
  5
225
100
AcDbEntity
  8
0
100
AcDbLine
 62
7
  6
CONTINUOUS
 10
8.5493183383
 20
9.8482264268
 11
9.284717258
 21
9.8482264268
  0
LINE
  5
226
100
AcDbEntity
  8
0
100
AcDbLine
 62
7
  6
CONTINUOUS
 10
12.1753183383
 20
9.8782264268
 11
11.795534119
 21
9.8782264268
  0
LINE
  5
227
100
AcDbEntity
  8
0
100
AcDbLine
 62
7
  6
CONTINUOUS
 10
10.2991025576
 20
9.8782264268
 11
9.9193183383
 21
9.8782264268
  0
LINE
  5
228
100
AcDbEntity
  8
0
100
AcDbLine
 62
7
  6
CONTINUOUS
 10
13.5453183383
 20
8.938226454
 11
13.5453183383
 21
9.8582264268
  0
LINE
  5
229
100
AcDbEntity
  8
0
100
AcDbLine
 62
7
  6
CONTINUOUS
 10
13.6453183383
 20
8.938226454
 11
13.6453183383
 21
9.8582264268
  0
LINE
  5
22A
100
AcDbEntity
  8
0
100
AcDbLine
 62
7
  6
CONTINUOUS
 10
12.2663183383
 20
9.9932264268
 11
12.1753183383
 21
9.9932264268
  0
LINE
  5
22B
100
AcDbEntity
  8
0
100
AcDbLine
 62
7
  6
CONTINUOUS
 10
9.8283183383
 20
9.9932264268
 11
9.9193183383
 21
9.9932264268
  0
ARC
  5
22C
100
AcDbEntity
  8
0
100
AcDbCircle
 62
9
  6
CONTINUOUS
 10
11.0209276711
 20
4.7832996977
 40
0.3200178255
100
AcDbArc
 50
147.5947498544
 51
150.0646459456
  0
ARC
  5
22D
100
AcDbEntity
  8
0
100
AcDbCircle
 62
7
  6
CONTINUOUS
 10
11.0183405047
 20
4.7840863046
 40
0.2310304247
100
AcDbArc
 50
163.088839236
 51
175.7279781208
  0
ARC
  5
22E
100
AcDbEntity
  8
0
100
AcDbCircle
 62
7
  6
CONTINUOUS
 10
11.0179200503
 20
4.8012734894
 40
0.2306025541
100
AcDbArc
 50
163.0789131842
 51
179.982398154
  0
ARC
  5
22F
100
AcDbEntity
  8
0
100
AcDbCircle
 62
7
  6
CONTINUOUS
 10
11.0170313
 20
4.7842389564
 40
0.2297130374
100
AcDbArc
 50
175.7416222538
 51
177.8652241242
  0
ARC
  5
230
100
AcDbEntity
  8
0
100
AcDbCircle
 62
7
  6
CONTINUOUS
 10
9.4160675611
 20
7.9946686773
 40
0.9
100
AcDbArc
 50
64.9871628475
 51
92.5520837091
  0
ARC
  5
231
100
AcDbEntity
  8
0
100
AcDbCircle
 62
7
  6
CONTINUOUS
 10
9.4160675611
 20
10.8017841763
 40
0.9
100
AcDbArc
 50
267.4479162909
 51
295.0128371525
  0
CIRCLE
  5
232
100
AcDbEntity
  8
0
100
AcDbCircle
 62
7
  6
CONTINUOUS
 10
8.8778183383
 20
9.3982264268
 40
0.29
  0
CIRCLE
  5
233
100
AcDbEntity
  8
0
100
AcDbCircle
 62
9
  6
CONTINUOUS
 10
8.8778183383
 20
9.3982264268
 40
0.09
  0
ARC
  5
234
100
AcDbEntity
  8
0
100
AcDbCircle
 62
7
  6
CONTINUOUS
 10
9.8283183383
 20
8.8782264268
 40
0.075
100
AcDbArc
 50
244.9871628475
 51
270.0
  0
ARC
  5
235
100
AcDbEntity
  8
0
100
AcDbCircle
 62
7
  6
CONTINUOUS
 10
9.8283183383
 20
9.9182264268
 40
0.075
100
AcDbArc
 50
90.0
 51
115.0128371525
  0
ARC
  5
236
100
AcDbEntity
  8
0
100
AcDbCircle
 62
7
  6
CONTINUOUS
 10
9.284717258
 20
8.8982264268
 40
0.05
100
AcDbArc
 50
27.0649342288
 51
90.0
  0
ARC
  5
237
100
AcDbEntity
  8
0
100
AcDbCircle
 62
7
  6
CONTINUOUS
 10
9.284717258
 20
9.8982264268
 40
0.05
100
AcDbArc
 50
270.0
 51
332.9350657712
  0
ARC
  5
238
100
AcDbEntity
  8
0
100
AcDbCircle
 62
7
  6
CONTINUOUS
 10
9.3737664017
 20
8.9437264268
 40
0.05
100
AcDbArc
 50
207.0649342288
 51
272.5520837091
  0
ARC
  5
239
100
AcDbEntity
  8
0
100
AcDbCircle
 62
7
  6
CONTINUOUS
 10
9.3737664017
 20
9.8527264268
 40
0.05
100
AcDbArc
 50
87.4479162909
 51
152.9350657712
  0
ARC
  5
23A
100
AcDbEntity
  8
0
100
AcDbCircle
 62
7
  6
CONTINUOUS
 10
8.4993183383
 20
8.9382264268
 40
0.05
100
AcDbArc
 50
180.0
 51
360.0
  0
ARC
  5
23B
100
AcDbEntity
  8
0
100
AcDbCircle
 62
7
  6
CONTINUOUS
 10
8.4993183383
 20
9.8582264268
 40
0.05
100
AcDbArc
 50
0.0
 51
180.0
  0
ARC
  5
23C
100
AcDbEntity
  8
0
100
AcDbCircle
 62
9
  6
CONTINUOUS
 10
11.0740125525
 20
4.7834833173
 40
0.3196631447
100
AcDbArc
 50
29.9339824394
 51
32.4066217403
  0
ARC
  5
23D
100
AcDbEntity
  8
0
100
AcDbCircle
 62
7
  6
CONTINUOUS
 10
11.0762961719
 20
4.7840863046
 40
0.2310304247
100
AcDbArc
 50
4.2720218811
 51
16.911160767
  0
ARC
  5
23E
100
AcDbEntity
  8
0
100
AcDbCircle
 62
7
  6
CONTINUOUS
 10
11.0767166262
 20
4.8012734894
 40
0.2306025541
100
AcDbArc
 50
0.0176018449
 51
16.9210868105
  0
ARC
  5
23F
100
AcDbEntity
  8
0
100
AcDbCircle
 62
7
  6
CONTINUOUS
 10
11.0776393634
 20
4.7842408546
 40
0.2296790035
100
AcDbArc
 50
2.1346185193
 51
4.2585351026
  0
ARC
  5
240
100
AcDbEntity
  8
0
100
AcDbCircle
 62
7
  6
CONTINUOUS
 10
12.2663183383
 20
8.8782264268
 40
0.075
100
AcDbArc
 50
270.0
 51
295.0128371525
  0
ARC
  5
241
100
AcDbEntity
  8
0
100
AcDbCircle
 62
7
  6
CONTINUOUS
 10
11.0473183383
 20
9.3982264268
 40
1.2
100
AcDbArc
 50
282.0259841192
 51
336.4206934802
  0
ARC
  5
242
100
AcDbEntity
  8
0
100
AcDbCircle
 62
7
  6
CONTINUOUS
 10
11.0473183383
 20
9.3982264268
 40
1.2
100
AcDbArc
 50
203.5793065198
 51
257.9740158808
  0
ARC
  5
243
100
AcDbEntity
  8
0
100
AcDbCircle
 62
7
  6
CONTINUOUS
 10
11.0473183383
 20
9.3982264268
 40
1.2
100
AcDbArc
 50
23.5793065198
 51
156.4206934802
  0
ARC
  5
244
100
AcDbEntity
  8
0
100
AcDbCircle
 62
9
  6
CONTINUOUS
 10
11.0473183383
 20
9.3982264268
 40
1.1581118432
100
AcDbArc
 50
24.4914714686
 51
155.5085285314
  0
ARC
  5
245
100
AcDbEntity
  8
0
100
AcDbCircle
 62
9
  6
CONTINUOUS
 10
11.0473183383
 20
9.3982264268
 40
1.1581118432
100
AcDbArc
 50
282.4695432069
 51
335.5085285314
  0
ARC
  5
246
100
AcDbEntity
  8
0
100
AcDbCircle
 62
9
  6
CONTINUOUS
 10
11.0473183383
 20
9.3982264268
 40
1.1581118432
100
AcDbArc
 50
204.4914714686
 51
257.5304567931
  0
ARC
  5
247
100
AcDbEntity
  8
0
100
AcDbCircle
 62
7
  6
CONTINUOUS
 10
11.0473183383
 20
9.3982264268
 40
1.0
100
AcDbArc
 50
284.4785245877
 51
331.3124963599
  0
ARC
  5
248
100
AcDbEntity
  8
0
100
AcDbCircle
 62
7
  6
CONTINUOUS
 10
11.0473183383
 20
9.3982264268
 40
1.0
100
AcDbArc
 50
208.6875036401
 51
255.5214754123
  0
ARC
  5
249
100
AcDbEntity
  8
0
100
AcDbCircle
 62
7
  6
CONTINUOUS
 10
11.0473183383
 20
9.3982264268
 40
1.0
100
AcDbArc
 50
28.6875036401
 51
151.3124963599
  0
ARC
  5
24A
100
AcDbEntity
  8
0
100
AcDbCircle
 62
9
  6
CONTINUOUS
 10
11.0473183383
 20
9.3982264268
 40
0.95
100
AcDbArc
 50
30.3577531988
 51
149.6422468012
  0
ARC
  5
24B
100
AcDbEntity
  8
0
100
AcDbCircle
 62
9
  6
CONTINUOUS
 10
11.0473183383
 20
9.3982264268
 40
0.95
100
AcDbArc
 50
285.2605315768
 51
329.6422468012
  0
ARC
  5
24C
100
AcDbEntity
  8
0
100
AcDbCircle
 62
9
  6
CONTINUOUS
 10
11.0473183383
 20
9.3982264268
 40
0.95
100
AcDbArc
 50
210.3577531988
 51
254.7394684232
  0
ARC
  5
24D
100
AcDbEntity
  8
0
100
AcDbCircle
 62
7
  6
CONTINUOUS
 10
11.0473183383
 20
9.3982264268
 40
0.9335432927
100
AcDbArc
 50
30.9422460665
 51
149.0577539335
  0
ARC
  5
24E
100
AcDbEntity
  8
0
100
AcDbCircle
 62
7
  6
CONTINUOUS
 10
11.0473183383
 20
9.3982264268
 40
0.9335432927
100
AcDbArc
 50
285.5354720649
 51
329.0577539335
  0
ARC
  5
24F
100
AcDbEntity
  8
0
100
AcDbCircle
 62
7
  6
CONTINUOUS
 10
11.0473183383
 20
9.3982264268
 40
0.9335432927
100
AcDbArc
 50
210.9422460665
 51
254.4645279351
  0
ARC
  5
250
100
AcDbEntity
  8
0
100
AcDbCircle
 62
9
  6
CONTINUOUS
 10
11.0473183383
 20
9.3982264268
 40
0.9330170097
100
AcDbArc
 50
30.9691961159
 51
149.0308038841
  0
ARC
  5
251
100
AcDbEntity
  8
0
100
AcDbCircle
 62
9
  6
CONTINUOUS
 10
11.0473183383
 20
9.3982264268
 40
0.9330170097
100
AcDbArc
 50
210.9691961159
 51
254.455553989
  0
ARC
  5
252
100
AcDbEntity
  8
0
100
AcDbCircle
 62
9
  6
CONTINUOUS
 10
11.0473183383
 20
9.3982264268
 40
0.9330170097
100
AcDbArc
 50
285.544446011
 51
329.0308038841
  0
ARC
  5
253
100
AcDbEntity
  8
0
100
AcDbCircle
 62
7
  6
CONTINUOUS
 10
11.0473183383
 20
9.3982264268
 40
0.8890551181
100
AcDbArc
 50
286.3339318286
 51
253.6660681714
  0
ARC
  5
254
100
AcDbEntity
  8
0
100
AcDbCircle
 62
9
  6
CONTINUOUS
 10
11.0473183383
 20
9.3982264268
 40
0.8408117029
100
AcDbArc
 50
287.2976688136
 51
252.7023311864
  0
ARC
  5
255
100
AcDbEntity
  8
0
100
AcDbCircle
 62
7
  6
CONTINUOUS
 10
11.0473183383
 20
9.3982264268
 40
0.517
100
AcDbArc
 50
298.918423989
 51
241.081576011
  0
ARC
  5
256
100
AcDbEntity
  8
0
100
AcDbCircle
 62
9
  6
CONTINUOUS
 10
11.0473183383
 20
9.3982264268
 40
0.467
100
AcDbArc
 50
302.3765569894
 51
237.6234428159
  0
ARC
  5
257
100
AcDbEntity
  8
0
100
AcDbCircle
 62
7
  6
CONTINUOUS
 10
11.0473183383
 20
9.3982264268
 40
0.25
100
AcDbArc
 50
0.0
 51
180.0
  0
ARC
  5
258
100
AcDbEntity
  8
0
100
AcDbCircle
 62
7
  6
CONTINUOUS
 10
12.2663183383
 20
9.9182264268
 40
0.075
100
AcDbArc
 50
64.9871628475
 51
90.0
  0
ARC
  5
259
100
AcDbEntity
  8
0
100
AcDbCircle
 62
7
  6
CONTINUOUS
 10
12.6785691154
 20
7.9946686773
 40
0.9
100
AcDbArc
 50
87.4479162909
 51
115.0128371525
  0
ARC
  5
25A
100
AcDbEntity
  8
0
100
AcDbCircle
 62
7
  6
CONTINUOUS
 10
12.8099194186
 20
8.8982264268
 40
0.05
100
AcDbArc
 50
90.0
 51
152.9350657712
  0
ARC
  5
25B
100
AcDbEntity
  8
0
100
AcDbCircle
 62
7
  6
CONTINUOUS
 10
12.7208702749
 20
8.9437264268
 40
0.05
100
AcDbArc
 50
267.4479162909
 51
332.9350657712
  0
ARC
  5
25C
100
AcDbEntity
  8
0
100
AcDbCircle
 62
7
  6
CONTINUOUS
 10
13.5953183383
 20
8.9382264268
 40
0.05
100
AcDbArc
 50
180.0
 51
360.0
  0
ARC
  5
25D
100
AcDbEntity
  8
0
100
AcDbCircle
 62
7
  6
CONTINUOUS
 10
12.6785691154
 20
10.8017841763
 40
0.9
100
AcDbArc
 50
244.9871628475
 51
272.5520837091
  0
CIRCLE
  5
25E
100
AcDbEntity
  8
0
100
AcDbCircle
 62
7
  6
CONTINUOUS
 10
13.2168183383
 20
9.3982264268
 40
0.29
  0
CIRCLE
  5
25F
100
AcDbEntity
  8
0
100
AcDbCircle
 62
9
  6
CONTINUOUS
 10
13.2168183383
 20
9.3982264268
 40
0.09
  0
ARC
  5
260
100
AcDbEntity
  8
0
100
AcDbCircle
 62
7
  6
CONTINUOUS
 10
12.8099194186
 20
9.8982264268
 40
0.05
100
AcDbArc
 50
207.0649342288
 51
270.0
  0
ARC
  5
261
100
AcDbEntity
  8
0
100
AcDbCircle
 62
7
  6
CONTINUOUS
 10
12.7208702749
 20
9.8527264268
 40
0.05
100
AcDbArc
 50
27.0649342288
 51
92.5520837091
  0
ARC
  5
262
100
AcDbEntity
  8
0
100
AcDbCircle
 62
7
  6
CONTINUOUS
 10
13.5953183383
 20
9.8582264268
 40
0.05
100
AcDbArc
 50
0.0
 51
180.0
  0
SPLINE
  5
263
100
AcDbEntity
  8
0
100
AcDbSpline
 62
7
  6
CONTINUOUS
 70
0
 71
3
 72
69
 73
65
 74
0
 42
0.0000001
 43
0.0000001
 44
0.0000000001
 40
0.0
 40
0.0
 40
0.0
 40
0.0
 40
0.0151364201
 40
0.0302776245
 40
0.045428451
 40
0.0605935223
 40
0.0757773777
 40
0.0909843286
 40
0.1062184571
 40
0.1214835625
 40
0.1367831174
 40
0.1521202453
 40
0.1674976878
 40
0.1829177721
 40
0.198382402
 40
0.2138930393
 40
0.2294506857
 40
0.2450558873
 40
0.2607087313
 40
0.2764088421
 40
0.2921553964
 40
0.3079471369
 40
0.3237823775
 40
0.3396590301
 40
0.3555746312
 40
0.3715263542
 40
0.3875110467
 40
0.4035252647
 40
0.4195652922
 40
0.4356271852
 40
0.4517068105
 40
0.4677998715
 40
0.5
 40
0.5322001285
 40
0.5482931895
 40
0.5643728148
 40
0.5804347078
 40
0.5964747353
 40
0.6124889533
 40
0.6284736458
 40
0.6444253688
 40
0.6603409699
 40
0.6762176225
 40
0.6920528631
 40
0.7078446036
 40
0.7235911579
 40
0.7392912687
 40
0.7549441127
 40
0.7705493143
 40
0.7861069607
 40
0.801617598
 40
0.8170822279
 40
0.8325023122
 40
0.8478797547
 40
0.8632168826
 40
0.8785164375
 40
0.8937815429
 40
0.9090156714
 40
0.9242226223
 40
0.9394064777
 40
0.954571549
 40
0.9697223755
 40
0.9848635799
 40
1.0
 40
1.0
 40
1.0
 40
1.0
 10
11.3073183383
 20
4.8013443326
 30
0.0
 10
11.3073183383
 20
4.7973468926
 30
0.0
 10
11.3071093904
 20
4.7893491756
 30
0.0
 10
11.3061699228
 20
4.7773834265
 30
0.0
 10
11.3046066758
 20
4.7654751284
 30
0.0
 10
11.3024234158
 20
4.7536534177
 30
0.0
 10
11.2996254274
 20
4.7419466928
 30
0.0
 10
11.2962194676
 20
4.730383207
 30
0.0
 10
11.2922137672
 20
4.7189908296
 30
0.0
 10
11.2876180021
 20
4.707797023
 30
0.0
 10
11.2824432722
 20
4.6968287638
 30
0.0
 10
11.2767020728
 20
4.6861124819
 30
0.0
 10
11.2704082643
 20
4.6756739949
 30
0.0
 10
11.2635770378
 20
4.6655384468
 30
0.0
 10
11.256224878
 20
4.6557302477
 30
0.0
 10
11.2483695224
 20
4.6462730149
 30
0.0
 10
11.2400299189
 20
4.6371895167
 30
0.0
 10
11.2312261786
 20
4.6285016183
 30
0.0
 10
11.221979528
 20
4.6202302288
 30
0.0
 10
11.2123122571
 20
4.6123952524
 30
0.0
 10
11.2022476656
 20
4.6050155404
 30
0.0
 10
11.1918100067
 20
4.5981088462
 30
0.0
 10
11.1810244288
 20
4.5916917837
 30
0.0
 10
11.1699169149
 20
4.5857797871
 30
0.0
 10
11.1585142201
 20
4.5803870747
 30
0.0
 10
11.1468438079
 20
4.5755266144
 30
0.0
 10
11.1349337815
 20
4.5712100938
 30
0.0
 10
11.1228128266
 20
4.5674478916
 30
0.0
 10
11.1105101052
 20
4.5642490528
 30
0.0
 10
11.0980553246
 20
4.5616212699
 30
0.0
 10
11.0854781478
 20
4.5595708532
 30
0.0
 10
11.0685856674
 20
4.5576131973
 30
0.0
 10
11.0473183383
 20
4.5566315686
 30
0.0
 10
11.0260510092
 20
4.5576131973
 30
0.0
 10
11.0091585287
 20
4.5595708532
 30
0.0
 10
10.996581352
 20
4.5616212699
 30
0.0
 10
10.9841265713
 20
4.5642490528
 30
0.0
 10
10.97182385
 20
4.5674478916
 30
0.0
 10
10.9597028951
 20
4.5712100938
 30
0.0
 10
10.9477928687
 20
4.5755266144
 30
0.0
 10
10.9361224564
 20
4.5803870747
 30
0.0
 10
10.9247197616
 20
4.5857797871
 30
0.0
 10
10.9136122478
 20
4.5916917837
 30
0.0
 10
10.9028266699
 20
4.5981088462
 30
0.0
 10
10.892389011
 20
4.6050155404
 30
0.0
 10
10.8823244195
 20
4.6123952524
 30
0.0
 10
10.8726571486
 20
4.6202302288
 30
0.0
 10
10.8634104979
 20
4.6285016183
 30
0.0
 10
10.8546067577
 20
4.6371895167
 30
0.0
 10
10.8462671541
 20
4.6462730149
 30
0.0
 10
10.8384117986
 20
4.6557302477
 30
0.0
 10
10.8310596387
 20
4.6655384468
 30
0.0
 10
10.8242284123
 20
4.6756739949
 30
0.0
 10
10.8179346038
 20
4.6861124819
 30
0.0
 10
10.8121934043
 20
4.6968287638
 30
0.0
 10
10.8070186744
 20
4.707797023
 30
0.0
 10
10.8024229093
 20
4.7189908296
 30
0.0
 10
10.798417209
 20
4.730383207
 30
0.0
 10
10.7950112492
 20
4.7419466928
 30
0.0
 10
10.7922132608
 20
4.7536534177
 30
0.0
 10
10.7900300008
 20
4.7654751284
 30
0.0
 10
10.7884667537
 20
4.7773834265
 30
0.0
 10
10.7875272862
 20
4.7893491756
 30
0.0
 10
10.7873183383
 20
4.7973468926
 30
0.0
 10
10.7873183383
 20
4.8013443326
 30
0.0
  0
SPLINE
  5
264
100
AcDbEntity
  8
0
100
AcDbSpline
 62
7
  6
CONTINUOUS
 70
0
 71
3
 72
69
 73
65
 74
0
 42
0.0000001
 43
0.0000001
 44
0.0000000001
 40
0.0
 40
0.0
 40
0.0
 40
0.0
 40
0.0152668037
 40
0.0305408433
 40
0.045824998
 40
0.0611221635
 40
0.0764351024
 40
0.091766444
 40
0.1071186586
 40
0.1224940394
 40
0.137894674
 40
0.153322433
 40
0.168778952
 40
0.1842656096
 40
0.1997835241
 40
0.2153335376
 40
0.2309162046
 40
0.2465317954
 40
0.2621802844
 40
0.2778613516
 40
0.2935743906
 40
0.3093185048
 40
0.32509252
 40
0.3408949966
 40
0.3567242354
 40
0.3725782992
 40
0.3884550278
 40
0.4043520548
 40
0.4202668332
 40
0.4361966559
 40
0.452138679
 40
0.4680899502
 40
0.500000141
 40
0.5319103294
 40
0.5478615975
 40
0.5638036163
 40
0.5797334335
 40
0.5956482054
 40
0.6115452247
 40
0.6274219448
 40
0.643275999
 40
0.6591052274
 40
0.674907693
 40
0.6906816965
 40
0.7064257983
 40
0.7221388247
 40
0.7378198788
 40
0.7534683546
 40
0.769083932
 40
0.7846665857
 40
0.8002165862
 40
0.8157344878
 40
0.8312211328
 40
0.8466776398
 40
0.8621053874
 40
0.8775060112
 40
0.8928813822
 40
0.9082335877
 40
0.9235649212
 40
0.9388778531
 40
0.9541750127
 40
0.9694591626
 40
0.9847331987
 40
1.0
 40
1.0
 40
1.0
 40
1.0
 10
11.3616736642
 20
4.6460478888
 30
0.0
 10
11.3613560912
 20
4.6413468303
 30
0.0
 10
11.360486204
 20
4.6319566442
 30
0.0
 10
11.3584814772
 20
4.6179509334
 30
0.0
 10
11.3557813311
 20
4.6040526198
 30
0.0
 10
11.3523923078
 20
4.590293798
 30
0.0
 10
11.3483225248
 20
4.5767055506
 30
0.0
 10
11.3435817156
 20
4.5633186328
 30
0.0
 10
11.3381811665
 20
4.5501631869
 30
0.0
 10
11.332133678
 20
4.537268722
 30
0.0
 10
11.3254535143
 20
4.5246640286
 30
0.0
 10
11.3181563508
 20
4.5123771176
 30
0.0
 10
11.3102592196
 20
4.50043516
 30
0.0
 10
11.301780452
 20
4.4888644324
 30
0.0
 10
11.2927396211
 20
4.4776902675
 30
0.0
 10
11.2831574837
 20
4.4669370088
 30
0.0
 10
11.2730559201
 20
4.4566279696
 30
0.0
 10
11.2624578767
 20
4.4467853962
 30
0.0
 10
11.2513873061
 20
4.4374304334
 30
0.0
 10
11.2398691088
 20
4.4285830937
 30
0.0
 10
11.2279290752
 20
4.4202622296
 30
0.0
 10
11.2155938272
 20
4.4124855064
 30
0.0
 10
11.2028907602
 20
4.4052693793
 30
0.0
 10
11.189847986
 20
4.398629071
 30
0.0
 10
11.1764942738
 20
4.3925785508
 30
0.0
 10
11.1628589935
 20
4.3871305167
 30
0.0
 10
11.1489720544
 20
4.3822963776
 30
0.0
 10
11.1348638571
 20
4.3780862381
 30
0.0
 10
11.120565195
 20
4.3745088839
 30
0.0
 10
11.1061073432
 20
4.3715717725
 30
0.0
 10
11.0915214412
 20
4.3692810122
 30
0.0
 10
11.0719461267
 20
4.3670947682
 30
0.0
 10
11.0473160645
 20
4.3659988354
 30
0.0
 10
11.0226860183
 20
4.3670951049
 30
0.0
 10
11.0031107367
 20
4.3692816166
 30
0.0
 10
10.98852487
 20
4.3715725762
 30
0.0
 10
10.9740670635
 20
4.374509885
 30
0.0
 10
10.9597684565
 20
4.3780874344
 30
0.0
 10
10.945660324
 20
4.3822977664
 30
0.0
 10
10.9317734592
 20
4.3871320949
 30
0.0
 10
10.9181382626
 20
4.3925803147
 30
0.0
 10
10.9047846432
 20
4.3986310167
 30
0.0
 10
10.8917419709
 20
4.4052715026
 30
0.0
 10
10.8790390145
 20
4.4124878025
 30
0.0
 10
10.8667038856
 20
4.4202646934
 30
0.0
 10
10.8547639793
 20
4.4285857198
 30
0.0
 10
10.8432459173
 20
4.4374332159
 30
0.0
 10
10.8321754896
 20
4.4467883289
 30
0.0
 10
10.8215775965
 20
4.456631046
 30
0.0
 10
10.8114761901
 20
4.466940222
 30
0.0
 10
10.8018942164
 20
4.4776936104
 30
0.0
 10
10.7928535556
 20
4.4888678976
 30
0.0
 10
10.7843749639
 20
4.5004387398
 30
0.0
 10
10.7764780141
 20
4.512380804
 30
0.0
 10
10.7691810371
 20
4.5246678136
 30
0.0
 10
10.7625010645
 20
4.5372725971
 30
0.0
 10
10.7564537714
 20
4.5501671434
 30
0.0
 10
10.7510534215
 20
4.5633226621
 30
0.0
 10
10.7463128149
 20
4.5767096438
 30
0.0
 10
10.7422432374
 20
4.590297946
 30
0.0
 10
10.7388544222
 20
4.6040568135
 30
0.0
 10
10.7361544862
 20
4.6179551633
 30
0.0
 10
10.7341499711
 20
4.6319609011
 30
0.0
 10
10.7332802258
 20
4.6413510986
 30
0.0
 10
10.7329627238
 20
4.6460521611
 30
0.0
  0
SPLINE
  5
265
100
AcDbEntity
  8
0
100
AcDbSpline
 62
7
  6
CONTINUOUS
 70
0
 71
3
 72
11
 73
7
 74
0
 42
0.0000001
 43
0.0000001
 44
0.0000000001
 40
0.0
 40
0.0
 40
0.0
 40
0.0
 40
0.2490483388
 40
0.4987156587
 40
0.7490279491
 40
1.0
 40
1.0
 40
1.0
 40
1.0
 10
10.7507434659
 20
4.9547986931
 30
0.0
 10
10.7540478448
 20
4.9600046557
 30
0.0
 10
10.7609636979
 20
4.9702431395
 30
0.0
 10
10.7722030211
 20
4.9850061053
 30
0.0
 10
10.7842856172
 20
4.9991498526
 30
0.0
 10
10.7928670806
 20
5.0081266563
 30
0.0
 10
10.7972837538
 20
5.0124974228
 30
0.0
  0
SPLINE
  5
266
100
AcDbEntity
  8
0
100
AcDbSpline
 62
7
  6
CONTINUOUS
 70
0
 71
3
 72
11
 73
7
 74
0
 42
0.0000001
 43
0.0000001
 44
0.0000000001
 40
0.0
 40
0.0
 40
0.0
 40
0.0
 40
0.2509720303
 40
0.5012843104
 40
0.7509516354
 40
1.0
 40
1.0
 40
1.0
 40
1.0
 10
11.2973533612
 20
5.0124969889
 30
0.0
 10
11.3017699894
 20
5.0081262509
 30
0.0
 10
11.3103513665
 20
4.9991495086
 30
0.0
 10
11.3224338454
 20
4.9850058653
 30
0.0
 10
11.3336730653
 20
4.9702430139
 30
0.0
 10
11.3405888589
 20
4.9600046131
 30
0.0
 10
11.3438932107
 20
4.9547986931
 30
0.0
  0
SPLINE
  5
267
100
AcDbEntity
  8
0
100
AcDbSpline
 62
7
  6
CONTINUOUS
 70
0
 71
3
 72
15
 73
11
 74
0
 42
0.0000001
 43
0.0000001
 44
0.0000000001
 40
0.0
 40
0.0
 40
0.0
 40
0.0
 40
0.1256345131
 40
0.2510251734
 40
0.3761997562
 40
0.5011892533
 40
0.6260273509
 40
0.7507499477
 40
0.8753943588
 40
1.0
 40
1.0
 40
1.0
 40
1.0
 10
11.3510363191
 20
4.9430028363
 30
0.0
 10
11.3545102889
 20
4.9369828853
 30
0.0
 10
11.3610670614
 20
4.92472796
 30
0.0
 10
11.3696843375
 20
4.9057681747
 30
0.0
 10
11.3770394035
 20
4.8863210578
 30
0.0
 10
11.3831005324
 20
4.8664646957
 30
0.0
 10
11.3878419968
 20
4.846278149
 30
0.0
 10
11.3912434391
 20
4.8258421704
 30
0.0
 10
11.3932901995
 20
4.8052402108
 30
0.0
 10
11.3937457186
 20
4.7914467416
 30
0.0
 10
11.3937457186
 20
4.7845532459
 30
0.0
  0
SPLINE
  5
268
100
AcDbEntity
  8
0
100
AcDbSpline
 62
7
  6
CONTINUOUS
 70
0
 71
3
 72
15
 73
11
 74
0
 42
0.0000001
 43
0.0000001
 44
0.0000000001
 40
0.0
 40
0.0
 40
0.0
 40
0.0
 40
0.1246056272
 40
0.2492500286
 40
0.3739726203
 40
0.4988107168
 40
0.6238002166
 40
0.7489748056
 40
0.8743654751
 40
1.0
 40
1.0
 40
1.0
 40
1.0
 10
10.7008909581
 20
4.7845532459
 30
0.0
 10
10.7008909581
 20
4.7914467411
 30
0.0
 10
10.7013464771
 20
4.8052402095
 30
0.0
 10
10.7033932373
 20
4.8258421684
 30
0.0
 10
10.7067946794
 20
4.8462781469
 30
0.0
 10
10.7115361439
 20
4.8664646943
 30
0.0
 10
10.7175972729
 20
4.8863210577
 30
0.0
 10
10.7249523398
 20
4.9057681761
 30
0.0
 10
10.7335696168
 20
4.9247279637
 30
0.0
 10
10.7401263905
 20
4.9369828903
 30
0.0
 10
10.7436003609
 20
4.943002842
 30
0.0
  0
SPLINE
  5
269
100
AcDbEntity
  8
0
100
AcDbSpline
 62
7
  6
CONTINUOUS
 70
0
 71
3
 72
71
 73
67
 74
0
 42
0.0000001
 43
0.0000001
 44
0.0000000001
 40
0.0
 40
0.0
 40
0.0
 40
0.0
 40
0.0153099768
 40
0.0306228734
 40
0.0459417549
 40
0.06126946
 40
0.0766088306
 40
0.0919625831
 40
0.1073333075
 40
0.1227234399
 40
0.1381352427
 40
0.153570776
 40
0.1690318842
 40
0.1845201742
 40
0.2000369955
 40
0.2155834332
 40
0.2311602884
 40
0.2467680713
 40
0.2624069981
 40
0.2780769791
 40
0.293777625
 40
0.3095082471
 40
0.3252678585
 40
0.34105519
 40
0.3568686956
 40
0.372706568
 40
0.3885667598
 40
0.4044469972
 40
0.4203448071
 40
0.4362575401
 40
0.4521823953
 40
0.4681164512
 40
0.4840566928
 40
0.5000000427
 40
0.5159433923
 40
0.5318836334
 40
0.5478176883
 40
0.5637425421
 40
0.5796552735
 40
0.5955530813
 40
0.6114333164
 40
0.6272935054
 40
0.6431313749
 40
0.6589448772
 40
0.6747322053
 40
0.690491813
 40
0.7062224312
 40
0.7219230732
 40
0.73759305
 40
0.7532319726
 40
0.7688397514
 40
0.7844166024
 40
0.799963036
 40
0.8154798533
 40
0.8309681394
 40
0.846429244
 40
0.8618647737
 40
0.8772765733
 40
0.8926667027
 40
0.9080374245
 40
0.9233911748
 40
0.9387305435
 40
0.9540582471
 40
0.9693771275
 40
0.9846900234
 40
1.0
 40
1.0
 40
1.0
 40
1.0
 10
11.3937457186
 20
4.7845532459
 30
0.0
 10
11.3937457186
 20
4.7791356242
 30
0.0
 10
11.3934644793
 20
4.7682972435
 30
0.0
 10
11.3922000525
 20
4.7520824879
 30
0.0
 10
11.3900964418
 20
4.7359483548
 30
0.0
 10
11.3871592284
 20
4.7199355916
 30
0.0
 10
11.3833962251
 20
4.7040838495
 30
0.0
 10
11.378817385
 20
4.6884324247
 30
0.0
 10
11.3734347752
 20
4.6730199164
 30
0.0
 10
11.3672625112
 20
4.6578841712
 30
0.0
 10
11.360316694
 20
4.6430621609
 30
0.0
 10
11.3526153337
 20
4.6285898903
 30
0.0
 10
11.3441782732
 20
4.6145023078
 30
0.0
 10
11.3350271089
 20
4.600833225
 30
0.0
 10
11.3251851067
 20
4.5876152444
 30
0.0
 10
11.3146771198
 20
4.5748796959
 30
0.0
 10
11.3035295051
 20
4.5626565772
 30
0.0
 10
11.2917700393
 20
4.5509745033
 30
0.0
 10
11.2794278344
 20
4.5398606633
 30
0.0
 10
11.2665332552
 20
4.5293407786
 30
0.0
 10
11.2531178387
 20
4.5194390686
 30
0.0
 10
11.2392142147
 20
4.5101782174
 30
0.0
 10
11.2248560254
 20
4.5015793451
 30
0.0
 10
11.2100778495
 20
4.4936619807
 30
0.0
 10
11.1949151239
 20
4.4864440362
 30
0.0
 10
11.1794040661
 20
4.4799417874
 30
0.0
 10
11.1635815972
 20
4.4741698532
 30
0.0
 10
11.1474852648
 20
4.4691411773
 30
0.0
 10
11.1311531665
 20
4.4648670126
 30
0.0
 10
11.1146238721
 20
4.4613569058
 30
0.0
 10
11.0979363457
 20
4.4586186862
 30
0.0
 10
11.0811298685
 20
4.4566584529
 30
0.0
 10
11.0642439587
 20
4.4554805674
 30
0.0
 10
11.0473182931
 20
4.4550876492
 30
0.0
 10
11.0303926277
 20
4.4554805718
 30
0.0
 10
11.0135067188
 20
4.4566584616
 30
0.0
 10
10.9967002431
 20
4.4586186989
 30
0.0
 10
10.9800127188
 20
4.4613569218
 30
0.0
 10
10.9634834269
 20
4.4648670319
 30
0.0
 10
10.9471513317
 20
4.4691412
 30
0.0
 10
10.9310550029
 20
4.474169879
 30
0.0
 10
10.915232538
 20
4.479941816
 30
0.0
 10
10.8997214845
 20
4.486444067
 30
0.0
 10
10.8845587636
 20
4.4936620132
 30
0.0
 10
10.8697805925
 20
4.5015793787
 30
0.0
 10
10.8554224079
 20
4.5101782513
 30
0.0
 10
10.8415187889
 20
4.5194391027
 30
0.0
 10
10.8281033775
 20
4.5293408125
 30
0.0
 10
10.8152088034
 20
4.5398606966
 30
0.0
 10
10.8028666035
 20
4.5509745356
 30
0.0
 10
10.7911071424
 20
4.5626566079
 30
0.0
 10
10.7799595321
 20
4.5748797246
 30
0.0
 10
10.7694515492
 20
4.5876152708
 30
0.0
 10
10.7596095508
 20
4.6008332489
 30
0.0
 10
10.7504583899
 20
4.614502329
 30
0.0
 10
10.7420213325
 20
4.6285899088
 30
0.0
 10
10.7343199748
 20
4.6430621766
 30
0.0
 10
10.7273741599
 20
4.6578841841
 30
0.0
 10
10.7212018976
 20
4.6730199267
 30
0.0
 10
10.7158192891
 20
4.6884324326
 30
0.0
 10
10.7112404501
 20
4.7040838551
 30
0.0
 10
10.7074774475
 20
4.7199355954
 30
0.0
 10
10.7045402345
 20
4.735948357
 30
0.0
 10
10.702436624
 20
4.7520824889
 30
0.0
 10
10.7011721973
 20
4.7682972439
 30
0.0
 10
10.7008909581
 20
4.7791356242
 30
0.0
 10
10.7008909581
 20
4.7845532459
 30
0.0
  0
SPLINE
  5
26A
100
AcDbEntity
  8
0
100
AcDbSpline
 62
9
  6
CONTINUOUS
 70
0
 71
3
 72
15
 73
11
 74
0
 42
0.0000001
 43
0.0000001
 44
0.0000000001
 40
0.0
 40
0.0
 40
0.0
 40
0.0
 40
0.1243683222
 40
0.2487989562
 40
0.3733557478
 40
0.4980982538
 40
0.6230834977
 40
0.7483644533
 40
0.8739891607
 40
1.0
 40
1.0
 40
1.0
 40
1.0
 10
11.392818336
 20
4.7882367461
 30
0.0
 10
11.3928184902
 20
4.7949579184
 30
0.0
 10
11.3923735372
 20
4.8084078633
 30
0.0
 10
11.3903752431
 20
4.8284997489
 30
0.0
 10
11.3870531415
 20
4.8484369741
 30
0.0
 10
11.3824202823
 20
4.8681414504
 30
0.0
 10
11.3764946173
 20
4.8875372992
 30
0.0
 10
11.3692989558
 20
4.9065498047
 30
0.0
 10
11.3608617334
 20
4.9251046681
 30
0.0
 10
11.3544400715
 20
4.9371045617
 30
0.0
 10
11.3510363096
 20
4.9430028378
 30
0.0
  0
SPLINE
  5
26B
100
AcDbEntity
  8
0
100
AcDbSpline
 62
9
  6
CONTINUOUS
 70
0
 71
3
 72
15
 73
11
 74
0
 42
0.0000001
 43
0.0000001
 44
0.0000000001
 40
0.0
 40
0.0
 40
0.0
 40
0.0
 40
0.1243703724
 40
0.2488031912
 40
0.373361498
 40
0.4981048532
 40
0.6230900907
 40
0.7483700201
 40
0.8739925581
 40
1.0
 40
1.0
 40
1.0
 40
1.0
 10
11.3926407168
 20
4.7885742926
 30
0.0
 10
11.3926407168
 20
4.7952794457
 30
0.0
 10
11.3921979034
 20
4.8086973268
 30
0.0
 10
11.3902079721
 20
4.8287416188
 30
0.0
 10
11.3868999744
 20
4.8486322071
 30
0.0
 10
11.3822866622
 20
4.8682914534
 30
0.0
 10
11.3763858978
 20
4.8876439489
 30
0.0
 10
11.3692202937
 20
4.9066154221
 30
0.0
 10
11.3608180656
 20
4.9251320111
 30
0.0
 10
11.3544227889
 20
4.9371085883
 30
0.0
 10
11.3510329344
 20
4.9429958061
 30
0.0
  0
SPLINE
  5
26C
100
AcDbEntity
  8
0
100
AcDbSpline
 62
9
  6
CONTINUOUS
 70
0
 71
3
 72
23
 73
19
 74
0
 42
0.0000001
 43
0.0000001
 44
0.0000000001
 40
0.0
 40
0.0
 40
0.0
 40
0.0
 40
0.0618437417
 40
0.1237047053
 40
0.1856003044
 40
0.2475472486
 40
0.3095619844
 40
0.3716602489
 40
0.4338570364
 40
0.4961664284
 40
0.5586014806
 40
0.6211741076
 40
0.6838949828
 40
0.7467734521
 40
0.8098174601
 40
0.8730334908
 40
0.9364265232
 40
1.0
 40
1.0
 40
1.0
 40
1.0
 10
11.3849849713
 20
4.7944251335
 30
0.0
 10
11.3849849713
 20
4.7992962966
 30
0.0
 10
11.3847460861
 20
4.8090416677
 30
0.0
 10
11.3836719064
 20
4.8236266574
 30
0.0
 10
11.3818841539
 20
4.8381500136
 30
0.0
 10
11.3793866207
 20
4.8525804543
 30
0.0
 10
11.3761846263
 20
4.8668874639
 30
0.0
 10
11.3722849764
 20
4.8810406456
 30
0.0
 10
11.3676959653
 20
4.8950099697
 30
0.0
 10
11.3624273493
 20
4.9087657902
 30
0.0
 10
11.3564903291
 20
4.9222789203
 30
0.0
 10
11.3498975232
 20
4.9355206917
 30
0.0
 10
11.342662944
 20
4.9484630141
 30
0.0
 10
11.3348019574
 20
4.9610784437
 30
0.0
 10
11.3263312839
 20
4.9733402066
 30
0.0
 10
11.3172688369
 20
4.9852223844
 30
0.0
 10
11.3076341543
 20
4.9966994867
 30
0.0
 10
11.3008521535
 20
5.0040548435
 30
0.0
 10
11.2973736899
 20
5.0076568451
 30
0.0
  0
SPLINE
  5
26D
100
AcDbEntity
  8
0
100
AcDbSpline
 62
9
  6
CONTINUOUS
 70
0
 71
3
 72
23
 73
19
 74
0
 42
0.0000001
 43
0.0000001
 44
0.0000000001
 40
0.0
 40
0.0
 40
0.0
 40
0.0
 40
0.0635734768
 40
0.1269665092
 40
0.1901825399
 40
0.2532265479
 40
0.3161050172
 40
0.3788258924
 40
0.4413985194
 40
0.5038335716
 40
0.5661429636
 40
0.6283397511
 40
0.6904380156
 40
0.7524527514
 40
0.8143996956
 40
0.8762952947
 40
0.9381562583
 40
1.0
 40
1.0
 40
1.0
 40
1.0
 10
10.7972629866
 20
5.007656845
 30
0.0
 10
10.7937845231
 20
5.0040548435
 30
0.0
 10
10.7870025223
 20
4.9966994867
 30
0.0
 10
10.7773678396
 20
4.9852223844
 30
0.0
 10
10.7683053927
 20
4.9733402065
 30
0.0
 10
10.7598347192
 20
4.9610784437
 30
0.0
 10
10.7519737326
 20
4.9484630141
 30
0.0
 10
10.7447391534
 20
4.9355206916
 30
0.0
 10
10.7381463475
 20
4.9222789202
 30
0.0
 10
10.7322093273
 20
4.9087657901
 30
0.0
 10
10.7269407113
 20
4.8950099697
 30
0.0
 10
10.7223517002
 20
4.8810406456
 30
0.0
 10
10.7184520503
 20
4.8668874639
 30
0.0
 10
10.7152500559
 20
4.8525804542
 30
0.0
 10
10.7127525227
 20
4.8381500136
 30
0.0
 10
10.7109647702
 20
4.8236266574
 30
0.0
 10
10.7098905905
 20
4.8090416677
 30
0.0
 10
10.7096517053
 20
4.7992962966
 30
0.0
 10
10.7096517053
 20
4.7944251335
 30
0.0
  0
SPLINE
  5
26E
100
AcDbEntity
  8
0
100
AcDbSpline
 62
9
  6
CONTINUOUS
 70
0
 71
3
 72
15
 73
11
 74
0
 42
0.0000001
 43
0.0000001
 44
0.0000000001
 40
0.0
 40
0.0
 40
0.0
 40
0.0
 40
0.1260074419
 40
0.25162998
 40
0.3769099095
 40
0.5018951469
 40
0.6266385022
 40
0.7511968089
 40
0.8756296276
 40
1.0
 40
1.0
 40
1.0
 40
1.0
 10
10.7436037455
 20
4.9429958118
 30
0.0
 10
10.7402138907
 20
4.9371085938
 30
0.0
 10
10.7338186136
 20
4.9251320162
 30
0.0
 10
10.7254163847
 20
4.9066154266
 30
0.0
 10
10.7182507801
 20
4.8876439527
 30
0.0
 10
10.7123500153
 20
4.8682914566
 30
0.0
 10
10.7077367027
 20
4.8486322094
 30
0.0
 10
10.7044287047
 20
4.8287416204
 30
0.0
 10
10.7024387732
 20
4.8086973276
 30
0.0
 10
10.7019959598
 20
4.795279446
 30
0.0
 10
10.7019959598
 20
4.7885742926
 30
0.0
  0
SPLINE
  5
26F
100
AcDbEntity
  8
0
100
AcDbSpline
 62
9
  6
CONTINUOUS
 70
0
 71
3
 72
15
 73
11
 74
0
 42
0.0000001
 43
0.0000001
 44
0.0000000001
 40
0.0
 40
0.0
 40
0.0
 40
0.0
 40
0.1260108394
 40
0.2516355469
 40
0.3769165025
 40
0.5019017464
 40
0.6266442523
 40
0.7512010439
 40
0.8756316779
 40
1.0
 40
1.0
 40
1.0
 40
1.0
 10
10.7436003703
 20
4.9430028434
 30
0.0
 10
10.7401966081
 20
4.9371045672
 30
0.0
 10
10.7337749457
 20
4.9251046732
 30
0.0
 10
10.7253377227
 20
4.9065498092
 30
0.0
 10
10.7181420606
 20
4.8875373031
 30
0.0
 10
10.7122163952
 20
4.8681414535
 30
0.0
 10
10.7075835355
 20
4.8484369765
 30
0.0
 10
10.7042614337
 20
4.8284997505
 30
0.0
 10
10.7022631395
 20
4.8084078641
 30
0.0
 10
10.7018181864
 20
4.7949579186
 30
0.0
 10
10.7018183406
 20
4.7882367461
 30
0.0
  0
SPLINE
  5
270
100
AcDbEntity
  8
0
100
AcDbSpline
 62
9
  6
CONTINUOUS
 70
0
 71
3
 72
35
 73
31
 74
0
 42
0.0000001
 43
0.0000001
 44
0.0000000001
 40
0.0
 40
0.0
 40
0.0
 40
0.0
 40
0.030766169
 40
0.0616158892
 40
0.0925469675
 40
0.1235565642
 40
0.1546412205
 40
0.1857968899
 40
0.2170189739
 40
0.2483023609
 40
0.2796414687
 40
0.3110302894
 40
0.3424624374
 40
0.3739311994
 40
0.4369360711
 40
0.5000010006
 40
0.5630658933
 40
0.6260706556
 40
0.6575393368
 40
0.6889713872
 40
0.7203600944
 40
0.7516990734
 40
0.7829823176
 40
0.8142042458
 40
0.8453597475
 40
0.8764442255
 40
0.9074536347
 40
0.9383845178
 40
0.9692340368
 40
1.0
 40
1.0
 40
1.0
 40
1.0
 10
11.235098427
 20
4.5077646548
 30
0.0
 10
11.2318910335
 20
4.5050987502
 30
0.0
 10
11.2253467377
 20
4.4999031735
 30
0.0
 10
11.2151799258
 20
4.4925459779
 30
0.0
 10
11.2046691624
 20
4.4856285126
 30
0.0
 10
11.193836236
 20
4.4791651451
 30
0.0
 10
11.1827032709
 20
4.4731690406
 30
0.0
 10
11.1712930904
 20
4.4676524807
 30
0.0
 10
11.1596290588
 20
4.4626267453
 30
0.0
 10
11.1477350715
 20
4.4581021157
 30
0.0
 10
11.1356354646
 20
4.454087844
 30
0.0
 10
11.1233550954
 20
4.4505921477
 30
0.0
 10
11.1109188103
 20
4.4476221481
 30
0.0
 10
11.0941593237
 20
4.4443702801
 30
0.0
 10
11.0729490294
 20
4.4416491409
 30
0.0
 10
11.0473026872
 20
4.4405595442
 30
0.0
 10
11.0216564728
 20
4.4416517989
 30
0.0
 10
11.0004464916
 20
4.4443751371
 30
0.0
 10
10.9836873821
 20
4.4476287437
 30
0.0
 10
10.9712514456
 20
4.4506000326
 30
0.0
 10
10.9589714868
 20
4.4540970022
 30
0.0
 10
10.9468723511
 20
4.4581125284
 30
0.0
 10
10.934978895
 20
4.4626383912
 30
0.0
 10
10.9233154533
 20
4.467665336
 30
0.0
 10
10.9119059205
 20
4.473183079
 30
0.0
 10
10.9007736592
 20
4.4791803379
 30
0.0
 10
10.8899414916
 20
4.4856448287
 30
0.0
 10
10.8794315403
 20
4.4925633839
 30
0.0
 10
10.869265592
 20
4.4999216338
 30
0.0
 10
10.8627219058
 20
4.5051178895
 30
0.0
 10
10.8595148251
 20
4.5077841269
 30
0.0
  0
SPLINE
  5
271
100
AcDbEntity
  8
0
100
AcDbSpline
 62
7
  6
CONTINUOUS
 70
0
 71
3
 72
15
 73
11
 74
0
 42
0.0000001
 43
0.0000001
 44
0.0000000001
 40
0.0
 40
0.0
 40
0.0
 40
0.0
 40
0.1244986035
 40
0.2490461741
 40
0.3736931045
 40
0.4984863728
 40
0.623472029
 40
0.7486933079
 40
0.8741904222
 40
1.0
 40
1.0
 40
1.0
 40
1.0
 10
11.2973183383
 20
4.780823124
 30
0.0
 10
11.2973183383
 20
4.77651793
 30
0.0
 10
11.2970662424
 20
4.767903723
 30
0.0
 10
11.2959330098
 20
4.7550240722
 30
0.0
 10
11.2940481357
 20
4.742222051
 30
0.0
 10
11.2914173082
 20
4.7295369443
 30
0.0
 10
11.288048543
 20
4.7170070298
 30
0.0
 10
11.2839519859
 20
4.7046701149
 30
0.0
 10
11.2791403074
 20
4.6925640026
 30
0.0
 10
11.2754697665
 20
4.6846807728
 30
0.0
 10
11.2735216391
 20
4.6807907996
 30
0.0
  0
SPLINE
  5
272
100
AcDbEntity
  8
0
100
AcDbSpline
 62
7
  6
CONTINUOUS
 70
0
 71
3
 72
15
 73
11
 74
0
 42
0.0000001
 43
0.0000001
 44
0.0000000001
 40
0.0
 40
0.0
 40
0.0
 40
0.0
 40
0.1258095778
 40
0.2513066921
 40
0.376527971
 40
0.5015136272
 40
0.6263068955
 40
0.7509538259
 40
0.8755013965
 40
1.0
 40
1.0
 40
1.0
 40
1.0
 10
10.8211150375
 20
4.6807907996
 30
0.0
 10
10.8191669101
 20
4.6846807728
 30
0.0
 10
10.8154963691
 20
4.6925640026
 30
0.0
 10
10.8106846907
 20
4.7046701149
 30
0.0
 10
10.8065881336
 20
4.7170070298
 30
0.0
 10
10.8032193683
 20
4.7295369443
 30
0.0
 10
10.8005885409
 20
4.742222051
 30
0.0
 10
10.7987036668
 20
4.7550240722
 30
0.0
 10
10.7975704341
 20
4.767903723
 30
0.0
 10
10.7973183383
 20
4.77651793
 30
0.0
 10
10.7973183383
 20
4.780823124
 30
0.0
  0
SPLINE
  5
273
100
AcDbEntity
  8
0
100
AcDbSpline
 62
9
  6
CONTINUOUS
 70
0
 71
3
 72
39
 73
35
 74
0
 42
0.0000001
 43
0.0000001
 44
0.0000000001
 40
0.0
 40
0.0
 40
0.0
 40
0.0
 40
0.0322127035
 40
0.064416285
 40
0.0966018709
 40
0.1287605628
 40
0.1608838029
 40
0.1929633067
 40
0.2249911917
 40
0.2569600313
 40
0.2888629294
 40
0.3206935836
 40
0.3524463471
 40
0.3841162843
 40
0.4156992217
 40
0.4471917926
 40
0.4785914755
 40
0.5098966248
 40
0.5411064948
 40
0.5722212545
 40
0.603241995
 40
0.6341707264
 40
0.6650103672
 40
0.6957647226
 40
0.7264384544
 40
0.7570370405
 40
0.7875667256
 40
0.8180344623
 40
0.848447844
 40
0.8788150296
 40
0.9091446612
 40
0.9394457752
 40
0.9697277083
 40
1.0
 40
1.0
 40
1.0
 40
1.0
 10
11.0473183383
 20
4.7989948749
 30
0.0
 10
11.0432282747
 20
4.7989948749
 30
0.0
 10
11.0350480494
 20
4.7991835379
 30
0.0
 10
11.0228076809
 20
4.8000318873
 30
0.0
 10
11.0106260502
 20
4.8014435309
 30
0.0
 10
10.9985328179
 20
4.8034150831
 30
0.0
 10
10.9865570121
 20
4.8059417986
 30
0.0
 10
10.9747274873
 20
4.8090176058
 30
0.0
 10
10.9630727193
 20
4.8126351086
 30
0.0
 10
10.9516207722
 20
4.8167856099
 30
0.0
 10
10.940399222
 20
4.8214591298
 30
0.0
 10
10.9294350927
 20
4.8266444307
 30
0.0
 10
10.9187547911
 20
4.8323290429
 30
0.0
 10
10.9083840433
 20
4.8384992953
 30
0.0
 10
10.8983478328
 20
4.8451403472
 30
0.0
 10
10.8886703409
 20
4.852236224
 30
0.0
 10
10.8793748879
 20
4.8597698548
 30
0.0
 10
10.8704838775
 20
4.8677231135
 30
0.0
 10
10.8620187424
 20
4.8760768617
 30
0.0
 10
10.8539998925
 20
4.8848109942
 30
0.0
 10
10.8464466657
 20
4.8939044871
 30
0.0
 10
10.8393772809
 20
4.9033354476
 30
0.0
 10
10.8328087937
 20
4.9130811667
 30
0.0
 10
10.8267570545
 20
4.9231181734
 30
0.0
 10
10.8212366703
 20
4.9334222906
 30
0.0
 10
10.8162609683
 20
4.9439686936
 30
0.0
 10
10.8118419634
 20
4.9547319692
 30
0.0
 10
10.8079903284
 20
4.9656861783
 30
0.0
 10
10.8047153676
 20
4.9768049146
 30
0.0
 10
10.8020249934
 20
4.9880613815
 30
0.0
 10
10.799925707
 20
4.9994284093
 30
0.0
 10
10.7984225819
 20
5.0108786998
 30
0.0
 10
10.797519251
 20
5.0223842273
 30
0.0
 10
10.7973183383
 20
5.0300743415
 30
0.0
 10
10.7973183383
 20
5.0339180301
 30
0.0
  0
SPLINE
  5
274
100
AcDbEntity
  8
0
100
AcDbSpline
 62
9
  6
CONTINUOUS
 70
0
 71
3
 72
15
 73
11
 74
0
 42
0.0000001
 43
0.0000001
 44
0.0000000001
 40
0.0
 40
0.0
 40
0.0
 40
0.0
 40
0.1241908642
 40
0.2484635924
 40
0.372899436
 40
0.4975750727
 40
0.6225621668
 40
0.7479256694
 40
0.8737224161
 40
1.0
 40
1.0
 40
1.0
 40
1.0
 10
11.343818339
 20
4.8013443326
 30
0.0
 10
11.3438185845
 20
4.8079286538
 30
0.0
 10
11.3433207139
 20
4.8211070383
 30
0.0
 10
11.3410862685
 20
4.840768564
 30
0.0
 10
11.3373744051
 20
4.8602326816
 30
0.0
 10
11.332204182
 20
4.8793999669
 30
0.0
 10
11.3256017162
 20
4.8981742454
 30
0.0
 10
11.3176001877
 20
4.9164612572
 30
0.0
 10
11.308240793
 20
4.9341679328
 30
0.0
 10
11.3011397498
 20
4.9455062615
 30
0.0
 10
11.2973828195
 20
4.9510477315
 30
0.0
  0
SPLINE
  5
275
100
AcDbEntity
  8
0
100
AcDbSpline
 62
9
  6
CONTINUOUS
 70
0
 71
3
 72
15
 73
11
 74
0
 42
0.0000001
 43
0.0000001
 44
0.0000000001
 40
0.0
 40
0.0
 40
0.0
 40
0.0
 40
0.1262775839
 40
0.2520743306
 40
0.3774378332
 40
0.5024249273
 40
0.627100564
 40
0.7515364076
 40
0.8758091358
 40
1.0
 40
1.0
 40
1.0
 40
1.0
 10
10.797253857
 20
4.9510477314
 30
0.0
 10
10.7934969267
 20
4.9455062614
 30
0.0
 10
10.7863958836
 20
4.9341679327
 30
0.0
 10
10.7770364889
 20
4.9164612572
 30
0.0
 10
10.7690349604
 20
4.8981742453
 30
0.0
 10
10.7624324946
 20
4.8793999669
 30
0.0
 10
10.7572622715
 20
4.8602326816
 30
0.0
 10
10.7535504081
 20
4.840768564
 30
0.0
 10
10.7513159627
 20
4.8211070383
 30
0.0
 10
10.7508180921
 20
4.8079286538
 30
0.0
 10
10.7508183376
 20
4.8013443326
 30
0.0
  0
SPLINE
  5
276
100
AcDbEntity
  8
0
100
AcDbSpline
 62
9
  6
CONTINUOUS
 70
0
 71
3
 72
69
 73
65
 74
0
 42
0.0000001
 43
0.0000001
 44
0.0000000001
 40
0.0
 40
0.0
 40
0.0
 40
0.0
 40
0.0151364161
 40
0.0302776021
 40
0.045428432
 40
0.0605935042
 40
0.0757773604
 40
0.0909843121
 40
0.1062184415
 40
0.1214835456
 40
0.1367831015
 40
0.1521202312
 40
0.1674976733
 40
0.1829177586
 40
0.1983823901
 40
0.213893027
 40
0.2294506744
 40
0.2450558777
 40
0.2607087214
 40
0.2764088327
 40
0.2921553887
 40
0.3079471288
 40
0.3237823695
 40
0.3396590241
 40
0.3555746247
 40
0.3715263479
 40
0.3875110424
 40
0.4035252601
 40
0.419565288
 40
0.4356271831
 40
0.4517068083
 40
0.4677998696
 40
0.5
 40
0.5322001304
 40
0.5482931917
 40
0.5643728169
 40
0.580434712
 40
0.5964747399
 40
0.6124889576
 40
0.6284736521
 40
0.6444253753
 40
0.6603409759
 40
0.6762176305
 40
0.6920528712
 40
0.7078446113
 40
0.7235911673
 40
0.7392912786
 40
0.7549441223
 40
0.7705493256
 40
0.786106973
 40
0.8016176099
 40
0.8170822414
 40
0.8325023267
 40
0.8478797688
 40
0.8632168985
 40
0.8785164544
 40
0.8937815585
 40
0.9090156879
 40
0.9242226396
 40
0.9394064958
 40
0.954571568
 40
0.9697223979
 40
0.9848635839
 40
1.0
 40
1.0
 40
1.0
 40
1.0
 10
11.343818339
 20
4.8013443326
 30
0.0
 10
11.343818509
 20
4.7967857147
 30
0.0
 10
11.3435799622
 20
4.7876652487
 30
0.0
 10
11.3425087377
 20
4.774019696
 30
0.0
 10
11.3407259925
 20
4.7604396619
 30
0.0
 10
11.3382362511
 20
4.7469583622
 30
0.0
 10
11.3350454642
 20
4.7336081926
 30
0.0
 10
11.3311613622
 20
4.7204213701
 30
0.0
 10
11.3265933239
 20
4.7074296777
 30
0.0
 10
11.3213523854
 20
4.694664432
 30
0.0
 10
11.3154512042
 20
4.6821563969
 30
0.0
 10
11.3089040297
 20
4.6699357124
 30
0.0
 10
11.3017266682
 20
4.6580318209
 30
0.0
 10
11.2939364431
 20
4.6464733967
 30
0.0
 10
11.2855521531
 20
4.6352882764
 30
0.0
 10
11.2765940259
 20
4.6245033932
 30
0.0
 10
11.2670836693
 20
4.6141447115
 30
0.0
 10
11.2570440182
 20
4.6042371658
 30
0.0
 10
11.2464992791
 20
4.5948046006
 30
0.0
 10
11.2354748712
 20
4.5858697141
 30
0.0
 10
11.2239973653
 20
4.5774540039
 30
0.0
 10
11.2120944192
 20
4.5695777157
 30
0.0
 10
11.199794712
 20
4.5622597956
 30
0.0
 10
11.187127874
 20
4.5555178446
 30
0.0
 10
11.1741244163
 20
4.5493680769
 30
0.0
 10
11.1608156577
 20
4.5438252813
 30
0.0
 10
11.1472336466
 20
4.5389027862
 30
0.0
 10
11.1334110957
 20
4.5346124277
 30
0.0
 10
11.1193812609
 20
4.5309645208
 30
0.0
 10
11.1051780199
 20
4.5279678376
 30
0.0
 10
11.0908352002
 20
4.5256295741
 30
0.0
 10
11.0715712746
 20
4.5233970938
 30
0.0
 10
11.0473183383
 20
4.5222776597
 30
0.0
 10
11.023065402
 20
4.5233970938
 30
0.0
 10
11.0038014764
 20
4.5256295741
 30
0.0
 10
10.9894586567
 20
4.5279678376
 30
0.0
 10
10.9752554157
 20
4.5309645208
 30
0.0
 10
10.9612255809
 20
4.5346124277
 30
0.0
 10
10.94740303
 20
4.5389027862
 30
0.0
 10
10.9338210189
 20
4.5438252813
 30
0.0
 10
10.9205122603
 20
4.5493680769
 30
0.0
 10
10.9075088026
 20
4.5555178446
 30
0.0
 10
10.8948419646
 20
4.5622597956
 30
0.0
 10
10.8825422574
 20
4.5695777157
 30
0.0
 10
10.8706393114
 20
4.5774540039
 30
0.0
 10
10.8591618054
 20
4.5858697141
 30
0.0
 10
10.8481373975
 20
4.5948046006
 30
0.0
 10
10.8375926584
 20
4.6042371658
 30
0.0
 10
10.8275530073
 20
4.6141447115
 30
0.0
 10
10.8180426507
 20
4.6245033932
 30
0.0
 10
10.8090845235
 20
4.6352882764
 30
0.0
 10
10.8007002335
 20
4.6464733967
 30
0.0
 10
10.7929100084
 20
4.6580318209
 30
0.0
 10
10.7857326469
 20
4.6699357124
 30
0.0
 10
10.7791854724
 20
4.6821563969
 30
0.0
 10
10.7732842912
 20
4.694664432
 30
0.0
 10
10.7680433527
 20
4.7074296777
 30
0.0
 10
10.7634753144
 20
4.7204213701
 30
0.0
 10
10.7595912124
 20
4.7336081926
 30
0.0
 10
10.7564004255
 20
4.7469583622
 30
0.0
 10
10.7539106841
 20
4.7604396619
 30
0.0
 10
10.7521279389
 20
4.774019696
 30
0.0
 10
10.7510567144
 20
4.7876652487
 30
0.0
 10
10.7508181676
 20
4.7967857147
 30
0.0
 10
10.7508183376
 20
4.8013443326
 30
0.0
  0
SPLINE
  5
277
100
AcDbEntity
  8
0
100
AcDbSpline
 62
9
  6
CONTINUOUS
 70
0
 71
3
 72
69
 73
65
 74
0
 42
0.0000001
 43
0.0000001
 44
0.0000000001
 40
0.0
 40
0.0
 40
0.0
 40
0.0
 40
0.015120884
 40
0.0302535875
 40
0.0454021921
 40
0.0605706697
 40
0.0757627968
 40
0.0909821297
 40
0.1062319706
 40
0.1215153387
 40
0.1368349442
 40
0.1521931655
 40
0.1675920301
 40
0.1830331993
 40
0.198517956
 40
0.2140471967
 40
0.2296214265
 40
0.2452407589
 40
0.2609049172
 40
0.2766132409
 40
0.2923646945
 40
0.3081578788
 40
0.323991046
 40
0.3398621167
 40
0.3557686994
 40
0.3717081121
 40
0.3876774058
 40
0.4036733905
 40
0.4196926611
 40
0.4357316266
 40
0.4517865387
 40
0.4678535225
 40
0.500000069
 40
0.5321466143
 40
0.5482135967
 40
0.5642685068
 40
0.5803074697
 40
0.5963267372
 40
0.6123227183
 40
0.628292008
 40
0.6442314161
 40
0.6601379939
 40
0.6760090594
 40
0.6918422211
 40
0.7076353995
 40
0.723386847
 40
0.7390951645
 40
0.7547593164
 40
0.7703786423
 40
0.7859528657
 40
0.8014820999
 40
0.8169668503
 40
0.8324080133
 40
0.847806872
 40
0.8631650876
 40
0.8784846877
 40
0.8937680508
 40
0.9090178872
 40
0.9242372159
 40
0.9394293394
 40
0.9545978138
 40
0.9697464159
 40
0.9848791174
 40
1.0
 40
1.0
 40
1.0
 40
1.0
 10
11.360531046
 20
4.6438555458
 30
0.0
 10
11.360133465
 20
4.6392890667
 30
0.0
 10
11.3591116604
 20
4.6301706246
 30
0.0
 10
11.3569042399
 20
4.6165801585
 30
0.0
 10
11.354026288
 20
4.603100638
 30
0.0
 10
11.3504840984
 20
4.5897617211
 30
0.0
 10
11.346285349
 20
4.5765921898
 30
0.0
 10
11.3414391577
 20
4.5636206077
 30
0.0
 10
11.3359560418
 20
4.5508750654
 30
0.0
 10
11.3298479003
 20
4.5383831709
 30
0.0
 10
11.323127986
 20
4.5261719761
 30
0.0
 10
11.3158108762
 20
4.5142679216
 30
0.0
 10
11.3079124408
 20
4.5026967792
 30
0.0
 10
11.2994498073
 20
4.4914835959
 30
0.0
 10
11.2904413232
 20
4.4806526402
 30
0.0
 10
11.2809065158
 20
4.4702273501
 30
0.0
 10
11.2708660493
 20
4.4602302823
 30
0.0
 10
11.2603416805
 20
4.4506830642
 30
0.0
 10
11.2493562106
 20
4.4416063474
 30
0.0
 10
11.2379334363
 20
4.4330197632
 30
0.0
 10
11.2260980978
 20
4.4249418809
 30
0.0
 10
11.2138758256
 20
4.417390168
 30
0.0
 10
11.2012930847
 20
4.4103809526
 30
0.0
 10
11.1883771176
 20
4.4039293885
 30
0.0
 10
11.1751558854
 20
4.3980494229
 30
0.0
 10
11.1616580077
 20
4.3927537664
 30
0.0
 10
11.1479126987
 20
4.3880538659
 30
0.0
 10
11.1339497139
 20
4.3839598802
 30
0.0
 10
11.1197992481
 20
4.3804806573
 30
0.0
 10
11.1054920128
 20
4.3776237187
 30
0.0
 10
11.0910586366
 20
4.3753952319
 30
0.0
 10
11.0716874961
 20
4.373268116
 30
0.0
 10
11.0473172904
 20
4.3722018691
 30
0.0
 10
11.0229470918
 20
4.3732682686
 30
0.0
 10
11.003575966
 20
4.3753955057
 30
0.0
 10
10.9891426056
 20
4.3776240829
 30
0.0
 10
10.9748353905
 20
4.3804811111
 30
0.0
 10
10.9606849494
 20
4.3839604226
 30
0.0
 10
10.9467219936
 20
4.3880544957
 30
0.0
 10
10.9329767179
 20
4.3927544822
 30
0.0
 10
10.9194788778
 20
4.3980502232
 30
0.0
 10
10.9062576872
 20
4.4039302716
 30
0.0
 10
10.8933417659
 20
4.4103819166
 30
0.0
 10
10.8807590746
 20
4.4173912108
 30
0.0
 10
10.8685368559
 20
4.4249430002
 30
0.0
 10
10.8567015747
 20
4.4330209566
 30
0.0
 10
10.8452788612
 20
4.4416076123
 30
0.0
 10
10.8342934557
 20
4.4506843979
 30
0.0
 10
10.8237691545
 20
4.4602316819
 30
0.0
 10
10.813728759
 20
4.4702288126
 30
0.0
 10
10.8041940254
 20
4.4806541624
 30
0.0
 10
10.7951856181
 20
4.4914851745
 30
0.0
 10
10.7867230641
 20
4.5026984109
 30
0.0
 10
10.7788247108
 20
4.5142696028
 30
0.0
 10
10.7715076854
 20
4.526173703
 30
0.0
 10
10.7647878576
 20
4.53838494
 30
0.0
 10
10.7586798047
 20
4.5508768728
 30
0.0
 10
10.7531967792
 20
4.5636224494
 30
0.0
 10
10.7483506798
 20
4.5765940619
 30
0.0
 10
10.7441520239
 20
4.5897636194
 30
0.0
 10
10.7406099289
 20
4.6031025585
 30
0.0
 10
10.7377320726
 20
4.6165820971
 30
0.0
 10
10.7355247484
 20
4.630172577
 30
0.0
 10
10.7345030085
 20
4.6392910253
 30
0.0
 10
10.7341054599
 20
4.6438575068
 30
0.0
  0
SPLINE
  5
278
100
AcDbEntity
  8
0
100
AcDbSpline
 62
9
  6
CONTINUOUS
 70
0
 71
3
 72
61
 73
57
 74
0
 42
0.0000001
 43
0.0000001
 44
0.0000000001
 40
0.0
 40
0.0
 40
0.0
 40
0.0
 40
0.0151171197
 40
0.0302535342
 40
0.0454124463
 40
0.0605968754
 40
0.0758096364
 40
0.0910533185
 40
0.1063302656
 40
0.1216425597
 40
0.1369920062
 40
0.152380122
 40
0.1678081258
 40
0.1832769312
 40
0.1987871423
 40
0.2143390513
 40
0.2299326388
 40
0.2455675769
 40
0.2612432336
 40
0.2769586799
 40
0.2927126988
 40
0.3085037962
 40
0.3243302134
 40
0.3401899415
 40
0.3719933773
 40
0.403900485
 40
0.4358879357
 40
0.4679301955
 40
0.5000002354
 40
0.5320702719
 40
0.5641125212
 40
0.5960999547
 40
0.6280070391
 40
0.6598104459
 40
0.6756701578
 40
0.6914965577
 40
0.7072876367
 40
0.7230416365
 40
0.738757063
 40
0.7544326993
 40
0.7700676166
 40
0.7856611832
 40
0.8012130711
 40
0.8167232611
 40
0.8321920458
 40
0.8476200292
 40
0.8630081251
 40
0.8783575524
 40
0.8936698282
 40
0.9089467579
 40
0.9241904238
 40
0.9394031699
 40
0.9545875853
 40
0.9697464853
 40
0.9848828893
 40
1.0
 40
1.0
 40
1.0
 40
1.0
 10
11.347809325
 20
4.6206166962
 30
0.0
 10
11.3469775478
 20
4.6165534398
 30
0.0
 10
11.3451267136
 20
4.6084585929
 30
0.0
 10
11.3417977312
 20
4.5964479956
 30
0.0
 10
11.3379204228
 20
4.5845833448
 30
0.0
 10
11.333502086
 20
4.5728870731
 30
0.0
 10
11.3285509454
 20
4.5613808715
 30
0.0
 10
11.3230762398
 20
4.5500861893
 30
0.0
 10
11.3170881776
 20
4.5390240487
 30
0.0
 10
11.3105979242
 20
4.5282150446
 30
0.0
 10
11.3036175792
 20
4.5176792963
 30
0.0
 10
11.2961601543
 20
4.5074364124
 30
0.0
 10
11.2882395478
 20
4.4975054541
 30
0.0
 10
11.2798705196
 20
4.4879048999
 30
0.0
 10
11.2710686626
 20
4.4786526115
 30
0.0
 10
11.261850374
 20
4.4697658007
 30
0.0
 10
11.2522328242
 20
4.4612609978
 30
0.0
 10
11.2422339255
 20
4.4531540208
 30
0.0
 10
11.2318722963
 20
4.4454599461
 30
0.0
 10
11.2211672351
 20
4.4381930829
 30
0.0
 10
11.2101386529
 20
4.4313669368
 30
0.0
 10
11.1988071527
 20
4.4249942239
 30
0.0
 10
11.1871935567
 20
4.4190867005
 30
0.0
 10
11.1713494159
 20
4.41183923
 30
0.0
 10
11.15094611
 20
4.4039988223
 30
0.0
 10
11.1257198398
 20
4.3966165995
 30
0.0
 10
11.0999104558
 20
4.3913039974
 30
0.0
 10
11.0737107479
 20
4.388100827
 30
0.0
 10
11.0473150008
 20
4.3870306301
 30
0.0
 10
11.0209192785
 20
4.3881013674
 30
0.0
 10
10.9947196448
 20
4.3913050742
 30
0.0
 10
10.9689103838
 20
4.3966182048
 30
0.0
 10
10.9436842846
 20
4.4040009441
 30
0.0
 10
10.9232811594
 20
4.4118417699
 30
0.0
 10
10.907437186
 20
4.4190895653
 30
0.0
 10
10.8958237269
 20
4.4249973265
 30
0.0
 10
10.8844923746
 20
4.4313702715
 30
0.0
 10
10.8734639506
 20
4.4381966435
 30
0.0
 10
10.8627590579
 20
4.445463726
 30
0.0
 10
10.8523976072
 20
4.4531580129
 30
0.0
 10
10.8423988964
 20
4.4612651947
 30
0.0
 10
10.8327815438
 20
4.4697701947
 30
0.0
 10
10.8235634613
 20
4.4786571943
 30
0.0
 10
10.8147618189
 20
4.487909663
 30
0.0
 10
10.8063930133
 20
4.4975103887
 30
0.0
 10
10.7984726372
 20
4.5074415093
 30
0.0
 10
10.7910154498
 20
4.517684546
 30
0.0
 10
10.7840353492
 20
4.5282204373
 30
0.0
 10
10.7775453465
 20
4.5390295744
 30
0.0
 10
10.7715575408
 20
4.5500918377
 30
0.0
 10
10.7660830972
 20
4.5613866321
 30
0.0
 10
10.7611322235
 20
4.5728929351
 30
0.0
 10
10.756714158
 20
4.5845892974
 30
0.0
 10
10.7528371248
 20
4.5964540277
 30
0.0
 10
10.7495084211
 20
4.6084646932
 30
0.0
 10
10.7476577747
 20
4.6165595775
 30
0.0
 10
10.7468260918
 20
4.6206228508
 30
0.0
  0
SPLINE
  5
279
100
AcDbEntity
  8
0
100
AcDbSpline
 62
9
  6
CONTINUOUS
 70
0
 71
3
 72
39
 73
35
 74
0
 42
0.0000001
 43
0.0000001
 44
0.0000000001
 40
0.0
 40
0.0
 40
0.0
 40
0.0
 40
0.0305808244
 40
0.0612680501
 40
0.0920619023
 40
0.1229612796
 40
0.1539637819
 40
0.1850657526
 40
0.2162623345
 40
0.2475475386
 40
0.2789143249
 40
0.3103546942
 40
0.3418597879
 40
0.3734199967
 40
0.4050250749
 40
0.4366642615
 40
0.4683264053
 40
0.500000093
 40
0.5316737798
 40
0.5633359208
 40
0.5949751027
 40
0.6265801745
 40
0.6581403752
 40
0.6896454592
 40
0.7210858172
 40
0.752452591
 40
0.7837377813
 40
0.8149343483
 40
0.8460363031
 40
0.877038789
 40
0.9079381494
 40
0.9387319843
 40
0.9694191927
 40
1.0
 40
1.0
 40
1.0
 40
1.0
 10
11.2687021276
 20
4.5312243568
 30
0.0
 10
11.2653847905
 20
4.5273428333
 30
0.0
 10
11.2585167765
 20
4.5197528059
 30
0.0
 10
11.2475744845
 20
4.5089465145
 30
0.0
 10
11.236006841
 20
4.4987312727
 30
0.0
 10
11.2238504181
 20
4.4891394159
 30
0.0
 10
11.2111430793
 20
4.48020071
 30
0.0
 10
11.1979245428
 20
4.4719430485
 30
0.0
 10
11.1842360735
 20
4.464392157
 30
0.0
 10
11.1701204092
 20
4.4575715629
 30
0.0
 10
11.1556216117
 20
4.4515025092
 30
0.0
 10
11.1407849312
 20
4.4462038995
 30
0.0
 10
11.1256566651
 20
4.4416922375
 30
0.0
 10
11.1102840153
 20
4.4379815788
 30
0.0
 10
11.094714944
 20
4.4350834761
 30
0.0
 10
11.0789980225
 20
4.4330069507
 30
0.0
 10
11.0631822799
 20
4.4317584685
 30
0.0
 10
11.0473170516
 20
4.431341919
 30
0.0
 10
11.0314518274
 20
4.4317586035
 30
0.0
 10
11.0156360967
 20
4.4330072204
 30
0.0
 10
10.9999191953
 20
4.4350838795
 30
0.0
 10
10.9843501519
 20
4.4379821148
 30
0.0
 10
10.9689775379
 20
4.4416929044
 30
0.0
 10
10.9538493153
 20
4.4462046951
 30
0.0
 10
10.9390126858
 20
4.4515034311
 30
0.0
 10
10.9245139468
 20
4.4575726083
 30
0.0
 10
10.9103983481
 20
4.4643933225
 30
0.0
 10
10.8967099516
 20
4.4719443306
 30
0.0
 10
10.8834914947
 20
4.4802021046
 30
0.0
 10
10.8707842421
 20
4.4891409188
 30
0.0
 10
10.8586279116
 20
4.498732879
 30
0.0
 10
10.8470603666
 20
4.5089482194
 30
0.0
 10
10.8361181787
 20
4.5197546039
 30
0.0
 10
10.8292502379
 20
4.5273446898
 30
0.0
 10
10.8259329382
 20
4.5312262416
 30
0.0
  0
SPLINE
  5
27A
100
AcDbEntity
  8
0
100
AcDbSpline
 62
9
  6
CONTINUOUS
 70
0
 71
3
 72
39
 73
35
 74
0
 42
0.0000001
 43
0.0000001
 44
0.0000000001
 40
0.0
 40
0.0
 40
0.0
 40
0.0
 40
0.0302722917
 40
0.0605542248
 40
0.0908553388
 40
0.1211849704
 40
0.151552156
 40
0.1819655377
 40
0.2124332744
 40
0.2429629595
 40
0.2735615456
 40
0.3042352774
 40
0.3349896328
 40
0.3658292736
 40
0.396758005
 40
0.4277787455
 40
0.4588935052
 40
0.4901033752
 40
0.5214085245
 40
0.5528082074
 40
0.5843007783
 40
0.6158837157
 40
0.6475536529
 40
0.6793064164
 40
0.7111370706
 40
0.7430399687
 40
0.7750088083
 40
0.8070366933
 40
0.8391161971
 40
0.8712394372
 40
0.9033981291
 40
0.935583715
 40
0.9677872965
 40
1.0
 40
1.0
 40
1.0
 40
1.0
 10
11.2973183383
 20
5.0339180301
 30
0.0
 10
11.2973183383
 20
5.0300743415
 30
0.0
 10
11.2971174256
 20
5.0223842273
 30
0.0
 10
11.2962140947
 20
5.0108786998
 30
0.0
 10
11.2947109696
 20
4.9994284093
 30
0.0
 10
11.2926116832
 20
4.9880613815
 30
0.0
 10
11.289921309
 20
4.9768049146
 30
0.0
 10
11.2866463481
 20
4.9656861783
 30
0.0
 10
11.2827947131
 20
4.9547319692
 30
0.0
 10
11.2783757082
 20
4.9439686936
 30
0.0
 10
11.2734000063
 20
4.9334222906
 30
0.0
 10
11.2678796221
 20
4.9231181734
 30
0.0
 10
11.2618278829
 20
4.9130811667
 30
0.0
 10
11.2552593957
 20
4.9033354476
 30
0.0
 10
11.2481900109
 20
4.8939044871
 30
0.0
 10
11.2406367841
 20
4.8848109942
 30
0.0
 10
11.2326179342
 20
4.8760768617
 30
0.0
 10
11.224152799
 20
4.8677231135
 30
0.0
 10
11.2152617886
 20
4.8597698548
 30
0.0
 10
11.2059663357
 20
4.852236224
 30
0.0
 10
11.1962888437
 20
4.8451403472
 30
0.0
 10
11.1862526333
 20
4.8384992953
 30
0.0
 10
11.1758818854
 20
4.8323290429
 30
0.0
 10
11.1652015839
 20
4.8266444307
 30
0.0
 10
11.1542374546
 20
4.8214591298
 30
0.0
 10
11.1430159044
 20
4.8167856099
 30
0.0
 10
11.1315639573
 20
4.8126351086
 30
0.0
 10
11.1199091892
 20
4.8090176058
 30
0.0
 10
11.1080796644
 20
4.8059417986
 30
0.0
 10
11.0961038587
 20
4.8034150831
 30
0.0
 10
11.0840106264
 20
4.8014435309
 30
0.0
 10
11.0718289956
 20
4.8000318873
 30
0.0
 10
11.0595886272
 20
4.7991835379
 30
0.0
 10
11.0514084019
 20
4.7989948749
 30
0.0
 10
11.0473183383
 20
4.7989948749
 30
0.0
  0
SPLINE
  5
27B
100
AcDbEntity
  8
0
100
AcDbSpline
 62
9
  6
CONTINUOUS
 70
0
 71
3
 72
71
 73
67
 74
0
 42
0.0000001
 43
0.0000001
 44
0.0000000001
 40
0.0
 40
0.0
 40
0.0
 40
0.0
 40
0.0151361595
 40
0.0302771077
 40
0.0454276717
 40
0.0605924853
 40
0.0757760785
 40
0.0909827691
 40
0.1062166374
 40
0.1214814799
 40
0.136780773
 40
0.1521176389
 40
0.1674948167
 40
0.182914637
 40
0.1983790027
 40
0.2138893729
 40
0.2294467528
 40
0.2450516879
 40
0.2607042626
 40
0.2764041042
 40
0.2921503898
 40
0.3079418585
 40
0.3237768271
 40
0.3396532088
 40
0.3555685359
 40
0.3715199849
 40
0.3875044048
 40
0.4035183473
 40
0.4195580994
 40
0.4356197184
 40
0.4516990671
 40
0.4677918518
 40
0.4838936601
 40
0.5
 40
0.5161063399
 40
0.5322081482
 40
0.5483009329
 40
0.5643802816
 40
0.5804419006
 40
0.5964816527
 40
0.6124955952
 40
0.6284800151
 40
0.6444314641
 40
0.6603467912
 40
0.6762231729
 40
0.6920581415
 40
0.7078496102
 40
0.7235958958
 40
0.7392957374
 40
0.7549483121
 40
0.7705532472
 40
0.7861106271
 40
0.8016209973
 40
0.817085363
 40
0.8325051833
 40
0.8478823611
 40
0.863219227
 40
0.8785185201
 40
0.8937833626
 40
0.9090172309
 40
0.9242239215
 40
0.9394075147
 40
0.9545723283
 40
0.9697228923
 40
0.9848638405
 40
1.0
 40
1.0
 40
1.0
 40
1.0
 10
11.392818336
 20
4.7882367461
 30
0.0
 10
11.3928184579
 20
4.7829247637
 30
0.0
 10
11.3925406021
 20
4.7722970282
 30
0.0
 10
11.3912922945
 20
4.7563963867
 30
0.0
 10
11.389214943
 20
4.7405720914
 30
0.0
 10
11.3863137392
 20
4.7248628565
 30
0.0
 10
11.3825956399
 20
4.70930642
 30
0.0
 10
11.3780696463
 20
4.693940326
 30
0.0
 10
11.3727466882
 20
4.6788016086
 30
0.0
 10
11.3666396247
 20
4.6639267612
 30
0.0
 10
11.3597632042
 20
4.6493516324
 30
0.0
 10
11.3521340324
 20
4.6351113428
 30
0.0
 10
11.3437705282
 20
4.6212402
 30
0.0
 10
11.3346928788
 20
4.6077716162
 30
0.0
 10
11.3249229896
 20
4.5947380285
 30
0.0
 10
11.3144844312
 20
4.5821708206
 30
0.0
 10
11.3034023816
 20
4.5701002485
 30
0.0
 10
11.2917035653
 20
4.5585553679
 30
0.0
 10
11.2794161883
 20
4.5475639648
 30
0.0
 10
11.2665698714
 20
4.5371524881
 30
0.0
 10
11.2531955767
 20
4.5273459874
 30
0.0
 10
11.2393255335
 20
4.5181680542
 30
0.0
 10
11.2249931601
 20
4.5096407653
 30
0.0
 10
11.2102329837
 20
4.5017846305
 30
0.0
 10
11.1950805575
 20
4.4946185439
 30
0.0
 10
11.1795723752
 20
4.488159739
 30
0.0
 10
11.1637457838
 20
4.4824237473
 30
0.0
 10
11.1476388942
 20
4.47742436
 30
0.0
 10
11.1312904893
 20
4.4731735962
 30
0.0
 10
11.1147399307
 20
4.4696816753
 30
0.0
 10
11.0980270646
 20
4.466956992
 30
0.0
 10
11.081192126
 20
4.4650060967
 30
0.0
 10
11.0642756428
 20
4.4638336798
 30
0.0
 10
11.0473183383
 20
4.4634425605
 30
0.0
 10
11.0303610338
 20
4.4638336798
 30
0.0
 10
11.0134445506
 20
4.4650060967
 30
0.0
 10
10.996609612
 20
4.466956992
 30
0.0
 10
10.9798967459
 20
4.4696816753
 30
0.0
 10
10.9633461873
 20
4.4731735962
 30
0.0
 10
10.9469977824
 20
4.47742436
 30
0.0
 10
10.9308908928
 20
4.4824237473
 30
0.0
 10
10.9150643014
 20
4.488159739
 30
0.0
 10
10.8995561192
 20
4.4946185439
 30
0.0
 10
10.8844036929
 20
4.5017846305
 30
0.0
 10
10.8696435165
 20
4.5096407653
 30
0.0
 10
10.8553111431
 20
4.5181680542
 30
0.0
 10
10.8414410999
 20
4.5273459874
 30
0.0
 10
10.8280668053
 20
4.5371524881
 30
0.0
 10
10.8152204883
 20
4.5475639648
 30
0.0
 10
10.8029331113
 20
4.5585553679
 30
0.0
 10
10.791234295
 20
4.5701002485
 30
0.0
 10
10.7801522455
 20
4.5821708206
 30
0.0
 10
10.769713687
 20
4.5947380285
 30
0.0
 10
10.7599437978
 20
4.6077716162
 30
0.0
 10
10.7508661484
 20
4.6212402
 30
0.0
 10
10.7425026442
 20
4.6351113428
 30
0.0
 10
10.7348734724
 20
4.6493516324
 30
0.0
 10
10.7279970519
 20
4.6639267612
 30
0.0
 10
10.7218899884
 20
4.6788016086
 30
0.0
 10
10.7165670303
 20
4.693940326
 30
0.0
 10
10.7120410367
 20
4.70930642
 30
0.0
 10
10.7083229374
 20
4.7248628565
 30
0.0
 10
10.7054217336
 20
4.7405720914
 30
0.0
 10
10.7033443821
 20
4.7563963867
 30
0.0
 10
10.7020960745
 20
4.7722970282
 30
0.0
 10
10.7018182187
 20
4.7829247637
 30
0.0
 10
10.7018183406
 20
4.7882367461
 30
0.0
  0
SPLINE
  5
27C
100
AcDbEntity
  8
0
100
AcDbSpline
 62
9
  6
CONTINUOUS
 70
0
 71
3
 72
71
 73
67
 74
0
 42
0.0000001
 43
0.0000001
 44
0.0000000001
 40
0.0
 40
0.0
 40
0.0
 40
0.0
 40
0.0151361742
 40
0.0302771007
 40
0.0454276726
 40
0.0605924841
 40
0.0757760778
 40
0.0909827684
 40
0.1062166367
 40
0.1214814792
 40
0.1367807723
 40
0.1521176383
 40
0.167494816
 40
0.1829146365
 40
0.1983790022
 40
0.2138893724
 40
0.2294467523
 40
0.2450516874
 40
0.2607042622
 40
0.2764041038
 40
0.2921503894
 40
0.3079418581
 40
0.3237768267
 40
0.3396532085
 40
0.3555685356
 40
0.3715199847
 40
0.3875044046
 40
0.4035183471
 40
0.4195580993
 40
0.4356197183
 40
0.451699067
 40
0.4677918518
 40
0.48389366
 40
0.5
 40
0.51610634
 40
0.5322081482
 40
0.548300933
 40
0.5643802817
 40
0.5804419007
 40
0.5964816529
 40
0.6124955954
 40
0.6284800153
 40
0.6444314644
 40
0.6603467915
 40
0.6762231733
 40
0.6920581419
 40
0.7078496106
 40
0.7235958962
 40
0.7392957378
 40
0.7549483126
 40
0.7705532477
 40
0.7861106276
 40
0.8016209978
 40
0.8170853635
 40
0.832505184
 40
0.8478823617
 40
0.8632192277
 40
0.8785185208
 40
0.8937833633
 40
0.9090172316
 40
0.9242239222
 40
0.9394075159
 40
0.9545723274
 40
0.9697228993
 40
0.9848638258
 40
1.0
 40
1.0
 40
1.0
 40
1.0
 10
11.3926407168
 20
4.7885742926
 30
0.0
 10
11.3926407168
 20
4.7832650359
 30
0.0
 10
11.3923632009
 20
4.7726427657
 30
0.0
 10
11.3911154308
 20
4.7567503008
 30
0.0
 10
11.3890391858
 20
4.7409341443
 30
0.0
 10
11.3861394599
 20
4.7252329844
 30
0.0
 10
11.3824232765
 20
4.7096845455
 30
0.0
 10
11.3778996084
 20
4.6943263512
 30
0.0
 10
11.3725793872
 20
4.6791954165
 30
0.0
 10
11.3664754631
 20
4.6643282162
 30
0.0
 10
11.3596025778
 20
4.6497605804
 30
0.0
 10
11.3519773281
 20
4.6355276117
 30
0.0
 10
11.3436181236
 20
4.6216635999
 30
0.0
 10
11.3345451409
 20
4.6082019403
 30
0.0
 10
11.3247802744
 20
4.5951750531
 30
0.0
 10
11.3143470824
 20
4.5826143059
 30
0.0
 10
11.3032707301
 20
4.5705499393
 30
0.0
 10
11.2915779281
 20
4.5590109938
 30
0.0
 10
11.2792968679
 20
4.5480252414
 30
0.0
 10
11.2664571552
 20
4.5376191171
 30
0.0
 10
11.2530897362
 20
4.5278176579
 30
0.0
 10
11.2392268235
 20
4.518644443
 30
0.0
 10
11.2249018183
 20
4.5101215379
 30
0.0
 10
11.21014923
 20
4.502269442
 30
0.0
 10
11.1950045936
 20
4.4951070395
 30
0.0
 10
11.179504384
 20
4.4886515549
 30
0.0
 10
11.163685929
 20
4.4829185122
 30
0.0
 10
11.1475873199
 20
4.4779216949
 30
0.0
 10
11.1312473196
 20
4.4736731164
 30
0.0
 10
11.1147052696
 20
4.4701829907
 30
0.0
 10
11.0980009955
 20
4.4674597082
 30
0.0
 10
11.0811747117
 20
4.4655098159
 30
0.0
 10
11.0642669252
 20
4.4643380017
 30
0.0
 10
11.0473183383
 20
4.4639470834
 30
0.0
 10
11.0303697514
 20
4.4643380017
 30
0.0
 10
11.0134619649
 20
4.4655098159
 30
0.0
 10
10.9966356811
 20
4.4674597082
 30
0.0
 10
10.979931407
 20
4.4701829907
 30
0.0
 10
10.963389357
 20
4.4736731164
 30
0.0
 10
10.9470493567
 20
4.4779216949
 30
0.0
 10
10.9309507476
 20
4.4829185122
 30
0.0
 10
10.9151322926
 20
4.4886515549
 30
0.0
 10
10.899632083
 20
4.4951070395
 30
0.0
 10
10.8844874466
 20
4.502269442
 30
0.0
 10
10.8697348583
 20
4.5101215379
 30
0.0
 10
10.8554098531
 20
4.518644443
 30
0.0
 10
10.8415469404
 20
4.5278176579
 30
0.0
 10
10.8281795214
 20
4.5376191171
 30
0.0
 10
10.8153398087
 20
4.5480252414
 30
0.0
 10
10.8030587485
 20
4.5590109938
 30
0.0
 10
10.7913659466
 20
4.5705499393
 30
0.0
 10
10.7802895942
 20
4.5826143059
 30
0.0
 10
10.7698564022
 20
4.5951750531
 30
0.0
 10
10.7600915357
 20
4.6082019403
 30
0.0
 10
10.751018553
 20
4.6216635999
 30
0.0
 10
10.7426593485
 20
4.6355276117
 30
0.0
 10
10.7350340988
 20
4.6497605804
 30
0.0
 10
10.7281612135
 20
4.6643282162
 30
0.0
 10
10.7220572894
 20
4.6791954165
 30
0.0
 10
10.7167370682
 20
4.6943263512
 30
0.0
 10
10.7122134001
 20
4.7096845455
 30
0.0
 10
10.7084972167
 20
4.7252329844
 30
0.0
 10
10.7055974908
 20
4.7409341443
 30
0.0
 10
10.7035212458
 20
4.7567503008
 30
0.0
 10
10.7022734757
 20
4.7726427657
 30
0.0
 10
10.7019959598
 20
4.7832650359
 30
0.0
 10
10.7019959598
 20
4.7885742926
 30
0.0
  0
SPLINE
  5
27D
100
AcDbEntity
  8
0
100
AcDbSpline
 62
9
  6
CONTINUOUS
 70
0
 71
3
 72
71
 73
67
 74
0
 42
0.0000001
 43
0.0000001
 44
0.0000000001
 40
0.0
 40
0.0
 40
0.0
 40
0.0
 40
0.0151361725
 40
0.0302771009
 40
0.0454276728
 40
0.060592484
 40
0.0757760779
 40
0.0909827684
 40
0.1062166367
 40
0.1214814791
 40
0.1367807722
 40
0.1521176382
 40
0.167494816
 40
0.1829146365
 40
0.1983790023
 40
0.2138893725
 40
0.2294467524
 40
0.2450516874
 40
0.2607042621
 40
0.2764041036
 40
0.2921503892
 40
0.3079418581
 40
0.3237768268
 40
0.3396532086
 40
0.3555685358
 40
0.3715199848
 40
0.3875044046
 40
0.403518347
 40
0.4195580991
 40
0.4356197182
 40
0.4516990671
 40
0.4677918518
 40
0.4838936601
 40
0.5
 40
0.5161063399
 40
0.5322081482
 40
0.5483009329
 40
0.5643802818
 40
0.5804419009
 40
0.596481653
 40
0.6124955954
 40
0.6284800152
 40
0.6444314642
 40
0.6603467914
 40
0.6762231732
 40
0.6920581419
 40
0.7078496108
 40
0.7235958964
 40
0.7392957379
 40
0.7549483126
 40
0.7705532476
 40
0.7861106275
 40
0.8016209977
 40
0.8170853635
 40
0.832505184
 40
0.8478823618
 40
0.8632192278
 40
0.8785185209
 40
0.8937833633
 40
0.9090172316
 40
0.9242239221
 40
0.939407516
 40
0.9545723272
 40
0.9697228991
 40
0.9848638275
 40
1.0
 40
1.0
 40
1.0
 40
1.0
 10
11.3849849713
 20
4.7944251335
 30
0.0
 10
11.3849849713
 20
4.7892335828
 30
0.0
 10
11.3847136078
 20
4.7788468067
 30
0.0
 10
11.3834935011
 20
4.7633066753
 30
0.0
 10
11.3814632859
 20
4.7478411601
 30
0.0
 10
11.3786278463
 20
4.7324880926
 30
0.0
 10
11.3749940497
 20
4.7172843604
 30
0.0
 10
11.3705706701
 20
4.7022666551
 30
0.0
 10
11.3653683972
 20
4.6874711711
 30
0.0
 10
11.3593997967
 20
4.6729335743
 30
0.0
 10
11.3526792836
 20
4.6586889002
 30
0.0
 10
11.3452230852
 20
4.6447714739
 30
0.0
 10
11.337049203
 20
4.6312148252
 30
0.0
 10
11.3281773663
 20
4.6180516089
 30
0.0
 10
11.3186289845
 20
4.6053135264
 30
0.0
 10
11.3084270938
 20
4.5930312499
 30
0.0
 10
11.297596302
 20
4.581234349
 30
0.0
 10
11.286162728
 20
4.5699512201
 30
0.0
 10
11.2741539385
 20
4.5592090188
 30
0.0
 10
11.2615988816
 20
4.5490335952
 30
0.0
 10
11.2485278167
 20
4.5394494322
 30
0.0
 10
11.2349722423
 20
4.5304795866
 30
0.0
 10
11.2209648194
 20
4.5221456343
 30
0.0
 10
11.2065392929
 20
4.5144676198
 30
0.0
 10
11.1917304102
 20
4.507464008
 30
0.0
 10
11.1765738379
 20
4.5011516409
 30
0.0
 10
11.1611060763
 20
4.4955456973
 30
0.0
 10
11.1453643717
 20
4.4906596566
 30
0.0
 10
11.1293866273
 20
4.4865052665
 30
0.0
 10
11.1132113121
 20
4.4830925161
 30
0.0
 10
11.0968773689
 20
4.4804296096
 30
0.0
 10
11.080424121
 20
4.4785229483
 30
0.0
 10
11.0638911775
 20
4.4773771151
 30
0.0
 10
11.0473183383
 20
4.4769948644
 30
0.0
 10
11.0307454991
 20
4.4773771151
 30
0.0
 10
11.0142125556
 20
4.4785229483
 30
0.0
 10
10.9977593077
 20
4.4804296096
 30
0.0
 10
10.9814253645
 20
4.4830925161
 30
0.0
 10
10.9652500493
 20
4.4865052665
 30
0.0
 10
10.9492723049
 20
4.4906596566
 30
0.0
 10
10.9335306003
 20
4.4955456973
 30
0.0
 10
10.9180628387
 20
4.5011516409
 30
0.0
 10
10.9029062664
 20
4.507464008
 30
0.0
 10
10.8880973837
 20
4.5144676198
 30
0.0
 10
10.8736718572
 20
4.5221456343
 30
0.0
 10
10.8596644343
 20
4.5304795866
 30
0.0
 10
10.8461088599
 20
4.5394494322
 30
0.0
 10
10.833037795
 20
4.5490335952
 30
0.0
 10
10.8204827381
 20
4.5592090188
 30
0.0
 10
10.8084739486
 20
4.5699512201
 30
0.0
 10
10.7970403746
 20
4.581234349
 30
0.0
 10
10.7862095828
 20
4.5930312499
 30
0.0
 10
10.7760076921
 20
4.6053135264
 30
0.0
 10
10.7664593103
 20
4.6180516089
 30
0.0
 10
10.7575874736
 20
4.6312148252
 30
0.0
 10
10.7494135914
 20
4.6447714739
 30
0.0
 10
10.741957393
 20
4.6586889002
 30
0.0
 10
10.73523688
 20
4.6729335743
 30
0.0
 10
10.7292682794
 20
4.6874711711
 30
0.0
 10
10.7240660065
 20
4.7022666551
 30
0.0
 10
10.7196426269
 20
4.7172843604
 30
0.0
 10
10.7160088303
 20
4.7324880926
 30
0.0
 10
10.7131733907
 20
4.7478411601
 30
0.0
 10
10.7111431755
 20
4.7633066753
 30
0.0
 10
10.7099230688
 20
4.7788468067
 30
0.0
 10
10.7096517053
 20
4.7892335828
 30
0.0
 10
10.7096517053
 20
4.7944251335
 30
0.0
  0
ENDSEC
  0
SECTION
  2
OBJECTS
  0
DICTIONARY
  5
C
100
AcDbDictionary
280
0
281
1
  3
ACAD_GROUP
350
D
  3
ACAD_MLINESTYLE
350
17
  3
ACAD_LAYOUT
350
1A
  3
ACAD_PLOTSETTINGS
350
19
  3
ACAD_PLOTSTYLENAME
350
E
  0
DICTIONARY
  5
D
102
{ACAD_REACTORS
330
C
102
}
100
AcDbDictionary
280
0
281
1
  0
ACDBDICTIONARYWDFLT
  5
E
102
{ACAD_REACTORS
330
C
102
}
100
AcDbDictionary
281
1
  3
Normal
350
F
100
AcDbDictionaryWithDefault
340
F
  0
DICTIONARY
  5
17
102
{ACAD_REACTORS
330
C
102
}
100
AcDbDictionary
280
0
281
1
  3
Standard
350
18
  0
DICTIONARY
  5
19
102
{ACAD_REACTORS
330
C
102
}
100
AcDbDictionary
281
1
  0
DICTIONARY
  5
1A
102
{ACAD_REACTORS
330
C
102
}
100
AcDbDictionary
281
1
  3
Model
350
27E
  3
Layout1
350
27F
  0
ACDBPLACEHOLDER
  5
F
102
{ACAD_REACTORS
330
E
102
}
  0
MLINESTYLE
  5
18
102
{ACAD_REACTORS
330
17
102
}
100
AcDbMlineStyle
  2
STANDARD
 70
0
  3

 62
256
 51
90.0
 52
90.0
 71
2
 49
0.5
 62
256
  6
BYLAYER
 49
-0.5
 62
256
  6
BYLAYER
  0
LAYOUT
  5
27E
102
{ACAD_REACTORS
330
1A
102
}
100
AcDbPlotSettings
  1

  2
none_device
  4
ANSI_C_(22.00_x_17.00_Inches)
  6

 40
0.0
 41
0.0
 42
0.0
 43
0.0
 44
558.8
 45
431.8
 46
0.0
 47
0.0
 48
0.0
 49
0.0
140
0.0
141
0.0
142
1.0
143
1.0
 70
1024
 72
0
 73
0
 74
0
  7

 75
0
147
1.0
148
0.0
149
0.0
100
AcDbLayout
  1
Model
 70
0
 71
0
 10
0.0
 20
0.0
 11
22.0
 21
17.0
 12
0.0
 22
0.0
 32
0.0
 14
0.0
 24
0.0
 34
0.0
 15
0.0
 25
0.0
 35
0.0
146
0.0
 13
0.0
 23
0.0
 33
0.0
 16
1.0
 26
0.0
 36
0.0
 17
0.0
 27
1.0
 37
0.0
 76
0
330
205
345
0
346
0
  0
LAYOUT
  5
27F
102
{ACAD_REACTORS
330
1A
102
}
100
AcDbPlotSettings
  1

  2
none_device
  4
ANSI_C_(22.00_x_17.00_Inches)
  6

 40
0.0
 41
0.0
 42
0.0
 43
0.0
 44
558.8
 45
431.8
 46
0.0
 47
0.0
 48
0.0
 49
0.0
140
0.0
141
0.0
142
1.0
143
1.0
 70
0
 72
0
 73
0
 74
0
  7

 75
0
147
1.0
148
0.0
149
0.0
100
AcDbLayout
  1
Layout1
 70
0
 71
1
 10
0.0
 20
0.0
 11
22.0
 21
17.0
 12
0.0
 22
0.0
 32
0.0
 14
0.0
 24
0.0
 34
0.0
 15
0.0
 25
0.0
 35
0.0
146
0.0
 13
0.0
 23
0.0
 33
0.0
 16
1.0
 26
0.0
 36
0.0
 17
0.0
 27
1.0
 37
0.0
 76
0
330
206
345
0
346
0
  0
ENDSEC
  0
EOF
