999
DXF file: E:\BT Custom\CADOUTPUT\_TOP.dxf
999
Pro/ENGINEER 2018400 by Parametric Technology Corporation
  0
SECTION
  2
HEADER
  9
$ACADVER
  1
AC1018
  9
$DWGCODEPAGE
  3
ANSI_1252
  9
$EXTMAX
 10
22.0
 20
17.0
 30
0.0
  9
$EXTMIN
 10
0.0
 20
0.0
 30
0.0
  9
$LIMMIN
 10
0.0
 20
0.0
  9
$LIMMAX
 10
22.0
 20
17.0
  9
$VIEWCTR
 10
11.0
 20
8.5
  9
$VIEWSIZE
 40
17.0
  9
$CLAYER
  8
0
  9
$LTSCALE
 40
1.21
  9
$CELTYPE
  6
BYLAYER
  9
$DIMSCALE
 40
1.0
  9
$DIMASZ
 40
0.1
  9
$DIMEXO
 40
0.0625
  9
$DIMDLI
 40
0.836
  9
$DIMEXE
 40
0.125
  9
$DIMCEN
 40
0.198
  9
$DIMLFAC
 40
1.0
  9
$DIMBLK
  1
_FILLED
  9
$DIMALT
 70
1
  9
$DIMALTD
 70
2
  9
$DIMALTTD
 70
2
  9
$DIMALTF
 40
25.4
  9
$DIMTXT
 40
0.08
  9
$DIMTOL
 70
1
  9
$DIMLIM
 70
0
  9
$DIMTFAC
 40
1.0
  9
$DIMTP
 40
0.001
  9
$DIMTM
 40
0.001
  9
$DIMGAP
 40
0.09
  9
$DIMDSEP
 70
46
  9
$AUNITS
 70
0
  9
$PDMODE
 70
3
  9
$PDSIZE
 40
0.06
  9
$HANDSEED
  5
260
  9
$TILEMODE
 70
1
  9
$MEASUREMENT
 70
0
  9
$INSUNITS
 70
1
  0
ENDSEC
  0
SECTION
  2
CLASSES
  0
CLASS
  1
ACDBDICTIONARYWDFLT
  2
AcDbDictionaryWithDefault
  3
AutoCAD 2000
 90
0
 91
1
280
0
281
0
  0
CLASS
  1
ACDBPLACEHOLDER
  2
AcDbPlaceHolder
  3
AutoCAD 2000
 90
0
 91
1
280
0
281
0
  0
CLASS
  1
LAYOUT
  2
AcDbLayout
  3
AutoCAD 2000
 90
0
 91
0
280
0
281
0
  0
ENDSEC
  0
SECTION
  2
TABLES
  0
TABLE
  2
VPORT
  5
8
100
AcDbSymbolTable
 70
2
  0
VPORT
  5
1F4
100
AcDbSymbolTableRecord
100
AcDbViewportTableRecord
  2
*ACTIVE
 70
0
 10
0.0
 20
0.0
 11
1.0
 21
1.0
 12
11.0
 22
8.5
 13
0.0
 23
0.0
 14
1.0
 24
1.0
 15
0.0
 25
0.0
 16
0.0
 26
0.0
 36
1.0
 17
0.0
 27
0.0
 37
0.0
 40
17.0
 41
1.2941176471
 42
50.0
 43
0.0
 44
0.0
 50
0.0
 51
0.0
 71
0
 72
100
 73
1
 74
1
 75
0
 76
0
 77
0
 78
0
  0
ENDTAB
  0
TABLE
  2
LTYPE
  5
5
100
AcDbSymbolTable
 70
6
  0
LTYPE
  5
14
100
AcDbSymbolTableRecord
100
AcDbLinetypeTableRecord
  2
BYBLOCK
 70
0
  3

 72
65
 73
0
 40
0.0
  0
LTYPE
  5
15
100
AcDbSymbolTableRecord
100
AcDbLinetypeTableRecord
  2
BYLAYER
 70
0
  3

 72
65
 73
0
 40
0.0
  0
LTYPE
  5
16
100
AcDbSymbolTableRecord
100
AcDbLinetypeTableRecord
  2
CONTINUOUS
 70
64
  3
Solid line
 72
65
 73
0
 40
0.0
  0
LTYPE
  5
1F5
100
AcDbSymbolTableRecord
100
AcDbLinetypeTableRecord
  2
CENTER
 70
64
  3
____ _ ____ _ ____ _ ____ _ ____ _ ____ _ ____
 72
65
 73
4
 40
0.6
 49
0.375
 74
0
 49
-0.075
 74
0
 49
0.075
 74
0
 49
-0.075
 74
0
  0
LTYPE
  5
1F6
100
AcDbSymbolTableRecord
100
AcDbLinetypeTableRecord
  2
HIDDEN
 70
64
  3
- - - - - - - - - - - - - - - - - - - -
 72
65
 73
2
 40
0.2
 49
0.1
 74
0
 49
-0.1
 74
0
  0
LTYPE
  5
1F7
100
AcDbSymbolTableRecord
100
AcDbLinetypeTableRecord
  2
PHANTOM
 70
64
  3
_____ _ _ _____ _ _ _____ _ _ _____
 72
65
 73
6
 40
0.8
 49
0.45
 74
0
 49
-0.05
 74
0
 49
0.1
 74
0
 49
-0.05
 74
0
 49
0.1
 74
0
 49
-0.05
 74
0
  0
LTYPE
  5
1F8
100
AcDbSymbolTableRecord
100
AcDbLinetypeTableRecord
  2
DOT
 70
64
  3
. . . . . . . . . . . . . . . . . . . .
 72
65
 73
2
 40
0.2
 49
0.1
 74
0
 49
-0.1
 74
0
  0
LTYPE
  5
1F9
100
AcDbSymbolTableRecord
100
AcDbLinetypeTableRecord
  2
DASHED
 70
64
  3
- - - - - - - - - - - - - - - - - - - -
 72
65
 73
2
 40
0.2
 49
0.1
 74
0
 49
-0.1
 74
0
  0
ENDTAB
  0
TABLE
  2
LAYER
  5
2
100
AcDbSymbolTable
 70
36
  0
LAYER
  5
10
100
AcDbSymbolTableRecord
100
AcDbLayerTableRecord
  2
0
 70
0
 62
7
  6
CONTINUOUS
370
-3
390
F
  0
LAYER
  5
1FA
100
AcDbSymbolTableRecord
100
AcDbLayerTableRecord
  2
DEFAULT_1
 70
0
 62
7
  6
CENTER
370
-3
390
F
  0
LAYER
  5
1FB
100
AcDbSymbolTableRecord
100
AcDbLayerTableRecord
  2
DEFAULT_2
 70
0
 62
8
  6
HIDDEN
370
-3
390
F
  0
LAYER
  5
1FC
100
AcDbSymbolTableRecord
100
AcDbLayerTableRecord
  2
DEFAULT_3
 70
0
 62
7
  6
PHANTOM
370
-3
390
F
  0
LAYER
  5
1FD
100
AcDbSymbolTableRecord
100
AcDbLayerTableRecord
  2
ALL_FEATURES
 70
0
 62
7
  6
CONTINUOUS
370
-3
390
F
  0
LAYER
  5
1FE
100
AcDbSymbolTableRecord
100
AcDbLayerTableRecord
  2
AXES_FEATURES
 70
0
 62
7
  6
CONTINUOUS
370
-3
390
F
  0
LAYER
  5
1FF
100
AcDbSymbolTableRecord
100
AcDbLayerTableRecord
  2
DEFAULT_COORDINATE_SYSTEM
 70
0
 62
7
  6
CONTINUOUS
370
-3
390
F
  0
LAYER
  5
200
100
AcDbSymbolTableRecord
100
AcDbLayerTableRecord
  2
DEFAULT_DATUM_AXES
 70
0
 62
7
  6
CONTINUOUS
370
-3
390
F
  0
LAYER
  5
201
100
AcDbSymbolTableRecord
100
AcDbLayerTableRecord
  2
DEFAULT_DATUM_PLANES
 70
0
 62
7
  6
CONTINUOUS
370
-3
390
F
  0
LAYER
  5
202
100
AcDbSymbolTableRecord
100
AcDbLayerTableRecord
  2
DIMENSIONS
 70
0
 62
7
  6
CONTINUOUS
370
-3
390
F
  0
ENDTAB
  0
TABLE
  2
STYLE
  5
3
100
AcDbSymbolTable
 70
1
  0
STYLE
  5
11
100
AcDbSymbolTableRecord
100
AcDbTextStyleTableRecord
  2
STANDARD
 70
0
 40
0.0
 41
0.8
 50
0.0
 71
0
 42
0.2
  3
txt
  4

  0
STYLE
  5
203
100
AcDbSymbolTableRecord
100
AcDbTextStyleTableRecord
  2
TEXTSTYLE_1
 70
0
 40
0.0
 41
0.8
 50
0.0
 71
0
 42
0.2
  3
gdt
  4

  0
ENDTAB
  0
TABLE
  2
VIEW
  5
6
100
AcDbSymbolTable
 70
0
  0
ENDTAB
  0
TABLE
  2
UCS
  5
7
100
AcDbSymbolTable
 70
0
  0
ENDTAB
  0
TABLE
  2
APPID
  5
9
100
AcDbSymbolTable
 70
1
  0
APPID
  5
204
100
AcDbSymbolTableRecord
100
AcDbRegAppTableRecord
  2
ACAD
 70
0
  0
ENDTAB
  0
TABLE
  2
BLOCK_RECORD
  5
1
100
AcDbSymbolTable
 70
0
  0
BLOCK_RECORD
  5
205
100
AcDbSymbolTableRecord
100
AcDbBlockTableRecord
  2
*Model_Space
  0
BLOCK_RECORD
  5
206
100
AcDbSymbolTableRecord
100
AcDbBlockTableRecord
  2
*Paper_Space
  0
BLOCK_RECORD
  5
207
100
AcDbSymbolTableRecord
100
AcDbBlockTableRecord
  2
_FILLED
  0
ENDTAB
  0
TABLE
  2
DIMSTYLE
  5
A
100
AcDbSymbolTable
 70
1
100
AcDbDimStyleTable
 71
0
  0
DIMSTYLE
105
208
100
AcDbSymbolTableRecord
100
AcDbDimStyleTableRecord
  2
STANDARD
 70
0
  3

  4

 40
1.0
 41
0.1
 42
0.0625
 43
0.38
 44
0.125
 45
0.0
 46
0.0
 47
0.001
 48
0.001
140
0.08
141
0.09
142
0.0
143
25.4
144
1.0
145
0.0
146
1.0
147
0.09
 71
1.0
 72
0.0
 73
1
 74
1
 75
0
 76
0
 77
0
 78
4
 79
1
170
1
171
2
172
0
173
0
174
0
175
0
176
0
177
0
178
0
270
2
179
3
271
3
272
3
273
2
274
2
275
0
280
0
281
0
282
0
283
1
284
4
285
0
286
0
287
3
288
0
340
11
278
46
341
207
342
207
343
207
344
207
  0
ENDTAB
  0
ENDSEC
  0
SECTION
  2
BLOCKS
  0
BLOCK
  5
20
100
AcDbEntity
  8
0
100
AcDbBlockBegin
  2
*Model_Space
 70
0
 10
0.0
 20
0.0
 30
0.0
  3
*Model_Space
  1

  0
ENDBLK
  5
21
100
AcDbEntity
  8
0
100
AcDbBlockEnd
  0
BLOCK
  5
1C
100
AcDbEntity
  8
0
100
AcDbBlockBegin
  2
*Paper_Space
 70
0
 10
0.0
 20
0.0
 30
0.0
  3
*Paper_Space
  1

  0
ENDBLK
  5
1D
100
AcDbEntity
  8
0
100
AcDbBlockEnd
  0
BLOCK
  5
209
100
AcDbEntity
  8
0
100
AcDbBlockBegin
  2
_FILLED
 70
64
 10
0.0
 20
0.0
  3
_FILLED
  1

  0
SOLID
  5
20A
100
AcDbEntity
  8
0
  6
BYBLOCK
 62
0
100
AcDbTrace
 10
0.0
 20
0.0
 11
-1.0
 21
0.2
 12
-1.0
 22
-0.2
 13
-1.0
 23
-0.2
  0
ENDBLK
  5
20B
100
AcDbEntity
  8
0
  6
BYBLOCK
 62
0
100
AcDbBlockEnd
  0
ENDSEC
  0
SECTION
  2
ENTITIES
  0
LINE
  5
20C
100
AcDbEntity
  8
0
100
AcDbLine
 62
7
  6
CONTINUOUS
 10
10.6448846982
 20
4.9547986622
 11
10.6520275715
 21
4.943003188
  0
LINE
  5
20D
100
AcDbEntity
  8
0
100
AcDbLine
 62
7
  6
CONTINUOUS
 10
10.0983097989
 20
9.3982264268
 11
10.0983097989
 21
4.780823124
  0
LINE
  5
20E
100
AcDbEntity
  8
0
100
AcDbLine
 62
7
  6
CONTINUOUS
 10
10.5983097989
 20
9.3982264268
 11
10.5983097989
 21
4.780823124
  0
LINE
  5
20F
100
AcDbEntity
  8
0
100
AcDbLine
 62
7
  6
CONTINUOUS
 10
11.4763097989
 20
8.803226354
 11
11.4763097989
 21
9.9932264996
  0
LINE
  5
210
100
AcDbEntity
  8
0
100
AcDbLine
 62
7
  6
CONTINUOUS
 10
10.0445920264
 20
4.943003188
 11
10.0517348979
 21
4.9547986595
  0
LINE
  5
211
100
AcDbEntity
  8
0
100
AcDbLine
 62
9
  6
CONTINUOUS
 10
11.5673097989
 20
8.8032264268
 11
11.5673097989
 21
9.9932264268
  0
LINE
  5
212
100
AcDbEntity
  8
0
100
AcDbLine
 62
9
  6
CONTINUOUS
 10
11.5990213971
 20
8.8102604461
 11
11.5990213971
 21
9.9861924076
  0
LINE
  5
213
100
AcDbEntity
  8
0
100
AcDbLine
 62
9
  6
CONTINUOUS
 10
12.0196353587
 20
8.893776019
 11
12.0196353587
 21
9.9026768347
  0
LINE
  5
214
100
AcDbEntity
  8
0
100
AcDbLine
 62
9
  6
CONTINUOUS
 10
12.0663863073
 20
8.9209764268
 11
12.0663863073
 21
9.8754764268
  0
LINE
  5
215
100
AcDbEntity
  8
0
100
AcDbLine
 62
9
  6
CONTINUOUS
 10
12.1109108792
 20
8.9482264268
 11
12.1109108792
 21
9.8482264268
  0
LINE
  5
216
100
AcDbEntity
  8
0
100
AcDbLine
 62
7
  6
CONTINUOUS
 10
11.5673097989
 20
8.8032264268
 11
11.4763097989
 21
8.8032264268
  0
LINE
  5
217
100
AcDbEntity
  8
0
100
AcDbLine
 62
7
  6
CONTINUOUS
 10
11.0966180243
 20
8.9182264268
 11
11.4763097989
 21
8.9182264268
  0
LINE
  5
218
100
AcDbEntity
  8
0
100
AcDbLine
 62
7
  6
CONTINUOUS
 10
12.8463097989
 20
8.9482264268
 11
12.1109108792
 21
8.9482264268
  0
LINE
  5
219
100
AcDbEntity
  8
0
100
AcDbLine
 62
7
  6
CONTINUOUS
 10
12.8463097989
 20
8.9382264268
 11
12.8463097989
 21
9.8582264268
  0
LINE
  5
21A
100
AcDbEntity
  8
0
100
AcDbLine
 62
7
  6
CONTINUOUS
 10
12.9463097989
 20
8.9382264268
 11
12.9463097989
 21
9.8582264268
  0
LINE
  5
21B
100
AcDbEntity
  8
0
100
AcDbLine
 62
7
  6
CONTINUOUS
 10
12.8463097989
 20
9.8482264268
 11
12.1109108792
 21
9.8482264268
  0
LINE
  5
21C
100
AcDbEntity
  8
0
100
AcDbLine
 62
7
  6
CONTINUOUS
 10
11.0966180243
 20
9.8782264268
 11
11.4763097989
 21
9.8782264268
  0
LINE
  5
21D
100
AcDbEntity
  8
0
100
AcDbLine
 62
7
  6
CONTINUOUS
 10
11.5673097989
 20
9.9932264268
 11
11.4763097989
 21
9.9932264268
  0
ARC
  5
21E
100
AcDbEntity
  8
0
100
AcDbCircle
 62
9
  6
CONTINUOUS
 10
10.3219326554
 20
4.7832915042
 40
0.3200336343
100
AcDbArc
 50
147.5947933719
 51
150.0642152127
  0
ARC
  5
21F
100
AcDbEntity
  8
0
100
AcDbCircle
 62
9
  6
CONTINUOUS
 10
10.3750147168
 20
4.7834897808
 40
0.3196506442
100
AcDbArc
 50
29.9343109971
 51
32.4066868171
  0
ARC
  5
220
100
AcDbEntity
  8
0
100
AcDbCircle
 62
9
  6
CONTINUOUS
 10
10.3201923369
 20
4.7839569576
 40
0.3181999895
100
AcDbArc
 50
150.0111780944
 51
152.169939672
  0
ARC
  5
221
100
AcDbEntity
  8
0
100
AcDbCircle
 62
9
  6
CONTINUOUS
 10
10.3767141075
 20
4.784115387
 40
0.3178723572
100
AcDbArc
 50
27.8158742655
 51
29.9899314171
  0
ARC
  5
222
100
AcDbEntity
  8
0
100
AcDbCircle
 62
7
  6
CONTINUOUS
 10
10.3775132494
 20
4.784134011
 40
0.2308004343
100
AcDbArc
 50
2.1507408521
 51
16.911218924
  0
ARC
  5
223
100
AcDbEntity
  8
0
100
AcDbCircle
 62
7
  6
CONTINUOUS
 10
10.3191063485
 20
4.784134011
 40
0.2308004343
100
AcDbArc
 50
163.0887810803
 51
177.8492591494
  0
ARC
  5
224
100
AcDbEntity
  8
0
100
AcDbCircle
 62
7
  6
CONTINUOUS
 10
10.318910901
 20
4.8012735548
 40
0.2306019432
100
AcDbArc
 50
163.083819846
 51
179.9824143613
  0
ARC
  5
225
100
AcDbEntity
  8
0
100
AcDbCircle
 62
7
  6
CONTINUOUS
 10
10.3777086967
 20
4.8012735548
 40
0.2306019432
100
AcDbArc
 50
0.0175856375
 51
16.9161801486
  0
ARC
  5
226
100
AcDbEntity
  8
0
100
AcDbCircle
 62
7
  6
CONTINUOUS
 10
10.3483097989
 20
9.3982264268
 40
1.2
100
AcDbArc
 50
282.0255473973
 51
336.4190624811
  0
ARC
  5
227
100
AcDbEntity
  8
0
100
AcDbCircle
 62
7
  6
CONTINUOUS
 10
10.3483097989
 20
9.3982264268
 40
1.2
100
AcDbArc
 50
23.5809375189
 51
257.9744526027
  0
ARC
  5
228
100
AcDbEntity
  8
0
100
AcDbCircle
 62
9
  6
CONTINUOUS
 10
10.3483097989
 20
9.3982264268
 40
1.1581118432
100
AcDbArc
 50
282.4693655412
 51
335.5126871793
  0
ARC
  5
229
100
AcDbEntity
  8
0
100
AcDbCircle
 62
9
  6
CONTINUOUS
 10
10.3483097989
 20
9.3982264268
 40
1.1581118432
100
AcDbArc
 50
24.4873128207
 51
257.5306344588
  0
ARC
  5
22A
100
AcDbEntity
  8
0
100
AcDbCircle
 62
7
  6
CONTINUOUS
 10
10.3483097989
 20
9.3982264268
 40
1.0
100
AcDbArc
 50
284.4791769509
 51
331.3105062802
  0
ARC
  5
22B
100
AcDbEntity
  8
0
100
AcDbCircle
 62
7
  6
CONTINUOUS
 10
10.3483097989
 20
9.3982264268
 40
1.0
100
AcDbArc
 50
28.6894937197
 51
255.5208230491
  0
ARC
  5
22C
100
AcDbEntity
  8
0
100
AcDbCircle
 62
9
  6
CONTINUOUS
 10
10.3483097989
 20
9.3982264268
 40
0.95
100
AcDbArc
 50
285.2585100522
 51
329.6459405945
  0
ARC
  5
22D
100
AcDbEntity
  8
0
100
AcDbCircle
 62
9
  6
CONTINUOUS
 10
10.3483097989
 20
9.3982264268
 40
0.95
100
AcDbArc
 50
30.3540594055
 51
254.7414899479
  0
ARC
  5
22E
100
AcDbEntity
  8
0
100
AcDbCircle
 62
7
  6
CONTINUOUS
 10
10.3483097989
 20
9.3982264268
 40
0.9335432927
100
AcDbArc
 50
285.5350147681
 51
329.0538081882
  0
ARC
  5
22F
100
AcDbEntity
  8
0
100
AcDbCircle
 62
7
  6
CONTINUOUS
 10
10.3483097989
 20
9.3982264268
 40
0.9335432927
100
AcDbArc
 50
30.9461918117
 51
254.4649852319
  0
ARC
  5
230
100
AcDbEntity
  8
0
100
AcDbCircle
 62
9
  6
CONTINUOUS
 10
10.3483097989
 20
9.3982264268
 40
0.9330170097
100
AcDbArc
 50
285.542505864
 51
329.0360037865
  0
ARC
  5
231
100
AcDbEntity
  8
0
100
AcDbCircle
 62
9
  6
CONTINUOUS
 10
10.3483097989
 20
9.3982264268
 40
0.9330170097
100
AcDbArc
 50
30.9639962135
 51
254.457494136
  0
ARC
  5
232
100
AcDbEntity
  8
0
100
AcDbCircle
 62
7
  6
CONTINUOUS
 10
10.3483097989
 20
9.3982264268
 40
0.8890551181
100
AcDbArc
 50
286.3340137297
 51
253.6659862703
  0
ARC
  5
233
100
AcDbEntity
  8
0
100
AcDbCircle
 62
9
  6
CONTINUOUS
 10
10.3483097989
 20
9.3982264268
 40
0.8408117029
100
AcDbArc
 50
287.3000607387
 51
252.6999392612
  0
ARC
  5
234
100
AcDbEntity
  8
0
100
AcDbCircle
 62
7
  6
CONTINUOUS
 10
10.3483097989
 20
9.3982264268
 40
0.517
100
AcDbArc
 50
298.9215145305
 51
241.0784854695
  0
ARC
  5
235
100
AcDbEntity
  8
0
100
AcDbCircle
 62
9
  6
CONTINUOUS
 10
10.3483097989
 20
9.3982264268
 40
0.467
100
AcDbArc
 50
302.3752436263
 51
237.6247569387
  0
ARC
  5
236
100
AcDbEntity
  8
0
100
AcDbCircle
 62
7
  6
CONTINUOUS
 10
10.3483097989
 20
9.3982264268
 40
0.25
100
AcDbArc
 50
0.0
 51
180.0
  0
ARC
  5
237
100
AcDbEntity
  8
0
100
AcDbCircle
 62
7
  6
CONTINUOUS
 10
11.5673097989
 20
9.9182264268
 40
0.075
100
AcDbArc
 50
64.9871628475
 51
90.0
  0
ARC
  5
238
100
AcDbEntity
  8
0
100
AcDbCircle
 62
7
  6
CONTINUOUS
 10
11.5673097989
 20
8.8782264268
 40
0.075
100
AcDbArc
 50
270.0
 51
295.0128371525
  0
ARC
  5
239
100
AcDbEntity
  8
0
100
AcDbCircle
 62
7
  6
CONTINUOUS
 10
11.9795605761
 20
10.8017841763
 40
0.9
100
AcDbArc
 50
244.9871628475
 51
272.5520837091
  0
ARC
  5
23A
100
AcDbEntity
  8
0
100
AcDbCircle
 62
7
  6
CONTINUOUS
 10
11.9795605761
 20
7.9946686773
 40
0.9
100
AcDbArc
 50
87.4479162909
 51
115.0128371525
  0
CIRCLE
  5
23B
100
AcDbEntity
  8
0
100
AcDbCircle
 62
7
  6
CONTINUOUS
 10
12.5178097989
 20
9.3982264268
 40
0.29
  0
CIRCLE
  5
23C
100
AcDbEntity
  8
0
100
AcDbCircle
 62
9
  6
CONTINUOUS
 10
12.5178097989
 20
9.3982264268
 40
0.09
  0
ARC
  5
23D
100
AcDbEntity
  8
0
100
AcDbCircle
 62
7
  6
CONTINUOUS
 10
12.1109108792
 20
9.8982264268
 40
0.05
100
AcDbArc
 50
207.0649342288
 51
270.0
  0
ARC
  5
23E
100
AcDbEntity
  8
0
100
AcDbCircle
 62
7
  6
CONTINUOUS
 10
12.1109108792
 20
8.8982264268
 40
0.05
100
AcDbArc
 50
90.0
 51
152.9350657712
  0
ARC
  5
23F
100
AcDbEntity
  8
0
100
AcDbCircle
 62
7
  6
CONTINUOUS
 10
12.0218617355
 20
9.8527264268
 40
0.05
100
AcDbArc
 50
27.0649342288
 51
92.5520837091
  0
ARC
  5
240
100
AcDbEntity
  8
0
100
AcDbCircle
 62
7
  6
CONTINUOUS
 10
12.0218617355
 20
8.9437264268
 40
0.05
100
AcDbArc
 50
267.4479162909
 51
332.9350657712
  0
ARC
  5
241
100
AcDbEntity
  8
0
100
AcDbCircle
 62
7
  6
CONTINUOUS
 10
12.8963097989
 20
9.8582264268
 40
0.05
100
AcDbArc
 50
0.0
 51
180.0
  0
ARC
  5
242
100
AcDbEntity
  8
0
100
AcDbCircle
 62
7
  6
CONTINUOUS
 10
12.8963097989
 20
8.9382264268
 40
0.05
100
AcDbArc
 50
180.0
 51
360.0
  0
SPLINE
  5
243
100
AcDbEntity
  8
0
100
AcDbSpline
 62
7
  6
CONTINUOUS
 70
0
 71
3
 72
69
 73
65
 74
0
 42
0.0000001
 43
0.0000001
 44
0.0000000001
 40
0.0
 40
0.0
 40
0.0
 40
0.0
 40
0.0151364268
 40
0.0302776218
 40
0.0454284516
 40
0.060593522
 40
0.0757773776
 40
0.0909843282
 40
0.1062184569
 40
0.1214835622
 40
0.136783117
 40
0.1521202451
 40
0.1674976874
 40
0.1829177721
 40
0.198382402
 40
0.2138930393
 40
0.2294506862
 40
0.2450558876
 40
0.2607087318
 40
0.2764088424
 40
0.2921553968
 40
0.3079471372
 40
0.3237823774
 40
0.3396590303
 40
0.355574631
 40
0.371526354
 40
0.3875110465
 40
0.4035252644
 40
0.4195652921
 40
0.4356271851
 40
0.4517068104
 40
0.4677998715
 40
0.5
 40
0.5322001285
 40
0.5482931896
 40
0.5643728149
 40
0.5804347079
 40
0.5964747356
 40
0.6124889535
 40
0.628473646
 40
0.644425369
 40
0.6603409697
 40
0.6762176226
 40
0.6920528628
 40
0.7078446032
 40
0.7235911576
 40
0.7392912682
 40
0.7549441124
 40
0.7705493138
 40
0.7861069607
 40
0.801617598
 40
0.8170822279
 40
0.8325023126
 40
0.8478797549
 40
0.863216883
 40
0.8785164378
 40
0.8937815431
 40
0.9090156718
 40
0.9242226224
 40
0.939406478
 40
0.9545715484
 40
0.9697223782
 40
0.9848635732
 40
1.0
 40
1.0
 40
1.0
 40
1.0
 10
10.6083097989
 20
4.8013443326
 30
0.0
 10
10.6083097989
 20
4.7973468908
 30
0.0
 10
10.6081008514
 20
4.7893491745
 30
0.0
 10
10.6071613823
 20
4.7773834254
 30
0.0
 10
10.605598136
 20
4.765475129
 30
0.0
 10
10.6034148753
 20
4.7536534177
 30
0.0
 10
10.6006168871
 20
4.741946693
 30
0.0
 10
10.5972109274
 20
4.7303832072
 30
0.0
 10
10.5932052275
 20
4.7189908297
 30
0.0
 10
10.588609463
 20
4.7077970228
 30
0.0
 10
10.5834347338
 20
4.6968287634
 30
0.0
 10
10.5776935351
 20
4.686112481
 30
0.0
 10
10.5713997271
 20
4.6756739936
 30
0.0
 10
10.564568501
 20
4.6655384452
 30
0.0
 10
10.557216341
 20
4.655730246
 30
0.0
 10
10.5493609849
 20
4.6462730135
 30
0.0
 10
10.5410213805
 20
4.6371895159
 30
0.0
 10
10.5322176394
 20
4.6285016182
 30
0.0
 10
10.5229709881
 20
4.6202302295
 30
0.0
 10
10.5133037166
 20
4.6123952538
 30
0.0
 10
10.5032391248
 20
4.6050155423
 30
0.0
 10
10.4928014658
 20
4.5981088484
 30
0.0
 10
10.4820158881
 20
4.5916917857
 30
0.0
 10
10.4709083746
 20
4.5857797887
 30
0.0
 10
10.4595056802
 20
4.5803870755
 30
0.0
 10
10.4478352684
 20
4.5755266144
 30
0.0
 10
10.4359252423
 20
4.5712100928
 30
0.0
 10
10.4238042875
 20
4.5674478902
 30
0.0
 10
10.4115015662
 20
4.5642490513
 30
0.0
 10
10.3990467855
 20
4.5616212686
 30
0.0
 10
10.3864696086
 20
4.5595708522
 30
0.0
 10
10.369577128
 20
4.5576131968
 30
0.0
 10
10.3483097989
 20
4.5566315684
 30
0.0
 10
10.3270424698
 20
4.5576131968
 30
0.0
 10
10.3101499892
 20
4.5595708522
 30
0.0
 10
10.2975728123
 20
4.5616212686
 30
0.0
 10
10.2851180316
 20
4.5642490513
 30
0.0
 10
10.2728153102
 20
4.5674478902
 30
0.0
 10
10.2606943554
 20
4.5712100928
 30
0.0
 10
10.2487843294
 20
4.5755266144
 30
0.0
 10
10.2371139175
 20
4.5803870755
 30
0.0
 10
10.2257112231
 20
4.5857797887
 30
0.0
 10
10.2146037097
 20
4.5916917857
 30
0.0
 10
10.203818132
 20
4.5981088484
 30
0.0
 10
10.193380473
 20
4.6050155423
 30
0.0
 10
10.1833158812
 20
4.6123952538
 30
0.0
 10
10.1736486097
 20
4.6202302295
 30
0.0
 10
10.1644019584
 20
4.6285016182
 30
0.0
 10
10.1555982172
 20
4.6371895159
 30
0.0
 10
10.1472586129
 20
4.6462730135
 30
0.0
 10
10.1394032567
 20
4.655730246
 30
0.0
 10
10.1320510968
 20
4.6655384452
 30
0.0
 10
10.1252198707
 20
4.6756739936
 30
0.0
 10
10.1189260627
 20
4.686112481
 30
0.0
 10
10.113184864
 20
4.6968287634
 30
0.0
 10
10.1080101348
 20
4.7077970228
 30
0.0
 10
10.1034143703
 20
4.7189908297
 30
0.0
 10
10.0994086703
 20
4.7303832072
 30
0.0
 10
10.0960027107
 20
4.741946693
 30
0.0
 10
10.0932047225
 20
4.7536534177
 30
0.0
 10
10.0910214617
 20
4.765475129
 30
0.0
 10
10.0894582155
 20
4.7773834254
 30
0.0
 10
10.0885187463
 20
4.7893491745
 30
0.0
 10
10.0883097989
 20
4.7973468908
 30
0.0
 10
10.0883097989
 20
4.8013443326
 30
0.0
  0
SPLINE
  5
244
100
AcDbEntity
  8
0
100
AcDbSpline
 62
7
  6
CONTINUOUS
 70
0
 71
3
 72
69
 73
65
 74
0
 42
0.0000001
 43
0.0000001
 44
0.0000000001
 40
0.0
 40
0.0
 40
0.0
 40
0.0
 40
0.0152668485
 40
0.0305409041
 40
0.0458250604
 40
0.0611222106
 40
0.0764351205
 40
0.0917664212
 40
0.1071185859
 40
0.1224939089
 40
0.1378944807
 40
0.1533221743
 40
0.1687786262
 40
0.1842652181
 40
0.1997830699
 40
0.2153330244
 40
0.2309156388
 40
0.246531184
 40
0.2621796353
 40
0.2778606746
 40
0.2935736952
 40
0.3093178012
 40
0.3250918193
 40
0.3408943092
 40
0.356723572
 40
0.3725776701
 40
0.3884544424
 40
0.4043515222
 40
0.4202663617
 40
0.4361962522
 40
0.452138349
 40
0.4680896985
 40
0.5000000506
 40
0.5319104019
 40
0.5478617503
 40
0.5638038456
 40
0.5797337342
 40
0.5956485713
 40
0.6115456485
 40
0.6274224178
 40
0.6432765126
 40
0.6591057717
 40
0.6749082576
 40
0.6906822716
 40
0.7064263733
 40
0.7221393893
 40
0.7378204239
 40
0.7534688705
 40
0.7690844109
 40
0.7846670206
 40
0.8002169703
 40
0.8157348174
 40
0.8312214048
 40
0.8466778523
 40
0.8621055418
 40
0.8775061097
 40
0.8928814291
 40
0.9082335904
 40
0.9235648882
 40
0.9388777955
 40
0.9541749436
 40
0.9694590981
 40
0.9847331523
 40
1.0
 40
1.0
 40
1.0
 40
1.0
 10
10.6626721241
 20
4.6461517837
 30
0.0
 10
10.6623562068
 20
4.6414495562
 30
0.0
 10
10.6614895204
 20
4.6320569603
 30
0.0
 10
10.6594892461
 20
4.6180474325
 30
0.0
 10
10.6567932001
 20
4.6041451324
 30
0.0
 10
10.6534079151
 20
4.5903821764
 30
0.0
 10
10.6493415044
 20
4.576789672
 30
0.0
 10
10.6446036971
 20
4.5633983987
 30
0.0
 10
10.6392057788
 20
4.550238523
 30
0.0
 10
10.6331605504
 20
4.5373395776
 30
0.0
 10
10.6264822779
 20
4.5247303766
 30
0.0
 10
10.6191866396
 20
4.5124389543
 30
0.0
 10
10.6112906721
 20
4.5004925048
 30
0.0
 10
10.6028127125
 20
4.488917327
 30
0.0
 10
10.5937723415
 20
4.4777387757
 30
0.0
 10
10.5841903243
 20
4.4669812157
 30
0.0
 10
10.5740885513
 20
4.4566679809
 30
0.0
 10
10.5634899799
 20
4.4468213374
 30
0.0
 10
10.5524185754
 20
4.4374624485
 30
0.0
 10
10.5408992523
 20
4.4286113444
 30
0.0
 10
10.5289578157
 20
4.4202868939
 30
0.0
 10
10.516620903
 20
4.4125067781
 30
0.0
 10
10.5039159264
 20
4.405287467
 30
0.0
 10
10.4908710145
 20
4.3986441965
 30
0.0
 10
10.4775149545
 20
4.3925909489
 30
0.0
 10
10.4638771351
 20
4.3871404335
 30
0.0
 10
10.4499874845
 20
4.3823040699
 30
0.0
 10
10.4358764232
 20
4.3780919721
 30
0.0
 10
10.4215747646
 20
4.3745129345
 30
0.0
 10
10.4071138048
 20
4.3715744213
 30
0.0
 10
10.392524704
 20
4.3692825464
 30
0.0
 10
10.3729450325
 20
4.3670952046
 30
0.0
 10
10.3483094048
 20
4.3659986366
 30
0.0
 10
10.3236737801
 20
4.3670952631
 30
0.0
 10
10.3040941148
 20
4.3692826513
 30
0.0
 10
10.2895050209
 20
4.3715745606
 30
0.0
 10
10.2750440698
 20
4.3745131077
 30
0.0
 10
10.2607424217
 20
4.3780921786
 30
0.0
 10
10.2466313727
 20
4.3823043091
 30
0.0
 10
10.2327417363
 20
4.3871407048
 30
0.0
 10
10.2191039327
 20
4.3925912515
 30
0.0
 10
10.2057478903
 20
4.3986445297
 30
0.0
 10
10.1927029976
 20
4.4052878297
 30
0.0
 10
10.1799980415
 20
4.4125071695
 30
0.0
 10
10.167661151
 20
4.4202873127
 30
0.0
 10
10.1557197378
 20
4.4286117896
 30
0.0
 10
10.1442004394
 20
4.4374629187
 30
0.0
 10
10.1331290608
 20
4.4468218314
 30
0.0
 10
10.1225305163
 20
4.4566684973
 30
0.0
 10
10.1124287712
 20
4.4669817533
 30
0.0
 10
10.1028467829
 20
4.4777393332
 30
0.0
 10
10.0938064417
 20
4.4889179031
 30
0.0
 10
10.0853285127
 20
4.5004930981
 30
0.0
 10
10.0774325764
 20
4.5124395634
 30
0.0
 10
10.07013697
 20
4.5247310002
 30
0.0
 10
10.0634587299
 20
4.5373402143
 30
0.0
 10
10.0574135344
 20
4.5502391714
 30
0.0
 10
10.0520156493
 20
4.5633990575
 30
0.0
 10
10.0472778756
 20
4.5767903397
 30
0.0
 10
10.0432114988
 20
4.5903828517
 30
0.0
 10
10.0398262479
 20
4.6041458141
 30
0.0
 10
10.0371302362
 20
4.6180481192
 30
0.0
 10
10.0351299963
 20
4.6320576506
 30
0.0
 10
10.034263333
 20
4.641450248
 30
0.0
 10
10.0339474272
 20
4.646152476
 30
0.0
  0
SPLINE
  5
245
100
AcDbEntity
  8
0
100
AcDbSpline
 62
7
  6
CONTINUOUS
 70
0
 71
3
 72
11
 73
7
 74
0
 42
0.0000001
 43
0.0000001
 44
0.0000000001
 40
0.0
 40
0.0
 40
0.0
 40
0.0
 40
0.2490485176
 40
0.4987159561
 40
0.74902815
 40
1.0
 40
1.0
 40
1.0
 40
1.0
 10
10.0517349265
 20
4.9547986931
 30
0.0
 10
10.0550386322
 20
4.9600035952
 30
0.0
 10
10.0619530146
 20
4.970240029
 30
0.0
 10
10.0731897849
 20
4.9850001723
 30
0.0
 10
10.0852695017
 20
4.9991413668
 30
0.0
 10
10.0938488486
 20
5.008116667
 30
0.0
 10
10.0982644174
 20
5.0124867364
 30
0.0
  0
SPLINE
  5
246
100
AcDbEntity
  8
0
100
AcDbSpline
 62
7
  6
CONTINUOUS
 70
0
 71
3
 72
11
 73
7
 74
0
 42
0.0000001
 43
0.0000001
 44
0.0000000001
 40
0.0
 40
0.0
 40
0.0
 40
0.0
 40
0.2509718338
 40
0.5012840189
 40
0.7509514613
 40
1.0
 40
1.0
 40
1.0
 40
1.0
 10
10.5983554159
 20
5.0124865034
 30
0.0
 10
10.6027709604
 20
5.0081164493
 30
0.0
 10
10.6113502608
 20
4.9991411822
 30
0.0
 10
10.6234299146
 20
4.9850000438
 30
0.0
 10
10.6346666294
 20
4.9702399619
 30
0.0
 10
10.6415809801
 20
4.9600035724
 30
0.0
 10
10.6448846713
 20
4.9547986931
 30
0.0
  0
SPLINE
  5
247
100
AcDbEntity
  8
0
100
AcDbSpline
 62
7
  6
CONTINUOUS
 70
0
 71
3
 72
15
 73
11
 74
0
 42
0.0000001
 43
0.0000001
 44
0.0000000001
 40
0.0
 40
0.0
 40
0.0
 40
0.0
 40
0.1256345204
 40
0.2510251823
 40
0.3761997679
 40
0.5011892645
 40
0.62602736
 40
0.7507499462
 40
0.8753943899
 40
1.0
 40
1.0
 40
1.0
 40
1.0
 10
10.6520274967
 20
4.9430033307
 30
0.0
 10
10.6555014942
 20
4.9369833677
 30
0.0
 10
10.6620582975
 20
4.924728404
 30
0.0
 10
10.6706756397
 20
4.9057685697
 30
0.0
 10
10.6780307495
 20
4.8863213926
 30
0.0
 10
10.6840919223
 20
4.8664649695
 30
0.0
 10
10.6888334169
 20
4.8462783573
 30
0.0
 10
10.6922348836
 20
4.8258423095
 30
0.0
 10
10.6942816569
 20
4.8052402801
 30
0.0
 10
10.6947371792
 20
4.7914467636
 30
0.0
 10
10.6947371792
 20
4.7845532459
 30
0.0
  0
SPLINE
  5
248
100
AcDbEntity
  8
0
100
AcDbSpline
 62
7
  6
CONTINUOUS
 70
0
 71
3
 72
15
 73
11
 74
0
 42
0.0000001
 43
0.0000001
 44
0.0000000001
 40
0.0
 40
0.0
 40
0.0
 40
0.0
 40
0.124605597
 40
0.2492500317
 40
0.3739726131
 40
0.4988107076
 40
0.6238002068
 40
0.7489747982
 40
0.8743654687
 40
1.0
 40
1.0
 40
1.0
 40
1.0
 10
10.0018824187
 20
4.7845532459
 30
0.0
 10
10.0018824187
 20
4.7914467615
 30
0.0
 10
10.0023379407
 20
4.8052402741
 30
0.0
 10
10.0043847128
 20
4.8258422979
 30
0.0
 10
10.0077861778
 20
4.846278341
 30
0.0
 10
10.0125276702
 20
4.8664649493
 30
0.0
 10
10.0185888405
 20
4.8863213693
 30
0.0
 10
10.0259439475
 20
4.9057685441
 30
0.0
 10
10.0345612868
 20
4.9247283767
 30
0.0
 10
10.0411180884
 20
4.9369833394
 30
0.0
 10
10.0445920847
 20
4.9430033022
 30
0.0
  0
SPLINE
  5
249
100
AcDbEntity
  8
0
100
AcDbSpline
 62
7
  6
CONTINUOUS
 70
0
 71
3
 72
71
 73
67
 74
0
 42
0.0000001
 43
0.0000001
 44
0.0000000001
 40
0.0
 40
0.0
 40
0.0
 40
0.0
 40
0.0153099775
 40
0.0306228729
 40
0.045941753
 40
0.0612694583
 40
0.0766088283
 40
0.0919625804
 40
0.1073333042
 40
0.1227234363
 40
0.1381352386
 40
0.1535707718
 40
0.1690318796
 40
0.1845201694
 40
0.2000369903
 40
0.2155834276
 40
0.231160283
 40
0.2467680654
 40
0.2624069927
 40
0.2780769735
 40
0.2937776192
 40
0.3095082416
 40
0.3252678528
 40
0.3410551847
 40
0.3568686905
 40
0.3727065631
 40
0.3885667553
 40
0.4044469928
 40
0.420344803
 40
0.4362575364
 40
0.4521823919
 40
0.4681164481
 40
0.4840566902
 40
0.5000000404
 40
0.5159433905
 40
0.531883632
 40
0.5478176873
 40
0.5637425416
 40
0.5796552733
 40
0.5955530815
 40
0.6114333169
 40
0.6272935065
 40
0.6431313763
 40
0.6589448789
 40
0.6747322076
 40
0.6904918153
 40
0.7062224341
 40
0.721923076
 40
0.7375930529
 40
0.7532319763
 40
0.7688397547
 40
0.7844166062
 40
0.7999630396
 40
0.8154798567
 40
0.8309681428
 40
0.846429247
 40
0.861864777
 40
0.8772765762
 40
0.8926667055
 40
0.9080374269
 40
0.9233911768
 40
0.938730545
 40
0.9540582488
 40
0.9693771279
 40
0.9846900227
 40
1.0
 40
1.0
 40
1.0
 40
1.0
 10
10.6947371792
 20
4.7845532459
 30
0.0
 10
10.6947371792
 20
4.7791356239
 30
0.0
 10
10.6944559397
 20
4.7682972434
 30
0.0
 10
10.693191513
 20
4.7520824885
 30
0.0
 10
10.6910879027
 20
4.7359483562
 30
0.0
 10
10.6881506907
 20
4.7199355934
 30
0.0
 10
10.684387688
 20
4.7040838514
 30
0.0
 10
10.6798088465
 20
4.6884324276
 30
0.0
 10
10.674426235
 20
4.6730199205
 30
0.0
 10
10.6682539718
 20
4.6578841754
 30
0.0
 10
10.6613081567
 20
4.6430621645
 30
0.0
 10
10.6536067985
 20
4.6285898931
 30
0.0
 10
10.6451697391
 20
4.6145023102
 30
0.0
 10
10.6360185729
 20
4.600833229
 30
0.0
 10
10.6261765688
 20
4.5876152503
 30
0.0
 10
10.6156685819
 20
4.5748797021
 30
0.0
 10
10.6045209693
 20
4.562656582
 30
0.0
 10
10.5927615057
 20
4.5509745058
 30
0.0
 10
10.5804193018
 20
4.5398606645
 30
0.0
 10
10.5675247216
 20
4.529340781
 30
0.0
 10
10.5541093038
 20
4.5194390728
 30
0.0
 10
10.540205679
 20
4.5101782228
 30
0.0
 10
10.52584749
 20
4.5015793498
 30
0.0
 10
10.5110693153
 20
4.4936619828
 30
0.0
 10
10.4959065905
 20
4.4864440362
 30
0.0
 10
10.4803955322
 20
4.4799417875
 30
0.0
 10
10.4645730627
 20
4.4741698542
 30
0.0
 10
10.4484767297
 20
4.4691411792
 30
0.0
 10
10.432144631
 20
4.4648670147
 30
0.0
 10
10.4156153364
 20
4.4613569074
 30
0.0
 10
10.39892781
 20
4.4586186862
 30
0.0
 10
10.3821213324
 20
4.4566584525
 30
0.0
 10
10.3652354221
 20
4.4554805671
 30
0.0
 10
10.348309756
 20
4.455087649
 30
0.0
 10
10.3313840903
 20
4.4554805713
 30
0.0
 10
10.3144981809
 20
4.4566584607
 30
0.0
 10
10.2976917047
 20
4.458618698
 30
0.0
 10
10.2810041801
 20
4.4613569223
 30
0.0
 10
10.264474888
 20
4.4648670331
 30
0.0
 10
10.2481427923
 20
4.469141201
 30
0.0
 10
10.2320464627
 20
4.474169879
 30
0.0
 10
10.2162239969
 20
4.4799418148
 30
0.0
 10
10.2007129428
 20
4.4864440653
 30
0.0
 10
10.1855502221
 20
4.4936620131
 30
0.0
 10
10.170772052
 20
4.5015793812
 30
0.0
 10
10.1564138677
 20
4.5101782551
 30
0.0
 10
10.1425102478
 20
4.5194391055
 30
0.0
 10
10.1290948349
 20
4.5293408135
 30
0.0
 10
10.1162002593
 20
4.5398606962
 30
0.0
 10
10.1038580599
 20
4.5509745361
 30
0.0
 10
10.0920986007
 20
4.5626566108
 30
0.0
 10
10.0809509924
 20
4.5748797293
 30
0.0
 10
10.0704430095
 20
4.5876152754
 30
0.0
 10
10.0606010091
 20
4.6008332518
 30
0.0
 10
10.051449846
 20
4.6145023304
 30
0.0
 10
10.0430127893
 20
4.6285899106
 30
0.0
 10
10.0353114337
 20
4.6430621793
 30
0.0
 10
10.0283656207
 20
4.6578841877
 30
0.0
 10
10.0221933592
 20
4.6730199302
 30
0.0
 10
10.016810749
 20
4.6884324351
 30
0.0
 10
10.0122319084
 20
4.7040838567
 30
0.0
 10
10.0084689064
 20
4.7199355969
 30
0.0
 10
10.0055316948
 20
4.7359483583
 30
0.0
 10
10.0034280847
 20
4.7520824895
 30
0.0
 10
10.0021636581
 20
4.7682972438
 30
0.0
 10
10.0018824187
 20
4.779135624
 30
0.0
 10
10.0018824187
 20
4.7845532459
 30
0.0
  0
SPLINE
  5
24A
100
AcDbEntity
  8
0
100
AcDbSpline
 62
7
  6
CONTINUOUS
 70
0
 71
3
 72
15
 73
11
 74
0
 42
0.0000001
 43
0.0000001
 44
0.0000000001
 40
0.0
 40
0.0
 40
0.0
 40
0.0
 40
0.1258025157
 40
0.2512951853
 40
0.3765144109
 40
0.5015001037
 40
0.6262951677
 40
0.7509452266
 40
0.8754968572
 40
1.0
 40
1.0
 40
1.0
 40
1.0
 10
10.1218849315
 20
4.6812344221
 30
0.0
 10
10.1199546215
 20
4.6851097874
 30
0.0
 10
10.1163178073
 20
4.6929623759
 30
0.0
 10
10.1115507169
 20
4.7050186381
 30
0.0
 10
10.1074923581
 20
4.7173024709
 30
0.0
 10
10.1041551685
 20
4.7297765916
 30
0.0
 10
10.1015491018
 20
4.7424037161
 30
0.0
 10
10.0996820211
 20
4.7551461024
 30
0.0
 10
10.0985595078
 20
4.7679650194
 30
0.0
 10
10.0983097989
 20
4.7765383439
 30
0.0
 10
10.0983097989
 20
4.780823124
 30
0.0
  0
SPLINE
  5
24B
100
AcDbEntity
  8
0
100
AcDbSpline
 62
9
  6
CONTINUOUS
 70
0
 71
3
 72
39
 73
35
 74
0
 42
0.0000001
 43
0.0000001
 44
0.0000000001
 40
0.0
 40
0.0
 40
0.0
 40
0.0
 40
0.0322127204
 40
0.0644162776
 40
0.096601873
 40
0.1287605618
 40
0.1608838025
 40
0.1929633059
 40
0.2249911908
 40
0.2569600303
 40
0.2888629284
 40
0.3206935826
 40
0.3524463462
 40
0.3841162836
 40
0.4156992213
 40
0.4471917925
 40
0.4785914757
 40
0.5098966254
 40
0.5411064956
 40
0.5722212556
 40
0.6032419962
 40
0.6341707277
 40
0.6650103684
 40
0.6957647238
 40
0.7264384554
 40
0.7570370414
 40
0.7875667263
 40
0.8180344628
 40
0.8484478444
 40
0.8788150299
 40
0.9091446614
 40
0.9394457753
 40
0.9697277083
 40
1.0
 40
1.0
 40
1.0
 40
1.0
 10
10.3483097989
 20
4.7989948749
 30
0.0
 10
10.3442197331
 20
4.7989948749
 30
0.0
 10
10.3360395087
 20
4.7991835374
 30
0.0
 10
10.3237991402
 20
4.8000318885
 30
0.0
 10
10.3116175116
 20
4.8014435311
 30
0.0
 10
10.2995242785
 20
4.8034150843
 30
0.0
 10
10.2875484731
 20
4.8059417996
 30
0.0
 10
10.2757189483
 20
4.8090176071
 30
0.0
 10
10.2640641803
 20
4.8126351098
 30
0.0
 10
10.2526122332
 20
4.8167856109
 30
0.0
 10
10.2413906828
 20
4.8214591305
 30
0.0
 10
10.2304265533
 20
4.8266444308
 30
0.0
 10
10.2197462514
 20
4.8323290426
 30
0.0
 10
10.2093755031
 20
4.8384992944
 30
0.0
 10
10.1993392922
 20
4.8451403457
 30
0.0
 10
10.1896617998
 20
4.852236222
 30
0.0
 10
10.1803663464
 20
4.8597698525
 30
0.0
 10
10.1714753357
 20
4.8677231112
 30
0.0
 10
10.1630102006
 20
4.8760768597
 30
0.0
 10
10.154991351
 20
4.8848109926
 30
0.0
 10
10.1474381247
 20
4.8939044859
 30
0.0
 10
10.1403687405
 20
4.9033354468
 30
0.0
 10
10.1338002539
 20
4.9130811664
 30
0.0
 10
10.1277485153
 20
4.9231181734
 30
0.0
 10
10.1222281316
 20
4.9334222908
 30
0.0
 10
10.11725243
 20
4.9439686939
 30
0.0
 10
10.1128334253
 20
4.9547319696
 30
0.0
 10
10.1089817904
 20
4.9656861787
 30
0.0
 10
10.1057068294
 20
4.9768049149
 30
0.0
 10
10.103016455
 20
4.9880613816
 30
0.0
 10
10.1009171683
 20
4.9994284094
 30
0.0
 10
10.0994140429
 20
5.0108786999
 30
0.0
 10
10.0985107117
 20
5.0223842273
 30
0.0
 10
10.0983097989
 20
5.0300743415
 30
0.0
 10
10.0983097989
 20
5.0339180301
 30
0.0
  0
SPLINE
  5
24C
100
AcDbEntity
  8
0
100
AcDbSpline
 62
9
  6
CONTINUOUS
 70
0
 71
3
 72
15
 73
11
 74
0
 42
0.0000001
 43
0.0000001
 44
0.0000000001
 40
0.0
 40
0.0
 40
0.0
 40
0.0
 40
0.1241903318
 40
0.2484626694
 40
0.3728981744
 40
0.4975736259
 40
0.6225607276
 40
0.7479244631
 40
0.8737216852
 40
1.0
 40
1.0
 40
1.0
 40
1.0
 10
10.6448097996
 20
4.8013443326
 30
0.0
 10
10.6448100452
 20
4.8079308238
 30
0.0
 10
10.6443118504
 20
4.821113563
 30
0.0
 10
10.6420759231
 20
4.8407815136
 30
0.0
 10
10.6383616263
 20
4.8602518649
 30
0.0
 10
10.633188015
 20
4.8794250851
 30
0.0
 10
10.6265812672
 20
4.8982049163
 30
0.0
 10
10.6185745842
 20
4.9164970012
 30
0.0
 10
10.6092092289
 20
4.9342081878
 30
0.0
 10
10.6021037244
 20
4.945549078
 30
0.0
 10
10.5983444593
 20
4.9510917122
 30
0.0
  0
SPLINE
  5
24D
100
AcDbEntity
  8
0
100
AcDbSpline
 62
9
  6
CONTINUOUS
 70
0
 71
3
 72
15
 73
11
 74
0
 42
0.0000001
 43
0.0000001
 44
0.0000000001
 40
0.0
 40
0.0
 40
0.0
 40
0.0
 40
0.1262783148
 40
0.2520755369
 40
0.3774392724
 40
0.5024263741
 40
0.6271018256
 40
0.7515373306
 40
0.8758096681
 40
1.0
 40
1.0
 40
1.0
 40
1.0
 10
10.0982751384
 20
4.9510917121
 30
0.0
 10
10.0945158733
 20
4.9455490779
 30
0.0
 10
10.0874103689
 20
4.9342081878
 30
0.0
 10
10.0780450136
 20
4.9164970012
 30
0.0
 10
10.0700383306
 20
4.8982049163
 30
0.0
 10
10.0634315828
 20
4.8794250851
 30
0.0
 10
10.0582579715
 20
4.8602518649
 30
0.0
 10
10.0545436747
 20
4.8407815136
 30
0.0
 10
10.0523077474
 20
4.821113563
 30
0.0
 10
10.0518095526
 20
4.8079308238
 30
0.0
 10
10.0518097982
 20
4.8013443326
 30
0.0
  0
SPLINE
  5
24E
100
AcDbEntity
  8
0
100
AcDbSpline
 62
9
  6
CONTINUOUS
 70
0
 71
3
 72
71
 73
67
 74
0
 42
0.0000001
 43
0.0000001
 44
0.0000000001
 40
0.0
 40
0.0
 40
0.0
 40
0.0
 40
0.0151361618
 40
0.0302770827
 40
0.0454276543
 40
0.0605924664
 40
0.0757760621
 40
0.0909827532
 40
0.1062166214
 40
0.1214814639
 40
0.1367807576
 40
0.1521176244
 40
0.167494803
 40
0.182914624
 40
0.1983789903
 40
0.2138893611
 40
0.2294467416
 40
0.2450516773
 40
0.2607042526
 40
0.2764040947
 40
0.2921503809
 40
0.3079418504
 40
0.3237768197
 40
0.3396532022
 40
0.3555685299
 40
0.3715199796
 40
0.3875044
 40
0.403518343
 40
0.4195580959
 40
0.4356197156
 40
0.4516990651
 40
0.4677918505
 40
0.4838936594
 40
0.5
 40
0.5161063406
 40
0.5322081495
 40
0.5483009349
 40
0.5643802844
 40
0.5804419041
 40
0.596481657
 40
0.6124956
 40
0.6284800204
 40
0.6444314701
 40
0.6603467978
 40
0.6762231803
 40
0.6920581496
 40
0.7078496191
 40
0.7235959053
 40
0.7392957474
 40
0.7549483227
 40
0.7705532584
 40
0.7861106389
 40
0.8016210097
 40
0.817085376
 40
0.832505197
 40
0.8478823756
 40
0.8632192424
 40
0.8785185361
 40
0.8937833786
 40
0.9090172468
 40
0.9242239379
 40
0.9394075336
 40
0.9545723457
 40
0.9697229173
 40
0.9848638382
 40
1.0
 40
1.0
 40
1.0
 40
1.0
 10
10.6448097996
 20
4.8013443326
 30
0.0
 10
10.6448099696
 20
4.7967857131
 30
0.0
 10
10.6445714183
 20
4.7876652474
 30
0.0
 10
10.6435001997
 20
4.774019694
 30
0.0
 10
10.6417174516
 20
4.7604396615
 30
0.0
 10
10.6392277113
 20
4.7469583613
 30
0.0
 10
10.6360369246
 20
4.7336081918
 30
0.0
 10
10.6321528234
 20
4.7204213691
 30
0.0
 10
10.6275847859
 20
4.7074296764
 30
0.0
 10
10.622343848
 20
4.6946644304
 30
0.0
 10
10.6164426667
 20
4.6821563953
 30
0.0
 10
10.6098954911
 20
4.6699357113
 30
0.0
 10
10.602718128
 20
4.6580318207
 30
0.0
 10
10.5949279016
 20
4.6464733974
 30
0.0
 10
10.586543611
 20
4.6352882776
 30
0.0
 10
10.577585484
 20
4.6245033943
 30
0.0
 10
10.5680751284
 20
4.614144712
 30
0.0
 10
10.5580354786
 20
4.6042371652
 30
0.0
 10
10.5474907406
 20
4.5948045988
 30
0.0
 10
10.5364663335
 20
4.5858697114
 30
0.0
 10
10.5249888274
 20
4.5774540012
 30
0.0
 10
10.5130858807
 20
4.5695777139
 30
0.0
 10
10.5007861727
 20
4.5622597949
 30
0.0
 10
10.4881193341
 20
4.5555178451
 30
0.0
 10
10.4751158761
 20
4.5493680782
 30
0.0
 10
10.461807117
 20
4.543825283
 30
0.0
 10
10.4482251073
 20
4.5389027877
 30
0.0
 10
10.4344025523
 20
4.5346124283
 30
0.0
 10
10.4203727343
 20
4.5309645206
 30
0.0
 10
10.4061694323
 20
4.5279678354
 30
0.0
 10
10.3918268414
 20
4.525629577
 30
0.0
 10
10.3773794909
 20
4.5239553661
 30
0.0
 10
10.3628621608
 20
4.5229492272
 30
0.0
 10
10.3483097989
 20
4.5226135786
 30
0.0
 10
10.3337574371
 20
4.5229492272
 30
0.0
 10
10.319240107
 20
4.5239553661
 30
0.0
 10
10.3047927564
 20
4.525629577
 30
0.0
 10
10.2904501656
 20
4.5279678354
 30
0.0
 10
10.2762468635
 20
4.5309645206
 30
0.0
 10
10.2622170455
 20
4.5346124283
 30
0.0
 10
10.2483944905
 20
4.5389027877
 30
0.0
 10
10.2348124808
 20
4.543825283
 30
0.0
 10
10.2215037218
 20
4.5493680782
 30
0.0
 10
10.2085002638
 20
4.5555178451
 30
0.0
 10
10.1958334251
 20
4.5622597949
 30
0.0
 10
10.1835337171
 20
4.5695777139
 30
0.0
 10
10.1716307704
 20
4.5774540012
 30
0.0
 10
10.1601532643
 20
4.5858697114
 30
0.0
 10
10.1491288572
 20
4.5948045988
 30
0.0
 10
10.1385841193
 20
4.6042371652
 30
0.0
 10
10.1285444695
 20
4.614144712
 30
0.0
 10
10.1190341138
 20
4.6245033943
 30
0.0
 10
10.1100759869
 20
4.6352882776
 30
0.0
 10
10.1016916962
 20
4.6464733974
 30
0.0
 10
10.0939014699
 20
4.6580318207
 30
0.0
 10
10.0867241067
 20
4.6699357113
 30
0.0
 10
10.0801769311
 20
4.6821563953
 30
0.0
 10
10.0742757498
 20
4.6946644304
 30
0.0
 10
10.0690348119
 20
4.7074296764
 30
0.0
 10
10.0644667744
 20
4.7204213691
 30
0.0
 10
10.0605826732
 20
4.7336081918
 30
0.0
 10
10.0573918865
 20
4.7469583613
 30
0.0
 10
10.0549021462
 20
4.7604396615
 30
0.0
 10
10.0531193981
 20
4.774019694
 30
0.0
 10
10.0520481795
 20
4.7876652474
 30
0.0
 10
10.0518096282
 20
4.7967857131
 30
0.0
 10
10.0518097982
 20
4.8013443326
 30
0.0
  0
SPLINE
  5
24F
100
AcDbEntity
  8
0
100
AcDbSpline
 62
9
  6
CONTINUOUS
 70
0
 71
3
 72
69
 73
65
 74
0
 42
0.0000001
 43
0.0000001
 44
0.0000000001
 40
0.0
 40
0.0
 40
0.0
 40
0.0
 40
0.0151209115
 40
0.0302536172
 40
0.0454022166
 40
0.0605706775
 40
0.0757627795
 40
0.0909820801
 40
0.1062318828
 40
0.1215152084
 40
0.1368347686
 40
0.1521929431
 40
0.1675917608
 40
0.1830328843
 40
0.1985175977
 40
0.2140467982
 40
0.2296209924
 40
0.245240294
 40
0.2609044275
 40
0.2766127326
 40
0.2923641742
 40
0.3081573534
 40
0.3239905225
 40
0.3398616021
 40
0.3557682005
 40
0.3717076354
 40
0.3876769576
 40
0.4036729764
 40
0.4196922865
 40
0.4357312959
 40
0.4517862557
 40
0.4678532904
 40
0.4999999428
 40
0.5321465963
 40
0.5482136321
 40
0.5642685937
 40
0.5803076052
 40
0.5963269178
 40
0.6123229395
 40
0.6282922651
 40
0.6442317037
 40
0.6601383062
 40
0.6760093901
 40
0.6918425639
 40
0.707635748
 40
0.7233871946
 40
0.7390955049
 40
0.7547596436
 40
0.7703789506
 40
0.7859531501
 40
0.801482356
 40
0.8169670746
 40
0.8324082032
 40
0.8478070259
 40
0.8631652051
 40
0.8784847697
 40
0.8937680994
 40
0.909017906
 40
0.9242372099
 40
0.939429315
 40
0.9545977785
 40
0.96974638
 40
0.9848790873
 40
1.0
 40
1.0
 40
1.0
 40
1.0
 10
10.6615266726
 20
4.6439034427
 30
0.0
 10
10.6611298402
 20
4.639336422
 30
0.0
 10
10.6601094861
 20
4.6302168681
 30
0.0
 10
10.6579040786
 20
4.6166246472
 30
0.0
 10
10.6550279832
 20
4.6031433014
 30
0.0
 10
10.6514874866
 20
4.5898024957
 30
0.0
 10
10.6472902668
 20
4.5766310231
 30
0.0
 10
10.6424454396
 20
4.5636574572
 30
0.0
 10
10.6369635219
 20
4.5509098988
 30
0.0
 10
10.6308564125
 20
4.5384159661
 30
0.0
 10
10.6241373649
 20
4.5262027209
 30
0.0
 10
10.6168209575
 20
4.5142966141
 30
0.0
 10
10.608923062
 20
4.5027234271
 30
0.0
 10
10.6004608084
 20
4.4915082167
 30
0.0
 10
10.5914525471
 20
4.480675261
 30
0.0
 10
10.5819178088
 20
4.4702480071
 30
0.0
 10
10.5718772622
 20
4.460249021
 30
0.0
 10
10.5613526684
 20
4.4506999387
 30
0.0
 10
10.5503668341
 20
4.4416214203
 30
0.0
 10
10.5389435615
 20
4.4330331054
 30
0.0
 10
10.5271075974
 20
4.4249535709
 30
0.0
 10
10.5148845792
 20
4.4174002913
 30
0.0
 10
10.502300979
 20
4.4103896015
 30
0.0
 10
10.4893840471
 20
4.4039366615
 30
0.0
 10
10.4761617524
 20
4.3980554245
 30
0.0
 10
10.462662723
 20
4.3927586065
 30
0.0
 10
10.4489161817
 20
4.3880576592
 30
0.0
 10
10.434951893
 20
4.3839627456
 30
0.0
 10
10.4208000607
 20
4.3804827178
 30
0.0
 10
10.4064914057
 20
4.3776251005
 30
0.0
 10
10.3920565661
 20
4.3753960641
 30
0.0
 10
10.3726834287
 20
4.3732683904
 30
0.0
 10
10.3483106673
 20
4.3722017791
 30
0.0
 10
10.3239378999
 20
4.373268264
 30
0.0
 10
10.3045647503
 20
4.3753958371
 30
0.0
 10
10.2901298976
 20
4.3776247987
 30
0.0
 10
10.2758212259
 20
4.3804823417
 30
0.0
 10
10.2616693731
 20
4.3839622961
 30
0.0
 10
10.2477050603
 20
4.3880571372
 30
0.0
 10
10.2339584914
 20
4.3927580133
 30
0.0
 10
10.220459431
 20
4.3980547613
 30
0.0
 10
10.2072371017
 20
4.4039359297
 30
0.0
 10
10.1943201319
 20
4.4103888026
 30
0.0
 10
10.1817364906
 20
4.4173994272
 30
0.0
 10
10.1695134279
 20
4.4249526433
 30
0.0
 10
10.1576774164
 20
4.4330321164
 30
0.0
 10
10.1462540934
 20
4.441620372
 30
0.0
 10
10.1352682058
 20
4.4506988334
 30
0.0
 10
10.1247435559
 20
4.4602478611
 30
0.0
 10
10.1147029505
 20
4.4702467951
 30
0.0
 10
10.105168151
 20
4.4806739995
 30
0.0
 10
10.096159826
 20
4.4915069085
 30
0.0
 10
10.0876975065
 20
4.502722075
 30
0.0
 10
10.0797995431
 20
4.514295221
 30
0.0
 10
10.0724830657
 20
4.5262012898
 30
0.0
 10
10.0657639463
 20
4.5384145001
 30
0.0
 10
10.0596567636
 20
4.5509084011
 30
0.0
 10
10.054174771
 20
4.563655931
 30
0.0
 10
10.0493298675
 20
4.5766294718
 30
0.0
 10
10.0451325703
 20
4.5898009225
 30
0.0
 10
10.0415919954
 20
4.6031417099
 30
0.0
 10
10.0387158207
 20
4.6166230408
 30
0.0
 10
10.0365103334
 20
4.6302152502
 30
0.0
 10
10.0354899257
 20
4.6393347989
 30
0.0
 10
10.0350930665
 20
4.6439018176
 30
0.0
  0
SPLINE
  5
250
100
AcDbEntity
  8
0
100
AcDbSpline
 62
9
  6
CONTINUOUS
 70
0
 71
3
 72
65
 73
61
 74
0
 42
0.0000001
 43
0.0000001
 44
0.0000000001
 40
0.0
 40
0.0
 40
0.0
 40
0.0
 40
0.0151166993
 40
0.0302526785
 40
0.0454111425
 40
0.0605951125
 40
0.0758074053
 40
0.091050612
 40
0.1063270785
 40
0.1216388885
 40
0.1369878492
 40
0.1523754791
 40
0.1678029986
 40
0.1832713227
 40
0.1987810567
 40
0.2143324941
 40
0.2299256165
 40
0.2455600967
 40
0.2612353036
 40
0.2769503086
 40
0.292703895
 40
0.3084945692
 40
0.3243205723
 40
0.3401798954
 40
0.3560702949
 40
0.3719893093
 40
0.3879342783
 40
0.4039023613
 40
0.4358890844
 40
0.4679306363
 40
0.4999999806
 40
0.5320693251
 40
0.564110878
 40
0.5960976024
 40
0.6120656864
 40
0.6280106564
 40
0.643929672
 40
0.6598200726
 40
0.6756793971
 40
0.6915054017
 40
0.7072960773
 40
0.7230496654
 40
0.738764672
 40
0.7544398805
 40
0.7700743625
 40
0.7856674866
 40
0.8012189257
 40
0.8167286614
 40
0.8321969873
 40
0.8476245085
 40
0.86301214
 40
0.8783611023
 40
0.8936729138
 40
0.9089493817
 40
0.9241925897
 40
0.9394048838
 40
0.9545888549
 40
0.9697473199
 40
0.9848833
 40
1.0
 40
1.0
 40
1.0
 40
1.0
 10
10.6488144299
 20
4.6206833954
 30
0.0
 10
10.6479835408
 20
4.6166192959
 30
0.0
 10
10.6461344093
 20
4.6085227321
 30
0.0
 10
10.6428077713
 20
4.5965094753
 30
0.0
 10
10.6389325934
 20
4.584642098
 30
0.0
 10
10.6345161729
 20
4.5729430451
 30
0.0
 10
10.6295667332
 20
4.5614340199
 30
0.0
 10
10.6240935131
 20
4.5501364838
 30
0.0
 10
10.6181067215
 20
4.5390714712
 30
0.0
 10
10.6116175251
 20
4.5282595892
 30
0.0
 10
10.6046380254
 20
4.5177209687
 30
0.0
 10
10.5971812366
 20
4.5074752302
 30
0.0
 10
10.5892610607
 20
4.4975414463
 30
0.0
 10
10.5808922612
 20
4.4879381071
 30
0.0
 10
10.5720904358
 20
4.478683085
 30
0.0
 10
10.5628719868
 20
4.4697936027
 30
0.0
 10
10.5532540908
 20
4.4612862006
 30
0.0
 10
10.5432546661
 20
4.4531767069
 30
0.0
 10
10.5328923396
 20
4.4454802079
 30
0.0
 10
10.5221864121
 20
4.4382110202
 30
0.0
 10
10.511156822
 20
4.4313826648
 30
0.0
 10
10.4998241089
 20
4.4250078415
 30
0.0
 10
10.4882093734
 20
4.4190984056
 30
0.0
 10
10.4763342461
 20
4.4136653476
 30
0.0
 10
10.4642208152
 20
4.408718767
 30
0.0
 10
10.4518917062
 20
4.4042678743
 30
0.0
 10
10.43936959
 20
4.4003208983
 30
0.0
 10
10.4224402346
 20
4.3957379167
 30
0.0
 10
10.4009134429
 20
4.3913057075
 30
0.0
 10
10.3747102216
 20
4.3881013919
 30
0.0
 10
10.348310074
 20
4.3870304937
 30
0.0
 10
10.3219099243
 20
4.3881013474
 30
0.0
 10
10.2957066968
 20
4.3913056187
 30
0.0
 10
10.2741798968
 20
4.3957377916
 30
0.0
 10
10.2572505327
 20
4.4003207446
 30
0.0
 10
10.244728409
 20
4.4042676995
 30
0.0
 10
10.2323992914
 20
4.4087185714
 30
0.0
 10
10.2202858511
 20
4.4136651315
 30
0.0
 10
10.2084107134
 20
4.4190981695
 30
0.0
 10
10.1967959666
 20
4.4250075857
 30
0.0
 10
10.1854632414
 20
4.4313823899
 30
0.0
 10
10.1744336382
 20
4.4382107268
 30
0.0
 10
10.1637276968
 20
4.4454798963
 30
0.0
 10
10.1533653556
 20
4.4531763779
 30
0.0
 10
10.1433659154
 20
4.4612858547
 30
0.0
 10
10.1337480031
 20
4.4697932405
 30
0.0
 10
10.1245295372
 20
4.4786827072
 30
0.0
 10
10.1157276941
 20
4.4879377145
 30
0.0
 10
10.1073588763
 20
4.4975410396
 30
0.0
 10
10.0994386813
 20
4.5074748101
 30
0.0
 10
10.091981873
 20
4.517720536
 30
0.0
 10
10.0850023531
 20
4.5282591447
 30
0.0
 10
10.078513136
 20
4.5390710158
 30
0.0
 10
10.0725263233
 20
4.5501360183
 30
0.0
 10
10.0670530816
 20
4.5614335451
 30
0.0
 10
10.0621036199
 20
4.5729425619
 30
0.0
 10
10.057687177
 20
4.5846416074
 30
0.0
 10
10.0538119765
 20
4.5965089782
 30
0.0
 10
10.0504853154
 20
4.6085222294
 30
0.0
 10
10.0486361685
 20
4.6166187901
 30
0.0
 10
10.0478052716
 20
4.6206828882
 30
0.0
  0
SPLINE
  5
251
100
AcDbEntity
  8
0
100
AcDbSpline
 62
9
  6
CONTINUOUS
 70
0
 71
3
 72
39
 73
35
 74
0
 42
0.0000001
 43
0.0000001
 44
0.0000000001
 40
0.0
 40
0.0
 40
0.0
 40
0.0
 40
0.0305821059
 40
0.0612704935
 40
0.0920653623
 40
0.1229655907
 40
0.153968763
 40
0.1850712126
 40
0.2162680783
 40
0.2475533723
 40
0.2789200604
 40
0.3103601544
 40
0.3418648111
 40
0.3734244396
 40
0.4050288163
 40
0.4366672052
 40
0.4683284821
 40
0.5000012621
 40
0.5316740293
 40
0.5633352682
 40
0.5949735943
 40
0.626577884
 40
0.6581374024
 40
0.6896419271
 40
0.7210818688
 40
0.752448386
 40
0.7837334925
 40
0.8149301563
 40
0.8460323921
 40
0.8770353411
 40
0.9079353395
 40
0.9387299744
 40
0.9694181271
 40
1.0
 40
1.0
 40
1.0
 40
1.0
 10
10.5694838157
 20
4.5309792032
 30
0.0
 10
10.5661657796
 20
4.5271062325
 30
0.0
 10
10.5592971889
 20
4.5195331293
 30
0.0
 10
10.5483563175
 20
4.5087514438
 30
0.0
 10
10.536792319
 20
4.4985599293
 30
0.0
 10
10.5246416545
 20
4.4889907735
 30
0.0
 10
10.5119420794
 20
4.4800735919
 30
0.0
 10
10.4987331877
 20
4.4718361411
 30
0.0
 10
10.48505611
 20
4.4643040207
 30
0.0
 10
10.4709534413
 20
4.4575006406
 30
0.0
 10
10.4564690934
 20
4.4514471356
 30
0.0
 10
10.4416481569
 20
4.4461623149
 30
0.0
 10
10.4265367629
 20
4.4416626038
 30
0.0
 10
10.411181945
 20
4.4379619772
 30
0.0
 10
10.3956314897
 20
4.4350719262
 30
0.0
 10
10.3799337873
 20
4.4330014293
 30
0.0
 10
10.3641376838
 20
4.4317569247
 30
0.0
 10
10.3482923312
 20
4.4313422718
 30
0.0
 10
10.332447033
 20
4.4317587557
 30
0.0
 10
10.3166510924
 20
4.4330050857
 30
0.0
 10
10.3009536608
 20
4.4350773966
 30
0.0
 10
10.2854035836
 20
4.4379692446
 30
0.0
 10
10.2700492499
 20
4.4416716457
 30
0.0
 10
10.2549384445
 20
4.4461731032
 30
0.0
 10
10.2401181995
 20
4.4514596367
 30
0.0
 10
10.2256346434
 20
4.4575148157
 30
0.0
 10
10.2115328648
 20
4.4643198257
 30
0.0
 10
10.1978567725
 20
4.471853527
 30
0.0
 10
10.1846489585
 20
4.4800925047
 30
0.0
 10
10.17195055
 20
4.4890111542
 30
0.0
 10
10.1598011375
 20
4.4985817146
 30
0.0
 10
10.1482384725
 20
4.5087745661
 30
0.0
 10
10.1372990118
 20
4.5195575166
 30
0.0
 10
10.1304314125
 20
4.5271314136
 30
0.0
 10
10.1271138835
 20
4.5310047675
 30
0.0
  0
SPLINE
  5
252
100
AcDbEntity
  8
0
100
AcDbSpline
 62
9
  6
CONTINUOUS
 70
0
 71
3
 72
71
 73
67
 74
0
 42
0.0000001
 43
0.0000001
 44
0.0000000001
 40
0.0
 40
0.0
 40
0.0
 40
0.0
 40
0.0151361596
 40
0.030277108
 40
0.0454276714
 40
0.0605924854
 40
0.0757760784
 40
0.0909827691
 40
0.1062166374
 40
0.12148148
 40
0.136780773
 40
0.1521176389
 40
0.1674948165
 40
0.1829146369
 40
0.1983790026
 40
0.2138893729
 40
0.229446753
 40
0.245051688
 40
0.2607042627
 40
0.2764041041
 40
0.2921503896
 40
0.3079418584
 40
0.3237768271
 40
0.3396532089
 40
0.355568536
 40
0.371519985
 40
0.3875044048
 40
0.4035183472
 40
0.4195580994
 40
0.4356197184
 40
0.4516990672
 40
0.4677918518
 40
0.4838936601
 40
0.5
 40
0.5161063399
 40
0.5322081482
 40
0.5483009328
 40
0.5643802816
 40
0.5804419006
 40
0.5964816528
 40
0.6124955952
 40
0.628480015
 40
0.644431464
 40
0.6603467911
 40
0.6762231729
 40
0.6920581416
 40
0.7078496104
 40
0.7235958959
 40
0.7392957373
 40
0.754948312
 40
0.770553247
 40
0.7861106271
 40
0.8016209974
 40
0.8170853631
 40
0.8325051835
 40
0.8478823611
 40
0.863219227
 40
0.87851852
 40
0.8937833626
 40
0.9090172309
 40
0.9242239216
 40
0.9394075146
 40
0.9545723286
 40
0.969722892
 40
0.9848638404
 40
1.0
 40
1.0
 40
1.0
 40
1.0
 10
10.6938097966
 20
4.7882367461
 30
0.0
 10
10.6938099185
 20
4.7829247637
 30
0.0
 10
10.6935320601
 20
4.7722970281
 30
0.0
 10
10.6922837557
 20
4.7563963865
 30
0.0
 10
10.6902064033
 20
4.7405720913
 30
0.0
 10
10.6873052005
 20
4.7248628564
 30
0.0
 10
10.6835871021
 20
4.7093064196
 30
0.0
 10
10.6790611089
 20
4.6939403255
 30
0.0
 10
10.6737381492
 20
4.6788016085
 30
0.0
 10
10.6676310835
 20
4.6639267619
 30
0.0
 10
10.6607546627
 20
4.6493516334
 30
0.0
 10
10.653125492
 20
4.6351113433
 30
0.0
 10
10.6447619896
 20
4.6212401995
 30
0.0
 10
10.6356843418
 20
4.6077716146
 30
0.0
 10
10.6259144528
 20
4.5947380266
 30
0.0
 10
10.6154758924
 20
4.5821708202
 30
0.0
 10
10.6043938408
 20
4.5701002499
 30
0.0
 10
10.5926950236
 20
4.5585553702
 30
0.0
 10
10.5804076476
 20
4.5475639662
 30
0.0
 10
10.5675613324
 20
4.5371524874
 30
0.0
 10
10.5541870392
 20
4.5273459848
 30
0.0
 10
10.5403169957
 20
4.5181680518
 30
0.0
 10
10.5259846212
 20
4.5096407645
 30
0.0
 10
10.5112244438
 20
4.5017846315
 30
0.0
 10
10.4960720171
 20
4.494618546
 30
0.0
 10
10.480563835
 20
4.4881597407
 30
0.0
 10
10.4647372445
 20
4.482423747
 30
0.0
 10
10.4486303553
 20
4.4774243581
 30
0.0
 10
10.4322819503
 20
4.4731735947
 30
0.0
 10
10.4157313915
 20
4.4696816746
 30
0.0
 10
10.3990185252
 20
4.4669569921
 30
0.0
 10
10.3821835866
 20
4.4650060971
 30
0.0
 10
10.3652671034
 20
4.46383368
 30
0.0
 10
10.3483097989
 20
4.4634425604
 30
0.0
 10
10.3313524944
 20
4.46383368
 30
0.0
 10
10.3144360112
 20
4.4650060971
 30
0.0
 10
10.2976010726
 20
4.4669569921
 30
0.0
 10
10.2808882063
 20
4.4696816746
 30
0.0
 10
10.2643376475
 20
4.4731735947
 30
0.0
 10
10.2479892425
 20
4.4774243581
 30
0.0
 10
10.2318823534
 20
4.482423747
 30
0.0
 10
10.2160557628
 20
4.4881597407
 30
0.0
 10
10.2005475807
 20
4.494618546
 30
0.0
 10
10.185395154
 20
4.5017846315
 30
0.0
 10
10.1706349766
 20
4.5096407645
 30
0.0
 10
10.1563026021
 20
4.5181680518
 30
0.0
 10
10.1424325586
 20
4.5273459848
 30
0.0
 10
10.1290582654
 20
4.5371524874
 30
0.0
 10
10.1162119502
 20
4.5475639662
 30
0.0
 10
10.1039245742
 20
4.5585553702
 30
0.0
 10
10.092225757
 20
4.5701002499
 30
0.0
 10
10.0811437054
 20
4.5821708202
 30
0.0
 10
10.070705145
 20
4.5947380266
 30
0.0
 10
10.060935256
 20
4.6077716146
 30
0.0
 10
10.0518576082
 20
4.6212401995
 30
0.0
 10
10.0434941059
 20
4.6351113433
 30
0.0
 10
10.0358649352
 20
4.6493516334
 30
0.0
 10
10.0289885143
 20
4.6639267619
 30
0.0
 10
10.0228814486
 20
4.6788016085
 30
0.0
 10
10.017558489
 20
4.6939403255
 30
0.0
 10
10.0130324958
 20
4.7093064196
 30
0.0
 10
10.0093143974
 20
4.7248628564
 30
0.0
 10
10.0064131945
 20
4.7405720913
 30
0.0
 10
10.0043358421
 20
4.7563963865
 30
0.0
 10
10.0030875377
 20
4.7722970281
 30
0.0
 10
10.0028096793
 20
4.7829247637
 30
0.0
 10
10.0028098012
 20
4.7882367461
 30
0.0
  0
SPLINE
  5
253
100
AcDbEntity
  8
0
100
AcDbSpline
 62
9
  6
CONTINUOUS
 70
0
 71
3
 72
71
 73
67
 74
0
 42
0.0000001
 43
0.0000001
 44
0.0000000001
 40
0.0
 40
0.0
 40
0.0
 40
0.0
 40
0.0151361765
 40
0.0302771007
 40
0.0454276722
 40
0.0605924843
 40
0.0757760777
 40
0.0909827684
 40
0.1062166367
 40
0.1214814793
 40
0.1367807724
 40
0.1521176383
 40
0.1674948159
 40
0.1829146363
 40
0.1983790021
 40
0.2138893724
 40
0.2294467525
 40
0.2450516876
 40
0.2607042623
 40
0.2764041037
 40
0.2921503892
 40
0.307941858
 40
0.3237768268
 40
0.3396532086
 40
0.3555685357
 40
0.3715199847
 40
0.3875044046
 40
0.403518347
 40
0.4195580992
 40
0.4356197183
 40
0.4516990671
 40
0.4677918518
 40
0.48389366
 40
0.5
 40
0.51610634
 40
0.5322081482
 40
0.5483009329
 40
0.5643802817
 40
0.5804419008
 40
0.596481653
 40
0.6124955954
 40
0.6284800153
 40
0.6444314643
 40
0.6603467914
 40
0.6762231732
 40
0.692058142
 40
0.7078496108
 40
0.7235958963
 40
0.7392957377
 40
0.7549483124
 40
0.7705532475
 40
0.7861106276
 40
0.8016209979
 40
0.8170853637
 40
0.8325051841
 40
0.8478823617
 40
0.8632192276
 40
0.8785185207
 40
0.8937833633
 40
0.9090172316
 40
0.9242239223
 40
0.9394075157
 40
0.9545723278
 40
0.9697228993
 40
0.9848638235
 40
1.0
 40
1.0
 40
1.0
 40
1.0
 10
10.6936321774
 20
4.7885742926
 30
0.0
 10
10.6936321774
 20
4.7832650351
 30
0.0
 10
10.6933546614
 20
4.7726427649
 30
0.0
 10
10.6921068909
 20
4.7567503002
 30
0.0
 10
10.6900306461
 20
4.7409341444
 30
0.0
 10
10.6871309213
 20
4.7252329843
 30
0.0
 10
10.6834147386
 20
4.7096845451
 30
0.0
 10
10.678891071
 20
4.6943263507
 30
0.0
 10
10.6735708482
 20
4.6791954164
 30
0.0
 10
10.6674669219
 20
4.6643282169
 30
0.0
 10
10.6605940363
 20
4.6497605814
 30
0.0
 10
10.6529687877
 20
4.6355276122
 30
0.0
 10
10.644609585
 20
4.6216635994
 30
0.0
 10
10.635536604
 20
4.6082019387
 30
0.0
 10
10.6257717376
 20
4.5951750512
 30
0.0
 10
10.6153385436
 20
4.5826143055
 30
0.0
 10
10.6042621893
 20
4.5705499406
 30
0.0
 10
10.5925693864
 20
4.5590109961
 30
0.0
 10
10.5802883272
 20
4.5480252427
 30
0.0
 10
10.5674486163
 20
4.5376191164
 30
0.0
 10
10.5540811987
 20
4.5278176553
 30
0.0
 10
10.5402182858
 20
4.5186444407
 30
0.0
 10
10.5258932795
 20
4.5101215372
 30
0.0
 10
10.5111406902
 20
4.502269443
 30
0.0
 10
10.4959960533
 20
4.4951070415
 30
0.0
 10
10.4804958439
 20
4.4886515567
 30
0.0
 10
10.4646773897
 20
4.4829185118
 30
0.0
 10
10.448578781
 20
4.4779216931
 30
0.0
 10
10.4322387806
 20
4.473673115
 30
0.0
 10
10.4156967304
 20
4.4701829901
 30
0.0
 10
10.3989924561
 20
4.4674597083
 30
0.0
 10
10.3821661723
 20
4.4655098162
 30
0.0
 10
10.3652583858
 20
4.4643380019
 30
0.0
 10
10.3483097989
 20
4.4639470833
 30
0.0
 10
10.3313612121
 20
4.4643380019
 30
0.0
 10
10.3144534256
 20
4.4655098162
 30
0.0
 10
10.2976271417
 20
4.4674597083
 30
0.0
 10
10.2809228674
 20
4.4701829901
 30
0.0
 10
10.2643808172
 20
4.473673115
 30
0.0
 10
10.2480408168
 20
4.4779216931
 30
0.0
 10
10.2319422082
 20
4.4829185118
 30
0.0
 10
10.2161237539
 20
4.4886515567
 30
0.0
 10
10.2006235446
 20
4.4951070415
 30
0.0
 10
10.1854789076
 20
4.502269443
 30
0.0
 10
10.1707263183
 20
4.5101215372
 30
0.0
 10
10.156401312
 20
4.5186444407
 30
0.0
 10
10.1425383991
 20
4.5278176553
 30
0.0
 10
10.1291709816
 20
4.5376191164
 30
0.0
 10
10.1163312706
 20
4.5480252427
 30
0.0
 10
10.1040502115
 20
4.5590109961
 30
0.0
 10
10.0923574086
 20
4.5705499406
 30
0.0
 10
10.0812810542
 20
4.5826143055
 30
0.0
 10
10.0708478602
 20
4.5951750512
 30
0.0
 10
10.0610829938
 20
4.6082019387
 30
0.0
 10
10.0520100128
 20
4.6216635994
 30
0.0
 10
10.0436508101
 20
4.6355276122
 30
0.0
 10
10.0360255615
 20
4.6497605814
 30
0.0
 10
10.0291526759
 20
4.6643282169
 30
0.0
 10
10.0230487496
 20
4.6791954164
 30
0.0
 10
10.0177285268
 20
4.6943263507
 30
0.0
 10
10.0132048593
 20
4.7096845451
 30
0.0
 10
10.0094886765
 20
4.7252329843
 30
0.0
 10
10.0065889517
 20
4.7409341444
 30
0.0
 10
10.0045127069
 20
4.7567503002
 30
0.0
 10
10.0032649364
 20
4.7726427649
 30
0.0
 10
10.0029874204
 20
4.7832650351
 30
0.0
 10
10.0029874204
 20
4.7885742926
 30
0.0
  0
SPLINE
  5
254
100
AcDbEntity
  8
0
100
AcDbSpline
 62
9
  6
CONTINUOUS
 70
0
 71
3
 72
71
 73
67
 74
0
 42
0.0000001
 43
0.0000001
 44
0.0000000001
 40
0.0
 40
0.0
 40
0.0
 40
0.0
 40
0.0151361765
 40
0.0302771007
 40
0.0454276722
 40
0.0605924843
 40
0.0757760777
 40
0.0909827684
 40
0.1062166367
 40
0.1214814793
 40
0.1367807724
 40
0.1521176383
 40
0.1674948159
 40
0.1829146363
 40
0.1983790021
 40
0.2138893724
 40
0.2294467525
 40
0.2450516876
 40
0.2607042623
 40
0.2764041037
 40
0.2921503892
 40
0.307941858
 40
0.3237768268
 40
0.3396532086
 40
0.3555685357
 40
0.3715199847
 40
0.3875044046
 40
0.403518347
 40
0.4195580992
 40
0.4356197183
 40
0.4516990671
 40
0.4677918518
 40
0.48389366
 40
0.5
 40
0.51610634
 40
0.5322081482
 40
0.5483009329
 40
0.5643802817
 40
0.5804419008
 40
0.596481653
 40
0.6124955954
 40
0.6284800153
 40
0.6444314643
 40
0.6603467914
 40
0.6762231732
 40
0.692058142
 40
0.7078496108
 40
0.7235958963
 40
0.7392957377
 40
0.7549483124
 40
0.7705532475
 40
0.7861106276
 40
0.8016209979
 40
0.8170853637
 40
0.8325051841
 40
0.8478823617
 40
0.8632192276
 40
0.8785185207
 40
0.8937833633
 40
0.9090172316
 40
0.9242239223
 40
0.9394075157
 40
0.9545723278
 40
0.9697228993
 40
0.9848638235
 40
1.0
 40
1.0
 40
1.0
 40
1.0
 10
10.6859764319
 20
4.7944251335
 30
0.0
 10
10.6859764319
 20
4.7892335814
 30
0.0
 10
10.6857050685
 20
4.7788468054
 30
0.0
 10
10.6844849608
 20
4.7633066742
 30
0.0
 10
10.6824547461
 20
4.7478411602
 30
0.0
 10
10.6796193077
 20
4.7324880925
 30
0.0
 10
10.6759855122
 20
4.7172843599
 30
0.0
 10
10.6715621336
 20
4.7022666543
 30
0.0
 10
10.6663598594
 20
4.6874711706
 30
0.0
 10
10.6603912563
 20
4.6729335747
 30
0.0
 10
10.6536707415
 20
4.6586889014
 30
0.0
 10
10.6462145435
 20
4.644771475
 30
0.0
 10
10.6380406631
 20
4.6312148254
 30
0.0
 10
10.6291688287
 20
4.6180516077
 30
0.0
 10
10.6196204479
 20
4.6053135243
 30
0.0
 10
10.6094185563
 20
4.5930312485
 30
0.0
 10
10.5985877631
 20
4.5812343487
 30
0.0
 10
10.5871541878
 20
4.5699512209
 30
0.0
 10
10.5751453979
 20
4.5592090201
 30
0.0
 10
10.5625903415
 20
4.549033596
 30
0.0
 10
10.5495192776
 20
4.5394494318
 30
0.0
 10
10.5359637033
 20
4.530479586
 30
0.0
 10
10.5219562803
 20
4.522145634
 30
0.0
 10
10.5075307537
 20
4.5144676195
 30
0.0
 10
10.4927218711
 20
4.5074640074
 30
0.0
 10
10.477565299
 20
4.5011516397
 30
0.0
 10
10.4620975376
 20
4.4955456956
 30
0.0
 10
10.4463558327
 20
4.4906596556
 30
0.0
 10
10.4303780876
 20
4.4865052679
 30
0.0
 10
10.4142027722
 20
4.4830925185
 30
0.0
 10
10.3978688292
 20
4.4804296115
 30
0.0
 10
10.3814155815
 20
4.4785229482
 30
0.0
 10
10.3648826381
 20
4.4773771128
 30
0.0
 10
10.3483097989
 20
4.4769948608
 30
0.0
 10
10.3317369597
 20
4.4773771128
 30
0.0
 10
10.3152040163
 20
4.4785229482
 30
0.0
 10
10.2987507687
 20
4.4804296115
 30
0.0
 10
10.2824168256
 20
4.4830925185
 30
0.0
 10
10.2662415102
 20
4.4865052679
 30
0.0
 10
10.2502637651
 20
4.4906596556
 30
0.0
 10
10.2345220602
 20
4.4955456956
 30
0.0
 10
10.2190542988
 20
4.5011516397
 30
0.0
 10
10.2038977267
 20
4.5074640074
 30
0.0
 10
10.1890888441
 20
4.5144676195
 30
0.0
 10
10.1746633175
 20
4.522145634
 30
0.0
 10
10.1606558945
 20
4.530479586
 30
0.0
 10
10.1471003203
 20
4.5394494318
 30
0.0
 10
10.1340292564
 20
4.549033596
 30
0.0
 10
10.1214741999
 20
4.5592090201
 30
0.0
 10
10.10946541
 20
4.5699512209
 30
0.0
 10
10.0980318348
 20
4.5812343487
 30
0.0
 10
10.0872010415
 20
4.5930312485
 30
0.0
 10
10.0769991499
 20
4.6053135243
 30
0.0
 10
10.0674507691
 20
4.6180516077
 30
0.0
 10
10.0585789347
 20
4.6312148254
 30
0.0
 10
10.0504050543
 20
4.644771475
 30
0.0
 10
10.0429488564
 20
4.6586889014
 30
0.0
 10
10.0362283415
 20
4.6729335747
 30
0.0
 10
10.0302597384
 20
4.6874711706
 30
0.0
 10
10.0250574642
 20
4.7022666543
 30
0.0
 10
10.0206340856
 20
4.7172843599
 30
0.0
 10
10.0170002901
 20
4.7324880925
 30
0.0
 10
10.0141648517
 20
4.7478411602
 30
0.0
 10
10.012134637
 20
4.7633066742
 30
0.0
 10
10.0109145294
 20
4.7788468054
 30
0.0
 10
10.0106431659
 20
4.7892335814
 30
0.0
 10
10.0106431659
 20
4.7944251335
 30
0.0
  0
SPLINE
  5
255
100
AcDbEntity
  8
0
100
AcDbSpline
 62
9
  6
CONTINUOUS
 70
0
 71
3
 72
15
 73
11
 74
0
 42
0.0000001
 43
0.0000001
 44
0.0000000001
 40
0.0
 40
0.0
 40
0.0
 40
0.0
 40
0.1260074647
 40
0.2516300176
 40
0.3769099533
 40
0.501895192
 40
0.6266385405
 40
0.7511968229
 40
0.875629674
 40
1.0
 40
1.0
 40
1.0
 40
1.0
 10
10.0445962306
 20
4.9429975922
 30
0.0
 10
10.0412062999
 20
4.937110317
 30
0.0
 10
10.0348108634
 20
4.9251336271
 30
0.0
 10
10.0264084246
 20
4.9066168458
 30
0.0
 10
10.0192426508
 20
4.8876451592
 30
0.0
 10
10.0133417313
 20
4.8682924412
 30
0.0
 10
10.0087283101
 20
4.8486329575
 30
0.0
 10
10.005420224
 20
4.8287421233
 30
0.0
 10
10.0034302458
 20
4.8086975798
 30
0.0
 10
10.0029874204
 20
4.7952795286
 30
0.0
 10
10.0029874204
 20
4.7885742926
 30
0.0
  0
SPLINE
  5
256
100
AcDbEntity
  8
0
100
AcDbSpline
 62
9
  6
CONTINUOUS
 70
0
 71
3
 72
15
 73
11
 74
0
 42
0.0000001
 43
0.0000001
 44
0.0000000001
 40
0.0
 40
0.0
 40
0.0
 40
0.0
 40
0.1244535705
 40
0.2489604619
 40
0.373576029
 40
0.498351587
 40
0.6233369304
 40
0.7485787899
 40
0.8741202147
 40
1.0
 40
1.0
 40
1.0
 40
1.0
 10
10.6938097966
 20
4.7882367461
 30
0.0
 10
10.6938099395
 20
4.7944624212
 30
0.0
 10
10.6934282165
 20
4.806919803
 30
0.0
 10
10.6917136384
 20
4.8255399071
 30
0.0
 10
10.6888621429
 20
4.8440370921
 30
0.0
 10
10.6848833532
 20
4.862349218
 30
0.0
 10
10.6797904953
 20
4.8804157803
 30
0.0
 10
10.673600382
 20
4.8981770806
 30
0.0
 10
10.6663339768
 20
4.9155735416
 30
0.0
 10
10.6607951994
 20
4.9268752685
 30
0.0
 10
10.6578568622
 20
4.9324447063
 30
0.0
  0
SPLINE
  5
257
100
AcDbEntity
  8
0
100
AcDbSpline
 62
9
  6
CONTINUOUS
 70
0
 71
3
 72
15
 73
11
 74
0
 42
0.0000001
 43
0.0000001
 44
0.0000000001
 40
0.0
 40
0.0
 40
0.0
 40
0.0
 40
0.1243703258
 40
0.2488031766
 40
0.3733614589
 40
0.4981048073
 40
0.623090046
 40
0.7483699818
 40
0.873992535
 40
1.0
 40
1.0
 40
1.0
 40
1.0
 10
10.6936321774
 20
4.7885742926
 30
0.0
 10
10.6936321774
 20
4.7952795299
 30
0.0
 10
10.6931893519
 20
4.8086975837
 30
0.0
 10
10.6911993729
 20
4.8287421312
 30
0.0
 10
10.6878912854
 20
4.8486329693
 30
0.0
 10
10.6832778625
 20
4.8682924568
 30
0.0
 10
10.6773769406
 20
4.8876451782
 30
0.0
 10
10.670211164
 20
4.9066168682
 30
0.0
 10
10.661808722
 20
4.9251336525
 30
0.0
 10
10.6554132831
 20
4.9371103442
 30
0.0
 10
10.6520233511
 20
4.9429976203
 30
0.0
  0
SPLINE
  5
258
100
AcDbEntity
  8
0
100
AcDbSpline
 62
9
  6
CONTINUOUS
 70
0
 71
3
 72
23
 73
19
 74
0
 42
0.0000001
 43
0.0000001
 44
0.0000000001
 40
0.0
 40
0.0
 40
0.0
 40
0.0
 40
0.0618437515
 40
0.123704644
 40
0.1856002376
 40
0.2475471575
 40
0.3095618766
 40
0.371660127
 40
0.4338569042
 40
0.4961662904
 40
0.5586013417
 40
0.6211739727
 40
0.6838948574
 40
0.7467733416
 40
0.8098173697
 40
0.8730334259
 40
0.9364264885
 40
1.0
 40
1.0
 40
1.0
 40
1.0
 10
10.6859764319
 20
4.7944251335
 30
0.0
 10
10.6859764319
 20
4.7992964021
 30
0.0
 10
10.6857375372
 20
4.8090419778
 30
0.0
 10
10.6846633099
 20
4.8236272741
 30
0.0
 10
10.6828754833
 20
4.8381509302
 30
0.0
 10
10.6803778441
 20
4.8525816685
 30
0.0
 10
10.6771757157
 20
4.8668889668
 30
0.0
 10
10.6732759032
 20
4.8810424277
 30
0.0
 10
10.6686867019
 20
4.8950120197
 30
0.0
 10
10.6634178687
 20
4.9087680947
 30
0.0
 10
10.6574806053
 20
4.9222814644
 30
0.0
 10
10.650887531
 20
4.9355234586
 30
0.0
 10
10.6436526591
 20
4.9484659853
 30
0.0
 10
10.6357913567
 20
4.9610815989
 30
0.0
 10
10.6273203453
 20
4.9733435236
 30
0.0
 10
10.6182575409
 20
4.9852258405
 30
0.0
 10
10.6086224801
 20
4.9967030552
 30
0.0
 10
10.6018402226
 20
5.0040584751
 30
0.0
 10
10.5983616228
 20
5.0076604985
 30
0.0
  0
SPLINE
  5
259
100
AcDbEntity
  8
0
100
AcDbSpline
 62
9
  6
CONTINUOUS
 70
0
 71
3
 72
23
 73
19
 74
0
 42
0.0000001
 43
0.0000001
 44
0.0000000001
 40
0.0
 40
0.0
 40
0.0
 40
0.0
 40
0.0635735115
 40
0.1269665741
 40
0.1901826303
 40
0.2532266584
 40
0.3161051426
 40
0.3788260273
 40
0.4413986583
 40
0.5038337096
 40
0.5661430958
 40
0.628339873
 40
0.6904381234
 40
0.7524528425
 40
0.8143997623
 40
0.876295356
 40
0.9381562485
 40
1.0
 40
1.0
 40
1.0
 40
1.0
 10
10.098257975
 20
5.0076604984
 30
0.0
 10
10.0947793752
 20
5.004058475
 30
0.0
 10
10.0879971176
 20
4.9967030551
 30
0.0
 10
10.0783620569
 20
4.9852258405
 30
0.0
 10
10.0692992525
 20
4.9733435235
 30
0.0
 10
10.0608282411
 20
4.9610815988
 30
0.0
 10
10.0529669387
 20
4.9484659853
 30
0.0
 10
10.0457320668
 20
4.9355234586
 30
0.0
 10
10.0391389925
 20
4.9222814644
 30
0.0
 10
10.0332017291
 20
4.9087680947
 30
0.0
 10
10.0279328959
 20
4.8950120196
 30
0.0
 10
10.0233436946
 20
4.8810424277
 30
0.0
 10
10.0194438821
 20
4.8668889668
 30
0.0
 10
10.0162417537
 20
4.8525816684
 30
0.0
 10
10.0137441145
 20
4.8381509302
 30
0.0
 10
10.0119562879
 20
4.8236272741
 30
0.0
 10
10.0108820606
 20
4.8090419778
 30
0.0
 10
10.0106431659
 20
4.7992964021
 30
0.0
 10
10.0106431659
 20
4.7944251335
 30
0.0
  0
SPLINE
  5
25A
100
AcDbEntity
  8
0
100
AcDbSpline
 62
9
  6
CONTINUOUS
 70
0
 71
3
 72
15
 73
11
 74
0
 42
0.0000001
 43
0.0000001
 44
0.0000000001
 40
0.0
 40
0.0
 40
0.0
 40
0.0
 40
0.1258805554
 40
0.2514224673
 40
0.3766645539
 40
0.501649895
 40
0.6264252584
 40
0.7510404812
 40
0.8755469273
 40
1.0
 40
1.0
 40
1.0
 40
1.0
 10
10.0387965791
 20
4.9325088368
 30
0.0
 10
10.0358555307
 20
4.9269373474
 30
0.0
 10
10.0303116151
 20
4.9156312905
 30
0.0
 10
10.023038406
 20
4.8982277126
 30
0.0
 10
10.016842456
 20
4.8804587775
 30
0.0
 10
10.0117447686
 20
4.8623841449
 30
0.0
 10
10.0077621888
 20
4.8440635974
 30
0.0
 10
10.0049079678
 20
4.8255577253
 30
0.0
 10
10.0031917473
 20
4.8069287574
 30
0.0
 10
10.0028096583
 20
4.794465403
 30
0.0
 10
10.0028098012
 20
4.7882367461
 30
0.0
  0
SPLINE
  5
25B
100
AcDbEntity
  8
0
100
AcDbSpline
 62
9
  6
CONTINUOUS
 70
0
 71
3
 72
37
 73
33
 74
0
 42
0.0000001
 43
0.0000001
 44
0.0000000001
 40
0.0
 40
0.0
 40
0.0
 40
0.0
 40
0.0307648872
 40
0.0616133492
 40
0.092543196
 40
0.1235515905
 40
0.1546350758
 40
0.1857896071
 40
0.2170105871
 40
0.2482929046
 40
0.2796309777
 40
0.3110187983
 40
0.3424499801
 40
0.3739178088
 40
0.4054152935
 40
0.4369352206
 40
0.4999984827
 40
0.5630618006
 40
0.594581797
 40
0.6260793781
 40
0.6575473294
 40
0.6889786592
 40
0.720366652
 40
0.7517049202
 40
0.7829874544
 40
0.8142086707
 40
0.8453634564
 40
0.8764472121
 40
0.9074558908
 40
0.9383860335
 40
0.9692348007
 40
1.0
 40
1.0
 40
1.0
 40
1.0
 10
10.5361471412
 20
4.5078122533
 30
0.0
 10
10.5329399357
 20
4.5051450488
 30
0.0
 10
10.5263959173
 20
4.4999469028
 30
0.0
 10
10.5162292847
 20
4.4925859149
 30
0.0
 10
10.5057184551
 20
4.4856647375
 30
0.0
 10
10.4948852284
 20
4.479197747
 30
0.0
 10
10.4837517364
 20
4.4731981219
 30
0.0
 10
10.472340812
 20
4.4676781551
 30
0.0
 10
10.4606758306
 20
4.4626491378
 30
0.0
 10
10.4487806929
 20
4.4581213613
 30
0.0
 10
10.4366797661
 20
4.4541040891
 30
0.0
 10
10.4243978445
 20
4.4506055407
 30
0.0
 10
10.4119600666
 20
4.4476328732
 30
0.0
 10
10.3993919826
 20
4.4451921697
 30
0.0
 10
10.3867190589
 20
4.4432884174
 30
0.0
 10
10.3697165658
 20
4.4414710812
 30
0.0
 10
10.3483335307
 20
4.4405591914
 30
0.0
 10
10.3269503432
 20
4.4414677204
 30
0.0
 10
10.3099475344
 20
4.4432823829
 30
0.0
 10
10.2972742721
 20
4.4451841429
 30
0.0
 10
10.2847057539
 20
4.4476228706
 30
0.0
 10
10.2722674471
 20
4.4505935827
 30
0.0
 10
10.2599849031
 20
4.4540902002
 30
0.0
 10
10.2478832615
 20
4.4581055698
 30
0.0
 10
10.2359873182
 20
4.4626314761
 30
0.0
 10
10.2243214419
 20
4.4676586593
 30
0.0
 10
10.2129095352
 20
4.473176832
 30
0.0
 10
10.2017749756
 20
4.4791747064
 30
0.0
 10
10.1909405979
 20
4.4856399934
 30
0.0
 10
10.1804285366
 20
4.492559518
 30
0.0
 10
10.170260594
 20
4.4999189072
 30
0.0
 10
10.1637156511
 20
4.5051160235
 30
0.0
 10
10.160507971
 20
4.5077827234
 30
0.0
  0
SPLINE
  5
25C
100
AcDbEntity
  8
0
100
AcDbSpline
 62
7
  6
CONTINUOUS
 70
0
 71
3
 72
15
 73
11
 74
0
 42
0.0000001
 43
0.0000001
 44
0.0000000001
 40
0.0
 40
0.0
 40
0.0
 40
0.0
 40
0.1245031428
 40
0.2490547734
 40
0.3737048323
 40
0.4984998963
 40
0.6234855891
 40
0.7487048147
 40
0.8741974843
 40
1.0
 40
1.0
 40
1.0
 40
1.0
 10
10.5983097989
 20
4.780823124
 30
0.0
 10
10.5983097989
 20
4.7765383439
 30
0.0
 10
10.59806009
 20
4.7679650194
 30
0.0
 10
10.5969375767
 20
4.7551461024
 30
0.0
 10
10.595070496
 20
4.7424037161
 30
0.0
 10
10.5924644293
 20
4.7297765916
 30
0.0
 10
10.5891272397
 20
4.7173024709
 30
0.0
 10
10.5850688808
 20
4.7050186381
 30
0.0
 10
10.5803017905
 20
4.6929623759
 30
0.0
 10
10.5766649763
 20
4.6851097874
 30
0.0
 10
10.5747346663
 20
4.6812344221
 30
0.0
  0
SPLINE
  5
25D
100
AcDbEntity
  8
0
100
AcDbSpline
 62
9
  6
CONTINUOUS
 70
0
 71
3
 72
39
 73
35
 74
0
 42
0.0000001
 43
0.0000001
 44
0.0000000001
 40
0.0
 40
0.0
 40
0.0
 40
0.0
 40
0.0302722917
 40
0.0605542247
 40
0.0908553386
 40
0.1211849701
 40
0.1515521556
 40
0.1819655372
 40
0.2124332737
 40
0.2429629586
 40
0.2735615446
 40
0.3042352762
 40
0.3349896316
 40
0.3658292723
 40
0.3967580038
 40
0.4277787444
 40
0.4588935044
 40
0.4901033746
 40
0.5214085243
 40
0.5528082075
 40
0.5843007787
 40
0.6158837164
 40
0.6475536538
 40
0.6793064174
 40
0.7111370716
 40
0.7430399697
 40
0.7750088092
 40
0.8070366941
 40
0.8391161975
 40
0.8712394382
 40
0.903398127
 40
0.9355837224
 40
0.9677872796
 40
1.0
 40
1.0
 40
1.0
 40
1.0
 10
10.5983097989
 20
5.0339180301
 30
0.0
 10
10.5983097989
 20
5.0300743415
 30
0.0
 10
10.5981088861
 20
5.0223842273
 30
0.0
 10
10.5972055549
 20
5.0108786999
 30
0.0
 10
10.5957024295
 20
4.9994284094
 30
0.0
 10
10.5936031428
 20
4.9880613816
 30
0.0
 10
10.5909127684
 20
4.9768049149
 30
0.0
 10
10.5876378074
 20
4.9656861787
 30
0.0
 10
10.5837861724
 20
4.9547319696
 30
0.0
 10
10.5793671678
 20
4.9439686939
 30
0.0
 10
10.5743914662
 20
4.9334222908
 30
0.0
 10
10.5688710825
 20
4.9231181734
 30
0.0
 10
10.5628193439
 20
4.9130811664
 30
0.0
 10
10.5562508573
 20
4.9033354468
 30
0.0
 10
10.5491814731
 20
4.8939044859
 30
0.0
 10
10.5416282468
 20
4.8848109926
 30
0.0
 10
10.5336093972
 20
4.8760768597
 30
0.0
 10
10.5251442621
 20
4.8677231112
 30
0.0
 10
10.5162532514
 20
4.8597698525
 30
0.0
 10
10.506957798
 20
4.852236222
 30
0.0
 10
10.4972803056
 20
4.8451403457
 30
0.0
 10
10.4872440946
 20
4.8384992944
 30
0.0
 10
10.4768733464
 20
4.8323290426
 30
0.0
 10
10.4661930445
 20
4.8266444308
 30
0.0
 10
10.455228915
 20
4.8214591305
 30
0.0
 10
10.4440073646
 20
4.8167856109
 30
0.0
 10
10.4325554175
 20
4.8126351098
 30
0.0
 10
10.4209006495
 20
4.8090176071
 30
0.0
 10
10.4090711247
 20
4.8059417996
 30
0.0
 10
10.3970953193
 20
4.8034150843
 30
0.0
 10
10.3850020862
 20
4.8014435311
 30
0.0
 10
10.3728204576
 20
4.8000318885
 30
0.0
 10
10.3605800891
 20
4.7991835374
 30
0.0
 10
10.3523998647
 20
4.7989948749
 30
0.0
 10
10.3483097989
 20
4.7989948749
 30
0.0
  0
ENDSEC
  0
SECTION
  2
OBJECTS
  0
DICTIONARY
  5
C
100
AcDbDictionary
280
0
281
1
  3
ACAD_GROUP
350
D
  3
ACAD_MLINESTYLE
350
17
  3
ACAD_LAYOUT
350
1A
  3
ACAD_PLOTSETTINGS
350
19
  3
ACAD_PLOTSTYLENAME
350
E
  0
DICTIONARY
  5
D
102
{ACAD_REACTORS
330
C
102
}
100
AcDbDictionary
280
0
281
1
  0
ACDBDICTIONARYWDFLT
  5
E
102
{ACAD_REACTORS
330
C
102
}
100
AcDbDictionary
281
1
  3
Normal
350
F
100
AcDbDictionaryWithDefault
340
F
  0
DICTIONARY
  5
17
102
{ACAD_REACTORS
330
C
102
}
100
AcDbDictionary
280
0
281
1
  3
Standard
350
18
  0
DICTIONARY
  5
19
102
{ACAD_REACTORS
330
C
102
}
100
AcDbDictionary
281
1
  0
DICTIONARY
  5
1A
102
{ACAD_REACTORS
330
C
102
}
100
AcDbDictionary
281
1
  3
Model
350
25E
  3
Layout1
350
25F
  0
ACDBPLACEHOLDER
  5
F
102
{ACAD_REACTORS
330
E
102
}
  0
MLINESTYLE
  5
18
102
{ACAD_REACTORS
330
17
102
}
100
AcDbMlineStyle
  2
STANDARD
 70
0
  3

 62
256
 51
90.0
 52
90.0
 71
2
 49
0.5
 62
256
  6
BYLAYER
 49
-0.5
 62
256
  6
BYLAYER
  0
LAYOUT
  5
25E
102
{ACAD_REACTORS
330
1A
102
}
100
AcDbPlotSettings
  1

  2
none_device
  4
ANSI_C_(22.00_x_17.00_Inches)
  6

 40
0.0
 41
0.0
 42
0.0
 43
0.0
 44
558.8
 45
431.8
 46
0.0
 47
0.0
 48
0.0
 49
0.0
140
0.0
141
0.0
142
1.0
143
1.0
 70
1024
 72
0
 73
0
 74
0
  7

 75
0
147
1.0
148
0.0
149
0.0
100
AcDbLayout
  1
Model
 70
0
 71
0
 10
0.0
 20
0.0
 11
22.0
 21
17.0
 12
0.0
 22
0.0
 32
0.0
 14
0.0
 24
0.0
 34
0.0
 15
0.0
 25
0.0
 35
0.0
146
0.0
 13
0.0
 23
0.0
 33
0.0
 16
1.0
 26
0.0
 36
0.0
 17
0.0
 27
1.0
 37
0.0
 76
0
330
205
345
0
346
0
  0
LAYOUT
  5
25F
102
{ACAD_REACTORS
330
1A
102
}
100
AcDbPlotSettings
  1

  2
none_device
  4
ANSI_C_(22.00_x_17.00_Inches)
  6

 40
0.0
 41
0.0
 42
0.0
 43
0.0
 44
558.8
 45
431.8
 46
0.0
 47
0.0
 48
0.0
 49
0.0
140
0.0
141
0.0
142
1.0
143
1.0
 70
0
 72
0
 73
0
 74
0
  7

 75
0
147
1.0
148
0.0
149
0.0
100
AcDbLayout
  1
Layout1
 70
0
 71
1
 10
0.0
 20
0.0
 11
22.0
 21
17.0
 12
0.0
 22
0.0
 32
0.0
 14
0.0
 24
0.0
 34
0.0
 15
0.0
 25
0.0
 35
0.0
146
0.0
 13
0.0
 23
0.0
 33
0.0
 16
1.0
 26
0.0
 36
0.0
 17
0.0
 27
1.0
 37
0.0
 76
0
330
206
345
0
346
0
  0
ENDSEC
  0
EOF
