999
DXF file: E:\BT Custom\CADOUTPUT\_FRONT.dxf
999
Pro/ENGINEER 2018400 by Parametric Technology Corporation
  0
SECTION
  2
HEADER
  9
$ACADVER
  1
AC1018
  9
$DWGCODEPAGE
  3
ANSI_1252
  9
$EXTMAX
 10
22.0
 20
17.0
 30
0.0
  9
$EXTMIN
 10
0.0
 20
0.0
 30
0.0
  9
$LIMMIN
 10
0.0
 20
0.0
  9
$LIMMAX
 10
22.0
 20
17.0
  9
$VIEWCTR
 10
11.0
 20
8.5
  9
$VIEWSIZE
 40
17.0
  9
$CLAYER
  8
0
  9
$LTSCALE
 40
1.21
  9
$CELTYPE
  6
BYLAYER
  9
$DIMSCALE
 40
1.0
  9
$DIMASZ
 40
0.1
  9
$DIMEXO
 40
0.0625
  9
$DIMDLI
 40
0.836
  9
$DIMEXE
 40
0.125
  9
$DIMCEN
 40
0.198
  9
$DIMLFAC
 40
1.0
  9
$DIMBLK
  1
_FILLED
  9
$DIMALT
 70
1
  9
$DIMALTD
 70
2
  9
$DIMALTTD
 70
2
  9
$DIMALTF
 40
25.4
  9
$DIMTXT
 40
0.08
  9
$DIMTOL
 70
1
  9
$DIMLIM
 70
0
  9
$DIMTFAC
 40
1.0
  9
$DIMTP
 40
0.001
  9
$DIMTM
 40
0.001
  9
$DIMGAP
 40
0.09
  9
$DIMDSEP
 70
46
  9
$AUNITS
 70
0
  9
$PDMODE
 70
3
  9
$PDSIZE
 40
0.06
  9
$HANDSEED
  5
24D
  9
$TILEMODE
 70
1
  9
$MEASUREMENT
 70
0
  9
$INSUNITS
 70
1
  0
ENDSEC
  0
SECTION
  2
CLASSES
  0
CLASS
  1
ACDBDICTIONARYWDFLT
  2
AcDbDictionaryWithDefault
  3
AutoCAD 2000
 90
0
 91
1
280
0
281
0
  0
CLASS
  1
ACDBPLACEHOLDER
  2
AcDbPlaceHolder
  3
AutoCAD 2000
 90
0
 91
1
280
0
281
0
  0
CLASS
  1
LAYOUT
  2
AcDbLayout
  3
AutoCAD 2000
 90
0
 91
0
280
0
281
0
  0
ENDSEC
  0
SECTION
  2
TABLES
  0
TABLE
  2
VPORT
  5
8
100
AcDbSymbolTable
 70
2
  0
VPORT
  5
1F4
100
AcDbSymbolTableRecord
100
AcDbViewportTableRecord
  2
*ACTIVE
 70
0
 10
0.0
 20
0.0
 11
1.0
 21
1.0
 12
11.0
 22
8.5
 13
0.0
 23
0.0
 14
1.0
 24
1.0
 15
0.0
 25
0.0
 16
0.0
 26
0.0
 36
1.0
 17
0.0
 27
0.0
 37
0.0
 40
17.0
 41
1.2941176471
 42
50.0
 43
0.0
 44
0.0
 50
0.0
 51
0.0
 71
0
 72
100
 73
1
 74
1
 75
0
 76
0
 77
0
 78
0
  0
ENDTAB
  0
TABLE
  2
LTYPE
  5
5
100
AcDbSymbolTable
 70
6
  0
LTYPE
  5
14
100
AcDbSymbolTableRecord
100
AcDbLinetypeTableRecord
  2
BYBLOCK
 70
0
  3

 72
65
 73
0
 40
0.0
  0
LTYPE
  5
15
100
AcDbSymbolTableRecord
100
AcDbLinetypeTableRecord
  2
BYLAYER
 70
0
  3

 72
65
 73
0
 40
0.0
  0
LTYPE
  5
16
100
AcDbSymbolTableRecord
100
AcDbLinetypeTableRecord
  2
CONTINUOUS
 70
64
  3
Solid line
 72
65
 73
0
 40
0.0
  0
LTYPE
  5
1F5
100
AcDbSymbolTableRecord
100
AcDbLinetypeTableRecord
  2
CENTER
 70
64
  3
____ _ ____ _ ____ _ ____ _ ____ _ ____ _ ____
 72
65
 73
4
 40
0.6
 49
0.375
 74
0
 49
-0.075
 74
0
 49
0.075
 74
0
 49
-0.075
 74
0
  0
LTYPE
  5
1F6
100
AcDbSymbolTableRecord
100
AcDbLinetypeTableRecord
  2
HIDDEN
 70
64
  3
- - - - - - - - - - - - - - - - - - - -
 72
65
 73
2
 40
0.2
 49
0.1
 74
0
 49
-0.1
 74
0
  0
LTYPE
  5
1F7
100
AcDbSymbolTableRecord
100
AcDbLinetypeTableRecord
  2
PHANTOM
 70
64
  3
_____ _ _ _____ _ _ _____ _ _ _____
 72
65
 73
6
 40
0.8
 49
0.45
 74
0
 49
-0.05
 74
0
 49
0.1
 74
0
 49
-0.05
 74
0
 49
0.1
 74
0
 49
-0.05
 74
0
  0
LTYPE
  5
1F8
100
AcDbSymbolTableRecord
100
AcDbLinetypeTableRecord
  2
DOT
 70
64
  3
. . . . . . . . . . . . . . . . . . . .
 72
65
 73
2
 40
0.2
 49
0.1
 74
0
 49
-0.1
 74
0
  0
LTYPE
  5
1F9
100
AcDbSymbolTableRecord
100
AcDbLinetypeTableRecord
  2
DASHED
 70
64
  3
- - - - - - - - - - - - - - - - - - - -
 72
65
 73
2
 40
0.2
 49
0.1
 74
0
 49
-0.1
 74
0
  0
ENDTAB
  0
TABLE
  2
LAYER
  5
2
100
AcDbSymbolTable
 70
36
  0
LAYER
  5
10
100
AcDbSymbolTableRecord
100
AcDbLayerTableRecord
  2
0
 70
0
 62
7
  6
CONTINUOUS
370
-3
390
F
  0
LAYER
  5
1FA
100
AcDbSymbolTableRecord
100
AcDbLayerTableRecord
  2
DEFAULT_1
 70
0
 62
7
  6
CENTER
370
-3
390
F
  0
LAYER
  5
1FB
100
AcDbSymbolTableRecord
100
AcDbLayerTableRecord
  2
DEFAULT_2
 70
0
 62
8
  6
HIDDEN
370
-3
390
F
  0
LAYER
  5
1FC
100
AcDbSymbolTableRecord
100
AcDbLayerTableRecord
  2
DEFAULT_3
 70
0
 62
7
  6
PHANTOM
370
-3
390
F
  0
LAYER
  5
1FD
100
AcDbSymbolTableRecord
100
AcDbLayerTableRecord
  2
ALL_FEATURES
 70
0
 62
7
  6
CONTINUOUS
370
-3
390
F
  0
LAYER
  5
1FE
100
AcDbSymbolTableRecord
100
AcDbLayerTableRecord
  2
AXES_FEATURES
 70
0
 62
7
  6
CONTINUOUS
370
-3
390
F
  0
LAYER
  5
1FF
100
AcDbSymbolTableRecord
100
AcDbLayerTableRecord
  2
DEFAULT_COORDINATE_SYSTEM
 70
0
 62
7
  6
CONTINUOUS
370
-3
390
F
  0
LAYER
  5
200
100
AcDbSymbolTableRecord
100
AcDbLayerTableRecord
  2
DEFAULT_DATUM_AXES
 70
0
 62
7
  6
CONTINUOUS
370
-3
390
F
  0
LAYER
  5
201
100
AcDbSymbolTableRecord
100
AcDbLayerTableRecord
  2
DEFAULT_DATUM_PLANES
 70
0
 62
7
  6
CONTINUOUS
370
-3
390
F
  0
LAYER
  5
202
100
AcDbSymbolTableRecord
100
AcDbLayerTableRecord
  2
DIMENSIONS
 70
0
 62
7
  6
CONTINUOUS
370
-3
390
F
  0
ENDTAB
  0
TABLE
  2
STYLE
  5
3
100
AcDbSymbolTable
 70
1
  0
STYLE
  5
11
100
AcDbSymbolTableRecord
100
AcDbTextStyleTableRecord
  2
STANDARD
 70
0
 40
0.0
 41
0.8
 50
0.0
 71
0
 42
0.2
  3
txt
  4

  0
STYLE
  5
203
100
AcDbSymbolTableRecord
100
AcDbTextStyleTableRecord
  2
TEXTSTYLE_1
 70
0
 40
0.0
 41
0.8
 50
0.0
 71
0
 42
0.2
  3
gdt
  4

  0
ENDTAB
  0
TABLE
  2
VIEW
  5
6
100
AcDbSymbolTable
 70
0
  0
ENDTAB
  0
TABLE
  2
UCS
  5
7
100
AcDbSymbolTable
 70
0
  0
ENDTAB
  0
TABLE
  2
APPID
  5
9
100
AcDbSymbolTable
 70
1
  0
APPID
  5
204
100
AcDbSymbolTableRecord
100
AcDbRegAppTableRecord
  2
ACAD
 70
0
  0
ENDTAB
  0
TABLE
  2
BLOCK_RECORD
  5
1
100
AcDbSymbolTable
 70
0
  0
BLOCK_RECORD
  5
205
100
AcDbSymbolTableRecord
100
AcDbBlockTableRecord
  2
*Model_Space
  0
BLOCK_RECORD
  5
206
100
AcDbSymbolTableRecord
100
AcDbBlockTableRecord
  2
*Paper_Space
  0
BLOCK_RECORD
  5
207
100
AcDbSymbolTableRecord
100
AcDbBlockTableRecord
  2
_FILLED
  0
ENDTAB
  0
TABLE
  2
DIMSTYLE
  5
A
100
AcDbSymbolTable
 70
1
100
AcDbDimStyleTable
 71
0
  0
DIMSTYLE
105
208
100
AcDbSymbolTableRecord
100
AcDbDimStyleTableRecord
  2
STANDARD
 70
0
  3

  4

 40
1.0
 41
0.1
 42
0.0625
 43
0.38
 44
0.125
 45
0.0
 46
0.0
 47
0.001
 48
0.001
140
0.08
141
0.09
142
0.0
143
25.4
144
1.0
145
0.0
146
1.0
147
0.09
 71
1.0
 72
0.0
 73
1
 74
1
 75
0
 76
0
 77
0
 78
4
 79
1
170
1
171
2
172
0
173
0
174
0
175
0
176
0
177
0
178
0
270
2
179
3
271
3
272
3
273
2
274
2
275
0
280
0
281
0
282
0
283
1
284
4
285
0
286
0
287
3
288
0
340
11
278
46
341
207
342
207
343
207
344
207
  0
ENDTAB
  0
ENDSEC
  0
SECTION
  2
BLOCKS
  0
BLOCK
  5
20
100
AcDbEntity
  8
0
100
AcDbBlockBegin
  2
*Model_Space
 70
0
 10
0.0
 20
0.0
 30
0.0
  3
*Model_Space
  1

  0
ENDBLK
  5
21
100
AcDbEntity
  8
0
100
AcDbBlockEnd
  0
BLOCK
  5
1C
100
AcDbEntity
  8
0
100
AcDbBlockBegin
  2
*Paper_Space
 70
0
 10
0.0
 20
0.0
 30
0.0
  3
*Paper_Space
  1

  0
ENDBLK
  5
1D
100
AcDbEntity
  8
0
100
AcDbBlockEnd
  0
BLOCK
  5
209
100
AcDbEntity
  8
0
100
AcDbBlockBegin
  2
_FILLED
 70
64
 10
0.0
 20
0.0
  3
_FILLED
  1

  0
SOLID
  5
20A
100
AcDbEntity
  8
0
  6
BYBLOCK
 62
0
100
AcDbTrace
 10
0.0
 20
0.0
 11
-1.0
 21
0.2
 12
-1.0
 22
-0.2
 13
-1.0
 23
-0.2
  0
ENDBLK
  5
20B
100
AcDbEntity
  8
0
  6
BYBLOCK
 62
0
100
AcDbBlockEnd
  0
ENDSEC
  0
SECTION
  2
ENTITIES
  0
LINE
  5
20C
100
AcDbEntity
  8
0
100
AcDbLine
 62
7
  6
CONTINUOUS
 10
12.0776923427
 20
8.0596695021
 11
9.7976923427
 21
8.0596695021
  0
LINE
  5
20D
100
AcDbEntity
  8
0
100
AcDbLine
 62
9
  6
CONTINUOUS
 10
12.0958041859
 20
8.176870561
 11
9.7795804995
 21
8.176870561
  0
LINE
  5
20E
100
AcDbEntity
  8
0
100
AcDbLine
 62
9
  6
CONTINUOUS
 10
11.9185374151
 20
8.3277121001
 11
9.9568472704
 21
8.3277121001
  0
LINE
  5
20F
100
AcDbEntity
  8
0
100
AcDbLine
 62
9
  6
CONTINUOUS
 10
11.9265830938
 20
8.4032448386
 11
9.9488015916
 21
8.4032448386
  0
LINE
  5
210
100
AcDbEntity
  8
0
100
AcDbLine
 62
7
  6
CONTINUOUS
 10
11.8876923427
 20
8.4846695021
 11
9.9876923427
 21
8.4846695021
  0
LINE
  5
211
100
AcDbEntity
  8
0
100
AcDbLine
 62
7
  6
CONTINUOUS
 10
10.2226923427
 20
9.0806695021
 11
10.2226923427
 21
10.3988082207
  0
LINE
  5
212
100
AcDbEntity
  8
0
100
AcDbLine
 62
7
  6
CONTINUOUS
 10
10.3326923427
 20
9.0806695021
 11
10.3326923427
 21
8.4846695021
  0
LINE
  5
213
100
AcDbEntity
  8
0
100
AcDbLine
 62
7
  6
CONTINUOUS
 10
10.6876923427
 20
10.1306695021
 11
10.6876923427
 21
9.6044719135
  0
LINE
  5
214
100
AcDbEntity
  8
0
100
AcDbLine
 62
7
  6
CONTINUOUS
 10
10.2226923427
 20
9.0806695021
 11
11.6526923427
 21
9.0806695021
  0
LINE
  5
215
100
AcDbEntity
  8
0
100
AcDbLine
 62
7
  6
CONTINUOUS
 10
11.1876923427
 20
10.1306695021
 11
11.1876923427
 21
9.6044719135
  0
LINE
  5
216
100
AcDbEntity
  8
0
100
AcDbLine
 62
7
  6
CONTINUOUS
 10
11.5426923427
 20
9.0806695021
 11
11.5426923427
 21
8.4846695021
  0
LINE
  5
217
100
AcDbEntity
  8
0
100
AcDbLine
 62
7
  6
CONTINUOUS
 10
11.6526923427
 20
9.0806695021
 11
11.6526923427
 21
10.3988082207
  0
LINE
  5
218
100
AcDbEntity
  8
0
100
AcDbLine
 62
9
  6
CONTINUOUS
 10
11.6526923427
 20
10.3988082207
 11
11.0812170357
 21
10.3988082207
  0
LINE
  5
219
100
AcDbEntity
  8
0
100
AcDbLine
 62
9
  6
CONTINUOUS
 10
10.7941676498
 20
10.3988082207
 11
10.2226923427
 21
10.3988082207
  0
LINE
  5
21A
100
AcDbEntity
  8
0
100
AcDbLine
 62
9
  6
CONTINUOUS
 10
11.5957793868
 20
10.4587287527
 11
10.2796052987
 21
10.4587287527
  0
ARC
  5
21B
100
AcDbEntity
  8
0
100
AcDbCircle
 62
7
  6
CONTINUOUS
 10
10.9376923427
 20
-2.3149554979
 40
12.790625
100
AcDbArc
 50
87.0507879325
 51
92.9492120675
  0
ARC
  5
21C
100
AcDbEntity
  8
0
100
AcDbCircle
 62
7
  6
CONTINUOUS
 10
12.186363402
 20
8.4628758553
 40
0.3
100
AcDbArc
 50
206.7787105735
 51
252.4304030484
  0
ARC
  5
21D
100
AcDbEntity
  8
0
100
AcDbCircle
 62
7
  6
CONTINUOUS
 10
9.6890212835
 20
8.4628758553
 40
0.3
100
AcDbArc
 50
287.5695969516
 51
333.2212894265
  0
ARC
  5
21E
100
AcDbEntity
  8
0
100
AcDbCircle
 62
7
  6
CONTINUOUS
 10
10.9376923427
 20
10.1306695021
 40
0.25
100
AcDbArc
 50
0.0
 51
180.0
  0
ARC
  5
21F
100
AcDbEntity
  8
0
100
AcDbCircle
 62
7
  6
CONTINUOUS
 10
10.9674344594
 20
9.663232597
 40
0.1573174675
100
AcDbArc
 50
296.9441603379
 51
301.2564228259
  0
ARC
  5
220
100
AcDbEntity
  8
0
100
AcDbCircle
 62
7
  6
CONTINUOUS
 10
10.90635876
 20
9.6603733311
 40
0.1540475001
100
AcDbArc
 50
238.6977866492
 51
243.1016301864
  0
ARC
  5
221
100
AcDbEntity
  8
0
100
AcDbCircle
 62
7
  6
CONTINUOUS
 10
11.0289687562
 20
9.6276516114
 40
0.0852483077
100
AcDbArc
 50
328.0698206467
 51
329.8244855797
  0
ARC
  5
222
100
AcDbEntity
  8
0
100
AcDbCircle
 62
7
  6
CONTINUOUS
 10
10.8464159292
 20
9.6276516114
 40
0.0852483077
100
AcDbArc
 50
210.1755144201
 51
211.9301793535
  0
ARC
  5
223
100
AcDbEntity
  8
0
100
AcDbCircle
 62
7
  6
CONTINUOUS
 10
11.9810301454
 20
8.3592503096
 40
0.07
100
AcDbArc
 50
141.0609539253
 51
206.7787105735
  0
ARC
  5
224
100
AcDbEntity
  8
0
100
AcDbCircle
 62
7
  6
CONTINUOUS
 10
9.8943545401
 20
8.3592503096
 40
0.07
100
AcDbArc
 50
333.2212894265
 51
38.9390460747
  0
ARC
  5
225
100
AcDbEntity
  8
0
100
AcDbCircle
 62
7
  6
CONTINUOUS
 10
11.0428189786
 20
9.6044676412
 40
0.0623718427
100
AcDbArc
 50
0.0039245954
 51
5.3865893223
  0
ARC
  5
226
100
AcDbEntity
  8
0
100
AcDbCircle
 62
7
  6
CONTINUOUS
 10
10.8325657069
 20
9.6044676412
 40
0.0623718427
100
AcDbArc
 50
174.6134106777
 51
179.9960754046
  0
ARC
  5
227
100
AcDbEntity
  8
0
100
AcDbCircle
 62
7
  6
CONTINUOUS
 10
12.0776923427
 20
8.1196695021
 40
0.06
100
AcDbArc
 50
270.0
 51
72.4304030484
  0
ARC
  5
228
100
AcDbEntity
  8
0
100
AcDbCircle
 62
7
  6
CONTINUOUS
 10
9.7976923427
 20
8.1196695021
 40
0.06
100
AcDbArc
 50
107.5695969516
 51
270.0
  0
ARC
  5
229
100
AcDbEntity
  8
0
100
AcDbCircle
 62
7
  6
CONTINUOUS
 10
10.2826923427
 20
10.3988082207
 40
0.06
100
AcDbArc
 50
92.9492120674
 51
180.0
  0
ARC
  5
22A
100
AcDbEntity
  8
0
100
AcDbCircle
 62
7
  6
CONTINUOUS
 10
11.5926923427
 20
10.3988082207
 40
0.06
100
AcDbArc
 50
0.0
 51
87.0507879326
  0
ARC
  5
22B
100
AcDbEntity
  8
0
100
AcDbCircle
 62
7
  6
CONTINUOUS
 10
11.8876923427
 20
8.4346695021
 40
0.05
100
AcDbArc
 50
321.0609539253
 51
90.0
  0
ARC
  5
22C
100
AcDbEntity
  8
0
100
AcDbCircle
 62
7
  6
CONTINUOUS
 10
9.9876923427
 20
8.4346695021
 40
0.05
100
AcDbArc
 50
90.0
 51
218.9390460747
  0
SPLINE
  5
22D
100
AcDbEntity
  8
0
100
AcDbSpline
 62
7
  6
CONTINUOUS
 70
0
 71
3
 72
15
 73
11
 74
0
 42
0.0000001
 43
0.0000001
 44
0.0000000001
 40
0.0
 40
0.0
 40
0.0
 40
0.0
 40
0.1484028989
 40
0.2894213083
 40
0.4229003064
 40
0.5490659974
 40
0.6685510334
 40
0.7824427467
 40
0.8922887746
 40
1.0
 40
1.0
 40
1.0
 40
1.0
 10
11.0451340244
 20
9.5262558466
 30
0.0
 10
11.0497047085
 20
9.5285813835
 30
0.0
 10
11.0584258672
 20
9.5335122017
 30
0.0
 10
11.0704004424
 20
9.5419332036
 30
0.0
 10
11.0808091776
 20
9.5511105508
 30
0.0
 10
11.0895253054
 20
9.5609409682
 30
0.0
 10
11.0964425104
 20
9.5713143184
 30
0.0
 10
11.1014593943
 20
9.5821182569
 30
0.0
 10
11.1045099646
 20
9.5932145989
 30
0.0
 10
11.1051908212
 20
9.6007497927
 30
0.0
 10
11.1051908212
 20
9.6044719135
 30
0.0
  0
SPLINE
  5
22E
100
AcDbEntity
  8
0
100
AcDbSpline
 62
7
  6
CONTINUOUS
 70
0
 71
3
 72
12
 73
8
 74
0
 42
0.0000001
 43
0.0000001
 44
0.0000000001
 40
0.0
 40
0.0
 40
0.0
 40
0.0
 40
0.2338256708
 40
0.3560609516
 40
0.481230118
 40
0.7382943167
 40
1.0
 40
1.0
 40
1.0
 40
1.0
 10
10.8366662329
 20
9.5229921681
 30
0.0
 10
10.8439146217
 20
9.5193043439
 30
0.0
 10
10.8553763648
 20
9.5144890068
 30
0.0
 10
10.8713458162
 20
9.5094583183
 30
0.0
 10
10.8883741502
 20
9.5051869603
 30
0.0
 10
10.9105335318
 20
9.5016241081
 30
0.0
 10
10.9285900585
 20
9.5006702444
 30
0.0
 10
10.9376923427
 20
9.5006702445
 30
0.0
  0
SPLINE
  5
22F
100
AcDbEntity
  8
0
100
AcDbSpline
 62
7
  6
CONTINUOUS
 70
0
 71
3
 72
15
 73
11
 74
0
 42
0.0000001
 43
0.0000001
 44
0.0000000001
 40
0.0
 40
0.0
 40
0.0
 40
0.0
 40
0.1077112254
 40
0.2175572533
 40
0.3314489666
 40
0.4509340026
 40
0.5770996936
 40
0.7105786917
 40
0.8515971011
 40
1.0
 40
1.0
 40
1.0
 40
1.0
 10
10.7701938643
 20
9.6044719135
 30
0.0
 10
10.7701938643
 20
9.6007497927
 30
0.0
 10
10.7708747209
 20
9.5932145989
 30
0.0
 10
10.7739252911
 20
9.5821182569
 30
0.0
 10
10.7789421751
 20
9.5713143184
 30
0.0
 10
10.7858593801
 20
9.5609409682
 30
0.0
 10
10.7945755079
 20
9.5511105508
 30
0.0
 10
10.8049842431
 20
9.5419332036
 30
0.0
 10
10.8169588183
 20
9.5335122017
 30
0.0
 10
10.825679977
 20
9.5285813835
 30
0.0
 10
10.8302506611
 20
9.5262558466
 30
0.0
  0
SPLINE
  5
230
100
AcDbEntity
  8
0
100
AcDbSpline
 62
7
  6
CONTINUOUS
 70
0
 71
3
 72
21
 73
17
 74
0
 42
0.0000001
 43
0.0000001
 44
0.0000000001
 40
0.0
 40
0.0
 40
0.0
 40
0.0
 40
0.052805197
 40
0.1057406713
 40
0.1593346814
 40
0.2139723184
 40
0.2698911571
 40
0.3273888564
 40
0.3867283953
 40
0.4480569994
 40
0.5767343459
 40
0.6440280135
 40
0.7130144847
 40
0.8549607272
 40
0.9273356613
 40
1.0
 40
1.0
 40
1.0
 40
1.0
 10
10.6876923427
 20
9.6044719135
 30
0.0
 10
10.6876923427
 20
9.5986806931
 30
0.0
 10
10.6886035897
 20
9.5870643987
 30
0.0
 10
10.6926354928
 20
9.5699960047
 30
0.0
 10
10.6992225529
 20
9.553527403
 30
0.0
 10
10.7081685696
 20
9.5378441825
 30
0.0
 10
10.7193016843
 20
9.5230972648
 30
0.0
 10
10.7324418227
 20
9.50939346
 30
0.0
 10
10.7474147142
 20
9.4967855796
 30
0.0
 10
10.7699663069
 20
9.4812585403
 30
0.0
 10
10.7952805882
 20
9.4684509665
 30
0.0
 10
10.822519484
 20
9.458285423
 30
0.0
 10
10.8518134254
 20
9.4496651188
 30
0.0
 10
10.8824570774
 20
9.44393726
 30
0.0
 10
10.9138111875
 20
9.4410504102
 30
0.0
 10
10.9297231428
 20
9.4405617102
 30
0.0
 10
10.9376923433
 20
9.4405617102
 30
0.0
  0
SPLINE
  5
231
100
AcDbEntity
  8
0
100
AcDbSpline
 62
7
  6
CONTINUOUS
 70
0
 71
3
 72
16
 73
12
 74
0
 42
0.0000001
 43
0.0000001
 44
0.0000000001
 40
0.0
 40
0.0
 40
0.0
 40
0.0
 40
0.1429460741
 40
0.2840168639
 40
0.4210090694
 40
0.5522976198
 40
0.6764934159
 40
0.7356288092
 40
0.7926749564
 40
0.9003470967
 40
1.0
 40
1.0
 40
1.0
 40
1.0
 10
10.9376923427
 20
9.6871889821
 30
0.0
 10
10.9289105004
 20
9.6871889821
 30
0.0
 10
10.9114513793
 20
9.6863874455
 30
0.0
 10
10.8857973726
 20
9.6828197509
 30
0.0
 10
10.8612989907
 20
9.6769509994
 30
0.0
 10
10.8385174472
 20
9.6689171035
 30
0.0
 10
10.8210914974
 20
9.6604318444
 30
0.0
 10
10.8085115239
 20
9.6526766674
 30
0.0
 10
10.7973280051
 20
9.6446570464
 30
0.0
 10
10.785200521
 20
9.6337501742
 30
0.0
 10
10.7773039787
 20
9.6236405873
 30
0.0
 10
10.7740662567
 20
9.6184446492
 30
0.0
  0
SPLINE
  5
232
100
AcDbEntity
  8
0
100
AcDbSpline
 62
7
  6
CONTINUOUS
 70
0
 71
3
 72
9
 73
5
 74
0
 42
0.0000001
 43
0.0000001
 44
0.0000000001
 40
0.0
 40
0.0
 40
0.0
 40
0.0
 40
0.2553031152
 40
1.0
 40
1.0
 40
1.0
 40
1.0
 10
10.7740662567
 20
9.6184446492
 30
0.0
 10
10.7734017643
 20
9.6173782631
 30
0.0
 10
10.7708905108
 20
9.6131453315
 30
0.0
 10
10.7687570538
 20
9.608685639
 30
0.0
 10
10.7674253128
 20
9.6052711263
 30
0.0
  0
SPLINE
  5
233
100
AcDbEntity
  8
0
100
AcDbSpline
 62
7
  6
CONTINUOUS
 70
0
 71
3
 72
9
 73
5
 74
0
 42
0.0000001
 43
0.0000001
 44
0.0000000001
 40
0.0
 40
0.0
 40
0.0
 40
0.0
 40
0.5055519466
 40
1.0
 40
1.0
 40
1.0
 40
1.0
 10
10.7674253128
 20
9.6052711263
 30
0.0
 10
10.7658845349
 20
9.6013206542
 30
0.0
 10
10.763504593
 20
9.5932234882
 30
0.0
 10
10.7626939324
 20
9.5848166781
 30
0.0
 10
10.7626939324
 20
9.5806695021
 30
0.0
  0
SPLINE
  5
234
100
AcDbEntity
  8
0
100
AcDbSpline
 62
7
  6
CONTINUOUS
 70
0
 71
3
 72
21
 73
17
 74
0
 42
0.0000001
 43
0.0000001
 44
0.0000000001
 40
0.0
 40
0.0
 40
0.0
 40
0.0
 40
0.0726649344
 40
0.1450414949
 40
0.2869905826
 40
0.3559773565
 40
0.4232708355
 40
0.5519476297
 40
0.6132753908
 40
0.672613975
 40
0.7301106923
 40
0.7860278193
 40
0.8406638054
 40
0.8942582633
 40
0.9471964024
 40
1.0
 40
1.0
 40
1.0
 40
1.0
 10
10.9376923433
 20
9.4405617102
 30
0.0
 10
10.9456616088
 20
9.4405617102
 30
0.0
 10
10.9615738066
 20
9.44105047
 30
0.0
 10
10.9929284638
 20
9.4439374162
 30
0.0
 10
11.0235726257
 20
9.4496654171
 30
0.0
 10
11.0528668459
 20
9.4582859335
 30
0.0
 10
11.0801056077
 20
9.4684516923
 30
0.0
 10
11.1054196979
 20
9.4812592502
 30
0.0
 10
11.1279709695
 20
9.4967863092
 30
0.0
 10
11.1429434747
 20
9.509394175
 30
0.0
 10
11.1560832334
 20
9.5230977752
 30
0.0
 10
11.1672162031
 20
9.5378441879
 30
0.0
 10
11.1761622674
 20
9.5535270263
 30
0.0
 10
11.1827491512
 20
9.5699958919
 30
0.0
 10
11.1867808456
 20
9.5870644817
 30
0.0
 10
11.1876923427
 20
9.5986808687
 30
0.0
 10
11.1876923427
 20
9.6044719135
 30
0.0
  0
SPLINE
  5
235
100
AcDbEntity
  8
0
100
AcDbSpline
 62
7
  6
CONTINUOUS
 70
0
 71
3
 72
9
 73
5
 74
0
 42
0.0000001
 43
0.0000001
 44
0.0000000001
 40
0.0
 40
0.0
 40
0.0
 40
0.0
 40
0.4944480534
 40
1.0
 40
1.0
 40
1.0
 40
1.0
 10
11.112690753
 20
9.5806695021
 30
0.0
 10
11.112690753
 20
9.5848166781
 30
0.0
 10
11.1118800925
 20
9.5932234882
 30
0.0
 10
11.1095001506
 20
9.6013206542
 30
0.0
 10
11.1079593726
 20
9.6052711263
 30
0.0
  0
SPLINE
  5
236
100
AcDbEntity
  8
0
100
AcDbSpline
 62
7
  6
CONTINUOUS
 70
0
 71
3
 72
9
 73
5
 74
0
 42
0.0000001
 43
0.0000001
 44
0.0000000001
 40
0.0
 40
0.0
 40
0.0
 40
0.0
 40
0.2452468733
 40
1.0
 40
1.0
 40
1.0
 40
1.0
 10
11.1079593726
 20
9.6052711263
 30
0.0
 10
11.1075207892
 20
9.6063956309
 30
0.0
 10
11.1056206217
 20
9.6109367554
 30
0.0
 10
11.1032829079
 20
9.6152920277
 30
0.0
 10
11.1013184287
 20
9.6184446492
 30
0.0
  0
SPLINE
  5
237
100
AcDbEntity
  8
0
100
AcDbSpline
 62
7
  6
CONTINUOUS
 70
0
 71
3
 72
16
 73
12
 74
0
 42
0.0000001
 43
0.0000001
 44
0.0000000001
 40
0.0
 40
0.0
 40
0.0
 40
0.0
 40
0.0996529033
 40
0.2073250436
 40
0.2643711908
 40
0.3235065841
 40
0.4477023802
 40
0.5789909306
 40
0.7159831361
 40
0.8570539259
 40
1.0
 40
1.0
 40
1.0
 40
1.0
 10
11.1013184287
 20
9.6184446492
 30
0.0
 10
11.0980807068
 20
9.6236405873
 30
0.0
 10
11.0901841645
 20
9.6337501742
 30
0.0
 10
11.0780566803
 20
9.6446570464
 30
0.0
 10
11.0668731616
 20
9.6526766674
 30
0.0
 10
11.0542931881
 20
9.6604318444
 30
0.0
 10
11.0368672383
 20
9.6689171035
 30
0.0
 10
11.0140856948
 20
9.6769509994
 30
0.0
 10
10.9895873128
 20
9.6828197509
 30
0.0
 10
10.9639333061
 20
9.6863874455
 30
0.0
 10
10.9464741851
 20
9.6871889821
 30
0.0
 10
10.9376923427
 20
9.6871889821
 30
0.0
  0
SPLINE
  5
238
100
AcDbEntity
  8
0
100
AcDbSpline
 62
7
  6
CONTINUOUS
 70
0
 71
3
 72
12
 73
8
 74
0
 42
0.0000001
 43
0.0000001
 44
0.0000000001
 40
0.0
 40
0.0
 40
0.0
 40
0.0
 40
0.2617056833
 40
0.518769882
 40
0.6439390484
 40
0.7661743292
 40
1.0
 40
1.0
 40
1.0
 40
1.0
 10
10.9376923427
 20
9.5006702445
 30
0.0
 10
10.946794627
 20
9.5006702444
 30
0.0
 10
10.9648511537
 20
9.5016241081
 30
0.0
 10
10.9870105353
 20
9.5051869603
 30
0.0
 10
11.0040388692
 20
9.5094583183
 30
0.0
 10
11.0200083207
 20
9.5144890068
 30
0.0
 10
11.0314700638
 20
9.5193043439
 30
0.0
 10
11.0387184526
 20
9.5229921681
 30
0.0
  0
SPLINE
  5
239
100
AcDbEntity
  8
0
100
AcDbSpline
 62
7
  6
CONTINUOUS
 70
0
 71
3
 72
21
 73
17
 74
0
 42
0.0000001
 43
0.0000001
 44
0.0000000001
 40
0.0
 40
0.0
 40
0.0
 40
0.0
 40
0.0467110694
 40
0.0941721748
 40
0.1430707573
 40
0.1939818918
 40
0.2203511832
 40
0.2473760642
 40
0.3034884989
 40
0.3625082907
 40
0.4244612086
 40
0.5566610326
 40
0.6985222379
 40
0.8474366697
 40
0.9235506673
 40
1.0
 40
1.0
 40
1.0
 40
1.0
 10
10.7626939324
 20
9.5806695021
 30
0.0
 10
10.7626939324
 20
9.5771779647
 30
0.0
 10
10.7632649956
 20
9.5701258085
 30
0.0
 10
10.7658292196
 20
9.5597005413
 30
0.0
 10
10.7700599063
 20
9.5494951698
 30
0.0
 10
10.7748787122
 20
9.5413518144
 30
0.0
 10
10.7794770691
 20
9.5350506828
 30
0.0
 10
10.7847014272
 20
9.528743402
 30
0.0
 10
10.7921936116
 20
9.5211742783
 30
0.0
 10
10.8024648807
 20
9.5127904145
 30
0.0
 10
10.818217173
 20
9.5022597198
 30
0.0
 10
10.8408678884
 20
9.4911313137
 30
0.0
 10
10.8710590692
 20
9.4814425921
 30
0.0
 10
10.8981169428
 20
9.4765106706
 30
0.0
 10
10.9205707801
 20
9.474492695
 30
0.0
 10
10.9319779434
 20
9.4741500222
 30
0.0
 10
10.9376923427
 20
9.4741500222
 30
0.0
  0
SPLINE
  5
23A
100
AcDbEntity
  8
0
100
AcDbSpline
 62
9
  6
CONTINUOUS
 70
0
 71
3
 72
21
 73
17
 74
0
 42
0.0000001
 43
0.0000001
 44
0.0000000001
 40
0.0
 40
0.0
 40
0.0
 40
0.0
 40
0.0764696392
 40
0.1525850387
 40
0.2277664756
 40
0.3015618088
 40
0.3735977272
 40
0.443525406
 40
0.5757287194
 40
0.6376863762
 40
0.6967062558
 40
0.8060067663
 40
0.8569221494
 40
0.9058231532
 40
0.9532861819
 40
1.0
 40
1.0
 40
1.0
 40
1.0
 10
10.9376923427
 20
9.7566425991
 30
0.0
 10
10.9295271657
 20
9.7566425991
 30
0.0
 10
10.9132305289
 20
9.7561535888
 30
0.0
 10
10.8889940312
 20
9.7539759994
 30
0.0
 10
10.8652165951
 20
9.7503627198
 30
0.0
 10
10.8421396266
 20
9.7453528522
 30
0.0
 10
10.819976219
 20
9.7389931878
 30
0.0
 10
10.792450487
 20
9.7289852339
 30
0.0
 10
10.7670149506
 20
9.716484536
 30
0.0
 10
10.7445065315
 20
9.7014419537
 30
0.0
 10
10.725444826
 20
9.6858769578
 30
0.0
 10
10.7096215081
 20
9.6682766661
 30
0.0
 10
10.6982185796
 20
9.649008068
 30
0.0
 10
10.6921704137
 20
9.6344279081
 30
0.0
 10
10.688514551
 20
9.6195337628
 30
0.0
 10
10.6876923427
 20
9.6094598617
 30
0.0
 10
10.6876923427
 20
9.6044719135
 30
0.0
  0
SPLINE
  5
23B
100
AcDbEntity
  8
0
100
AcDbSpline
 62
9
  6
CONTINUOUS
 70
0
 71
3
 72
21
 73
17
 74
0
 42
0.0000001
 43
0.0000001
 44
0.0000000001
 40
0.0
 40
0.0
 40
0.0
 40
0.0
 40
0.0764696392
 40
0.1525850387
 40
0.2277664756
 40
0.3015618088
 40
0.3735977272
 40
0.443525406
 40
0.5757287194
 40
0.6376863762
 40
0.6967062558
 40
0.8060067663
 40
0.8569221494
 40
0.9058231532
 40
0.9532861819
 40
1.0
 40
1.0
 40
1.0
 40
1.0
 10
10.9376923427
 20
9.8915229302
 30
0.0
 10
10.9295271657
 20
9.8915229302
 30
0.0
 10
10.9132305289
 20
9.8910339199
 30
0.0
 10
10.8889940312
 20
9.8888563305
 30
0.0
 10
10.8652165951
 20
9.8852430509
 30
0.0
 10
10.8421396266
 20
9.8802331833
 30
0.0
 10
10.819976219
 20
9.8738735189
 30
0.0
 10
10.792450487
 20
9.863865565
 30
0.0
 10
10.7670149506
 20
9.8513648671
 30
0.0
 10
10.7445065315
 20
9.8363222848
 30
0.0
 10
10.725444826
 20
9.8207572889
 30
0.0
 10
10.7096215081
 20
9.8031569972
 30
0.0
 10
10.6982185796
 20
9.7838883991
 30
0.0
 10
10.6921704137
 20
9.7693082392
 30
0.0
 10
10.688514551
 20
9.7544140939
 30
0.0
 10
10.6876923427
 20
9.7443401928
 30
0.0
 10
10.6876923427
 20
9.7393522446
 30
0.0
  0
SPLINE
  5
23C
100
AcDbEntity
  8
0
100
AcDbSpline
 62
9
  6
CONTINUOUS
 70
0
 71
3
 72
21
 73
17
 74
0
 42
0.0000001
 43
0.0000001
 44
0.0000000001
 40
0.0
 40
0.0
 40
0.0
 40
0.0
 40
0.0467138181
 40
0.0941768468
 40
0.1430778506
 40
0.1939932337
 40
0.3032937442
 40
0.3623136238
 40
0.4242712806
 40
0.556474594
 40
0.6264022728
 40
0.6984381912
 40
0.7722335244
 40
0.8474149613
 40
0.9235303608
 40
1.0
 40
1.0
 40
1.0
 40
1.0
 10
11.1876923427
 20
9.6044719135
 30
0.0
 10
11.1876923427
 20
9.6094598617
 30
0.0
 10
11.1868701345
 20
9.6195337628
 30
0.0
 10
11.1832142718
 20
9.6344279081
 30
0.0
 10
11.1771661059
 20
9.649008068
 30
0.0
 10
11.1657631774
 20
9.6682766661
 30
0.0
 10
11.1499398595
 20
9.6858769578
 30
0.0
 10
11.130878154
 20
9.7014419537
 30
0.0
 10
11.1083697349
 20
9.716484536
 30
0.0
 10
11.0829341984
 20
9.7289852339
 30
0.0
 10
11.0554084665
 20
9.7389931878
 30
0.0
 10
11.0332450588
 20
9.7453528522
 30
0.0
 10
11.0101680904
 20
9.7503627198
 30
0.0
 10
10.9863906543
 20
9.7539759994
 30
0.0
 10
10.9621541566
 20
9.7561535888
 30
0.0
 10
10.9458575198
 20
9.7566425991
 30
0.0
 10
10.9376923427
 20
9.7566425991
 30
0.0
  0
SPLINE
  5
23D
100
AcDbEntity
  8
0
100
AcDbSpline
 62
9
  6
CONTINUOUS
 70
0
 71
3
 72
12
 73
8
 74
0
 42
0.0000001
 43
0.0000001
 44
0.0000000001
 40
0.0
 40
0.0
 40
0.0
 40
0.0
 40
0.2481160015
 40
0.4981925872
 40
0.6235529729
 40
0.7490221603
 40
1.0
 40
1.0
 40
1.0
 40
1.0
 10
11.0812170357
 20
10.3988082207
 30
0.0
 10
11.0697322351
 20
10.4024196684
 30
0.0
 10
11.0463377135
 20
10.4086420432
 30
0.0
 10
11.0165338112
 20
10.4140304173
 30
0.0
 10
10.9924063648
 20
10.4170051703
 30
0.0
 10
10.9681452499
 20
10.419116025
 30
0.0
 10
10.9498704425
 20
10.4197387105
 30
0.0
 10
10.9376923427
 20
10.4197388614
 30
0.0
  0
SPLINE
  5
23E
100
AcDbEntity
  8
0
100
AcDbSpline
 62
9
  6
CONTINUOUS
 70
0
 71
3
 72
11
 73
7
 74
0
 42
0.0000001
 43
0.0000001
 44
0.0000000001
 40
0.0
 40
0.0
 40
0.0
 40
0.0
 40
0.2510815186
 40
0.376602647
 40
0.5020148673
 40
1.0
 40
1.0
 40
1.0
 40
1.0
 10
10.9376923427
 20
10.4197388614
 30
0.0
 10
10.9255142464
 20
10.4197388376
 30
0.0
 10
10.907240048
 20
10.4191159648
 30
0.0
 10
10.8829773283
 20
10.4170046427
 30
0.0
 10
10.8469283446
 20
10.4125602943
 30
0.0
 10
10.8172089671
 20
10.4060533464
 30
0.0
 10
10.7941676498
 20
10.3988082207
 30
0.0
  0
SPLINE
  5
23F
100
AcDbEntity
  8
0
100
AcDbSpline
 62
9
  6
CONTINUOUS
 70
0
 71
3
 72
22
 73
18
 74
0
 42
0.0000001
 43
0.0000001
 44
0.0000000001
 40
0.0
 40
0.0
 40
0.0
 40
0.0
 40
0.1916447194
 40
0.3738750571
 40
0.5402750489
 40
0.6159331774
 40
0.6857887002
 40
0.7493332628
 40
0.806084854
 40
0.8556860061
 40
0.8979544972
 40
0.9328402954
 40
0.96060854
 40
0.9721089331
 40
0.9822717541
 40
0.9914190777
 40
1.0
 40
1.0
 40
1.0
 40
1.0
 10
10.7941676498
 20
10.3988082207
 30
0.0
 10
10.7959194121
 20
10.3956620756
 30
0.0
 10
10.7992394726
 20
10.3894693631
 30
0.0
 10
10.8037305482
 20
10.3803630452
 30
0.0
 10
10.8069761277
 20
10.3730780855
 30
0.0
 10
10.8091573661
 20
10.3676376407
 30
0.0
 10
10.8105141932
 20
10.3639505812
 30
0.0
 10
10.8116348953
 20
10.3605571569
 30
0.0
 10
10.8125098033
 20
10.3574858089
 30
0.0
 10
10.8131317781
 20
10.3547618518
 30
0.0
 10
10.8134987041
 20
10.3524054558
 30
0.0
 10
10.813608732
 20
10.3504338573
 30
0.0
 10
10.8134787371
 20
10.3490357424
 30
0.0
 10
10.813214895
 20
10.3481420035
 30
0.0
 10
10.8129617702
 20
10.3476177008
 30
0.0
 10
10.8126393896
 20
10.3471990035
 30
0.0
 10
10.8123731562
 20
10.3469913167
 30
0.0
 10
10.8122336951
 20
10.3469104042
 30
0.0
  0
SPLINE
  5
240
100
AcDbEntity
  8
0
100
AcDbSpline
 62
9
  6
CONTINUOUS
 70
0
 71
3
 72
22
 73
18
 74
0
 42
0.0000001
 43
0.0000001
 44
0.0000000001
 40
0.0
 40
0.0
 40
0.0
 40
0.0
 40
0.191643985
 40
0.3738735916
 40
0.5402729526
 40
0.6159308331
 40
0.6857861672
 40
0.7493306128
 40
0.8060821731
 40
0.855683395
 40
0.8979520694
 40
0.9328381803
 40
0.9606068967
 40
0.9721076061
 40
0.9822708077
 40
0.9914185779
 40
1.0
 40
1.0
 40
1.0
 40
1.0
 10
11.0812170357
 20
10.3988082207
 30
0.0
 10
11.0794652039
 20
10.3956621169
 30
0.0
 10
11.0761450305
 20
10.38946947
 30
0.0
 10
11.0716538496
 20
10.380363211
 30
0.0
 10
11.0684082311
 20
10.373078273
 30
0.0
 10
11.0662269896
 20
10.3676378307
 30
0.0
 10
11.0648701718
 20
10.3639507653
 30
0.0
 10
11.0637494892
 20
10.360557329
 30
0.0
 10
11.0628746102
 20
10.3574859635
 30
0.0
 10
11.0622526718
 20
10.3547619844
 30
0.0
 10
11.0618857875
 20
10.3524055632
 30
0.0
 10
11.0617758039
 20
10.3504339373
 30
0.0
 10
11.0619058395
 20
10.3490358004
 30
0.0
 10
11.0621697148
 20
10.3481420452
 30
0.0
 10
11.0624228644
 20
10.3476177286
 30
0.0
 10
11.0627452706
 20
10.3471990175
 30
0.0
 10
11.0630115206
 20
10.3469913218
 30
0.0
 10
11.0631509903
 20
10.3469104043
 30
0.0
  0
SPLINE
  5
241
100
AcDbEntity
  8
0
100
AcDbSpline
 62
7
  6
CONTINUOUS
 70
0
 71
3
 72
9
 73
5
 74
0
 42
0.0000001
 43
0.0000001
 44
0.0000000001
 40
0.0
 40
0.0
 40
0.0
 40
0.0
 40
0.507246861
 40
1.0
 40
1.0
 40
1.0
 40
1.0
 10
11.1026650394
 20
9.5848015027
 30
0.0
 10
11.104116661
 20
9.587298716
 30
0.0
 10
11.1067261732
 20
9.5923738573
 30
0.0
 10
11.1087545158
 20
9.5977100444
 30
0.0
 10
11.1095938075
 20
9.6003875228
 30
0.0
  0
SPLINE
  5
242
100
AcDbEntity
  8
0
100
AcDbSpline
 62
7
  6
CONTINUOUS
 70
0
 71
3
 72
9
 73
5
 74
0
 42
0.0000001
 43
0.0000001
 44
0.0000000001
 40
0.0
 40
0.0
 40
0.0
 40
0.0
 40
0.507246861
 40
1.0
 40
1.0
 40
1.0
 40
1.0
 10
10.7727196461
 20
9.5848015027
 30
0.0
 10
10.7712680245
 20
9.587298716
 30
0.0
 10
10.7686585123
 20
9.5923738573
 30
0.0
 10
10.7666301697
 20
9.5977100444
 30
0.0
 10
10.765790878
 20
9.6003875228
 30
0.0
  0
SPLINE
  5
243
100
AcDbEntity
  8
0
100
AcDbSpline
 62
7
  6
CONTINUOUS
 70
0
 71
3
 72
23
 73
19
 74
0
 42
0.0000001
 43
0.0000001
 44
0.0000000001
 40
0.0
 40
0.0
 40
0.0
 40
0.0
 40
0.0711823924
 40
0.1390452654
 40
0.2036970255
 40
0.265408319
 40
0.3245798697
 40
0.381763308
 40
0.4376529578
 40
0.4930252254
 40
0.5487062387
 40
0.6054897316
 40
0.6640944098
 40
0.7251142057
 40
0.7889841816
 40
0.8560108714
 40
0.9263428713
 40
1.0
 40
1.0
 40
1.0
 40
1.0
 10
10.8188208684
 20
9.6594283699
 30
0.0
 10
10.8156653779
 20
9.6572180614
 30
0.0
 10
10.8096843013
 20
9.6526300122
 30
0.0
 10
10.8016156973
 20
9.6450899878
 30
0.0
 10
10.7947389288
 20
9.6371094415
 30
0.0
 10
10.789112015
 20
9.628761677
 30
0.0
 10
10.7847887695
 20
9.620115217
 30
0.0
 10
10.7818230643
 20
9.6112426303
 30
0.0
 10
10.780237138
 20
9.6022294068
 30
0.0
 10
10.7800562304
 20
9.5931592406
 30
0.0
 10
10.7812863713
 20
9.5841232735
 30
0.0
 10
10.7839016143
 20
9.5752068224
 30
0.0
 10
10.7878821626
 20
9.5664948814
 30
0.0
 10
10.7931820822
 20
9.558064714
 30
0.0
 10
10.7997443597
 20
9.5499833376
 30
0.0
 10
10.8075163447
 20
9.5423247279
 30
0.0
 10
10.816422125
 20
9.5351485138
 30
0.0
 10
10.8229176608
 20
9.5308218203
 30
0.0
 10
10.8263230549
 20
9.5287491761
 30
0.0
  0
SPLINE
  5
244
100
AcDbEntity
  8
0
100
AcDbSpline
 62
7
  6
CONTINUOUS
 70
0
 71
3
 72
23
 73
19
 74
0
 42
0.0000001
 43
0.0000001
 44
0.0000000001
 40
0.0
 40
0.0
 40
0.0
 40
0.0
 40
0.0736571287
 40
0.1439891286
 40
0.2110158184
 40
0.2748857943
 40
0.3359055902
 40
0.3945102684
 40
0.4512937613
 40
0.5069747746
 40
0.5623470422
 40
0.618236692
 40
0.6754201303
 40
0.734591681
 40
0.7963029745
 40
0.8609547346
 40
0.9288176076
 40
1.0
 40
1.0
 40
1.0
 40
1.0
 10
11.0490616306
 20
9.5287491761
 30
0.0
 10
11.0524670247
 20
9.5308218203
 30
0.0
 10
11.0589625605
 20
9.5351485138
 30
0.0
 10
11.0678683408
 20
9.5423247279
 30
0.0
 10
11.0756403258
 20
9.5499833376
 30
0.0
 10
11.0822026032
 20
9.558064714
 30
0.0
 10
11.0875025229
 20
9.5664948814
 30
0.0
 10
11.0914830712
 20
9.5752068224
 30
0.0
 10
11.0940983142
 20
9.5841232735
 30
0.0
 10
11.0953284551
 20
9.5931592406
 30
0.0
 10
11.0951475475
 20
9.6022294068
 30
0.0
 10
11.0935616212
 20
9.6112426303
 30
0.0
 10
11.090595916
 20
9.620115217
 30
0.0
 10
11.0862726705
 20
9.628761677
 30
0.0
 10
11.0806457567
 20
9.6371094415
 30
0.0
 10
11.0737689882
 20
9.6450899878
 30
0.0
 10
11.0657003842
 20
9.6526300122
 30
0.0
 10
11.0597193076
 20
9.6572180614
 30
0.0
 10
11.056563817
 20
9.6594283699
 30
0.0
  0
SPLINE
  5
245
100
AcDbEntity
  8
0
100
AcDbSpline
 62
9
  6
CONTINUOUS
 70
0
 71
3
 72
23
 73
19
 74
0
 42
0.0000001
 43
0.0000001
 44
0.0000000001
 40
0.0
 40
0.0
 40
0.0
 40
0.0
 40
0.0620363377
 40
0.1240256518
 40
0.1859350535
 40
0.2478493423
 40
0.3098824327
 40
0.3721049257
 40
0.4345532333
 40
0.4972369953
 40
0.5601231358
 40
0.6231624978
 40
0.6862712588
 40
0.7493523792
 40
0.812323773
 40
0.8751108408
 40
0.9376700371
 40
1.0
 40
1.0
 40
1.0
 40
1.0
 10
10.7941676498
 20
10.3988082207
 30
0.0
 10
10.7858933626
 20
10.3936045221
 30
0.0
 10
10.7698847037
 20
10.3823258854
 30
0.0
 10
10.7477311913
 20
10.3630846565
 30
0.0
 10
10.7276082616
 20
10.3417533805
 30
0.0
 10
10.7096480224
 20
10.3185670198
 30
0.0
 10
10.6939393742
 20
10.2937433937
 30
0.0
 10
10.68056524
 20
10.2674951253
 30
0.0
 10
10.6696102853
 20
10.2400390451
 30
0.0
 10
10.6611574548
 20
10.2116043093
 30
0.0
 10
10.6552602668
 20
10.1824372064
 30
0.0
 10
10.6519833506
 20
10.1527938284
 30
0.0
 10
10.6513397957
 20
10.1229463629
 30
0.0
 10
10.6533489083
 20
10.0931699847
 30
0.0
 10
10.6579872525
 20
10.0637401612
 30
0.0
 10
10.6652108905
 20
10.034919499
 30
0.0
 10
10.6749686309
 20
10.0069645048
 30
0.0
 10
10.6831270336
 20
9.9890217934
 30
0.0
 10
10.687601469
 20
9.9802794652
 30
0.0
  0
SPLINE
  5
246
100
AcDbEntity
  8
0
100
AcDbSpline
 62
9
  6
CONTINUOUS
 70
0
 71
3
 72
21
 73
17
 74
0
 42
0.0000001
 43
0.0000001
 44
0.0000000001
 40
0.0
 40
0.0
 40
0.0
 40
0.0
 40
0.0467138181
 40
0.0941768468
 40
0.1430778506
 40
0.1939932337
 40
0.3032937442
 40
0.3623136238
 40
0.4242712806
 40
0.556474594
 40
0.6264022728
 40
0.6984381912
 40
0.7722335244
 40
0.8474149613
 40
0.9235303608
 40
1.0
 40
1.0
 40
1.0
 40
1.0
 10
11.1876923427
 20
9.7393522446
 30
0.0
 10
11.1876923427
 20
9.7443401928
 30
0.0
 10
11.1868701345
 20
9.7544140939
 30
0.0
 10
11.1832142718
 20
9.7693082392
 30
0.0
 10
11.1771661059
 20
9.7838883991
 30
0.0
 10
11.1657631774
 20
9.8031569972
 30
0.0
 10
11.1499398595
 20
9.8207572889
 30
0.0
 10
11.130878154
 20
9.8363222848
 30
0.0
 10
11.1083697349
 20
9.8513648671
 30
0.0
 10
11.0829341984
 20
9.863865565
 30
0.0
 10
11.0554084665
 20
9.8738735189
 30
0.0
 10
11.0332450588
 20
9.8802331833
 30
0.0
 10
11.0101680904
 20
9.8852430509
 30
0.0
 10
10.9863906543
 20
9.8888563305
 30
0.0
 10
10.9621541566
 20
9.8910339199
 30
0.0
 10
10.9458575198
 20
9.8915229302
 30
0.0
 10
10.9376923427
 20
9.8915229302
 30
0.0
  0
SPLINE
  5
247
100
AcDbEntity
  8
0
100
AcDbSpline
 62
9
  6
CONTINUOUS
 70
0
 71
3
 72
23
 73
19
 74
0
 42
0.0000001
 43
0.0000001
 44
0.0000000001
 40
0.0
 40
0.0
 40
0.0
 40
0.0
 40
0.06232998
 40
0.124889227
 40
0.1876763865
 40
0.2506478816
 40
0.3137290342
 40
0.3768376749
 40
0.4398768452
 40
0.5027628841
 40
0.5654466476
 40
0.6278950403
 40
0.6901176225
 40
0.7521507067
 40
0.8140649437
 40
0.875974349
 40
0.9379636785
 40
1.0
 40
1.0
 40
1.0
 40
1.0
 10
11.1877821271
 20
9.9802790811
 30
0.0
 10
11.1922563923
 20
9.9890214772
 30
0.0
 10
11.2004144093
 20
10.0069643345
 30
0.0
 10
11.2101715259
 20
10.0349195089
 30
0.0
 10
11.217394598
 20
10.0637402866
 30
0.0
 10
11.2220326027
 20
10.0931701277
 30
0.0
 10
11.224041844
 20
10.1229464234
 30
0.0
 10
11.2233988663
 20
10.1527937885
 30
0.0
 10
11.2201226301
 20
10.1824371171
 30
0.0
 10
11.2142260068
 20
10.2116042296
 30
0.0
 10
11.2057736324
 20
10.2400390389
 30
0.0
 10
11.1948190274
 20
10.2674952271
 30
0.0
 10
11.1814451397
 20
10.2937435895
 30
0.0
 10
11.1657365591
 20
10.3185672027
 30
0.0
 10
11.1477762538
 20
10.3417534306
 30
0.0
 10
11.1276532766
 20
10.3630845686
 30
0.0
 10
11.1054998279
 20
10.3823257736
 30
0.0
 10
11.0894912647
 20
10.3936044713
 30
0.0
 10
11.0812170357
 20
10.3988082207
 30
0.0
  0
SPLINE
  5
248
100
AcDbEntity
  8
0
100
AcDbSpline
 62
9
  6
CONTINUOUS
 70
0
 71
3
 72
37
 73
33
 74
0
 42
0.0000001
 43
0.0000001
 44
0.0000000001
 40
0.0
 40
0.0
 40
0.0
 40
0.0
 40
0.0382202205
 40
0.0762723333
 40
0.1507210865
 40
0.2216448024
 40
0.255389681
 40
0.2877909485
 40
0.318764289
 40
0.3482712135
 40
0.3763246168
 40
0.3898357024
 40
0.4030190168
 40
0.4284719871
 40
0.4529187729
 40
0.4766468777
 40
0.5
 40
0.5233531223
 40
0.5470812271
 40
0.5715280129
 40
0.5969809832
 40
0.6101642976
 40
0.6236753832
 40
0.6517287865
 40
0.681235711
 40
0.7122090515
 40
0.744610319
 40
0.7783551976
 40
0.8492789135
 40
0.9237276667
 40
0.9617797795
 40
1.0
 40
1.0
 40
1.0
 40
1.0
 10
10.9376923427
 20
9.7145797055
 30
0.0
 10
10.930508599
 20
9.7145797055
 30
0.0
 10
10.9161685378
 20
9.7141490364
 30
0.0
 10
10.8879403413
 20
9.7116119602
 30
0.0
 10
10.8539309223
 20
9.7054138128
 30
0.0
 10
10.821762456
 20
9.6950904106
 30
0.0
 10
10.79824295
 20
9.6845192133
 30
0.0
 10
10.7822251743
 20
9.6757195171
 30
0.0
 10
10.7676922449
 20
9.6660031552
 30
0.0
 10
10.7547799882
 20
9.6554638301
 30
0.0
 10
10.7453611056
 20
9.6459482307
 30
0.0
 10
10.738793285
 20
9.6380190584
 30
0.0
 10
10.7330124439
 20
9.6300976355
 30
0.0
 10
10.7269544937
 20
9.6198600294
 30
0.0
 10
10.7216358674
 20
9.6070311801
 30
0.0
 10
10.7184122548
 20
9.5939222588
 30
0.0
 10
10.7173382506
 20
9.5806695021
 30
0.0
 10
10.7184122548
 20
9.5674167455
 30
0.0
 10
10.7216358674
 20
9.5543078242
 30
0.0
 10
10.7269544937
 20
9.5414789749
 30
0.0
 10
10.7330124439
 20
9.5312413688
 30
0.0
 10
10.738793285
 20
9.5233199458
 30
0.0
 10
10.7453611056
 20
9.5153907736
 30
0.0
 10
10.7547799882
 20
9.5058751741
 30
0.0
 10
10.7676922449
 20
9.4953358491
 30
0.0
 10
10.7822251743
 20
9.4856194872
 30
0.0
 10
10.79824295
 20
9.476819791
 30
0.0
 10
10.821762456
 20
9.4662485937
 30
0.0
 10
10.8539309223
 20
9.4559251915
 30
0.0
 10
10.8879403413
 20
9.449727044
 30
0.0
 10
10.9161685378
 20
9.4471899679
 30
0.0
 10
10.930508599
 20
9.4467592988
 30
0.0
 10
10.9376923427
 20
9.4467592988
 30
0.0
  0
SPLINE
  5
249
100
AcDbEntity
  8
0
100
AcDbSpline
 62
9
  6
CONTINUOUS
 70
0
 71
3
 72
37
 73
33
 74
0
 42
0.0000001
 43
0.0000001
 44
0.0000000001
 40
0.0
 40
0.0
 40
0.0
 40
0.0
 40
0.0382202205
 40
0.0762723333
 40
0.1507210865
 40
0.2216448024
 40
0.255389681
 40
0.2877909485
 40
0.318764289
 40
0.3482712135
 40
0.3763246168
 40
0.3898357024
 40
0.4030190168
 40
0.4284719871
 40
0.4529187729
 40
0.4766468777
 40
0.5
 40
0.5233531223
 40
0.5470812271
 40
0.5715280129
 40
0.5969809832
 40
0.6101642976
 40
0.6236753832
 40
0.6517287865
 40
0.681235711
 40
0.7122090515
 40
0.744610319
 40
0.7783551976
 40
0.8492789135
 40
0.9237276667
 40
0.9617797795
 40
1.0
 40
1.0
 40
1.0
 40
1.0
 10
10.9376923427
 20
9.4467592988
 30
0.0
 10
10.9448760865
 20
9.4467592988
 30
0.0
 10
10.9592161477
 20
9.4471899679
 30
0.0
 10
10.9874443442
 20
9.449727044
 30
0.0
 10
11.0214537632
 20
9.4559251915
 30
0.0
 10
11.0536222295
 20
9.4662485937
 30
0.0
 10
11.0771417355
 20
9.476819791
 30
0.0
 10
11.0931595111
 20
9.4856194872
 30
0.0
 10
11.1076924406
 20
9.4953358491
 30
0.0
 10
11.1206046973
 20
9.5058751741
 30
0.0
 10
11.1300235799
 20
9.5153907736
 30
0.0
 10
11.1365914005
 20
9.5233199458
 30
0.0
 10
11.1423722416
 20
9.5312413688
 30
0.0
 10
11.1484301917
 20
9.5414789749
 30
0.0
 10
11.1537488181
 20
9.5543078242
 30
0.0
 10
11.1569724307
 20
9.5674167455
 30
0.0
 10
11.1580464349
 20
9.5806695021
 30
0.0
 10
11.1569724307
 20
9.5939222588
 30
0.0
 10
11.1537488181
 20
9.6070311801
 30
0.0
 10
11.1484301917
 20
9.6198600294
 30
0.0
 10
11.1423722416
 20
9.6300976355
 30
0.0
 10
11.1365914005
 20
9.6380190584
 30
0.0
 10
11.1300235799
 20
9.6459482307
 30
0.0
 10
11.1206046973
 20
9.6554638301
 30
0.0
 10
11.1076924406
 20
9.6660031552
 30
0.0
 10
11.0931595111
 20
9.6757195171
 30
0.0
 10
11.0771417355
 20
9.6845192133
 30
0.0
 10
11.0536222295
 20
9.6950904106
 30
0.0
 10
11.0214537632
 20
9.7054138128
 30
0.0
 10
10.9874443442
 20
9.7116119602
 30
0.0
 10
10.9592161477
 20
9.7141490364
 30
0.0
 10
10.9448760865
 20
9.7145797055
 30
0.0
 10
10.9376923427
 20
9.7145797055
 30
0.0
  0
SPLINE
  5
24A
100
AcDbEntity
  8
0
100
AcDbSpline
 62
7
  6
CONTINUOUS
 70
0
 71
3
 72
21
 73
17
 74
0
 42
0.0000001
 43
0.0000001
 44
0.0000000001
 40
0.0
 40
0.0
 40
0.0
 40
0.0
 40
0.0764493327
 40
0.1525633303
 40
0.3014777621
 40
0.4433389674
 40
0.5755387914
 40
0.6374917093
 40
0.6965115011
 40
0.7526239358
 40
0.7796488168
 40
0.8060181082
 40
0.8569292427
 40
0.9058278252
 40
0.9532889306
 40
1.0
 40
1.0
 40
1.0
 40
1.0
 10
10.9376923427
 20
9.4741500222
 30
0.0
 10
10.9434067421
 20
9.4741500222
 30
0.0
 10
10.9548139054
 20
9.474492695
 30
0.0
 10
10.9772677426
 20
9.4765106706
 30
0.0
 10
11.0043256163
 20
9.4814425921
 30
0.0
 10
11.0345167971
 20
9.4911313137
 30
0.0
 10
11.0571675124
 20
9.5022597198
 30
0.0
 10
11.0729198048
 20
9.5127904145
 30
0.0
 10
11.0831910738
 20
9.5211742783
 30
0.0
 10
11.0906832582
 20
9.528743402
 30
0.0
 10
11.0959076164
 20
9.5350506828
 30
0.0
 10
11.1005059733
 20
9.5413518144
 30
0.0
 10
11.1053247792
 20
9.5494951698
 30
0.0
 10
11.1095554659
 20
9.5597005413
 30
0.0
 10
11.1121196898
 20
9.5701258085
 30
0.0
 10
11.112690753
 20
9.5771779647
 30
0.0
 10
11.112690753
 20
9.5806695021
 30
0.0
  0
ENDSEC
  0
SECTION
  2
OBJECTS
  0
DICTIONARY
  5
C
100
AcDbDictionary
280
0
281
1
  3
ACAD_GROUP
350
D
  3
ACAD_MLINESTYLE
350
17
  3
ACAD_LAYOUT
350
1A
  3
ACAD_PLOTSETTINGS
350
19
  3
ACAD_PLOTSTYLENAME
350
E
  0
DICTIONARY
  5
D
102
{ACAD_REACTORS
330
C
102
}
100
AcDbDictionary
280
0
281
1
  0
ACDBDICTIONARYWDFLT
  5
E
102
{ACAD_REACTORS
330
C
102
}
100
AcDbDictionary
281
1
  3
Normal
350
F
100
AcDbDictionaryWithDefault
340
F
  0
DICTIONARY
  5
17
102
{ACAD_REACTORS
330
C
102
}
100
AcDbDictionary
280
0
281
1
  3
Standard
350
18
  0
DICTIONARY
  5
19
102
{ACAD_REACTORS
330
C
102
}
100
AcDbDictionary
281
1
  0
DICTIONARY
  5
1A
102
{ACAD_REACTORS
330
C
102
}
100
AcDbDictionary
281
1
  3
Model
350
24B
  3
Layout1
350
24C
  0
ACDBPLACEHOLDER
  5
F
102
{ACAD_REACTORS
330
E
102
}
  0
MLINESTYLE
  5
18
102
{ACAD_REACTORS
330
17
102
}
100
AcDbMlineStyle
  2
STANDARD
 70
0
  3

 62
256
 51
90.0
 52
90.0
 71
2
 49
0.5
 62
256
  6
BYLAYER
 49
-0.5
 62
256
  6
BYLAYER
  0
LAYOUT
  5
24B
102
{ACAD_REACTORS
330
1A
102
}
100
AcDbPlotSettings
  1

  2
none_device
  4
ANSI_C_(22.00_x_17.00_Inches)
  6

 40
0.0
 41
0.0
 42
0.0
 43
0.0
 44
558.8
 45
431.8
 46
0.0
 47
0.0
 48
0.0
 49
0.0
140
0.0
141
0.0
142
1.0
143
1.0
 70
1024
 72
0
 73
0
 74
0
  7

 75
0
147
1.0
148
0.0
149
0.0
100
AcDbLayout
  1
Model
 70
0
 71
0
 10
0.0
 20
0.0
 11
22.0
 21
17.0
 12
0.0
 22
0.0
 32
0.0
 14
0.0
 24
0.0
 34
0.0
 15
0.0
 25
0.0
 35
0.0
146
0.0
 13
0.0
 23
0.0
 33
0.0
 16
1.0
 26
0.0
 36
0.0
 17
0.0
 27
1.0
 37
0.0
 76
0
330
205
345
0
346
0
  0
LAYOUT
  5
24C
102
{ACAD_REACTORS
330
1A
102
}
100
AcDbPlotSettings
  1

  2
none_device
  4
ANSI_C_(22.00_x_17.00_Inches)
  6

 40
0.0
 41
0.0
 42
0.0
 43
0.0
 44
558.8
 45
431.8
 46
0.0
 47
0.0
 48
0.0
 49
0.0
140
0.0
141
0.0
142
1.0
143
1.0
 70
0
 72
0
 73
0
 74
0
  7

 75
0
147
1.0
148
0.0
149
0.0
100
AcDbLayout
  1
Layout1
 70
0
 71
1
 10
0.0
 20
0.0
 11
22.0
 21
17.0
 12
0.0
 22
0.0
 32
0.0
 14
0.0
 24
0.0
 34
0.0
 15
0.0
 25
0.0
 35
0.0
146
0.0
 13
0.0
 23
0.0
 33
0.0
 16
1.0
 26
0.0
 36
0.0
 17
0.0
 27
1.0
 37
0.0
 76
0
330
206
345
0
346
0
  0
ENDSEC
  0
EOF
