999
DXF file: E:\BT Custom\CADOUTPUT\_RIGHT.dxf
999
Pro/ENGINEER 2018400 by Parametric Technology Corporation
  0
SECTION
  2
HEADER
  9
$ACADVER
  1
AC1018
  9
$DWGCODEPAGE
  3
ANSI_1252
  9
$EXTMAX
 10
22.0
 20
17.0
 30
0.0
  9
$EXTMIN
 10
0.0
 20
0.0
 30
0.0
  9
$LIMMIN
 10
0.0
 20
0.0
  9
$LIMMAX
 10
22.0
 20
17.0
  9
$VIEWCTR
 10
11.0
 20
8.5
  9
$VIEWSIZE
 40
17.0
  9
$CLAYER
  8
0
  9
$LTSCALE
 40
1.21
  9
$CELTYPE
  6
BYLAYER
  9
$DIMSCALE
 40
1.0
  9
$DIMASZ
 40
0.1
  9
$DIMEXO
 40
0.0625
  9
$DIMDLI
 40
0.836
  9
$DIMEXE
 40
0.125
  9
$DIMCEN
 40
0.198
  9
$DIMLFAC
 40
1.0
  9
$DIMBLK
  1
_FILLED
  9
$DIMALT
 70
1
  9
$DIMALTD
 70
2
  9
$DIMALTTD
 70
2
  9
$DIMALTF
 40
25.4
  9
$DIMTXT
 40
0.08
  9
$DIMTOL
 70
1
  9
$DIMLIM
 70
0
  9
$DIMTFAC
 40
1.0
  9
$DIMTP
 40
0.001
  9
$DIMTM
 40
0.001
  9
$DIMGAP
 40
0.09
  9
$DIMDSEP
 70
46
  9
$AUNITS
 70
0
  9
$PDMODE
 70
3
  9
$PDSIZE
 40
0.06
  9
$HANDSEED
  5
239
  9
$TILEMODE
 70
1
  9
$MEASUREMENT
 70
0
  9
$INSUNITS
 70
1
  0
ENDSEC
  0
SECTION
  2
CLASSES
  0
CLASS
  1
ACDBDICTIONARYWDFLT
  2
AcDbDictionaryWithDefault
  3
AutoCAD 2000
 90
0
 91
1
280
0
281
0
  0
CLASS
  1
ACDBPLACEHOLDER
  2
AcDbPlaceHolder
  3
AutoCAD 2000
 90
0
 91
1
280
0
281
0
  0
CLASS
  1
LAYOUT
  2
AcDbLayout
  3
AutoCAD 2000
 90
0
 91
0
280
0
281
0
  0
ENDSEC
  0
SECTION
  2
TABLES
  0
TABLE
  2
VPORT
  5
8
100
AcDbSymbolTable
 70
2
  0
VPORT
  5
1F4
100
AcDbSymbolTableRecord
100
AcDbViewportTableRecord
  2
*ACTIVE
 70
0
 10
0.0
 20
0.0
 11
1.0
 21
1.0
 12
11.0
 22
8.5
 13
0.0
 23
0.0
 14
1.0
 24
1.0
 15
0.0
 25
0.0
 16
0.0
 26
0.0
 36
1.0
 17
0.0
 27
0.0
 37
0.0
 40
17.0
 41
1.2941176471
 42
50.0
 43
0.0
 44
0.0
 50
0.0
 51
0.0
 71
0
 72
100
 73
1
 74
1
 75
0
 76
0
 77
0
 78
0
  0
ENDTAB
  0
TABLE
  2
LTYPE
  5
5
100
AcDbSymbolTable
 70
6
  0
LTYPE
  5
14
100
AcDbSymbolTableRecord
100
AcDbLinetypeTableRecord
  2
BYBLOCK
 70
0
  3

 72
65
 73
0
 40
0.0
  0
LTYPE
  5
15
100
AcDbSymbolTableRecord
100
AcDbLinetypeTableRecord
  2
BYLAYER
 70
0
  3

 72
65
 73
0
 40
0.0
  0
LTYPE
  5
16
100
AcDbSymbolTableRecord
100
AcDbLinetypeTableRecord
  2
CONTINUOUS
 70
64
  3
Solid line
 72
65
 73
0
 40
0.0
  0
LTYPE
  5
1F5
100
AcDbSymbolTableRecord
100
AcDbLinetypeTableRecord
  2
CENTER
 70
64
  3
____ _ ____ _ ____ _ ____ _ ____ _ ____ _ ____
 72
65
 73
4
 40
0.6
 49
0.375
 74
0
 49
-0.075
 74
0
 49
0.075
 74
0
 49
-0.075
 74
0
  0
LTYPE
  5
1F6
100
AcDbSymbolTableRecord
100
AcDbLinetypeTableRecord
  2
HIDDEN
 70
64
  3
- - - - - - - - - - - - - - - - - - - -
 72
65
 73
2
 40
0.2
 49
0.1
 74
0
 49
-0.1
 74
0
  0
LTYPE
  5
1F7
100
AcDbSymbolTableRecord
100
AcDbLinetypeTableRecord
  2
PHANTOM
 70
64
  3
_____ _ _ _____ _ _ _____ _ _ _____
 72
65
 73
6
 40
0.8
 49
0.45
 74
0
 49
-0.05
 74
0
 49
0.1
 74
0
 49
-0.05
 74
0
 49
0.1
 74
0
 49
-0.05
 74
0
  0
LTYPE
  5
1F8
100
AcDbSymbolTableRecord
100
AcDbLinetypeTableRecord
  2
DOT
 70
64
  3
. . . . . . . . . . . . . . . . . . . .
 72
65
 73
2
 40
0.2
 49
0.1
 74
0
 49
-0.1
 74
0
  0
LTYPE
  5
1F9
100
AcDbSymbolTableRecord
100
AcDbLinetypeTableRecord
  2
DASHED
 70
64
  3
- - - - - - - - - - - - - - - - - - - -
 72
65
 73
2
 40
0.2
 49
0.1
 74
0
 49
-0.1
 74
0
  0
ENDTAB
  0
TABLE
  2
LAYER
  5
2
100
AcDbSymbolTable
 70
36
  0
LAYER
  5
10
100
AcDbSymbolTableRecord
100
AcDbLayerTableRecord
  2
0
 70
0
 62
7
  6
CONTINUOUS
370
-3
390
F
  0
LAYER
  5
1FA
100
AcDbSymbolTableRecord
100
AcDbLayerTableRecord
  2
DEFAULT_1
 70
0
 62
7
  6
CENTER
370
-3
390
F
  0
LAYER
  5
1FB
100
AcDbSymbolTableRecord
100
AcDbLayerTableRecord
  2
DEFAULT_2
 70
0
 62
8
  6
HIDDEN
370
-3
390
F
  0
LAYER
  5
1FC
100
AcDbSymbolTableRecord
100
AcDbLayerTableRecord
  2
DEFAULT_3
 70
0
 62
7
  6
PHANTOM
370
-3
390
F
  0
LAYER
  5
1FD
100
AcDbSymbolTableRecord
100
AcDbLayerTableRecord
  2
ALL_FEATURES
 70
0
 62
7
  6
CONTINUOUS
370
-3
390
F
  0
LAYER
  5
1FE
100
AcDbSymbolTableRecord
100
AcDbLayerTableRecord
  2
AXES_FEATURES
 70
0
 62
7
  6
CONTINUOUS
370
-3
390
F
  0
LAYER
  5
1FF
100
AcDbSymbolTableRecord
100
AcDbLayerTableRecord
  2
DEFAULT_COORDINATE_SYSTEM
 70
0
 62
7
  6
CONTINUOUS
370
-3
390
F
  0
LAYER
  5
200
100
AcDbSymbolTableRecord
100
AcDbLayerTableRecord
  2
DEFAULT_DATUM_AXES
 70
0
 62
7
  6
CONTINUOUS
370
-3
390
F
  0
LAYER
  5
201
100
AcDbSymbolTableRecord
100
AcDbLayerTableRecord
  2
DEFAULT_DATUM_PLANES
 70
0
 62
7
  6
CONTINUOUS
370
-3
390
F
  0
LAYER
  5
202
100
AcDbSymbolTableRecord
100
AcDbLayerTableRecord
  2
DIMENSIONS
 70
0
 62
7
  6
CONTINUOUS
370
-3
390
F
  0
ENDTAB
  0
TABLE
  2
STYLE
  5
3
100
AcDbSymbolTable
 70
1
  0
STYLE
  5
11
100
AcDbSymbolTableRecord
100
AcDbTextStyleTableRecord
  2
STANDARD
 70
0
 40
0.0
 41
0.8
 50
0.0
 71
0
 42
0.2
  3
txt
  4

  0
STYLE
  5
203
100
AcDbSymbolTableRecord
100
AcDbTextStyleTableRecord
  2
TEXTSTYLE_1
 70
0
 40
0.0
 41
0.8
 50
0.0
 71
0
 42
0.2
  3
gdt
  4

  0
ENDTAB
  0
TABLE
  2
VIEW
  5
6
100
AcDbSymbolTable
 70
0
  0
ENDTAB
  0
TABLE
  2
UCS
  5
7
100
AcDbSymbolTable
 70
0
  0
ENDTAB
  0
TABLE
  2
APPID
  5
9
100
AcDbSymbolTable
 70
1
  0
APPID
  5
204
100
AcDbSymbolTableRecord
100
AcDbRegAppTableRecord
  2
ACAD
 70
0
  0
ENDTAB
  0
TABLE
  2
BLOCK_RECORD
  5
1
100
AcDbSymbolTable
 70
0
  0
BLOCK_RECORD
  5
205
100
AcDbSymbolTableRecord
100
AcDbBlockTableRecord
  2
*Model_Space
  0
BLOCK_RECORD
  5
206
100
AcDbSymbolTableRecord
100
AcDbBlockTableRecord
  2
*Paper_Space
  0
BLOCK_RECORD
  5
207
100
AcDbSymbolTableRecord
100
AcDbBlockTableRecord
  2
_FILLED
  0
ENDTAB
  0
TABLE
  2
DIMSTYLE
  5
A
100
AcDbSymbolTable
 70
1
100
AcDbDimStyleTable
 71
0
  0
DIMSTYLE
105
208
100
AcDbSymbolTableRecord
100
AcDbDimStyleTableRecord
  2
STANDARD
 70
0
  3

  4

 40
1.0
 41
0.1
 42
0.0625
 43
0.38
 44
0.125
 45
0.0
 46
0.0
 47
0.001
 48
0.001
140
0.08
141
0.09
142
0.0
143
25.4
144
1.0
145
0.0
146
1.0
147
0.09
 71
1.0
 72
0.0
 73
1
 74
1
 75
0
 76
0
 77
0
 78
4
 79
1
170
1
171
2
172
0
173
0
174
0
175
0
176
0
177
0
178
0
270
2
179
3
271
3
272
3
273
2
274
2
275
0
280
0
281
0
282
0
283
1
284
4
285
0
286
0
287
3
288
0
340
11
278
46
341
207
342
207
343
207
344
207
  0
ENDTAB
  0
ENDSEC
  0
SECTION
  2
BLOCKS
  0
BLOCK
  5
20
100
AcDbEntity
  8
0
100
AcDbBlockBegin
  2
*Model_Space
 70
0
 10
0.0
 20
0.0
 30
0.0
  3
*Model_Space
  1

  0
ENDBLK
  5
21
100
AcDbEntity
  8
0
100
AcDbBlockEnd
  0
BLOCK
  5
1C
100
AcDbEntity
  8
0
100
AcDbBlockBegin
  2
*Paper_Space
 70
0
 10
0.0
 20
0.0
 30
0.0
  3
*Paper_Space
  1

  0
ENDBLK
  5
1D
100
AcDbEntity
  8
0
100
AcDbBlockEnd
  0
BLOCK
  5
209
100
AcDbEntity
  8
0
100
AcDbBlockBegin
  2
_FILLED
 70
64
 10
0.0
 20
0.0
  3
_FILLED
  1

  0
SOLID
  5
20A
100
AcDbEntity
  8
0
  6
BYBLOCK
 62
0
100
AcDbTrace
 10
0.0
 20
0.0
 11
-1.0
 21
0.2
 12
-1.0
 22
-0.2
 13
-1.0
 23
-0.2
  0
ENDBLK
  5
20B
100
AcDbEntity
  8
0
  6
BYBLOCK
 62
0
100
AcDbBlockEnd
  0
ENDSEC
  0
SECTION
  2
ENTITIES
  0
LINE
  5
20C
100
AcDbEntity
  8
0
100
AcDbLine
 62
7
  6
CONTINUOUS
 10
8.3763833554
 20
9.6337452321
 11
8.2729072892
 21
9.498864901
  0
LINE
  5
20D
100
AcDbEntity
  8
0
100
AcDbLine
 62
7
  6
CONTINUOUS
 10
8.7730902116
 20
9.3294038609
 11
8.6696141454
 21
9.1945235298
  0
LINE
  5
20E
100
AcDbEntity
  8
0
100
AcDbLine
 62
9
  6
CONTINUOUS
 10
9.3681504959
 20
9.622891804
 11
9.3681504959
 21
10.122891804
  0
LINE
  5
20F
100
AcDbEntity
  8
0
100
AcDbLine
 62
7
  6
CONTINUOUS
 10
13.093000235
 20
7.801891804
 11
10.813000235
 21
7.801891804
  0
LINE
  5
210
100
AcDbEntity
  8
0
100
AcDbLine
 62
9
  6
CONTINUOUS
 10
10.7948883918
 20
7.9190928629
 11
13.1111120782
 21
7.9190928629
  0
LINE
  5
211
100
AcDbEntity
  8
0
100
AcDbLine
 62
7
  6
CONTINUOUS
 10
8.6275512518
 20
9.1889816007
 11
8.2784492183
 21
9.4568020074
  0
LINE
  5
212
100
AcDbEntity
  8
0
100
AcDbLine
 62
9
  6
CONTINUOUS
 10
8.6696141454
 20
9.1945235298
 11
8.2729072892
 21
9.498864901
  0
LINE
  5
213
100
AcDbEntity
  8
0
100
AcDbLine
 62
9
  6
CONTINUOUS
 10
10.9721551627
 20
8.069934402
 11
12.9338453074
 21
8.069934402
  0
LINE
  5
214
100
AcDbEntity
  8
0
100
AcDbLine
 62
9
  6
CONTINUOUS
 10
8.7730902116
 20
9.3294038609
 11
8.3763833554
 21
9.6337452321
  0
LINE
  5
215
100
AcDbEntity
  8
0
100
AcDbLine
 62
9
  6
CONTINUOUS
 10
10.9641094839
 20
8.1454671405
 11
12.9418909861
 21
8.1454671405
  0
LINE
  5
216
100
AcDbEntity
  8
0
100
AcDbLine
 62
7
  6
CONTINUOUS
 10
12.903000235
 20
8.226891804
 11
11.0030168522
 21
8.226891804
  0
LINE
  5
217
100
AcDbEntity
  8
0
100
AcDbLine
 62
7
  6
CONTINUOUS
 10
11.238000235
 20
8.822891804
 11
12.668000235
 21
8.822891804
  0
LINE
  5
218
100
AcDbEntity
  8
0
100
AcDbLine
 62
7
  6
CONTINUOUS
 10
11.238000235
 20
8.822891804
 11
11.238000235
 21
9.562891804
  0
LINE
  5
219
100
AcDbEntity
  8
0
100
AcDbLine
 62
7
  6
CONTINUOUS
 10
11.348000235
 20
8.226891804
 11
11.348000235
 21
8.822891804
  0
LINE
  5
21A
100
AcDbEntity
  8
0
100
AcDbLine
 62
7
  6
CONTINUOUS
 10
11.178000235
 20
9.622891804
 11
9.3681504959
 21
9.622891804
  0
LINE
  5
21B
100
AcDbEntity
  8
0
100
AcDbLine
 62
7
  6
CONTINUOUS
 10
11.1855385388
 20
10.122891804
 11
9.3681504959
 21
10.122891804
  0
LINE
  5
21C
100
AcDbEntity
  8
0
100
AcDbLine
 62
7
  6
CONTINUOUS
 10
11.953000235
 20
10.217891804
 11
11.294913191
 21
10.2009510546
  0
LINE
  5
21D
100
AcDbEntity
  8
0
100
AcDbLine
 62
9
  6
CONTINUOUS
 10
12.668000235
 20
10.1410305226
 11
11.2525534758
 21
10.1410305226
  0
LINE
  5
21E
100
AcDbEntity
  8
0
100
AcDbLine
 62
9
  6
CONTINUOUS
 10
12.6110872791
 20
10.2009510546
 11
11.294913191
 21
10.2009510546
  0
LINE
  5
21F
100
AcDbEntity
  8
0
100
AcDbLine
 62
7
  6
CONTINUOUS
 10
11.953000235
 20
10.217891804
 11
12.6110872791
 21
10.2009510546
  0
LINE
  5
220
100
AcDbEntity
  8
0
100
AcDbLine
 62
7
  6
CONTINUOUS
 10
12.558000235
 20
8.226891804
 11
12.558000235
 21
8.822891804
  0
LINE
  5
221
100
AcDbEntity
  8
0
100
AcDbLine
 62
7
  6
CONTINUOUS
 10
12.668000235
 20
8.822891804
 11
12.668000235
 21
10.1410305226
  0
ARC
  5
222
100
AcDbEntity
  8
0
100
AcDbCircle
 62
7
  6
CONTINUOUS
 10
9.3681504959
 20
8.872891804
 40
1.25
100
AcDbArc
 50
90.0
 51
142.5056825053
  0
ARC
  5
223
100
AcDbEntity
  8
0
100
AcDbCircle
 62
7
  6
CONTINUOUS
 10
9.3681504959
 20
8.872891804
 40
0.75
100
AcDbArc
 50
90.0
 51
142.5056825053
  0
ARC
  5
224
100
AcDbEntity
  8
0
100
AcDbCircle
 62
7
  6
CONTINUOUS
 10
13.2016712943
 20
8.2050981573
 40
0.3
100
AcDbArc
 50
206.7787105735
 51
252.4304030484
  0
ARC
  5
225
100
AcDbEntity
  8
0
100
AcDbCircle
 62
7
  6
CONTINUOUS
 10
10.7043291758
 20
8.2050981573
 40
0.3
100
AcDbArc
 50
287.5695969516
 51
333.2212894265
  0
ARC
  5
226
100
AcDbEntity
  8
0
100
AcDbCircle
 62
7
  6
CONTINUOUS
 10
12.9963380377
 20
8.1014726115
 40
0.07
100
AcDbArc
 50
141.0609539253
 51
206.7787105735
  0
ARC
  5
227
100
AcDbEntity
  8
0
100
AcDbCircle
 62
7
  6
CONTINUOUS
 10
10.9096624324
 20
8.1014726115
 40
0.07
100
AcDbArc
 50
333.2212894265
 51
38.9390460747
  0
ARC
  5
228
100
AcDbEntity
  8
0
100
AcDbCircle
 62
7
  6
CONTINUOUS
 10
11.298000235
 20
10.1410305226
 40
0.06
100
AcDbArc
 50
92.9492120675
 51
159.5833739648
  0
ARC
  5
229
100
AcDbEntity
  8
0
100
AcDbCircle
 62
7
  6
CONTINUOUS
 10
12.608000235
 20
10.1410305226
 40
0.06
100
AcDbArc
 50
0.0
 51
87.0507879325
  0
ARC
  5
22A
100
AcDbEntity
  8
0
100
AcDbCircle
 62
7
  6
CONTINUOUS
 10
13.093000235
 20
7.861891804
 40
0.06
100
AcDbArc
 50
270.0
 51
72.4304030484
  0
ARC
  5
22B
100
AcDbEntity
  8
0
100
AcDbCircle
 62
7
  6
CONTINUOUS
 10
10.813000235
 20
7.861891804
 40
0.06
100
AcDbArc
 50
107.5695969516
 51
270.0
  0
ARC
  5
22C
100
AcDbEntity
  8
0
100
AcDbCircle
 62
7
  6
CONTINUOUS
 10
11.178000235
 20
9.562891804
 40
0.06
100
AcDbArc
 50
0.0
 51
90.0000000002
  0
ARC
  5
22D
100
AcDbEntity
  8
0
100
AcDbCircle
 62
7
  6
CONTINUOUS
 10
11.1855385388
 20
10.182891804
 40
0.06
100
AcDbArc
 50
270.0
 51
339.5833739639
  0
ARC
  5
22E
100
AcDbEntity
  8
0
100
AcDbCircle
 62
7
  6
CONTINUOUS
 10
12.903000235
 20
8.176891804
 40
0.05
100
AcDbArc
 50
321.0609539253
 51
90.0
  0
ARC
  5
22F
100
AcDbEntity
  8
0
100
AcDbCircle
 62
7
  6
CONTINUOUS
 10
11.003000235
 20
8.176891804
 40
0.05
100
AcDbArc
 50
90.0
 51
218.9390460747
  0
ARC
  5
230
100
AcDbEntity
  8
0
100
AcDbCircle
 62
7
  6
CONTINUOUS
 10
8.645811734
 20
9.2127840121
 40
0.03
100
AcDbArc
 50
232.5056825053
 51
322.5056825053
  0
ARC
  5
231
100
AcDbEntity
  8
0
100
AcDbCircle
 62
7
  6
CONTINUOUS
 10
8.2967097006
 20
9.4806044188
 40
0.03
100
AcDbArc
 50
142.5056825053
 51
232.5056825053
  0
SPLINE
  5
232
100
AcDbEntity
  8
0
100
AcDbSpline
 62
9
  6
CONTINUOUS
 70
0
 71
3
 72
42
 73
38
 74
0
 42
0.0000001
 43
0.0000001
 44
0.0000000001
 40
0.0
 40
0.0
 40
0.0
 40
0.0
 40
0.0000333953
 40
0.0001328989
 40
0.0002983277
 40
0.0005294984
 40
0.000826228
 40
0.0011883334
 40
0.0021079392
 40
0.0032868521
 40
0.0047236087
 40
0.0064167466
 40
0.0083648037
 40
0.0130196711
 40
0.0186689904
 40
0.025283252
 40
0.0328322431
 40
0.0412858279
 40
0.0506137883
 40
0.0717573747
 40
0.0959799641
 40
0.1229993546
 40
0.1525456199
 40
0.18435842
 40
0.2181863166
 40
0.2537964543
 40
0.290966014
 40
0.3294767159
 40
0.4096464452
 40
0.4508855811
 40
0.4925924543
 40
0.5765025025
 40
0.618260038
 40
0.6595770179
 40
0.7400093461
 40
0.8859613268
 40
1.0
 40
1.0
 40
1.0
 40
1.0
 10
11.238000235
 20
9.562891804
 30
0.0
 10
11.238001382
 20
9.562898275
 30
0.0
 10
11.2380132115
 20
9.5629220551
 30
0.0
 10
11.2380310041
 20
9.5629778079
 30
0.0
 10
11.2380664321
 20
9.5630689436
 30
0.0
 10
11.238113152
 20
9.5631970707
 30
0.0
 10
11.2381741603
 20
9.5633612698
 30
0.0
 10
11.2382816659
 20
9.5636526795
 30
0.0
 10
11.238449213
 20
9.564106999
 30
0.0
 10
11.238689221
 20
9.5647599859
 30
0.0
 10
11.2389810925
 20
9.5655560932
 30
0.0
 10
11.2393242072
 20
9.5664946218
 30
0.0
 10
11.2398833651
 20
9.5680284483
 30
0.0
 10
11.2407060695
 20
9.5702948469
 30
0.0
 10
11.2418350457
 20
9.5734269448
 30
0.0
 10
11.2431453237
 20
9.5770990735
 30
0.0
 10
11.2446254279
 20
9.5812965008
 30
0.0
 10
11.2462635178
 20
9.5860044311
 30
0.0
 10
11.248748531
 20
9.593250177
 30
0.0
 10
11.2521603932
 20
9.603458518
 30
0.0
 10
11.2565088104
 20
9.6170236479
 30
0.0
 10
11.2611472117
 20
9.6322307839
 30
0.0
 10
11.2659511334
 20
9.6489469093
 30
0.0
 10
11.2707955579
 20
9.667042522
 30
0.0
 10
11.2755567351
 20
9.686391849
 30
0.0
 10
11.2801178905
 20
9.7068710105
 30
0.0
 10
11.2843613233
 20
9.7283592287
 30
0.0
 10
11.2895161276
 20
9.758594934
 30
0.0
 10
11.2935079161
 20
9.7898325898
 30
0.0
 10
11.2961224046
 20
9.8218295674
 30
0.0
 10
11.2977853223
 20
9.8546271941
 30
0.0
 10
11.2978513655
 20
9.8875915606
 30
0.0
 10
11.2963558217
 20
9.9204223594
 30
0.0
 10
11.2938652597
 20
9.9525072316
 30
0.0
 10
11.2874234551
 20
10.0048218483
 30
0.0
 10
11.2738638264
 20
10.0705475074
 30
0.0
 10
11.2595056425
 20
10.1196930533
 30
0.0
 10
11.2525534758
 20
10.1410305226
 30
0.0
  0
SPLINE
  5
233
100
AcDbEntity
  8
0
100
AcDbSpline
 62
9
  6
CONTINUOUS
 70
0
 71
3
 72
23
 73
19
 74
0
 42
0.0000001
 43
0.0000001
 44
0.0000000001
 40
0.0
 40
0.0
 40
0.0
 40
0.0
 40
0.2503654545
 40
0.4596599604
 40
0.6310058216
 40
0.7033050644
 40
0.7671010232
 40
0.8226917984
 40
0.8703655291
 40
0.9103864849
 40
0.9429064057
 40
0.9680277001
 40
0.9778454265
 40
0.9858511606
 40
0.9920572653
 40
0.9964760085
 40
0.9991195618
 40
1.0
 40
1.0
 40
1.0
 40
1.0
 10
11.2525534758
 20
10.1410305226
 30
0.0
 10
11.2514786934
 20
10.1426799797
 30
0.0
 10
11.2495718611
 20
10.1457525363
 30
0.0
 10
11.2471537663
 20
10.1500869395
 30
0.0
 10
11.245541864
 20
10.1532638885
 30
0.0
 10
11.2445047574
 20
10.1554477601
 30
0.0
 10
11.2438806849
 20
10.1568198733
 30
0.0
 10
11.2433548493
 20
10.1580237517
 30
0.0
 10
11.2429174941
 20
10.1590621374
 30
0.0
 10
11.2425583722
 20
10.1599365726
 30
0.0
 10
11.2422721321
 20
10.1606491893
 30
0.0
 10
11.2420786181
 20
10.161143117
 30
0.0
 10
11.2419572274
 20
10.1614582027
 30
0.0
 10
11.2418905943
 20
10.1616350923
 30
0.0
 10
11.2418380418
 20
10.1617716538
 30
0.0
 10
11.241804342
 20
10.1618708807
 30
0.0
 10
11.2417784746
 20
10.1619271211
 30
0.0
 10
11.241773608
 20
10.1619556757
 30
0.0
 10
11.2417693869
 20
10.1619611633
 30
0.0
  0
SPLINE
  5
234
100
AcDbEntity
  8
0
100
AcDbSpline
 62
9
  6
CONTINUOUS
 70
0
 71
3
 72
15
 73
11
 74
0
 42
0.0000001
 43
0.0000001
 44
0.0000000001
 40
0.0
 40
0.0
 40
0.0
 40
0.0
 40
0.1153752215
 40
0.234256232
 40
0.3565502053
 40
0.4821215371
 40
0.6102861482
 40
0.740077955
 40
0.870495632
 40
1.0
 40
1.0
 40
1.0
 40
1.0
 10
11.2525534758
 20
10.1410305226
 30
0.0
 10
11.2521851604
 20
10.1378024073
 30
0.0
 10
11.2507491277
 20
10.1313106196
 30
0.0
 10
11.2467177887
 20
10.1220536884
 30
0.0
 10
11.2409071149
 20
10.1134482989
 30
0.0
 10
11.233527084
 20
10.1057854999
 30
0.0
 10
11.2248314025
 20
10.099301489
 30
0.0
 10
11.2150976574
 20
10.0942140568
 30
0.0
 10
11.2046575194
 20
10.0906965583
 30
0.0
 10
11.1974073324
 20
10.0894558157
 30
0.0
 10
11.1937747267
 20
10.0891327062
 30
0.0
  0
SPLINE
  5
235
100
AcDbEntity
  8
0
100
AcDbSpline
 62
9
  6
CONTINUOUS
 70
0
 71
3
 72
46
 73
42
 74
0
 42
0.0000001
 43
0.0000001
 44
0.0000000001
 40
0.0
 40
0.0
 40
0.0
 40
0.0
 40
0.0000316232
 40
0.0001260352
 40
0.0002830709
 40
0.0005025653
 40
0.0007843536
 40
0.0011282708
 40
0.0020018328
 40
0.0031219334
 40
0.0044872556
 40
0.0060964831
 40
0.0079483007
 40
0.010041394
 40
0.0123744493
 40
0.0177526224
 40
0.0240591489
 40
0.0312676999
 40
0.0393520535
 40
0.0482861059
 40
0.0580435058
 40
0.0685950926
 40
0.0919595939
 40
0.1181405127
 40
0.146906118
 40
0.1780373417
 40
0.2113250443
 40
0.2465651927
 40
0.3221030035
 40
0.3620135497
 40
0.4030493614
 40
0.4449867735
 40
0.4875536442
 40
0.5304658735
 40
0.573438928
 40
0.6161725355
 40
0.6583710309
 40
0.7401258987
 40
0.8168040212
 40
0.8867533926
 40
1.0
 40
1.0
 40
1.0
 40
1.0
 10
11.178000235
 20
9.622891804
 30
0.0
 10
11.1780039269
 20
9.6228953231
 30
0.0
 10
11.1780096517
 20
9.6229160066
 30
0.0
 10
11.1780333204
 20
9.6229544272
 30
0.0
 10
11.1780653825
 20
9.6230237658
 30
0.0
 10
11.1781135485
 20
9.6231181937
 30
0.0
 10
11.1781739527
 20
9.6232404756
 30
0.0
 10
11.1782816893
 20
9.6234569201
 30
0.0
 10
11.1784490338
 20
9.6237947851
 30
0.0
 10
11.1786891591
 20
9.6242804031
 30
0.0
 10
11.1789811653
 20
9.6248727457
 30
0.0
 10
11.1793246176
 20
9.6255712967
 30
0.0
 10
11.1797189743
 20
9.6263756191
 30
0.0
 10
11.1801637284
 20
9.6272852496
 30
0.0
 10
11.1808567475
 20
9.6287065821
 30
0.0
 10
11.1818439624
 20
9.6307405056
 30
0.0
 10
11.1831648931
 20
9.6334865102
 30
0.0
 10
11.1846615746
 20
9.6366322791
 30
0.0
 10
11.1863231741
 20
9.6401688368
 30
0.0
 10
11.1881387895
 20
9.6440871711
 30
0.0
 10
11.1900974967
 20
9.6483776985
 30
0.0
 10
11.1929815706
 20
9.654804097
 30
0.0
 10
11.1968513894
 20
9.6636912462
 30
0.0
 10
11.2016985924
 20
9.6753551685
 30
0.0
 10
11.2067802457
 20
9.688275783
 30
0.0
 10
11.2119699089
 20
9.7023819896
 30
0.0
 10
11.2171429281
 20
9.7176024413
 30
0.0
 10
11.2240096092
 20
9.7398023667
 30
0.0
 10
11.2300941466
 20
9.7633549517
 30
0.0
 10
11.2350869645
 20
9.7880995579
 30
0.0
 10
11.2382520671
 20
9.8076701845
 30
0.0
 10
11.2406429647
 20
9.8277822889
 30
0.0
 10
11.2421955421
 20
9.848280372
 30
0.0
 10
11.2428383458
 20
9.8689949017
 30
0.0
 10
11.2425394278
 20
9.8897438023
 30
0.0
 10
11.2413347538
 20
9.9103447582
 30
0.0
 10
11.238572879
 20
9.9370937694
 30
0.0
 10
11.2332522228
 20
9.969050565
 30
0.0
 10
11.2244828667
 20
10.004856361
 30
0.0
 10
11.211955174
 20
10.0448748034
 30
0.0
 10
11.2011008196
 20
10.0724014326
 30
0.0
 10
11.1937747268
 20
10.0891327061
 30
0.0
  0
SPLINE
  5
236
100
AcDbEntity
  8
0
100
AcDbSpline
 62
9
  6
CONTINUOUS
 70
0
 71
3
 72
32
 73
28
 74
0
 42
0.0000001
 43
0.0000001
 44
0.0000000001
 40
0.0
 40
0.0
 40
0.0
 40
0.0
 40
0.2358426278
 40
0.4395930435
 40
0.5294579772
 40
0.6112869447
 40
0.685180614
 40
0.7512284822
 40
0.8094885379
 40
0.8599883558
 40
0.9027297874
 40
0.9211911338
 40
0.9377133131
 40
0.952296279
 40
0.9649396268
 40
0.9756425932
 40
0.9844040569
 40
0.988056284
 40
0.991222552
 40
0.9939026206
 40
0.9960962268
 40
0.9978030856
 40
0.99902289
 40
0.9994500449
 40
0.999755311
 40
0.999938644
 40
1.0
 40
1.0
 40
1.0
 40
1.0
 10
11.1937747268
 20
10.0891327061
 30
0.0
 10
11.1926729797
 20
10.0916494683
 30
0.0
 10
11.1907861703
 20
10.0964160688
 30
0.0
 10
11.1889367196
 20
10.1023054018
 30
0.0
 10
11.187845499
 20
10.1065413575
 30
0.0
 10
11.1872194127
 20
10.1093333656
 30
0.0
 10
11.1867311834
 20
10.1118706231
 30
0.0
 10
11.1863604156
 20
10.1141498254
 30
0.0
 10
11.1860865695
 20
10.1161678974
 30
0.0
 10
11.1858898281
 20
10.1179218638
 30
0.0
 10
11.1857667064
 20
10.1192173155
 30
0.0
 10
11.1856917979
 20
10.1201196442
 30
0.0
 10
11.1856485496
 20
10.1206954328
 30
0.0
 10
11.1856143261
 20
10.1212039173
 30
0.0
 10
11.1855880792
 20
10.1216449832
 30
0.0
 10
11.1855687476
 20
10.1220185127
 30
0.0
 10
11.1855568974
 20
10.122287544
 30
0.0
 10
11.1855500096
 20
10.1224689038
 30
0.0
 10
11.185546245
 20
10.1225794948
 30
0.0
 10
11.1855433815
 20
10.1226730939
 30
0.0
 10
11.1855414153
 20
10.1227497687
 30
0.0
 10
11.1855398723
 20
10.1228092855
 30
0.0
 10
11.1855394852
 20
10.122848584
 30
0.0
 10
11.1855386082
 20
10.1228710041
 30
0.0
 10
11.1855392619
 20
10.1228821943
 30
0.0
 10
11.1855377227
 20
10.1228876739
 30
0.0
 10
11.1855391786
 20
10.1228914854
 30
0.0
 10
11.1855385388
 20
10.122891804
 30
0.0
  0
ENDSEC
  0
SECTION
  2
OBJECTS
  0
DICTIONARY
  5
C
100
AcDbDictionary
280
0
281
1
  3
ACAD_GROUP
350
D
  3
ACAD_MLINESTYLE
350
17
  3
ACAD_LAYOUT
350
1A
  3
ACAD_PLOTSETTINGS
350
19
  3
ACAD_PLOTSTYLENAME
350
E
  0
DICTIONARY
  5
D
102
{ACAD_REACTORS
330
C
102
}
100
AcDbDictionary
280
0
281
1
  0
ACDBDICTIONARYWDFLT
  5
E
102
{ACAD_REACTORS
330
C
102
}
100
AcDbDictionary
281
1
  3
Normal
350
F
100
AcDbDictionaryWithDefault
340
F
  0
DICTIONARY
  5
17
102
{ACAD_REACTORS
330
C
102
}
100
AcDbDictionary
280
0
281
1
  3
Standard
350
18
  0
DICTIONARY
  5
19
102
{ACAD_REACTORS
330
C
102
}
100
AcDbDictionary
281
1
  0
DICTIONARY
  5
1A
102
{ACAD_REACTORS
330
C
102
}
100
AcDbDictionary
281
1
  3
Model
350
237
  3
Layout1
350
238
  0
ACDBPLACEHOLDER
  5
F
102
{ACAD_REACTORS
330
E
102
}
  0
MLINESTYLE
  5
18
102
{ACAD_REACTORS
330
17
102
}
100
AcDbMlineStyle
  2
STANDARD
 70
0
  3

 62
256
 51
90.0
 52
90.0
 71
2
 49
0.5
 62
256
  6
BYLAYER
 49
-0.5
 62
256
  6
BYLAYER
  0
LAYOUT
  5
237
102
{ACAD_REACTORS
330
1A
102
}
100
AcDbPlotSettings
  1

  2
none_device
  4
ANSI_C_(22.00_x_17.00_Inches)
  6

 40
0.0
 41
0.0
 42
0.0
 43
0.0
 44
558.8
 45
431.8
 46
0.0
 47
0.0
 48
0.0
 49
0.0
140
0.0
141
0.0
142
1.0
143
1.0
 70
1024
 72
0
 73
0
 74
0
  7

 75
0
147
1.0
148
0.0
149
0.0
100
AcDbLayout
  1
Model
 70
0
 71
0
 10
0.0
 20
0.0
 11
22.0
 21
17.0
 12
0.0
 22
0.0
 32
0.0
 14
0.0
 24
0.0
 34
0.0
 15
0.0
 25
0.0
 35
0.0
146
0.0
 13
0.0
 23
0.0
 33
0.0
 16
1.0
 26
0.0
 36
0.0
 17
0.0
 27
1.0
 37
0.0
 76
0
330
205
345
0
346
0
  0
LAYOUT
  5
238
102
{ACAD_REACTORS
330
1A
102
}
100
AcDbPlotSettings
  1

  2
none_device
  4
ANSI_C_(22.00_x_17.00_Inches)
  6

 40
0.0
 41
0.0
 42
0.0
 43
0.0
 44
558.8
 45
431.8
 46
0.0
 47
0.0
 48
0.0
 49
0.0
140
0.0
141
0.0
142
1.0
143
1.0
 70
0
 72
0
 73
0
 74
0
  7

 75
0
147
1.0
148
0.0
149
0.0
100
AcDbLayout
  1
Layout1
 70
0
 71
1
 10
0.0
 20
0.0
 11
22.0
 21
17.0
 12
0.0
 22
0.0
 32
0.0
 14
0.0
 24
0.0
 34
0.0
 15
0.0
 25
0.0
 35
0.0
146
0.0
 13
0.0
 23
0.0
 33
0.0
 16
1.0
 26
0.0
 36
0.0
 17
0.0
 27
1.0
 37
0.0
 76
0
330
206
345
0
346
0
  0
ENDSEC
  0
EOF
