999
DXF file: E:\BT Custom\CADOUTPUT\_TOP.dxf
999
Pro/ENGINEER 2018400 by Parametric Technology Corporation
  0
SECTION
  2
HEADER
  9
$ACADVER
  1
AC1018
  9
$DWGCODEPAGE
  3
ANSI_1252
  9
$EXTMAX
 10
22.0
 20
17.0
 30
0.0
  9
$EXTMIN
 10
0.0
 20
0.0
 30
0.0
  9
$LIMMIN
 10
0.0
 20
0.0
  9
$LIMMAX
 10
22.0
 20
17.0
  9
$VIEWCTR
 10
11.0
 20
8.5
  9
$VIEWSIZE
 40
17.0
  9
$CLAYER
  8
0
  9
$LTSCALE
 40
1.21
  9
$CELTYPE
  6
BYLAYER
  9
$DIMSCALE
 40
1.0
  9
$DIMASZ
 40
0.1
  9
$DIMEXO
 40
0.0625
  9
$DIMDLI
 40
0.836
  9
$DIMEXE
 40
0.125
  9
$DIMCEN
 40
0.198
  9
$DIMLFAC
 40
1.0
  9
$DIMBLK
  1
_FILLED
  9
$DIMALT
 70
1
  9
$DIMALTD
 70
2
  9
$DIMALTTD
 70
2
  9
$DIMALTF
 40
25.4
  9
$DIMTXT
 40
0.08
  9
$DIMTOL
 70
1
  9
$DIMLIM
 70
0
  9
$DIMTFAC
 40
1.0
  9
$DIMTP
 40
0.001
  9
$DIMTM
 40
0.001
  9
$DIMGAP
 40
0.09
  9
$DIMDSEP
 70
46
  9
$AUNITS
 70
0
  9
$PDMODE
 70
3
  9
$PDSIZE
 40
0.06
  9
$HANDSEED
  5
228
  9
$TILEMODE
 70
1
  9
$MEASUREMENT
 70
0
  9
$INSUNITS
 70
1
  0
ENDSEC
  0
SECTION
  2
CLASSES
  0
CLASS
  1
ACDBDICTIONARYWDFLT
  2
AcDbDictionaryWithDefault
  3
AutoCAD 2000
 90
0
 91
1
280
0
281
0
  0
CLASS
  1
ACDBPLACEHOLDER
  2
AcDbPlaceHolder
  3
AutoCAD 2000
 90
0
 91
1
280
0
281
0
  0
CLASS
  1
LAYOUT
  2
AcDbLayout
  3
AutoCAD 2000
 90
0
 91
0
280
0
281
0
  0
ENDSEC
  0
SECTION
  2
TABLES
  0
TABLE
  2
VPORT
  5
8
100
AcDbSymbolTable
 70
2
  0
VPORT
  5
1F4
100
AcDbSymbolTableRecord
100
AcDbViewportTableRecord
  2
*ACTIVE
 70
0
 10
0.0
 20
0.0
 11
1.0
 21
1.0
 12
11.0
 22
8.5
 13
0.0
 23
0.0
 14
1.0
 24
1.0
 15
0.0
 25
0.0
 16
0.0
 26
0.0
 36
1.0
 17
0.0
 27
0.0
 37
0.0
 40
17.0
 41
1.2941176471
 42
50.0
 43
0.0
 44
0.0
 50
0.0
 51
0.0
 71
0
 72
100
 73
1
 74
1
 75
0
 76
0
 77
0
 78
0
  0
ENDTAB
  0
TABLE
  2
LTYPE
  5
5
100
AcDbSymbolTable
 70
6
  0
LTYPE
  5
14
100
AcDbSymbolTableRecord
100
AcDbLinetypeTableRecord
  2
BYBLOCK
 70
0
  3

 72
65
 73
0
 40
0.0
  0
LTYPE
  5
15
100
AcDbSymbolTableRecord
100
AcDbLinetypeTableRecord
  2
BYLAYER
 70
0
  3

 72
65
 73
0
 40
0.0
  0
LTYPE
  5
16
100
AcDbSymbolTableRecord
100
AcDbLinetypeTableRecord
  2
CONTINUOUS
 70
64
  3
Solid line
 72
65
 73
0
 40
0.0
  0
LTYPE
  5
1F5
100
AcDbSymbolTableRecord
100
AcDbLinetypeTableRecord
  2
CENTER
 70
64
  3
____ _ ____ _ ____ _ ____ _ ____ _ ____ _ ____
 72
65
 73
4
 40
0.6
 49
0.375
 74
0
 49
-0.075
 74
0
 49
0.075
 74
0
 49
-0.075
 74
0
  0
LTYPE
  5
1F6
100
AcDbSymbolTableRecord
100
AcDbLinetypeTableRecord
  2
HIDDEN
 70
64
  3
- - - - - - - - - - - - - - - - - - - -
 72
65
 73
2
 40
0.2
 49
0.1
 74
0
 49
-0.1
 74
0
  0
LTYPE
  5
1F7
100
AcDbSymbolTableRecord
100
AcDbLinetypeTableRecord
  2
PHANTOM
 70
64
  3
_____ _ _ _____ _ _ _____ _ _ _____
 72
65
 73
6
 40
0.8
 49
0.45
 74
0
 49
-0.05
 74
0
 49
0.1
 74
0
 49
-0.05
 74
0
 49
0.1
 74
0
 49
-0.05
 74
0
  0
LTYPE
  5
1F8
100
AcDbSymbolTableRecord
100
AcDbLinetypeTableRecord
  2
DOT
 70
64
  3
. . . . . . . . . . . . . . . . . . . .
 72
65
 73
2
 40
0.2
 49
0.1
 74
0
 49
-0.1
 74
0
  0
LTYPE
  5
1F9
100
AcDbSymbolTableRecord
100
AcDbLinetypeTableRecord
  2
DASHED
 70
64
  3
- - - - - - - - - - - - - - - - - - - -
 72
65
 73
2
 40
0.2
 49
0.1
 74
0
 49
-0.1
 74
0
  0
ENDTAB
  0
TABLE
  2
LAYER
  5
2
100
AcDbSymbolTable
 70
36
  0
LAYER
  5
10
100
AcDbSymbolTableRecord
100
AcDbLayerTableRecord
  2
0
 70
0
 62
7
  6
CONTINUOUS
370
-3
390
F
  0
LAYER
  5
1FA
100
AcDbSymbolTableRecord
100
AcDbLayerTableRecord
  2
DEFAULT_1
 70
0
 62
7
  6
CENTER
370
-3
390
F
  0
LAYER
  5
1FB
100
AcDbSymbolTableRecord
100
AcDbLayerTableRecord
  2
DEFAULT_2
 70
0
 62
8
  6
HIDDEN
370
-3
390
F
  0
LAYER
  5
1FC
100
AcDbSymbolTableRecord
100
AcDbLayerTableRecord
  2
DEFAULT_3
 70
0
 62
7
  6
PHANTOM
370
-3
390
F
  0
LAYER
  5
1FD
100
AcDbSymbolTableRecord
100
AcDbLayerTableRecord
  2
ALL_FEATURES
 70
0
 62
7
  6
CONTINUOUS
370
-3
390
F
  0
LAYER
  5
1FE
100
AcDbSymbolTableRecord
100
AcDbLayerTableRecord
  2
AXES_FEATURES
 70
0
 62
7
  6
CONTINUOUS
370
-3
390
F
  0
LAYER
  5
1FF
100
AcDbSymbolTableRecord
100
AcDbLayerTableRecord
  2
DEFAULT_COORDINATE_SYSTEM
 70
0
 62
7
  6
CONTINUOUS
370
-3
390
F
  0
LAYER
  5
200
100
AcDbSymbolTableRecord
100
AcDbLayerTableRecord
  2
DEFAULT_DATUM_AXES
 70
0
 62
7
  6
CONTINUOUS
370
-3
390
F
  0
LAYER
  5
201
100
AcDbSymbolTableRecord
100
AcDbLayerTableRecord
  2
DEFAULT_DATUM_PLANES
 70
0
 62
7
  6
CONTINUOUS
370
-3
390
F
  0
LAYER
  5
202
100
AcDbSymbolTableRecord
100
AcDbLayerTableRecord
  2
DIMENSIONS
 70
0
 62
7
  6
CONTINUOUS
370
-3
390
F
  0
ENDTAB
  0
TABLE
  2
STYLE
  5
3
100
AcDbSymbolTable
 70
1
  0
STYLE
  5
11
100
AcDbSymbolTableRecord
100
AcDbTextStyleTableRecord
  2
STANDARD
 70
0
 40
0.0
 41
0.8
 50
0.0
 71
0
 42
0.2
  3
txt
  4

  0
STYLE
  5
203
100
AcDbSymbolTableRecord
100
AcDbTextStyleTableRecord
  2
TEXTSTYLE_1
 70
0
 40
0.0
 41
0.8
 50
0.0
 71
0
 42
0.2
  3
gdt
  4

  0
ENDTAB
  0
TABLE
  2
VIEW
  5
6
100
AcDbSymbolTable
 70
0
  0
ENDTAB
  0
TABLE
  2
UCS
  5
7
100
AcDbSymbolTable
 70
0
  0
ENDTAB
  0
TABLE
  2
APPID
  5
9
100
AcDbSymbolTable
 70
1
  0
APPID
  5
204
100
AcDbSymbolTableRecord
100
AcDbRegAppTableRecord
  2
ACAD
 70
0
  0
ENDTAB
  0
TABLE
  2
BLOCK_RECORD
  5
1
100
AcDbSymbolTable
 70
0
  0
BLOCK_RECORD
  5
205
100
AcDbSymbolTableRecord
100
AcDbBlockTableRecord
  2
*Model_Space
  0
BLOCK_RECORD
  5
206
100
AcDbSymbolTableRecord
100
AcDbBlockTableRecord
  2
*Paper_Space
  0
BLOCK_RECORD
  5
207
100
AcDbSymbolTableRecord
100
AcDbBlockTableRecord
  2
_FILLED
  0
ENDTAB
  0
TABLE
  2
DIMSTYLE
  5
A
100
AcDbSymbolTable
 70
1
100
AcDbDimStyleTable
 71
0
  0
DIMSTYLE
105
208
100
AcDbSymbolTableRecord
100
AcDbDimStyleTableRecord
  2
STANDARD
 70
0
  3

  4

 40
1.0
 41
0.1
 42
0.0625
 43
0.38
 44
0.125
 45
0.0
 46
0.0
 47
0.001
 48
0.001
140
0.08
141
0.09
142
0.0
143
25.4
144
1.0
145
0.0
146
1.0
147
0.09
 71
1.0
 72
0.0
 73
1
 74
1
 75
0
 76
0
 77
0
 78
4
 79
1
170
1
171
2
172
0
173
0
174
0
175
0
176
0
177
0
178
0
270
2
179
3
271
3
272
3
273
2
274
2
275
0
280
0
281
0
282
0
283
1
284
4
285
0
286
0
287
3
288
0
340
11
278
46
341
207
342
207
343
207
344
207
  0
ENDTAB
  0
ENDSEC
  0
SECTION
  2
BLOCKS
  0
BLOCK
  5
20
100
AcDbEntity
  8
0
100
AcDbBlockBegin
  2
*Model_Space
 70
0
 10
0.0
 20
0.0
 30
0.0
  3
*Model_Space
  1

  0
ENDBLK
  5
21
100
AcDbEntity
  8
0
100
AcDbBlockEnd
  0
BLOCK
  5
1C
100
AcDbEntity
  8
0
100
AcDbBlockBegin
  2
*Paper_Space
 70
0
 10
0.0
 20
0.0
 30
0.0
  3
*Paper_Space
  1

  0
ENDBLK
  5
1D
100
AcDbEntity
  8
0
100
AcDbBlockEnd
  0
BLOCK
  5
209
100
AcDbEntity
  8
0
100
AcDbBlockBegin
  2
_FILLED
 70
64
 10
0.0
 20
0.0
  3
_FILLED
  1

  0
SOLID
  5
20A
100
AcDbEntity
  8
0
  6
BYBLOCK
 62
0
100
AcDbTrace
 10
0.0
 20
0.0
 11
-1.0
 21
0.2
 12
-1.0
 22
-0.2
 13
-1.0
 23
-0.2
  0
ENDBLK
  5
20B
100
AcDbEntity
  8
0
  6
BYBLOCK
 62
0
100
AcDbBlockEnd
  0
ENDSEC
  0
SECTION
  2
ENTITIES
  0
LINE
  5
20C
100
AcDbEntity
  8
0
100
AcDbLine
 62
9
  6
CONTINUOUS
 10
11.2973183383
 20
6.1404988672
 11
10.7973183383
 21
6.1404988672
  0
LINE
  5
20D
100
AcDbEntity
  8
0
100
AcDbLine
 62
7
  6
CONTINUOUS
 10
10.7973183383
 20
8.0150473102
 11
10.7973183383
 21
5.2436090886
  0
LINE
  5
20E
100
AcDbEntity
  8
0
100
AcDbLine
 62
7
  6
CONTINUOUS
 10
11.2973183383
 20
8.0150489856
 11
11.2973183383
 21
5.2436090886
  0
LWPOLYLINE
  5
20F
100
AcDbEntity
  8
0
100
AcDbPolyline
 62
7
  6
CONTINUOUS
 90
6
 70
0
 10
11.2973181144
 20
8.01504899
 10
11.2978342822
 20
8.0229022124
 10
11.301978326
 20
8.038233094
 10
11.3095043801
 20
8.0512958399
 10
11.3193956811
 20
8.0615448776
 10
11.3303981821
 20
8.0686706561
  0
LINE
  5
210
100
AcDbEntity
  8
0
100
AcDbLine
 62
7
  6
CONTINUOUS
 10
10.7613250887
 20
8.0700341925
 11
10.7611202616
 21
8.0701233158
  0
LWPOLYLINE
  5
211
100
AcDbEntity
  8
0
100
AcDbPolyline
 62
7
  6
CONTINUOUS
 90
19
 70
0
 10
10.7613195147
 20
8.0700367844
 10
10.7639038781
 20
8.0688350487
 10
10.766767075
 20
8.067322544
 10
10.7696758559
 20
8.0655739005
 10
10.7725961266
 20
8.0635801939
 10
10.7754928199
 20
8.0613365159
 10
10.7783302463
 20
8.0588425592
 10
10.7810737901
 20
8.0561019051
 10
10.7836955565
 20
8.0531155599
 10
10.7861698875
 20
8.0498838192
 10
10.788469979
 20
8.0464094416
 10
10.7905680939
 20
8.0426978705
 10
10.792435785
 20
8.0387574744
 10
10.7940441602
 20
8.0345997781
 10
10.7953641885
 20
8.0302396777
 10
10.7963670499
 20
8.0256956339
 10
10.7970245277
 20
8.0209898364
 10
10.7973094446
 20
8.016148333
 10
10.7973195481
 20
8.0150473108
  0
ARC
  5
212
100
AcDbEntity
  8
0
100
AcDbCircle
 62
7
  6
CONTINUOUS
 10
11.0473183383
 20
8.7253486063
 40
1.2
100
AcDbArc
 50
282.0612273677
 51
257.9387726323
  0
ARC
  5
213
100
AcDbEntity
  8
0
100
AcDbCircle
 62
9
  6
CONTINUOUS
 10
11.0473183383
 20
8.7253486063
 40
1.1581118432
100
AcDbArc
 50
282.5056920016
 51
257.4943079984
  0
ARC
  5
214
100
AcDbEntity
  8
0
100
AcDbCircle
 62
7
  6
CONTINUOUS
 10
11.0473183383
 20
8.7253486063
 40
1.0
100
AcDbArc
 50
284.4843185589
 51
255.5156814411
  0
ARC
  5
215
100
AcDbEntity
  8
0
100
AcDbCircle
 62
9
  6
CONTINUOUS
 10
11.0473183383
 20
8.7253486063
 40
0.95
100
AcDbArc
 50
285.2789149014
 51
254.7210850986
  0
ARC
  5
216
100
AcDbEntity
  8
0
100
AcDbCircle
 62
7
  6
CONTINUOUS
 10
11.0473183383
 20
8.7253486063
 40
0.715
100
AcDbArc
 50
281.5798750557
 51
258.4201249443
  0
CIRCLE
  5
217
100
AcDbEntity
  8
0
100
AcDbCircle
 62
9
  6
CONTINUOUS
 10
11.0473183383
 20
8.7253486063
 40
0.658087044
  0
SPLINE
  5
218
100
AcDbEntity
  8
0
100
AcDbSpline
 62
7
  6
CONTINUOUS
 70
0
 71
3
 72
22
 73
18
 74
0
 42
0.0000001
 43
0.0000001
 44
0.0000000001
 40
0.0
 40
0.0
 40
0.0
 40
0.0
 40
0.0676716251
 40
0.1352378568
 40
0.2688399269
 40
0.334658854
 40
0.3996283868
 40
0.463647117
 40
0.5266501464
 40
0.5886204675
 40
0.6495845489
 40
0.7096031003
 40
0.7687755056
 40
0.8272370225
 40
0.885143279
 40
0.9426765278
 40
1.0
 40
1.0
 40
1.0
 40
1.0
 10
11.0473183377
 20
5.0390580718
 30
0.0
 10
11.0392463155
 20
5.0390580719
 30
0.0
 10
11.023106168
 20
5.039698721
 30
0.0
 10
10.9912404378
 20
5.0434856104
 30
0.0
 10
10.9601239739
 20
5.0510260356
 30
0.0
 10
10.9306145641
 20
5.0622347161
 30
0.0
 10
10.909649868
 20
5.0723280528
 30
0.0
 10
10.8899467233
 20
5.0840609135
 30
0.0
 10
10.871697343
 20
5.09735258
 30
0.0
 10
10.8550732209
 20
5.1120877256
 30
0.0
 10
10.8402499895
 20
5.1281558772
 30
0.0
 10
10.8273797276
 20
5.1454156016
 30
0.0
 10
10.8166138414
 20
5.1637186857
 30
0.0
 10
10.8080849855
 20
5.1828919566
 30
0.0
 10
10.8019002247
 20
5.2027433752
 30
0.0
 10
10.7981603361
 20
5.2230569584
 30
0.0
 10
10.7973183383
 20
5.2367714171
 30
0.0
 10
10.7973183383
 20
5.2436090886
 30
0.0
  0
SPLINE
  5
219
100
AcDbEntity
  8
0
100
AcDbSpline
 62
7
  6
CONTINUOUS
 70
0
 71
3
 72
22
 73
18
 74
0
 42
0.0000001
 43
0.0000001
 44
0.0000000001
 40
0.0
 40
0.0
 40
0.0
 40
0.0
 40
0.0573233633
 40
0.1148558449
 40
0.1727618262
 40
0.231223666
 40
0.2903965364
 40
0.3504156029
 40
0.411380237
 40
0.4733510876
 40
0.5363545593
 40
0.6003736026
 40
0.6653433759
 40
0.7311623877
 40
0.8647632916
 40
0.9323287
 40
1.0
 40
1.0
 40
1.0
 40
1.0
 10
11.2973183383
 20
5.2436090886
 30
0.0
 10
11.2973183383
 20
5.2367714299
 30
0.0
 10
11.2964764127
 20
5.2230570727
 30
0.0
 10
11.2927365483
 20
5.2027436181
 30
0.0
 10
11.2865517458
 20
5.1828923067
 30
0.0
 10
11.2780229758
 20
5.1637189327
 30
0.0
 10
11.2672570209
 20
5.1454157025
 30
0.0
 10
11.2543866466
 20
5.1281558344
 30
0.0
 10
11.2395632863
 20
5.1120875389
 30
0.0
 10
11.2229389823
 20
5.0973523225
 30
0.0
 10
11.2046894666
 20
5.0840605825
 30
0.0
 10
11.1849861932
 20
5.0723276996
 30
0.0
 10
11.1640213791
 20
5.0622344317
 30
0.0
 10
11.1345120438
 20
5.0510258413
 30
0.0
 10
11.1033957944
 20
5.0434855045
 30
0.0
 10
11.0715303333
 20
5.0396986751
 30
0.0
 10
11.0553903213
 20
5.0390580718
 30
0.0
 10
11.0473183377
 20
5.0390580718
 30
0.0
  0
SPLINE
  5
21A
100
AcDbEntity
  8
0
100
AcDbSpline
 62
9
  6
CONTINUOUS
 70
0
 71
3
 72
22
 73
18
 74
0
 42
0.0000001
 43
0.0000001
 44
0.0000000001
 40
0.0
 40
0.0
 40
0.0
 40
0.0
 40
0.0551627123
 40
0.1106345283
 40
0.1667075485
 40
0.2236428276
 40
0.2816554989
 40
0.3409125978
 40
0.4015184552
 40
0.4635281628
 40
0.5269349262
 40
0.5916867976
 40
0.6576742178
 40
0.7247463771
 40
0.861368453
 40
0.9306099344
 40
1.0
 40
1.0
 40
1.0
 40
1.0
 10
11.2973183383
 20
5.2436090886
 30
0.0
 10
11.2973183383
 20
5.2371160186
 30
0.0
 10
11.2965062339
 20
5.2240795299
 30
0.0
 10
11.292884771
 20
5.2047464348
 30
0.0
 10
11.2868825895
 20
5.185794569
 30
0.0
 10
11.2785707631
 20
5.1674108681
 30
0.0
 10
11.2680298958
 20
5.1497723301
 30
0.0
 10
11.2553636765
 20
5.1330507721
 30
0.0
 10
11.2407034109
 20
5.1173991167
 30
0.0
 10
11.2241833942
 20
5.1029748033
 30
0.0
 10
11.2059724539
 20
5.0899027147
 30
0.0
 10
11.1862383074
 20
5.078318963
 30
0.0
 10
11.1651766656
 20
5.0683210755
 30
0.0
 10
11.1354233313
 20
5.0571751075
 30
0.0
 10
11.104013175
 20
5.0496704197
 30
0.0
 10
11.0718126199
 20
5.0458952598
 30
0.0
 10
11.0554860757
 20
5.0452556605
 30
0.0
 10
11.0473183383
 20
5.0452556605
 30
0.0
  0
SPLINE
  5
21B
100
AcDbEntity
  8
0
100
AcDbSpline
 62
9
  6
CONTINUOUS
 70
0
 71
3
 72
35
 73
31
 74
0
 42
0.0000001
 43
0.0000001
 44
0.0000000001
 40
0.0
 40
0.0
 40
0.0
 40
0.0
 40
0.2084419566
 40
0.3063681471
 40
0.3995153752
 40
0.4874902365
 40
0.5699398842
 40
0.6464978435
 40
0.7167735749
 40
0.7803229317
 40
0.836680082
 40
0.8620134947
 40
0.8853727983
 40
0.9067074445
 40
0.9259676959
 40
0.9431035472
 40
0.958064742
 40
0.9708007956
 40
0.9812636689
 40
0.9856340794
 40
0.989428247
 40
0.9926445266
 40
0.9952812722
 40
0.9973368372
 40
0.9981461622
 40
0.9988095744
 40
0.999326868
 40
0.9996978375
 40
0.9999222788
 40
1.0
 40
1.0
 40
1.0
 40
1.0
 10
10.9218596906
 20
7.966123098
 30
0.0
 10
10.912826421
 20
7.9684180337
 30
0.0
 10
10.8996373948
 20
7.9721524112
 30
0.0
 10
10.8826485117
 20
7.9776781461
 30
0.0
 10
10.8708781628
 20
7.981822294
 30
0.0
 10
10.8598528403
 20
7.9859884617
 30
0.0
 10
10.8496063485
 20
7.990109847
 30
0.0
 10
10.8401708578
 20
7.9941210628
 30
0.0
 10
10.831580329
 20
7.9979555814
 30
0.0
 10
10.8238720899
 20
8.0015476281
 30
0.0
 10
10.8180259028
 20
8.0043760283
 30
0.0
 10
10.8138175054
 20
8.006462429
 30
0.0
 10
10.8110199647
 20
8.0078689185
 30
0.0
 10
10.808471933
 20
8.0091670394
 30
0.0
 10
10.806177728
 20
8.0103502966
 30
0.0
 10
10.8041416485
 20
8.0114122626
 30
0.0
 10
10.802367969
 20
8.0123464643
 30
0.0
 10
10.8008609498
 20
8.0131466546
 30
0.0
 10
10.7997733115
 20
8.0137268835
 30
0.0
 10
10.7990389087
 20
8.014119799
 30
0.0
 10
10.79859042
 20
8.0143602502
 30
0.0
 10
10.7982104181
 20
8.0145643959
 30
0.0
 10
10.7978990976
 20
8.0147320911
 30
0.0
 10
10.7976825713
 20
8.014848896
 30
0.0
 10
10.7975439318
 20
8.0149241109
 30
0.0
 10
10.7974655161
 20
8.0149663262
 30
0.0
 10
10.7974050968
 20
8.0150000478
 30
0.0
 10
10.7973602351
 20
8.0150226133
 30
0.0
 10
10.7973359903
 20
8.0150394028
 30
0.0
 10
10.7973219481
 20
8.0150435841
 30
0.0
 10
10.7973199264
 20
8.0150464107
 30
0.0
  0
SPLINE
  5
21C
100
AcDbEntity
  8
0
100
AcDbSpline
 62
9
  6
CONTINUOUS
 70
0
 71
3
 72
15
 73
11
 74
0
 42
0.0000001
 43
0.0000001
 44
0.0000000001
 40
0.0
 40
0.0
 40
0.0
 40
0.0
 40
0.1306770373
 40
0.2609187173
 40
0.3900482159
 40
0.5174283973
 40
0.6425394566
 40
0.7649723676
 40
0.8842773947
 40
1.0
 40
1.0
 40
1.0
 40
1.0
 10
11.0473183383
 20
7.9578869101
 30
0.0
 10
11.0418288672
 20
7.9578869186
 30
0.0
 10
11.0308682073
 20
7.9578901096
 30
0.0
 10
11.0144831669
 20
7.9579719595
 30
0.0
 10
10.9982378237
 20
7.9581957567
 30
0.0
 10
10.9822118443
 20
7.9586356048
 30
0.0
 10
10.9664813133
 20
7.9594600429
 30
0.0
 10
10.9511267546
 20
7.9608289808
 30
0.0
 10
10.936248039
 20
7.9629097001
 30
0.0
 10
10.9265713139
 20
7.9649262201
 30
0.0
 10
10.9218596906
 20
7.966123098
 30
0.0
  0
SPLINE
  5
21D
100
AcDbEntity
  8
0
100
AcDbSpline
 62
9
  6
CONTINUOUS
 70
0
 71
3
 72
15
 73
11
 74
0
 42
0.0000001
 43
0.0000001
 44
0.0000000001
 40
0.0
 40
0.0
 40
0.0
 40
0.0
 40
0.115722595
 40
0.2350274914
 40
0.3574602228
 40
0.4825712676
 40
0.6099515356
 40
0.7390811389
 40
0.8693229119
 40
1.0
 40
1.0
 40
1.0
 40
1.0
 10
11.172776986
 20
7.966123098
 30
0.0
 10
11.1680653087
 20
7.9649264314
 30
0.0
 10
11.1583885773
 20
7.9629100379
 30
0.0
 10
11.14350992
 20
7.9608290067
 30
0.0
 10
11.1281554062
 20
7.9594596798
 30
0.0
 10
11.1124248882
 20
7.9586349962
 30
0.0
 10
11.0963988978
 20
7.9581951136
 30
0.0
 10
11.0801535345
 20
7.9579716591
 30
0.0
 10
11.0637684796
 20
7.9578902092
 30
0.0
 10
11.0528078123
 20
7.9578870376
 30
0.0
 10
11.0473183383
 20
7.9578869101
 30
0.0
  0
SPLINE
  5
21E
100
AcDbEntity
  8
0
100
AcDbSpline
 62
9
  6
CONTINUOUS
 70
0
 71
3
 72
22
 73
18
 74
0
 42
0.0000001
 43
0.0000001
 44
0.0000000001
 40
0.0
 40
0.0
 40
0.0
 40
0.0
 40
0.0551627123
 40
0.1106345283
 40
0.1667075485
 40
0.2236428276
 40
0.2816554989
 40
0.3409125978
 40
0.4015184552
 40
0.4635281628
 40
0.5269349262
 40
0.5916867976
 40
0.6576742178
 40
0.7247463771
 40
0.861368453
 40
0.9306099344
 40
1.0
 40
1.0
 40
1.0
 40
1.0
 10
11.2973183383
 20
5.3470851548
 30
0.0
 10
11.2973183383
 20
5.3405920849
 30
0.0
 10
11.2965062339
 20
5.3275555961
 30
0.0
 10
11.292884771
 20
5.308222501
 30
0.0
 10
11.2868825895
 20
5.2892706353
 30
0.0
 10
11.2785707631
 20
5.2708869343
 30
0.0
 10
11.2680298958
 20
5.2532483964
 30
0.0
 10
11.2553636765
 20
5.2365268383
 30
0.0
 10
11.2407034109
 20
5.2208751829
 30
0.0
 10
11.2241833942
 20
5.2064508695
 30
0.0
 10
11.2059724539
 20
5.193378781
 30
0.0
 10
11.1862383074
 20
5.1817950292
 30
0.0
 10
11.1651766656
 20
5.1717971417
 30
0.0
 10
11.1354233313
 20
5.1606511737
 30
0.0
 10
11.104013175
 20
5.153146486
 30
0.0
 10
11.0718126199
 20
5.1493713261
 30
0.0
 10
11.0554860757
 20
5.1487317267
 30
0.0
 10
11.0473183383
 20
5.1487317267
 30
0.0
  0
SPLINE
  5
21F
100
AcDbEntity
  8
0
100
AcDbSpline
 62
9
  6
CONTINUOUS
 70
0
 71
3
 72
22
 73
18
 74
0
 42
0.0000001
 43
0.0000001
 44
0.0000000001
 40
0.0
 40
0.0
 40
0.0
 40
0.0
 40
0.0693900656
 40
0.138631547
 40
0.2752536229
 40
0.3423257822
 40
0.4083132024
 40
0.4730650737
 40
0.5364718372
 40
0.5984815448
 40
0.6590874022
 40
0.7183445011
 40
0.7763571724
 40
0.8332924515
 40
0.8893654717
 40
0.9448372877
 40
1.0
 40
1.0
 40
1.0
 40
1.0
 10
11.0473183383
 20
5.0452556605
 30
0.0
 10
11.0391506009
 20
5.0452556605
 30
0.0
 10
11.0228240566
 20
5.0458952598
 30
0.0
 10
10.9906235015
 20
5.0496704197
 30
0.0
 10
10.9592133453
 20
5.0571751075
 30
0.0
 10
10.929460011
 20
5.0683210755
 30
0.0
 10
10.9083983692
 20
5.078318963
 30
0.0
 10
10.8886642227
 20
5.0899027147
 30
0.0
 10
10.8704532823
 20
5.1029748033
 30
0.0
 10
10.8539332657
 20
5.1173991167
 30
0.0
 10
10.8392730001
 20
5.1330507721
 30
0.0
 10
10.8266067808
 20
5.1497723301
 30
0.0
 10
10.8160659135
 20
5.1674108681
 30
0.0
 10
10.8077540871
 20
5.185794569
 30
0.0
 10
10.8017519056
 20
5.2047464348
 30
0.0
 10
10.7981304427
 20
5.2240795299
 30
0.0
 10
10.7973183383
 20
5.2371160186
 30
0.0
 10
10.7973183383
 20
5.2436090886
 30
0.0
  0
SPLINE
  5
220
100
AcDbEntity
  8
0
100
AcDbSpline
 62
9
  6
CONTINUOUS
 70
0
 71
3
 72
22
 73
18
 74
0
 42
0.0000001
 43
0.0000001
 44
0.0000000001
 40
0.0
 40
0.0
 40
0.0
 40
0.0
 40
0.0693900656
 40
0.138631547
 40
0.2752536229
 40
0.3423257822
 40
0.4083132024
 40
0.4730650738
 40
0.5364718372
 40
0.5984815448
 40
0.6590874022
 40
0.7183445011
 40
0.7763571724
 40
0.8332924515
 40
0.8893654717
 40
0.9448372877
 40
1.0
 40
1.0
 40
1.0
 40
1.0
 10
11.0473183383
 20
5.1487317267
 30
0.0
 10
11.0391506009
 20
5.1487317267
 30
0.0
 10
11.0228240566
 20
5.1493713261
 30
0.0
 10
10.9906235015
 20
5.153146486
 30
0.0
 10
10.9592133453
 20
5.1606511737
 30
0.0
 10
10.9294600109
 20
5.1717971417
 30
0.0
 10
10.9083983692
 20
5.1817950292
 30
0.0
 10
10.8886642227
 20
5.193378781
 30
0.0
 10
10.8704532823
 20
5.2064508695
 30
0.0
 10
10.8539332657
 20
5.2208751829
 30
0.0
 10
10.8392730001
 20
5.2365268383
 30
0.0
 10
10.8266067808
 20
5.2532483964
 30
0.0
 10
10.8160659135
 20
5.2708869343
 30
0.0
 10
10.8077540871
 20
5.2892706353
 30
0.0
 10
10.8017519056
 20
5.308222501
 30
0.0
 10
10.7981304427
 20
5.3275555961
 30
0.0
 10
10.7973183383
 20
5.3405920849
 30
0.0
 10
10.7973183383
 20
5.3470851548
 30
0.0
  0
SPLINE
  5
221
100
AcDbEntity
  8
0
100
AcDbSpline
 62
9
  6
CONTINUOUS
 70
0
 71
3
 72
33
 73
29
 74
0
 42
0.0000001
 43
0.0000001
 44
0.0000000001
 40
0.0
 40
0.0
 40
0.0
 40
0.0
 40
0.0000790549
 40
0.0003047999
 40
0.000677043
 40
0.001195581
 40
0.0018602096
 40
0.0026707243
 40
0.0047285928
 40
0.0073675492
 40
0.0105859563
 40
0.0143821779
 40
0.0187545784
 40
0.0292212677
 40
0.0419607478
 40
0.0569249318
 40
0.074063375
 40
0.0933258607
 40
0.1146624226
 40
0.1633579429
 40
0.2197168974
 40
0.2832668692
 40
0.3535420747
 40
0.4300985105
 40
0.5125458173
 40
0.6005176291
 40
0.7915691545
 40
1.0
 40
1.0
 40
1.0
 40
1.0
 10
11.2973167272
 20
8.015044844
 30
0.0
 10
11.2973143622
 20
8.015042217
 30
0.0
 10
11.2973009053
 20
8.0150374487
 30
0.0
 10
11.2972758377
 20
8.015021106
 30
0.0
 10
11.2972311973
 20
8.0149981748
 30
0.0
 10
11.297170459
 20
8.0149645182
 30
0.0
 10
11.2970919581
 20
8.0149221894
 30
0.0
 10
11.2969530937
 20
8.0148469216
 30
0.0
 10
11.2967363522
 20
8.0147300097
 30
0.0
 10
11.2964247495
 20
8.0145622175
 30
0.0
 10
11.2960444874
 20
8.0143579732
 30
0.0
 10
11.2955957437
 20
8.0141174333
 30
0.0
 10
11.2948610179
 20
8.0137244112
 30
0.0
 10
11.2937730046
 20
8.0131440587
 30
0.0
 10
11.2922655675
 20
8.0123437508
 30
0.0
 10
11.2904915179
 20
8.0114094709
 30
0.0
 10
11.2884551159
 20
8.0103474642
 30
0.0
 10
11.2861606401
 20
8.0091641823
 30
0.0
 10
11.2826029819
 20
8.0073519445
 30
0.0
 10
11.2775463121
 20
8.0048282775
 30
0.0
 10
11.2707598058
 20
8.0015449592
 30
0.0
 10
11.2630515342
 20
7.997953154
 30
0.0
 10
11.2544611698
 20
7.9941188764
 30
0.0
 10
11.2450259811
 20
7.9901079729
 30
0.0
 10
11.2347798898
 20
7.9859869307
 30
0.0
 10
11.2196597951
 20
7.9802735835
 30
0.0
 10
11.1990056274
 20
7.9732866292
 30
0.0
 10
11.1818095929
 20
7.9684178903
 30
0.0
 10
11.172776986
 20
7.966123098
 30
0.0
  0
SPLINE
  5
222
100
AcDbEntity
  8
0
100
AcDbSpline
 62
9
  6
CONTINUOUS
 70
0
 71
3
 72
13
 73
9
 74
0
 42
0.0000001
 43
0.0000001
 44
0.0000000001
 40
0.0
 40
0.0
 40
0.0
 40
0.0
 40
0.2450621768
 40
0.3693861734
 40
0.4945352037
 40
0.6203568452
 40
0.7466678867
 40
1.0
 40
1.0
 40
1.0
 40
1.0
 10
11.1908430313
 20
8.0249018471
 30
0.0
 10
11.1793080825
 20
8.0225383608
 30
0.0
 10
11.1617330511
 20
8.0198748289
 30
0.0
 10
11.1380933276
 20
8.0174767717
 30
0.0
 10
11.120108722
 20
8.0161374082
 30
0.0
 10
11.1020050508
 20
8.0151912871
 30
0.0
 10
11.0777328495
 20
8.0143397267
 30
0.0
 10
11.0594902831
 20
8.0141178742
 30
0.0
 10
11.0473183383
 20
8.0141177582
 30
0.0
  0
SPLINE
  5
223
100
AcDbEntity
  8
0
100
AcDbSpline
 62
9
  6
CONTINUOUS
 70
0
 71
3
 72
13
 73
9
 74
0
 42
0.0000001
 43
0.0000001
 44
0.0000000001
 40
0.0
 40
0.0
 40
0.0
 40
0.0
 40
0.2533319698
 40
0.379642994
 40
0.5054647041
 40
0.6306137949
 40
0.7549377281
 40
1.0
 40
1.0
 40
1.0
 40
1.0
 10
11.0473183383
 20
8.0141177582
 30
0.0
 10
11.0351463997
 20
8.0141177696
 30
0.0
 10
11.0169038374
 20
8.0143395709
 30
0.0
 10
10.9926316408
 20
8.0151911784
 30
0.0
 10
10.9745279657
 20
8.0161373462
 30
0.0
 10
10.9565433587
 20
8.0174767454
 30
0.0
 10
10.9329036319
 20
8.0198748199
 30
0.0
 10
10.9153285946
 20
8.0225383374
 30
0.0
 10
10.9037936453
 20
8.0249018471
 30
0.0
  0
SPLINE
  5
224
100
AcDbEntity
  8
0
100
AcDbSpline
 62
9
  6
CONTINUOUS
 70
0
 71
3
 72
19
 73
15
 74
0
 42
0.0000001
 43
0.0000001
 44
0.0000000001
 40
0.0
 40
0.0
 40
0.0
 40
0.0
 40
0.0410902381
 40
0.0833239627
 40
0.1275674212
 40
0.1745417532
 40
0.224792883
 40
0.2786761491
 40
0.3363957813
 40
0.397974948
 40
0.5320536675
 40
0.679172451
 40
0.83653042
 40
1.0
 40
1.0
 40
1.0
 40
1.0
 10
10.9037936453
 20
8.0249018471
 30
0.0
 10
10.9046839754
 20
8.0247194144
 30
0.0
 10
10.9064582393
 20
8.0241762613
 30
0.0
 10
10.908974228
 20
8.0228692565
 30
0.0
 10
10.9113392121
 20
8.0210816539
 30
0.0
 10
10.9135268201
 20
8.0188296978
 30
0.0
 10
10.9155227513
 20
8.0161384072
 30
0.0
 10
10.9173152749
 20
8.0130317754
 30
0.0
 10
10.9188896237
 20
8.009533622
 30
0.0
 10
10.9207358958
 20
8.0042361566
 30
0.0
 10
10.922379547
 20
7.9968069112
 30
0.0
 10
10.9232915179
 20
7.9871302754
 30
0.0
 10
10.9231659023
 20
7.9767642144
 30
0.0
 10
10.9224075591
 20
7.9696969468
 30
0.0
 10
10.9218596906
 20
7.966123098
 30
0.0
  0
SPLINE
  5
225
100
AcDbEntity
  8
0
100
AcDbSpline
 62
9
  6
CONTINUOUS
 70
0
 71
3
 72
19
 73
15
 74
0
 42
0.0000001
 43
0.0000001
 44
0.0000000001
 40
0.0
 40
0.0
 40
0.0
 40
0.0
 40
0.0410915781
 40
0.0833263194
 40
0.1275704761
 40
0.1745452175
 40
0.2247965134
 40
0.2786797513
 40
0.3363992062
 40
0.3979780865
 40
0.5320560325
 40
0.679173955
 40
0.8365311224
 40
1.0
 40
1.0
 40
1.0
 40
1.0
 10
11.1908430312
 20
8.0249018471
 30
0.0
 10
11.1899526691
 20
8.0247194079
 30
0.0
 10
11.1881783475
 20
8.0241762452
 30
0.0
 10
11.1856622791
 20
8.0228692262
 30
0.0
 10
11.1832972321
 20
8.0210816118
 30
0.0
 10
11.1811095776
 20
8.0188296463
 30
0.0
 10
11.1791136158
 20
8.0161383486
 30
0.0
 10
11.1773210762
 20
8.0130317125
 30
0.0
 10
11.1757467249
 20
8.0095335575
 30
0.0
 10
11.1739004668
 20
8.0042360956
 30
0.0
 10
11.1722568597
 20
7.996806856
 30
0.0
 10
11.1713449715
 20
7.987130233
 30
0.0
 10
11.1714706766
 20
7.9767641901
 30
0.0
 10
11.1722290826
 20
7.9696969382
 30
0.0
 10
11.1727769858
 20
7.966123098
 30
0.0
  0
ENDSEC
  0
SECTION
  2
OBJECTS
  0
DICTIONARY
  5
C
100
AcDbDictionary
280
0
281
1
  3
ACAD_GROUP
350
D
  3
ACAD_MLINESTYLE
350
17
  3
ACAD_LAYOUT
350
1A
  3
ACAD_PLOTSETTINGS
350
19
  3
ACAD_PLOTSTYLENAME
350
E
  0
DICTIONARY
  5
D
102
{ACAD_REACTORS
330
C
102
}
100
AcDbDictionary
280
0
281
1
  0
ACDBDICTIONARYWDFLT
  5
E
102
{ACAD_REACTORS
330
C
102
}
100
AcDbDictionary
281
1
  3
Normal
350
F
100
AcDbDictionaryWithDefault
340
F
  0
DICTIONARY
  5
17
102
{ACAD_REACTORS
330
C
102
}
100
AcDbDictionary
280
0
281
1
  3
Standard
350
18
  0
DICTIONARY
  5
19
102
{ACAD_REACTORS
330
C
102
}
100
AcDbDictionary
281
1
  0
DICTIONARY
  5
1A
102
{ACAD_REACTORS
330
C
102
}
100
AcDbDictionary
281
1
  3
Model
350
226
  3
Layout1
350
227
  0
ACDBPLACEHOLDER
  5
F
102
{ACAD_REACTORS
330
E
102
}
  0
MLINESTYLE
  5
18
102
{ACAD_REACTORS
330
17
102
}
100
AcDbMlineStyle
  2
STANDARD
 70
0
  3

 62
256
 51
90.0
 52
90.0
 71
2
 49
0.5
 62
256
  6
BYLAYER
 49
-0.5
 62
256
  6
BYLAYER
  0
LAYOUT
  5
226
102
{ACAD_REACTORS
330
1A
102
}
100
AcDbPlotSettings
  1

  2
none_device
  4
ANSI_C_(22.00_x_17.00_Inches)
  6

 40
0.0
 41
0.0
 42
0.0
 43
0.0
 44
558.8
 45
431.8
 46
0.0
 47
0.0
 48
0.0
 49
0.0
140
0.0
141
0.0
142
1.0
143
1.0
 70
1024
 72
0
 73
0
 74
0
  7

 75
0
147
1.0
148
0.0
149
0.0
100
AcDbLayout
  1
Model
 70
0
 71
0
 10
0.0
 20
0.0
 11
22.0
 21
17.0
 12
0.0
 22
0.0
 32
0.0
 14
0.0
 24
0.0
 34
0.0
 15
0.0
 25
0.0
 35
0.0
146
0.0
 13
0.0
 23
0.0
 33
0.0
 16
1.0
 26
0.0
 36
0.0
 17
0.0
 27
1.0
 37
0.0
 76
0
330
205
345
0
346
0
  0
LAYOUT
  5
227
102
{ACAD_REACTORS
330
1A
102
}
100
AcDbPlotSettings
  1

  2
none_device
  4
ANSI_C_(22.00_x_17.00_Inches)
  6

 40
0.0
 41
0.0
 42
0.0
 43
0.0
 44
558.8
 45
431.8
 46
0.0
 47
0.0
 48
0.0
 49
0.0
140
0.0
141
0.0
142
1.0
143
1.0
 70
0
 72
0
 73
0
 74
0
  7

 75
0
147
1.0
148
0.0
149
0.0
100
AcDbLayout
  1
Layout1
 70
0
 71
1
 10
0.0
 20
0.0
 11
22.0
 21
17.0
 12
0.0
 22
0.0
 32
0.0
 14
0.0
 24
0.0
 34
0.0
 15
0.0
 25
0.0
 35
0.0
146
0.0
 13
0.0
 23
0.0
 33
0.0
 16
1.0
 26
0.0
 36
0.0
 17
0.0
 27
1.0
 37
0.0
 76
0
330
206
345
0
346
0
  0
ENDSEC
  0
EOF
