999
DXF file: 3320c_Top.dxf
999
Pro/ENGINEER 2023134 by Parametric Technology Corporation
  0
SECTION
  2
HEADER
  9
$ACADVER
  1
AC1032
  9
$DWGCODEPAGE
  3
ANSI_1252
  9
$EXTMAX
 10
11.0
 20
8.5
 30
0.0
  9
$EXTMIN
 10
0.0
 20
0.0
 30
0.0
  9
$LIMMIN
 10
0.0
 20
0.0
  9
$LIMMAX
 10
11.0
 20
8.5
  9
$VIEWCTR
 10
5.5
 20
4.25
  9
$VIEWSIZE
 40
8.5
  9
$CLAYER
  8
0
  9
$LTSCALE
 40
0.605
  9
$CELTYPE
  6
BYLAYER
  9
$DIMSCALE
 40
1.0
  9
$DIMASZ
 40
0.1
  9
$DIMEXO
 40
0.0625
  9
$DIMDLI
 40
0.418
  9
$DIMEXE
 40
0.125
  9
$DIMCEN
 40
0.099
  9
$DIMLFAC
 40
1.0
  9
$DIMBLK
  1
_FILLED
  9
$DIMALT
 70
1
  9
$DIMALTD
 70
2
  9
$DIMALTTD
 70
2
  9
$DIMALTF
 40
25.4
  9
$DIMTXT
 40
0.08
  9
$DIMTOL
 70
1
  9
$DIMLIM
 70
0
  9
$DIMTFAC
 40
1.0
  9
$DIMTP
 40
0.001
  9
$DIMTM
 40
0.001
  9
$DIMGAP
 40
0.09
  9
$DIMDSEP
 70
46
  9
$AUNITS
 70
0
  9
$PDMODE
 70
3
  9
$PDSIZE
 40
0.3125
  9
$HANDSEED
  5
261
  9
$TILEMODE
 70
1
  9
$MEASUREMENT
 70
0
  9
$INSUNITS
 70
1
  0
ENDSEC
  0
SECTION
  2
CLASSES
  0
CLASS
  1
ACDBDICTIONARYWDFLT
  2
AcDbDictionaryWithDefault
  3
AutoCAD 2000
 90
0
 91
1
280
0
281
0
  0
CLASS
  1
ACDBPLACEHOLDER
  2
AcDbPlaceHolder
  3
AutoCAD 2000
 90
0
 91
1
280
0
281
0
  0
CLASS
  1
LAYOUT
  2
AcDbLayout
  3
AutoCAD 2000
 90
0
 91
0
280
0
281
0
  0
ENDSEC
  0
SECTION
  2
TABLES
  0
TABLE
  2
VPORT
  5
8
100
AcDbSymbolTable
 70
2
  0
VPORT
  5
1F4
100
AcDbSymbolTableRecord
100
AcDbViewportTableRecord
  2
*ACTIVE
 70
0
 10
0.0
 20
0.0
 11
1.0
 21
1.0
 12
5.5
 22
4.25
 13
0.0
 23
0.0
 14
1.0
 24
1.0
 15
0.0
 25
0.0
 16
0.0
 26
0.0
 36
1.0
 17
0.0
 27
0.0
 37
0.0
 40
8.5
 41
1.2941176471
 42
50.0
 43
0.0
 44
0.0
 50
0.0
 51
0.0
 71
0
 72
100
 73
1
 74
1
 75
0
 76
0
 77
0
 78
0
  0
ENDTAB
  0
TABLE
  2
LTYPE
  5
5
100
AcDbSymbolTable
 70
6
  0
LTYPE
  5
14
100
AcDbSymbolTableRecord
100
AcDbLinetypeTableRecord
  2
BYBLOCK
 70
0
  3

 72
65
 73
0
 40
0.0
  0
LTYPE
  5
15
100
AcDbSymbolTableRecord
100
AcDbLinetypeTableRecord
  2
BYLAYER
 70
0
  3

 72
65
 73
0
 40
0.0
  0
LTYPE
  5
16
100
AcDbSymbolTableRecord
100
AcDbLinetypeTableRecord
  2
CONTINUOUS
 70
64
  3
Solid line
 72
65
 73
0
 40
0.0
  0
LTYPE
  5
1F5
100
AcDbSymbolTableRecord
100
AcDbLinetypeTableRecord
  2
CENTER
 70
64
  3
____ _ ____ _ ____ _ ____ _ ____ _ ____ _ ____
 72
65
 73
4
 40
0.6
 49
0.375
 74
0
 49
-0.075
 74
0
 49
0.075
 74
0
 49
-0.075
 74
0
  0
LTYPE
  5
1F6
100
AcDbSymbolTableRecord
100
AcDbLinetypeTableRecord
  2
HIDDEN
 70
64
  3
- - - - - - - - - - - - - - - - - - - -
 72
65
 73
2
 40
0.2
 49
0.1
 74
0
 49
-0.1
 74
0
  0
LTYPE
  5
1F7
100
AcDbSymbolTableRecord
100
AcDbLinetypeTableRecord
  2
PHANTOM
 70
64
  3
_____ _ _ _____ _ _ _____ _ _ _____
 72
65
 73
6
 40
0.8
 49
0.45
 74
0
 49
-0.05
 74
0
 49
0.1
 74
0
 49
-0.05
 74
0
 49
0.1
 74
0
 49
-0.05
 74
0
  0
LTYPE
  5
1F8
100
AcDbSymbolTableRecord
100
AcDbLinetypeTableRecord
  2
DOT
 70
64
  3
. . . . . . . . . . . . . . . . . . . .
 72
65
 73
2
 40
0.2
 49
0.1
 74
0
 49
-0.1
 74
0
  0
LTYPE
  5
1F9
100
AcDbSymbolTableRecord
100
AcDbLinetypeTableRecord
  2
DASHED
 70
64
  3
- - - - - - - - - - - - - - - - - - - -
 72
65
 73
2
 40
0.2
 49
0.1
 74
0
 49
-0.1
 74
0
  0
ENDTAB
  0
TABLE
  2
LAYER
  5
2
100
AcDbSymbolTable
 70
36
  0
LAYER
  5
10
100
AcDbSymbolTableRecord
100
AcDbLayerTableRecord
  2
0
 70
0
 62
7
  6
CONTINUOUS
370
-3
390
F
  0
LAYER
  5
1FA
100
AcDbSymbolTableRecord
100
AcDbLayerTableRecord
  2
DEFAULT_1
 70
0
 62
7
  6
CENTER
370
-3
390
F
  0
LAYER
  5
1FB
100
AcDbSymbolTableRecord
100
AcDbLayerTableRecord
  2
DEFAULT_2
 70
0
 62
8
  6
HIDDEN
370
-3
390
F
  0
LAYER
  5
1FC
100
AcDbSymbolTableRecord
100
AcDbLayerTableRecord
  2
DEFAULT_3
 70
0
 62
7
  6
PHANTOM
370
-3
390
F
  0
LAYER
  5
1FD
100
AcDbSymbolTableRecord
100
AcDbLayerTableRecord
  2
DEFAULT_COORDINATE_SYSTEM
 70
0
 62
7
  6
CONTINUOUS
370
-3
390
F
  0
LAYER
  5
1FE
100
AcDbSymbolTableRecord
100
AcDbLayerTableRecord
  2
DEFAULT_DATUM_AXES
 70
0
 62
7
  6
CONTINUOUS
370
-3
390
F
  0
LAYER
  5
1FF
100
AcDbSymbolTableRecord
100
AcDbLayerTableRecord
  2
DEFAULT_DATUM_CURVES
 70
0
 62
7
  6
CONTINUOUS
370
-3
390
F
  0
LAYER
  5
200
100
AcDbSymbolTableRecord
100
AcDbLayerTableRecord
  2
DEFAULT_DATUM_PLANES
 70
0
 62
7
  6
CONTINUOUS
370
-3
390
F
  0
ENDTAB
  0
TABLE
  2
STYLE
  5
3
100
AcDbSymbolTable
 70
1
  0
STYLE
  5
11
100
AcDbSymbolTableRecord
100
AcDbTextStyleTableRecord
  2
STANDARD
 70
0
 40
0.0
 41
0.8
 50
0.0
 71
0
 42
0.2
  3
txt
  4

  0
STYLE
  5
201
100
AcDbSymbolTableRecord
100
AcDbTextStyleTableRecord
  2
TEXTSTYLE_1
 70
0
 40
0.0
 41
0.8
 50
0.0
 71
0
 42
0.2
  3
gdt
  4

  0
ENDTAB
  0
TABLE
  2
VIEW
  5
6
100
AcDbSymbolTable
 70
0
  0
ENDTAB
  0
TABLE
  2
UCS
  5
7
100
AcDbSymbolTable
 70
0
  0
ENDTAB
  0
TABLE
  2
APPID
  5
9
100
AcDbSymbolTable
 70
1
  0
APPID
  5
202
100
AcDbSymbolTableRecord
100
AcDbRegAppTableRecord
  2
ACAD
 70
0
  0
ENDTAB
  0
TABLE
  2
BLOCK_RECORD
  5
1
100
AcDbSymbolTable
 70
0
  0
BLOCK_RECORD
  5
203
100
AcDbSymbolTableRecord
100
AcDbBlockTableRecord
  2
*Model_Space
  0
BLOCK_RECORD
  5
204
100
AcDbSymbolTableRecord
100
AcDbBlockTableRecord
  2
*Paper_Space
  0
BLOCK_RECORD
  5
205
100
AcDbSymbolTableRecord
100
AcDbBlockTableRecord
  2
_FILLED
  0
ENDTAB
  0
TABLE
  2
DIMSTYLE
  5
A
100
AcDbSymbolTable
 70
1
100
AcDbDimStyleTable
 71
0
  0
DIMSTYLE
105
206
100
AcDbSymbolTableRecord
100
AcDbDimStyleTableRecord
  2
STANDARD
 70
0
  3

  4

 40
1.0
 41
0.1
 42
0.0625
 43
0.38
 44
0.125
 45
0.0
 46
0.0
 47
0.001
 48
0.001
140
0.08
141
0.09
142
0.0
143
25.4
144
1.0
145
0.0
146
1.0
147
0.09
 71
1
 72
0
 73
1
 74
1
 75
0
 76
0
 77
0
 78
4
 79
1
170
1
171
2
172
0
173
0
174
0
175
0
176
0
177
0
178
0
270
2
179
3
271
3
272
3
273
2
274
2
275
0
280
0
281
0
282
0
283
1
284
4
285
0
286
0
287
3
288
0
340
11
278
46
341
205
342
205
343
205
344
205
  0
ENDTAB
  0
ENDSEC
  0
SECTION
  2
BLOCKS
  0
BLOCK
  5
20
100
AcDbEntity
  8
0
100
AcDbBlockBegin
  2
*Model_Space
 70
0
 10
0.0
 20
0.0
 30
0.0
  3
*Model_Space
  1

  0
ENDBLK
  5
21
100
AcDbEntity
  8
0
100
AcDbBlockEnd
  0
BLOCK
  5
1C
100
AcDbEntity
  8
0
100
AcDbBlockBegin
  2
*Paper_Space
 70
0
 10
0.0
 20
0.0
 30
0.0
  3
*Paper_Space
  1

  0
ENDBLK
  5
1D
100
AcDbEntity
  8
0
100
AcDbBlockEnd
  0
BLOCK
  5
207
100
AcDbEntity
  8
0
100
AcDbBlockBegin
  2
_FILLED
 70
64
 10
0.0
 20
0.0
  3
_FILLED
  1

  0
SOLID
  5
208
100
AcDbEntity
  8
0
  6
BYBLOCK
 62
0
100
AcDbTrace
 10
0.0
 20
0.0
 11
-1.0
 21
0.2
 12
-1.0
 22
-0.2
 13
-1.0
 23
-0.2
  0
ENDBLK
  5
209
100
AcDbEntity
  8
0
  6
BYBLOCK
 62
0
100
AcDbBlockEnd
  0
ENDSEC
  0
SECTION
  2
ENTITIES
  0
MTEXT
  5
20A
100
AcDbEntity
  8
0
100
AcDbMText
 62
2
  6
CONTINUOUS
  7
STANDARD
 71
2
 72
1
 10
5.4511289492
 20
1.6682534341
 30
0.0
 11
1.0
 21
0.0
 31
0.0
 73
2
 44
0.9
  1
SCALE 0.500
 40
0.08
 41
0.704
  0
LINE
  5
20B
100
AcDbEntity
  8
0
100
AcDbLine
 62
7
  6
CONTINUOUS
 10
0.0
 20
0.0
 11
0.0
 21
8.5
  0
LINE
  5
20C
100
AcDbEntity
  8
0
100
AcDbLine
 62
7
  6
CONTINUOUS
 10
0.0
 20
0.0
 11
11.0
 21
0.0
  0
LINE
  5
20D
100
AcDbEntity
  8
0
100
AcDbLine
 62
7
  6
CONTINUOUS
 10
0.0
 20
8.5
 11
11.0
 21
8.5
  0
LINE
  5
20E
100
AcDbEntity
  8
0
100
AcDbLine
 62
7
  6
CONTINUOUS
 10
11.0
 20
0.0
 11
11.0
 21
8.5
  0
LINE
  5
20F
100
AcDbEntity
  8
0
100
AcDbLine
 62
7
  6
CONTINUOUS
 10
2.2386077118
 20
6.0271957418
 11
2.2386077118
 21
6.0121957418
  0
LINE
  5
210
100
AcDbEntity
  8
0
100
AcDbLine
 62
7
  6
CONTINUOUS
 10
2.2386077118
 20
5.9521957418
 11
2.2386077118
 21
5.9671957418
  0
LINE
  5
211
100
AcDbEntity
  8
0
100
AcDbLine
 62
7
  6
CONTINUOUS
 10
3.3186174921
 20
6.036841791
 11
3.3186605475
 21
6.0369561673
  0
LINE
  5
212
100
AcDbEntity
  8
0
100
AcDbLine
 62
7
  6
CONTINUOUS
 10
3.3369788784
 20
6.0421957418
 11
3.3369788784
 21
6.0271957418
  0
LINE
  5
213
100
AcDbEntity
  8
0
100
AcDbLine
 62
7
  6
CONTINUOUS
 10
3.3369788784
 20
5.9371957418
 11
3.3369788784
 21
5.9521957418
  0
LINE
  5
214
100
AcDbEntity
  8
0
100
AcDbLine
 62
7
  6
CONTINUOUS
 10
3.4211077118
 20
5.9521957418
 11
3.4211077118
 21
6.0271957418
  0
LINE
  5
215
100
AcDbEntity
  8
0
100
AcDbLine
 62
7
  6
CONTINUOUS
 10
3.4511077118
 20
6.0121957418
 11
3.4511077118
 21
5.9671957418
  0
LINE
  5
216
100
AcDbEntity
  8
0
100
AcDbLine
 62
7
  6
CONTINUOUS
 10
3.4661077118
 20
6.0121957418
 11
3.4661077118
 21
5.9671957418
  0
LINE
  5
217
100
AcDbEntity
  8
0
100
AcDbLine
 62
7
  6
CONTINUOUS
 10
5.2323577118
 20
2.4896957418
 11
5.2323577118
 21
5.9896957418
  0
LINE
  5
218
100
AcDbEntity
  8
0
100
AcDbLine
 62
7
  6
CONTINUOUS
 10
5.3573577118
 20
6.3163846337
 11
5.3573577118
 21
6.5406957418
  0
LINE
  5
219
100
AcDbEntity
  8
0
100
AcDbLine
 62
7
  6
CONTINUOUS
 10
5.5448577118
 20
6.3163846337
 11
5.5448577118
 21
6.5406957418
  0
LINE
  5
21A
100
AcDbEntity
  8
0
100
AcDbLine
 62
7
  6
CONTINUOUS
 10
5.6698577118
 20
2.4896957418
 11
5.6698577118
 21
5.9896957418
  0
LWPOLYLINE
  5
21B
100
AcDbEntity
  8
0
100
AcDbPolyline
 62
7
  6
CONTINUOUS
 90
12
 70
0
 10
7.5956597847
 20
5.9520684367
 10
7.5953609404
 20
5.9520261897
 10
7.5950523893
 20
5.9519761053
 10
7.5947353271
 20
5.9519177267
 10
7.5944109638
 20
5.9518506665
 10
7.594080519
 20
5.9517746128
 10
7.5937450225
 20
5.9516892829
 10
7.5934051325
 20
5.9515943509
 10
7.5930614772
 20
5.9514895119
 10
7.5927146978
 20
5.9513744939
 10
7.5923654468
 20
5.9512490591
 10
7.5920456097
 20
5.951125519
  0
LINE
  5
21C
100
AcDbEntity
  8
0
100
AcDbLine
 62
7
  6
CONTINUOUS
 10
7.5835979315
 20
5.9425496925
 11
7.5835548761
 21
5.9424353162
  0
LINE
  5
21D
100
AcDbEntity
  8
0
100
AcDbLine
 62
7
  6
CONTINUOUS
 10
3.3369788783
 20
5.9371957418
 11
3.4361112182
 21
5.9371957418
  0
LINE
  5
21E
100
AcDbEntity
  8
0
100
AcDbLine
 62
7
  6
CONTINUOUS
 10
7.46611122
 20
5.937195742
 11
7.5652365452
 21
5.9371957418
  0
LINE
  5
21F
100
AcDbEntity
  8
0
100
AcDbLine
 62
7
  6
CONTINUOUS
 10
8.6636077118
 20
5.9521957418
 11
7.4661077118
 21
5.9521957418
  0
LINE
  5
220
100
AcDbEntity
  8
0
100
AcDbLine
 62
7
  6
CONTINUOUS
 10
3.4361077118
 20
5.9521957418
 11
2.2386077118
 21
5.9521957418
  0
LINE
  5
221
100
AcDbEntity
  8
0
100
AcDbLine
 62
7
  6
CONTINUOUS
 10
8.6636077118
 20
5.9671957418
 11
7.4361077118
 21
5.9671957413
  0
LINE
  5
222
100
AcDbEntity
  8
0
100
AcDbLine
 62
7
  6
CONTINUOUS
 10
2.2386077118
 20
5.9671957418
 11
3.4661077118
 21
5.9671957418
  0
LINE
  5
223
100
AcDbEntity
  8
0
100
AcDbLine
 62
7
  6
CONTINUOUS
 10
2.2386077118
 20
6.0121957418
 11
3.4661077118
 21
6.0121957422
  0
LINE
  5
224
100
AcDbEntity
  8
0
100
AcDbLine
 62
7
  6
CONTINUOUS
 10
7.4361077118
 20
6.0121957418
 11
8.6636077118
 21
6.0121957418
  0
LINE
  5
225
100
AcDbEntity
  8
0
100
AcDbLine
 62
7
  6
CONTINUOUS
 10
2.2386077118
 20
6.0271957418
 11
3.4361077118
 21
6.0271957418
  0
LINE
  5
226
100
AcDbEntity
  8
0
100
AcDbLine
 62
7
  6
CONTINUOUS
 10
7.4661077118
 20
6.0271957418
 11
8.6636077118
 21
6.0271957418
  0
LINE
  5
227
100
AcDbEntity
  8
0
100
AcDbLine
 62
7
  6
CONTINUOUS
 10
7.5652365452
 20
6.0421957418
 11
7.4661042054
 21
6.0421957418
  0
LINE
  5
228
100
AcDbEntity
  8
0
100
AcDbLine
 62
7
  6
CONTINUOUS
 10
3.4361042036
 20
6.0421957416
 11
3.3369788783
 21
6.0421957418
  0
LINE
  5
229
100
AcDbEntity
  8
0
100
AcDbLine
 62
7
  6
CONTINUOUS
 10
7.4361077118
 20
5.9671957418
 11
7.4361077118
 21
6.0121957418
  0
LINE
  5
22A
100
AcDbEntity
  8
0
100
AcDbLine
 62
7
  6
CONTINUOUS
 10
7.4511077118
 20
5.9671957418
 11
7.4511077118
 21
6.0121957418
  0
LINE
  5
22B
100
AcDbEntity
  8
0
100
AcDbLine
 62
7
  6
CONTINUOUS
 10
7.4811077118
 20
5.9521957418
 11
7.4811077118
 21
6.0271957418
  0
LWPOLYLINE
  5
22C
100
AcDbEntity
  8
0
100
AcDbPolyline
 62
7
  6
CONTINUOUS
 90
12
 70
0
 10
3.3065556389
 20
6.0273230468
 10
3.3068544831
 20
6.0273652938
 10
3.3071630342
 20
6.0274153782
 10
3.3074800965
 20
6.0274737568
 10
3.3078044598
 20
6.0275408171
 10
3.3081349046
 20
6.0276168707
 10
3.3084704011
 20
6.0277022006
 10
3.3088102911
 20
6.0277971326
 10
3.3091539464
 20
6.0279019716
 10
3.3095007258
 20
6.0280169896
 10
3.3098499768
 20
6.0281424244
 10
3.3101698139
 20
6.0282659645
  0
LINE
  5
22D
100
AcDbEntity
  8
0
100
AcDbLine
 62
7
  6
CONTINUOUS
 10
7.5652365452
 20
6.0421957418
 11
7.5652365452
 21
6.0271957418
  0
LINE
  5
22E
100
AcDbEntity
  8
0
100
AcDbLine
 62
7
  6
CONTINUOUS
 10
7.5652365452
 20
5.9371957418
 11
7.5652365452
 21
5.9521957418
  0
LINE
  5
22F
100
AcDbEntity
  8
0
100
AcDbLine
 62
7
  6
CONTINUOUS
 10
5.3573577118
 20
6.5406957418
 11
5.5448577118
 21
6.5406957418
  0
LINE
  5
230
100
AcDbEntity
  8
0
100
AcDbLine
 62
7
  6
CONTINUOUS
 10
7.5835545929
 20
6.0369569414
 11
7.5835982069
 21
6.0368410704
  0
LINE
  5
231
100
AcDbEntity
  8
0
100
AcDbLine
 62
7
  6
CONTINUOUS
 10
7.5835800276
 20
6.0368862197
 11
7.5835545929
 21
6.0369569414
  0
LINE
  5
232
100
AcDbEntity
  8
0
100
AcDbLine
 62
7
  6
CONTINUOUS
 10
8.6636077118
 20
6.0271957418
 11
8.6636077118
 21
6.0121957418
  0
LINE
  5
233
100
AcDbEntity
  8
0
100
AcDbLine
 62
7
  6
CONTINUOUS
 10
8.6636077118
 20
5.9521957418
 11
8.6636077118
 21
5.9671957418
  0
ARC
  5
234
100
AcDbEntity
  8
0
100
AcDbCircle
 62
7
  6
CONTINUOUS
 10
3.4511077118
 20
5.9896957418
 40
0.495
100
AcDbArc
 50
184.3462091075
 51
175.6537908925
  0
ARC
  5
235
100
AcDbEntity
  8
0
100
AcDbCircle
 62
7
  6
CONTINUOUS
 10
3.4511077118
 20
5.9896957418
 40
0.48
100
AcDbArc
 50
184.4813798704
 51
175.5186201331
  0
ARC
  5
236
100
AcDbEntity
  8
0
100
AcDbCircle
 62
7
  6
CONTINUOUS
 10
3.4511077118
 20
5.9896957418
 40
0.1875
100
AcDbArc
 50
191.5389010096
 51
168.4610989904
  0
ARC
  5
237
100
AcDbEntity
  8
0
100
AcDbCircle
 62
7
  6
CONTINUOUS
 10
3.4511077118
 20
5.9896957418
 40
0.1725
100
AcDbArc
 50
192.5613930162
 51
167.4386069887
  0
ARC
  5
238
100
AcDbEntity
  8
0
100
AcDbCircle
 62
7
  6
CONTINUOUS
 10
3.4511077118
 20
5.9896957418
 40
0.140625
100
AcDbArc
 50
199.7154670857
 51
160.2845329143
  0
ARC
  5
239
100
AcDbEntity
  8
0
100
AcDbCircle
 62
7
  6
CONTINUOUS
 10
3.4511077118
 20
5.9896957418
 40
0.125625
100
AcDbArc
 50
204.7027354428
 51
155.2972645572
  0
ARC
  5
23A
100
AcDbEntity
  8
0
100
AcDbCircle
 62
7
  6
CONTINUOUS
 10
2.2386077118
 20
5.9896957418
 40
0.0375
100
AcDbArc
 50
90.0
 51
270.0
  0
ARC
  5
23B
100
AcDbEntity
  8
0
100
AcDbCircle
 62
7
  6
CONTINUOUS
 10
3.4361077118
 20
5.9671957418
 40
0.0299999996
100
AcDbArc
 50
270.0066967341
 51
360.0
  0
ARC
  5
23C
100
AcDbEntity
  8
0
100
AcDbCircle
 62
7
  6
CONTINUOUS
 10
3.4361077118
 20
6.0121957418
 40
0.0299999996
100
AcDbArc
 50
0.0
 51
90.0067002011
  0
ARC
  5
23D
100
AcDbEntity
  8
0
100
AcDbCircle
 62
7
  6
CONTINUOUS
 10
2.2386077118
 20
5.9896957418
 40
0.0225
100
AcDbArc
 50
90.0
 51
270.0
  0
ARC
  5
23E
100
AcDbEntity
  8
0
100
AcDbCircle
 62
7
  6
CONTINUOUS
 10
3.4361077118
 20
6.0121957418
 40
0.015
100
AcDbArc
 50
0.0
 51
90.0
  0
ARC
  5
23F
100
AcDbEntity
  8
0
100
AcDbCircle
 62
7
  6
CONTINUOUS
 10
3.4361077118
 20
5.9671957418
 40
0.015
100
AcDbArc
 50
270.0
 51
360.0
  0
ARC
  5
240
100
AcDbEntity
  8
0
100
AcDbCircle
 62
7
  6
CONTINUOUS
 10
3.3046055254
 20
6.0421957418
 40
0.015
100
AcDbArc
 50
276.3895030086
 51
340.2845329143
  0
ARC
  5
241
100
AcDbEntity
  8
0
100
AcDbCircle
 62
7
  6
CONTINUOUS
 10
3.3046055254
 20
5.9371957418
 40
0.015
100
AcDbArc
 50
19.7154670857
 51
88.9858778189
  0
ARC
  5
242
100
AcDbEntity
  8
0
100
AcDbCircle
 62
7
  6
CONTINUOUS
 10
5.4511077118
 20
2.4896957418
 40
0.21875
100
AcDbArc
 50
180.0
 51
360.0
  0
ARC
  5
243
100
AcDbEntity
  8
0
100
AcDbCircle
 62
7
  6
CONTINUOUS
 10
5.4511077118
 20
5.9896957418
 40
0.495
100
AcDbArc
 50
296.2382117623
 51
79.0740695554
  0
ARC
  5
244
100
AcDbEntity
  8
0
100
AcDbCircle
 62
7
  6
CONTINUOUS
 10
5.4511077118
 20
5.9896957418
 40
0.495
100
AcDbArc
 50
100.9259304446
 51
243.7617882377
  0
ARC
  5
245
100
AcDbEntity
  8
0
100
AcDbCircle
 62
7
  6
CONTINUOUS
 10
7.4511077118
 20
5.9896957418
 40
0.495
100
AcDbArc
 50
4.3460274091
 51
355.6539725909
  0
ARC
  5
246
100
AcDbEntity
  8
0
100
AcDbCircle
 62
7
  6
CONTINUOUS
 10
7.4511077118
 20
5.9896957418
 40
0.48
100
AcDbArc
 50
4.4813055752
 51
355.5186944279
  0
ARC
  5
247
100
AcDbEntity
  8
0
100
AcDbCircle
 62
7
  6
CONTINUOUS
 10
5.4511077118
 20
5.9896957418
 40
0.48
100
AcDbArc
 50
297.1139324795
 51
78.7282117155
  0
ARC
  5
248
100
AcDbEntity
  8
0
100
AcDbCircle
 62
7
  6
CONTINUOUS
 10
5.4511077118
 20
5.9896957418
 40
0.48
100
AcDbArc
 50
101.2717882845
 51
242.8860675148
  0
ARC
  5
249
100
AcDbEntity
  8
0
100
AcDbCircle
 62
7
  6
CONTINUOUS
 10
5.4511077118
 20
5.9896957418
 40
0.34
100
AcDbArc
 50
310.0776540673
 51
229.9223459327
  0
ARC
  5
24A
100
AcDbEntity
  8
0
100
AcDbCircle
 62
7
  6
CONTINUOUS
 10
5.4511077118
 20
5.9896957418
 40
0.21875
100
AcDbArc
 50
0.0
 51
180.0
  0
ARC
  5
24B
100
AcDbEntity
  8
0
100
AcDbCircle
 62
7
  6
CONTINUOUS
 10
7.4511077118
 20
5.9896957418
 40
0.1875
100
AcDbArc
 50
11.5409611019
 51
348.4590388981
  0
ARC
  5
24C
100
AcDbEntity
  8
0
100
AcDbCircle
 62
7
  6
CONTINUOUS
 10
7.4511077118
 20
5.9896957418
 40
0.1725
100
AcDbArc
 50
12.5619216559
 51
347.4380783508
  0
ARC
  5
24D
100
AcDbEntity
  8
0
100
AcDbCircle
 62
7
  6
CONTINUOUS
 10
7.4511077118
 20
5.9896957418
 40
0.140625
100
AcDbArc
 50
19.7154670857
 51
340.2845329143
  0
ARC
  5
24E
100
AcDbEntity
  8
0
100
AcDbCircle
 62
7
  6
CONTINUOUS
 10
7.4511077118
 20
5.9896957418
 40
0.125625
100
AcDbArc
 50
24.7027354428
 51
335.2972645572
  0
ARC
  5
24F
100
AcDbEntity
  8
0
100
AcDbCircle
 62
7
  6
CONTINUOUS
 10
8.6636077118
 20
5.9896957418
 40
0.0375
100
AcDbArc
 50
270.0
 51
90.0
  0
ARC
  5
250
100
AcDbEntity
  8
0
100
AcDbCircle
 62
7
  6
CONTINUOUS
 10
7.4661077118
 20
5.9671957418
 40
0.0299999996
100
AcDbArc
 50
180.0
 51
270.0067002011
  0
ARC
  5
251
100
AcDbEntity
  8
0
100
AcDbCircle
 62
7
  6
CONTINUOUS
 10
7.4661077118
 20
6.0121957418
 40
0.0299999996
100
AcDbArc
 50
90.0066967341
 51
180.0
  0
ARC
  5
252
100
AcDbEntity
  8
0
100
AcDbCircle
 62
7
  6
CONTINUOUS
 10
8.6636077118
 20
5.9896957418
 40
0.0225
100
AcDbArc
 50
270.0
 51
90.0
  0
ARC
  5
253
100
AcDbEntity
  8
0
100
AcDbCircle
 62
7
  6
CONTINUOUS
 10
7.4661077118
 20
5.9671957418
 40
0.015
100
AcDbArc
 50
180.0
 51
270.0
  0
ARC
  5
254
100
AcDbEntity
  8
0
100
AcDbCircle
 62
7
  6
CONTINUOUS
 10
7.4661077118
 20
6.0121957418
 40
0.015
100
AcDbArc
 50
90.0
 51
180.0
  0
ARC
  5
255
100
AcDbEntity
  8
0
100
AcDbCircle
 62
7
  6
CONTINUOUS
 10
7.5976098982
 20
5.9371957418
 40
0.015
100
AcDbArc
 50
96.3895030086
 51
160.2845329143
  0
ARC
  5
256
100
AcDbEntity
  8
0
100
AcDbCircle
 62
7
  6
CONTINUOUS
 10
7.5976098982
 20
6.0421957418
 40
0.015
100
AcDbArc
 50
199.7154670857
 51
263.6104969956
  0
SPLINE
  5
257
100
AcDbEntity
  8
0
100
AcDbSpline
 62
7
  6
CONTINUOUS
 70
0
 71
3
 72
39
 73
35
 74
0
 42
0.0000001
 43
0.0000001
 44
0.0000000001
 40
0.0
 40
0.0
 40
0.0
 40
0.0
 40
0.0000236774
 40
0.0000935604
 40
0.0002096191
 40
0.000371823
 40
0.0008345438
 40
0.0014814777
 40
0.0023123793
 40
0.0033270035
 40
0.004525105
 40
0.0059063746
 40
0.0092148916
 40
0.0132442682
 40
0.0179859673
 40
0.0234313827
 40
0.0295712691
 40
0.0363960434
 40
0.0520606969
 40
0.0703206648
 40
0.0910455364
 40
0.1141067479
 40
0.13937713
 40
0.1667197688
 40
0.1959912289
 40
0.2597389374
 40
0.3295063191
 40
0.4042806196
 40
0.4830809908
 40
0.565069434
 40
0.649502988
 40
0.8231897203
 40
0.9114256413
 40
1.0
 40
1.0
 40
1.0
 40
1.0
 10
3.318726218
 20
5.9422559827
 30
0.0
 10
3.3187263353
 20
5.94225589
 30
0.0
 10
3.3187269759
 20
5.9422558842
 30
0.0
 10
3.3187282002
 20
5.9422554489
 30
0.0
 10
3.318730375
 20
5.9422550115
 30
0.0
 10
3.3187349067
 20
5.9422538867
 30
0.0
 10
3.3187427391
 20
5.9422520662
 30
0.0
 10
3.3187546577
 20
5.9422492255
 30
0.0
 10
3.3187699792
 20
5.9422456039
 30
0.0
 10
3.318788684
 20
5.9422411716
 30
0.0
 10
3.3188107726
 20
5.9422359405
 30
0.0
 10
3.318846958
 20
5.9422273666
 30
0.0
 10
3.3189005447
 20
5.9422146736
 30
0.0
 10
3.3189747901
 20
5.9421971141
 30
0.0
 10
3.3190621794
 20
5.9421764891
 30
0.0
 10
3.319162557
 20
5.942152866
 30
0.0
 10
3.31927574
 20
5.9421262239
 30
0.0
 10
3.3194517232
 20
5.94208468
 30
0.0
 10
3.3197020905
 20
5.942025052
 30
0.0
 10
3.3200376865
 20
5.9419443561
 30
0.0
 10
3.3204186473
 20
5.941852504
 30
0.0
 10
3.3208425349
 20
5.9417497895
 30
0.0
 10
3.3213068014
 20
5.9416362333
 30
0.0
 10
3.3218088746
 20
5.9415121634
 30
0.0
 10
3.3225463785
 20
5.9413278129
 30
0.0
 10
3.3235430626
 20
5.9410754088
 30
0.0
 10
3.3248170003
 20
5.9407471595
 30
0.0
 10
3.3261801719
 20
5.9403843799
 30
0.0
 10
3.3276162262
 20
5.9399954001
 30
0.0
 10
3.3291081391
 20
5.9395794206
 30
0.0
 10
3.3311732465
 20
5.9389880769
 30
0.0
 10
3.3332700865
 20
5.938364279
 30
0.0
 10
3.3353836396
 20
5.9377058743
 30
0.0
 10
3.336447287
 20
5.9373656774
 30
0.0
 10
3.3369797042
 20
5.9371939464
 30
0.0
  0
SPLINE
  5
258
100
AcDbEntity
  8
0
100
AcDbSpline
 62
7
  6
CONTINUOUS
 70
0
 71
3
 72
40
 73
36
 74
0
 42
0.0000001
 43
0.0000001
 44
0.0000000001
 40
0.0
 40
0.0
 40
0.0
 40
0.0
 40
0.0885741235
 40
0.1768099375
 40
0.2642723251
 40
0.3504975994
 40
0.4349309247
 40
0.5169191899
 40
0.5957193767
 40
0.6704937821
 40
0.7402616246
 40
0.8040086422
 40
0.8332799836
 40
0.8606229813
 40
0.8858935496
 40
0.9089545343
 40
0.9296792107
 40
0.9479392317
 40
0.9636040282
 40
0.9704288637
 40
0.9765687887
 40
0.9820142081
 40
0.986755874
 40
0.9907851938
 40
0.9940936456
 40
0.9954748845
 40
0.9966729591
 40
0.9976875626
 40
0.9985184516
 40
0.999165383
 40
0.9996281134
 40
0.9997903273
 40
0.9999063997
 40
0.9999763005
 40
1.0
 40
1.0
 40
1.0
 40
1.0
 10
3.3369797371
 20
6.0421976087
 30
0.0
 10
3.3364473064
 20
6.0420259172
 30
0.0
 10
3.3353836516
 20
6.0416857384
 30
0.0
 10
3.3337900766
 20
6.04118918
 30
0.0
 10
3.3322064872
 20
6.0407106474
 30
0.0
 10
3.3306422421
 20
6.0402513173
 30
0.0
 10
3.3291081642
 20
6.0398121065
 30
0.0
 10
3.3276162577
 20
6.0393960996
 30
0.0
 10
3.3261801916
 20
6.0390071446
 30
0.0
 10
3.324817017
 20
6.0386443453
 30
0.0
 10
3.3235430903
 20
6.0383160344
 30
0.0
 10
3.3225463919
 20
6.0380636785
 30
0.0
 10
3.3218088836
 20
6.0378793446
 30
0.0
 10
3.3213068115
 20
6.0377552503
 30
0.0
 10
3.3208425444
 20
6.0376416799
 30
0.0
 10
3.3204186534
 20
6.0375389779
 30
0.0
 10
3.3200376909
 20
6.0374471361
 30
0.0
 10
3.3197020944
 20
6.0373664364
 30
0.0
 10
3.3194517257
 20
6.0373068026
 30
0.0
 10
3.319275741
 20
6.0372652555
 30
0.0
 10
3.3191625571
 20
6.0372386119
 30
0.0
 10
3.319062179
 20
6.0372149887
 30
0.0
 10
3.3189747897
 20
6.0371943648
 30
0.0
 10
3.3189005445
 20
6.0371768074
 30
0.0
 10
3.3188469581
 20
6.0371641161
 30
0.0
 10
3.318810773
 20
6.0371555433
 30
0.0
 10
3.3187886847
 20
6.0371503128
 30
0.0
 10
3.3187699802
 20
6.0371458809
 30
0.0
 10
3.3187546589
 20
6.0371422593
 30
0.0
 10
3.3187427403
 20
6.0371394186
 30
0.0
 10
3.3187349077
 20
6.0371375979
 30
0.0
 10
3.3187303758
 20
6.0371364728
 30
0.0
 10
3.3187282009
 20
6.0371360351
 30
0.0
 10
3.3187269762
 20
6.0371355999
 30
0.0
 10
3.3187263355
 20
6.0371355936
 30
0.0
 10
3.318726218
 20
6.0371355008
 30
0.0
  0
SPLINE
  5
259
100
AcDbEntity
  8
0
100
AcDbSpline
 62
7
  6
CONTINUOUS
 70
0
 71
3
 72
39
 73
35
 74
0
 42
0.0000001
 43
0.0000001
 44
0.0000000001
 40
0.0
 40
0.0
 40
0.0
 40
0.0
 40
0.0000236774
 40
0.0000935604
 40
0.0002096191
 40
0.000371823
 40
0.0008345438
 40
0.0014814777
 40
0.0023123793
 40
0.0033270035
 40
0.004525105
 40
0.0059063746
 40
0.0092148916
 40
0.0132442682
 40
0.0179859673
 40
0.0234313827
 40
0.0295712691
 40
0.0363960434
 40
0.0520606969
 40
0.0703206648
 40
0.0910455364
 40
0.1141067479
 40
0.13937713
 40
0.1667197688
 40
0.1959912289
 40
0.2597389374
 40
0.3295063191
 40
0.4042806196
 40
0.4830809908
 40
0.565069434
 40
0.649502988
 40
0.8231897203
 40
0.9114256413
 40
1.0
 40
1.0
 40
1.0
 40
1.0
 10
7.5834892055
 20
6.0371355008
 30
0.0
 10
7.5834890882
 20
6.0371355935
 30
0.0
 10
7.5834884477
 20
6.0371355993
 30
0.0
 10
7.5834872234
 20
6.0371360346
 30
0.0
 10
7.5834850486
 20
6.037136472
 30
0.0
 10
7.5834805169
 20
6.0371375969
 30
0.0
 10
7.5834726844
 20
6.0371394173
 30
0.0
 10
7.5834607658
 20
6.037142258
 30
0.0
 10
7.5834454444
 20
6.0371458796
 30
0.0
 10
7.5834267396
 20
6.0371503119
 30
0.0
 10
7.583404651
 20
6.037155543
 30
0.0
 10
7.5833684656
 20
6.0371641169
 30
0.0
 10
7.5833148789
 20
6.0371768099
 30
0.0
 10
7.5832406334
 20
6.0371943694
 30
0.0
 10
7.5831532442
 20
6.0372149945
 30
0.0
 10
7.5830528666
 20
6.0372386175
 30
0.0
 10
7.5829396835
 20
6.0372652596
 30
0.0
 10
7.5827637003
 20
6.0373068035
 30
0.0
 10
7.5825133331
 20
6.0373664315
 30
0.0
 10
7.5821777371
 20
6.0374471274
 30
0.0
 10
7.5817967763
 20
6.0375389795
 30
0.0
 10
7.5813728887
 20
6.037641694
 30
0.0
 10
7.5809086222
 20
6.0377552502
 30
0.0
 10
7.580406549
 20
6.0378793201
 30
0.0
 10
7.5796690451
 20
6.0380636706
 30
0.0
 10
7.578672361
 20
6.0383160747
 30
0.0
 10
7.5773984233
 20
6.038644324
 30
0.0
 10
7.5760352517
 20
6.0390071036
 30
0.0
 10
7.5745991973
 20
6.0393960834
 30
0.0
 10
7.5731072845
 20
6.0398120629
 30
0.0
 10
7.5710421771
 20
6.0404034066
 30
0.0
 10
7.5689453371
 20
6.0410272045
 30
0.0
 10
7.5668317839
 20
6.0416856092
 30
0.0
 10
7.5657681365
 20
6.0420258061
 30
0.0
 10
7.5652357193
 20
6.0421975371
 30
0.0
  0
SPLINE
  5
25A
100
AcDbEntity
  8
0
100
AcDbSpline
 62
7
  6
CONTINUOUS
 70
0
 71
3
 72
40
 73
36
 74
0
 42
0.0000001
 43
0.0000001
 44
0.0000000001
 40
0.0
 40
0.0
 40
0.0
 40
0.0
 40
0.0885741235
 40
0.1768099375
 40
0.2642723251
 40
0.3504975994
 40
0.4349309247
 40
0.5169191899
 40
0.5957193767
 40
0.6704937821
 40
0.7402616246
 40
0.8040086422
 40
0.8332799836
 40
0.8606229813
 40
0.8858935496
 40
0.9089545343
 40
0.9296792107
 40
0.9479392317
 40
0.9636040282
 40
0.9704288637
 40
0.9765687887
 40
0.9820142081
 40
0.986755874
 40
0.9907851938
 40
0.9940936456
 40
0.9954748845
 40
0.9966729591
 40
0.9976875626
 40
0.9985184516
 40
0.999165383
 40
0.9996281134
 40
0.9997903273
 40
0.9999063997
 40
0.9999763005
 40
1.0
 40
1.0
 40
1.0
 40
1.0
 10
7.5652356864
 20
5.9371938749
 30
0.0
 10
7.5657681172
 20
5.9373655663
 30
0.0
 10
7.566831772
 20
5.9377057451
 30
0.0
 10
7.5684253469
 20
5.9382023035
 30
0.0
 10
7.5700089364
 20
5.9386808361
 30
0.0
 10
7.5715731815
 20
5.9391401662
 30
0.0
 10
7.5731072594
 20
5.939579377
 30
0.0
 10
7.5745991658
 20
5.9399953839
 30
0.0
 10
7.576035232
 20
5.9403843389
 30
0.0
 10
7.5773984065
 20
5.9407471382
 30
0.0
 10
7.5786723333
 20
5.9410754491
 30
0.0
 10
7.5796690317
 20
5.9413278051
 30
0.0
 10
7.58040654
 20
5.9415121389
 30
0.0
 10
7.5809086121
 20
5.9416362332
 30
0.0
 10
7.5813728792
 20
5.9417498036
 30
0.0
 10
7.5817967702
 20
5.9418525056
 30
0.0
 10
7.5821777327
 20
5.9419443474
 30
0.0
 10
7.5825133292
 20
5.9420250471
 30
0.0
 10
7.5827636979
 20
5.9420846809
 30
0.0
 10
7.5829396826
 20
5.9421262281
 30
0.0
 10
7.5830528665
 20
5.9421528716
 30
0.0
 10
7.5831532446
 20
5.9421764949
 30
0.0
 10
7.5832406339
 20
5.9421971187
 30
0.0
 10
7.5833148791
 20
5.9422146762
 30
0.0
 10
7.5833684655
 20
5.9422273674
 30
0.0
 10
7.5834046506
 20
5.9422359402
 30
0.0
 10
7.5834267388
 20
5.9422411707
 30
0.0
 10
7.5834454434
 20
5.9422456027
 30
0.0
 10
7.5834607647
 20
5.9422492242
 30
0.0
 10
7.5834726833
 20
5.9422520649
 30
0.0
 10
7.5834805158
 20
5.9422538856
 30
0.0
 10
7.5834850477
 20
5.9422550107
 30
0.0
 10
7.5834872227
 20
5.9422554484
 30
0.0
 10
7.5834884474
 20
5.9422558836
 30
0.0
 10
7.5834890881
 20
5.9422558899
 30
0.0
 10
7.5834892055
 20
5.9422559827
 30
0.0
  0
LINE
  5
25B
100
AcDbEntity
  8
0
100
AcDbLine
 62
7
  6
CONTINUOUS
 10
3.4361077118
 20
6.0271957418
 11
3.4361042036
 21
6.0421957416
  0
LINE
  5
25C
100
AcDbEntity
  8
0
100
AcDbLine
 62
7
  6
CONTINUOUS
 10
3.43611122
 20
5.9371957418
 11
3.4361077118
 21
5.9521957418
  0
LINE
  5
25D
100
AcDbEntity
  8
0
100
AcDbLine
 62
7
  6
CONTINUOUS
 10
7.4661077118
 20
5.9521957418
 11
7.46611122
 21
5.937195742
  0
LINE
  5
25E
100
AcDbEntity
  8
0
100
AcDbLine
 62
7
  6
CONTINUOUS
 10
7.4661042036
 20
6.0421957418
 11
7.4661077118
 21
6.0271957418
  0
ENDSEC
  0
SECTION
  2
OBJECTS
  0
DICTIONARY
  5
C
100
AcDbDictionary
280
0
281
1
  3
ACAD_GROUP
350
D
  3
ACAD_MLINESTYLE
350
17
  3
ACAD_LAYOUT
350
1A
  3
ACAD_PLOTSETTINGS
350
19
  3
ACAD_PLOTSTYLENAME
350
E
  0
DICTIONARY
  5
D
102
{ACAD_REACTORS
330
C
102
}
100
AcDbDictionary
280
0
281
1
  0
ACDBDICTIONARYWDFLT
  5
E
102
{ACAD_REACTORS
330
C
102
}
100
AcDbDictionary
281
1
  3
Normal
350
F
100
AcDbDictionaryWithDefault
340
F
  0
DICTIONARY
  5
17
102
{ACAD_REACTORS
330
C
102
}
100
AcDbDictionary
280
0
281
1
  3
Standard
350
18
  0
DICTIONARY
  5
19
102
{ACAD_REACTORS
330
C
102
}
100
AcDbDictionary
281
1
  0
DICTIONARY
  5
1A
102
{ACAD_REACTORS
330
C
102
}
100
AcDbDictionary
281
1
  3
Model
350
25F
  3
Layout1
350
260
  0
ACDBPLACEHOLDER
  5
F
102
{ACAD_REACTORS
330
E
102
}
  0
MLINESTYLE
  5
18
102
{ACAD_REACTORS
330
17
102
}
100
AcDbMlineStyle
  2
STANDARD
 70
0
  3

 62
256
 51
90.0
 52
90.0
 71
2
 49
0.5
 62
256
  6
BYLAYER
 49
-0.5
 62
256
  6
BYLAYER
  0
LAYOUT
  5
25F
102
{ACAD_REACTORS
330
1A
102
}
100
AcDbPlotSettings
  1

  2
none_device
  4
ANSI_A_(11.00_x_8.50_Inches)
  6

 40
0.0
 41
0.0
 42
0.0
 43
0.0
 44
279.4
 45
215.9
 46
0.0
 47
0.0
 48
0.0
 49
0.0
140
0.0
141
0.0
142
1.0
143
1.0
 70
1024
 72
0
 73
0
 74
0
  7

 75
0
147
1.0
148
0.0
149
0.0
100
AcDbLayout
  1
Model
 70
0
 71
0
 10
0.0
 20
0.0
 11
11.0
 21
8.5
 12
0.0
 22
0.0
 32
0.0
 14
0.0
 24
0.0
 34
0.0
 15
0.0
 25
0.0
 35
0.0
146
0.0
 13
0.0
 23
0.0
 33
0.0
 16
1.0
 26
0.0
 36
0.0
 17
0.0
 27
1.0
 37
0.0
 76
0
330
203
345
0
346
0
  0
LAYOUT
  5
260
102
{ACAD_REACTORS
330
1A
102
}
100
AcDbPlotSettings
  1

  2
none_device
  4
ANSI_A_(11.00_x_8.50_Inches)
  6

 40
0.0
 41
0.0
 42
0.0
 43
0.0
 44
279.4
 45
215.9
 46
0.0
 47
0.0
 48
0.0
 49
0.0
140
0.0
141
0.0
142
1.0
143
1.0
 70
0
 72
0
 73
0
 74
0
  7

 75
0
147
1.0
148
0.0
149
0.0
100
AcDbLayout
  1
Layout1
 70
0
 71
1
 10
0.0
 20
0.0
 11
11.0
 21
8.5
 12
0.0
 22
0.0
 32
0.0
 14
0.0
 24
0.0
 34
0.0
 15
0.0
 25
0.0
 35
0.0
146
0.0
 13
0.0
 23
0.0
 33
0.0
 16
1.0
 26
0.0
 36
0.0
 17
0.0
 27
1.0
 37
0.0
 76
0
330
204
345
0
346
0
  0
ENDSEC
  0
EOF
