999
DXF file: 3320c_top.dxf
999
Pro/ENGINEER 2018400 by Parametric Technology Corporation
  0
SECTION
  2
HEADER
  9
$ACADVER
  1
AC1027
  9
$DWGCODEPAGE
  3
ANSI_1252
  9
$EXTMAX
 10
11.0
 20
8.5
 30
0.0
  9
$EXTMIN
 10
0.0
 20
0.0
 30
0.0
  9
$LIMMIN
 10
0.0
 20
0.0
  9
$LIMMAX
 10
11.0
 20
8.5
  9
$VIEWCTR
 10
5.5
 20
4.25
  9
$VIEWSIZE
 40
8.5
  9
$CLAYER
  8
0
  9
$LTSCALE
 40
0.605
  9
$CELTYPE
  6
BYLAYER
  9
$DIMSCALE
 40
1.0
  9
$DIMASZ
 40
0.1
  9
$DIMEXO
 40
0.0625
  9
$DIMDLI
 40
0.418
  9
$DIMEXE
 40
0.125
  9
$DIMCEN
 40
0.099
  9
$DIMLFAC
 40
1.0
  9
$DIMBLK
  1
_FILLED
  9
$DIMALT
 70
1
  9
$DIMALTD
 70
2
  9
$DIMALTTD
 70
2
  9
$DIMALTF
 40
25.4
  9
$DIMTXT
 40
0.08
  9
$DIMTOL
 70
1
  9
$DIMLIM
 70
0
  9
$DIMTFAC
 40
1.0
  9
$DIMTP
 40
0.001
  9
$DIMTM
 40
0.001
  9
$DIMGAP
 40
0.09
  9
$DIMDSEP
 70
46
  9
$AUNITS
 70
0
  9
$PDMODE
 70
3
  9
$PDSIZE
 40
0.06
  9
$HANDSEED
  5
261
  9
$TILEMODE
 70
1
  9
$MEASUREMENT
 70
0
  9
$INSUNITS
 70
1
  0
ENDSEC
  0
SECTION
  2
CLASSES
  0
CLASS
  1
ACDBDICTIONARYWDFLT
  2
AcDbDictionaryWithDefault
  3
AutoCAD 2000
 90
0
 91
1
280
0
281
0
  0
CLASS
  1
ACDBPLACEHOLDER
  2
AcDbPlaceHolder
  3
AutoCAD 2000
 90
0
 91
1
280
0
281
0
  0
CLASS
  1
LAYOUT
  2
AcDbLayout
  3
AutoCAD 2000
 90
0
 91
0
280
0
281
0
  0
ENDSEC
  0
SECTION
  2
TABLES
  0
TABLE
  2
VPORT
  5
8
100
AcDbSymbolTable
 70
2
  0
VPORT
  5
1F4
100
AcDbSymbolTableRecord
100
AcDbViewportTableRecord
  2
*ACTIVE
 70
0
 10
0.0
 20
0.0
 11
1.0
 21
1.0
 12
5.5
 22
4.25
 13
0.0
 23
0.0
 14
1.0
 24
1.0
 15
0.0
 25
0.0
 16
0.0
 26
0.0
 36
1.0
 17
0.0
 27
0.0
 37
0.0
 40
8.5
 41
1.2941176471
 42
50.0
 43
0.0
 44
0.0
 50
0.0
 51
0.0
 71
0
 72
100
 73
1
 74
1
 75
0
 76
0
 77
0
 78
0
  0
ENDTAB
  0
TABLE
  2
LTYPE
  5
5
100
AcDbSymbolTable
 70
6
  0
LTYPE
  5
14
100
AcDbSymbolTableRecord
100
AcDbLinetypeTableRecord
  2
BYBLOCK
 70
0
  3

 72
65
 73
0
 40
0.0
  0
LTYPE
  5
15
100
AcDbSymbolTableRecord
100
AcDbLinetypeTableRecord
  2
BYLAYER
 70
0
  3

 72
65
 73
0
 40
0.0
  0
LTYPE
  5
16
100
AcDbSymbolTableRecord
100
AcDbLinetypeTableRecord
  2
CONTINUOUS
 70
64
  3
Solid line
 72
65
 73
0
 40
0.0
  0
LTYPE
  5
1F5
100
AcDbSymbolTableRecord
100
AcDbLinetypeTableRecord
  2
CENTER
 70
64
  3
____ _ ____ _ ____ _ ____ _ ____ _ ____ _ ____
 72
65
 73
4
 40
0.6
 49
0.375
 74
0
 49
-0.075
 74
0
 49
0.075
 74
0
 49
-0.075
 74
0
  0
LTYPE
  5
1F6
100
AcDbSymbolTableRecord
100
AcDbLinetypeTableRecord
  2
HIDDEN
 70
64
  3
- - - - - - - - - - - - - - - - - - - -
 72
65
 73
2
 40
0.2
 49
0.1
 74
0
 49
-0.1
 74
0
  0
LTYPE
  5
1F7
100
AcDbSymbolTableRecord
100
AcDbLinetypeTableRecord
  2
PHANTOM
 70
64
  3
_____ _ _ _____ _ _ _____ _ _ _____
 72
65
 73
6
 40
0.8
 49
0.45
 74
0
 49
-0.05
 74
0
 49
0.1
 74
0
 49
-0.05
 74
0
 49
0.1
 74
0
 49
-0.05
 74
0
  0
LTYPE
  5
1F8
100
AcDbSymbolTableRecord
100
AcDbLinetypeTableRecord
  2
DOT
 70
64
  3
. . . . . . . . . . . . . . . . . . . .
 72
65
 73
2
 40
0.2
 49
0.1
 74
0
 49
-0.1
 74
0
  0
LTYPE
  5
1F9
100
AcDbSymbolTableRecord
100
AcDbLinetypeTableRecord
  2
DASHED
 70
64
  3
- - - - - - - - - - - - - - - - - - - -
 72
65
 73
2
 40
0.2
 49
0.1
 74
0
 49
-0.1
 74
0
  0
ENDTAB
  0
TABLE
  2
LAYER
  5
2
100
AcDbSymbolTable
 70
36
  0
LAYER
  5
10
100
AcDbSymbolTableRecord
100
AcDbLayerTableRecord
  2
0
 70
0
 62
7
  6
CONTINUOUS
370
-3
390
F
  0
LAYER
  5
1FA
100
AcDbSymbolTableRecord
100
AcDbLayerTableRecord
  2
DEFAULT_1
 70
0
 62
7
  6
CENTER
370
-3
390
F
  0
LAYER
  5
1FB
100
AcDbSymbolTableRecord
100
AcDbLayerTableRecord
  2
DEFAULT_2
 70
0
 62
8
  6
HIDDEN
370
-3
390
F
  0
LAYER
  5
1FC
100
AcDbSymbolTableRecord
100
AcDbLayerTableRecord
  2
DEFAULT_3
 70
0
 62
7
  6
PHANTOM
370
-3
390
F
  0
LAYER
  5
1FD
100
AcDbSymbolTableRecord
100
AcDbLayerTableRecord
  2
DEFAULT_COORDINATE_SYSTEM
 70
0
 62
7
  6
CONTINUOUS
370
-3
390
F
  0
LAYER
  5
1FE
100
AcDbSymbolTableRecord
100
AcDbLayerTableRecord
  2
DEFAULT_DATUM_AXES
 70
0
 62
7
  6
CONTINUOUS
370
-3
390
F
  0
LAYER
  5
1FF
100
AcDbSymbolTableRecord
100
AcDbLayerTableRecord
  2
DEFAULT_DATUM_PLANES
 70
0
 62
7
  6
CONTINUOUS
370
-3
390
F
  0
ENDTAB
  0
TABLE
  2
STYLE
  5
3
100
AcDbSymbolTable
 70
1
  0
STYLE
  5
11
100
AcDbSymbolTableRecord
100
AcDbTextStyleTableRecord
  2
STANDARD
 70
0
 40
0.0
 41
0.8
 50
0.0
 71
0
 42
0.2
  3
txt
  4

  0
STYLE
  5
200
100
AcDbSymbolTableRecord
100
AcDbTextStyleTableRecord
  2
TEXTSTYLE_1
 70
0
 40
0.0
 41
0.8
 50
0.0
 71
0
 42
0.2
  3
gdt
  4

  0
ENDTAB
  0
TABLE
  2
VIEW
  5
6
100
AcDbSymbolTable
 70
0
  0
ENDTAB
  0
TABLE
  2
UCS
  5
7
100
AcDbSymbolTable
 70
0
  0
ENDTAB
  0
TABLE
  2
APPID
  5
9
100
AcDbSymbolTable
 70
1
  0
APPID
  5
201
100
AcDbSymbolTableRecord
100
AcDbRegAppTableRecord
  2
ACAD
 70
0
  0
ENDTAB
  0
TABLE
  2
BLOCK_RECORD
  5
1
100
AcDbSymbolTable
 70
0
  0
BLOCK_RECORD
  5
202
100
AcDbSymbolTableRecord
100
AcDbBlockTableRecord
  2
*Model_Space
  0
BLOCK_RECORD
  5
203
100
AcDbSymbolTableRecord
100
AcDbBlockTableRecord
  2
*Paper_Space
  0
BLOCK_RECORD
  5
204
100
AcDbSymbolTableRecord
100
AcDbBlockTableRecord
  2
_FILLED
  0
ENDTAB
  0
TABLE
  2
DIMSTYLE
  5
A
100
AcDbSymbolTable
 70
1
100
AcDbDimStyleTable
 71
0
  0
DIMSTYLE
105
205
100
AcDbSymbolTableRecord
100
AcDbDimStyleTableRecord
  2
STANDARD
 70
0
  3

  4

 40
1.0
 41
0.1
 42
0.0625
 43
0.38
 44
0.125
 45
0.0
 46
0.0
 47
0.001
 48
0.001
140
0.08
141
0.09
142
0.0
143
25.4
144
1.0
145
0.0
146
1.0
147
0.09
 71
1.0
 72
0.0
 73
1
 74
1
 75
0
 76
0
 77
0
 78
4
 79
1
170
1
171
2
172
0
173
0
174
0
175
0
176
0
177
0
178
0
270
2
179
3
271
3
272
3
273
2
274
2
275
0
280
0
281
0
282
0
283
1
284
4
285
0
286
0
287
3
288
0
340
11
278
46
341
204
342
204
343
204
344
204
  0
ENDTAB
  0
ENDSEC
  0
SECTION
  2
BLOCKS
  0
BLOCK
  5
20
100
AcDbEntity
  8
0
100
AcDbBlockBegin
  2
*Model_Space
 70
0
 10
0.0
 20
0.0
 30
0.0
  3
*Model_Space
  1

  0
ENDBLK
  5
21
100
AcDbEntity
  8
0
100
AcDbBlockEnd
  0
BLOCK
  5
1C
100
AcDbEntity
  8
0
100
AcDbBlockBegin
  2
*Paper_Space
 70
0
 10
0.0
 20
0.0
 30
0.0
  3
*Paper_Space
  1

  0
ENDBLK
  5
1D
100
AcDbEntity
  8
0
100
AcDbBlockEnd
  0
BLOCK
  5
206
100
AcDbEntity
  8
0
100
AcDbBlockBegin
  2
_FILLED
 70
64
 10
0.0
 20
0.0
  3
_FILLED
  1

  0
SOLID
  5
207
100
AcDbEntity
  8
0
  6
BYBLOCK
 62
0
100
AcDbTrace
 10
0.0
 20
0.0
 11
-1.0
 21
0.2
 12
-1.0
 22
-0.2
 13
-1.0
 23
-0.2
  0
ENDBLK
  5
208
100
AcDbEntity
  8
0
  6
BYBLOCK
 62
0
100
AcDbBlockEnd
  0
ENDSEC
  0
SECTION
  2
ENTITIES
  0
MTEXT
  5
209
100
AcDbEntity
  8
0
100
AcDbMText
 62
2
  6
CONTINUOUS
  7
STANDARD
 71
3
 72
1
 10
5.5315688776
 20
1.3888163265
 30
0.0
 11
1.0
 21
0.0
 31
0.0
 73
2
 44
0.9
  1
SCALE  .500
 40
0.08
 41
0.704
  0
LINE
  5
20A
100
AcDbEntity
  8
0
100
AcDbLine
 62
7
  6
CONTINUOUS
 10
0.0
 20
0.0
 11
0.0
 21
8.5
  0
LINE
  5
20B
100
AcDbEntity
  8
0
100
AcDbLine
 62
7
  6
CONTINUOUS
 10
0.0
 20
0.0
 11
11.0
 21
0.0
  0
LINE
  5
20C
100
AcDbEntity
  8
0
100
AcDbLine
 62
7
  6
CONTINUOUS
 10
0.0
 20
8.5
 11
11.0
 21
8.5
  0
LINE
  5
20D
100
AcDbEntity
  8
0
100
AcDbLine
 62
7
  6
CONTINUOUS
 10
11.0
 20
0.0
 11
11.0
 21
8.5
  0
LINE
  5
20E
100
AcDbEntity
  8
0
100
AcDbLine
 62
9
  6
CONTINUOUS
 10
2.3190476402
 20
5.3030663265
 11
2.3190476402
 21
5.2880663265
  0
LINE
  5
20F
100
AcDbEntity
  8
0
100
AcDbLine
 62
9
  6
CONTINUOUS
 10
2.3190476402
 20
5.2280663265
 11
2.3190476402
 21
5.2430663265
  0
LWPOLYLINE
  5
210
100
AcDbEntity
  8
0
100
AcDbPolyline
 62
7
  6
CONTINUOUS
 90
34
 70
0
 10
3.390609742
 20
5.3041365492
 10
3.390523636
 20
5.3041024618
 10
3.3904065999
 20
5.3040571113
 10
3.3902897517
 20
5.3040129519
 10
3.3901731048
 20
5.3039699726
 10
3.3900566723
 20
5.3039281623
 10
3.3899405018
 20
5.3038875218
 10
3.3898246062
 20
5.3038480389
 10
3.3897089982
 20
5.3038097016
 10
3.3895937251
 20
5.3037725087
 10
3.3894787994
 20
5.303736447
 10
3.3893642335
 20
5.3037015035
 10
3.3892500742
 20
5.303667675
 10
3.3891363337
 20
5.3036349475
 10
3.3890230235
 20
5.3036033068
 10
3.3889101906
 20
5.3035727483
 10
3.3887978445
 20
5.3035432565
 10
3.3886859981
 20
5.3035148168
 10
3.3885747026
 20
5.3034874239
 10
3.3884639546
 20
5.3034610586
 10
3.3883537788
 20
5.3034357085
 10
3.3882442689
 20
5.3034113758
 10
3.3881354279
 20
5.3033880412
 10
3.3880272731
 20
5.3033656887
 10
3.38791992
 20
5.3033443211
 10
3.3878133785
 20
5.3033239186
 10
3.3877076581
 20
5.3033044612
 10
3.3876028744
 20
5.3032859477
 10
3.3874990367
 20
5.3032683561
 10
3.3873961539
 20
5.3032516646
 10
3.3872943412
 20
5.3032358679
 10
3.3871936106
 20
5.3032209427
 10
3.3870939669
 20
5.3032068652
 10
3.3869955151
 20
5.3031936248
  0
LINE
  5
211
100
AcDbEntity
  8
0
100
AcDbLine
 62
9
  6
CONTINUOUS
 10
3.4174188067
 20
5.3180663265
 11
3.4174188067
 21
5.3030663265
  0
LINE
  5
212
100
AcDbEntity
  8
0
100
AcDbLine
 62
9
  6
CONTINUOUS
 10
3.4174188067
 20
5.2130663265
 11
3.4174188067
 21
5.2280663265
  0
LINE
  5
213
100
AcDbEntity
  8
0
100
AcDbLine
 62
9
  6
CONTINUOUS
 10
3.5015476402
 20
5.2280663265
 11
3.5015476402
 21
5.3030663265
  0
LINE
  5
214
100
AcDbEntity
  8
0
100
AcDbLine
 62
7
  6
CONTINUOUS
 10
3.5315476402
 20
5.2880663265
 11
3.5315476402
 21
5.2430663265
  0
LINE
  5
215
100
AcDbEntity
  8
0
100
AcDbLine
 62
9
  6
CONTINUOUS
 10
3.5465476402
 20
5.2880663265
 11
3.5465476402
 21
5.2430663265
  0
LWPOLYLINE
  5
216
100
AcDbEntity
  8
0
100
AcDbPolyline
 62
7
  6
CONTINUOUS
 90
34
 70
0
 10
7.6724855383
 20
5.2269961039
 10
7.6725716443
 20
5.2270301913
 10
7.6726886804
 20
5.2270755418
 10
7.6728055286
 20
5.2271197012
 10
7.6729221755
 20
5.2271626805
 10
7.673038608
 20
5.2272044908
 10
7.6731547785
 20
5.2272451313
 10
7.6732706742
 20
5.2272846141
 10
7.6733862821
 20
5.2273229514
 10
7.6735015552
 20
5.2273601444
 10
7.6736164809
 20
5.227396206
 10
7.6737310469
 20
5.2274311496
 10
7.6738452061
 20
5.2274649781
 10
7.6739589467
 20
5.2274977056
 10
7.6740722568
 20
5.2275293462
 10
7.6741850898
 20
5.2275599047
 10
7.6742974359
 20
5.2275893966
 10
7.6744092823
 20
5.2276178363
 10
7.6745205778
 20
5.2276452292
 10
7.6746313257
 20
5.2276715945
 10
7.6747415015
 20
5.2276969446
 10
7.6748510114
 20
5.2277212773
 10
7.6749598524
 20
5.2277446118
 10
7.6750680072
 20
5.2277669644
 10
7.6751753603
 20
5.2277883319
 10
7.6752819018
 20
5.2278087345
 10
7.6753876222
 20
5.2278281918
 10
7.6754924059
 20
5.2278467054
 10
7.6755962436
 20
5.227864297
 10
7.6756991264
 20
5.2278809884
 10
7.6758009391
 20
5.2278967852
 10
7.6759016697
 20
5.2279117103
 10
7.6760013134
 20
5.2279257879
 10
7.6760997652
 20
5.2279390283
  0
LINE
  5
217
100
AcDbEntity
  8
0
100
AcDbLine
 62
7
  6
CONTINUOUS
 10
5.3127976402
 20
1.7025663265
 11
5.3127976402
 21
5.2655663265
  0
LINE
  5
218
100
AcDbEntity
  8
0
100
AcDbLine
 62
7
  6
CONTINUOUS
 10
5.4377976402
 20
5.5923573499
 11
5.4377976402
 21
5.8165663265
  0
LINE
  5
219
100
AcDbEntity
  8
0
100
AcDbLine
 62
7
  6
CONTINUOUS
 10
5.6252976402
 20
5.5923573499
 11
5.6252976402
 21
5.8165663265
  0
LINE
  5
21A
100
AcDbEntity
  8
0
100
AcDbLine
 62
7
  6
CONTINUOUS
 10
5.7502976402
 20
1.7025663265
 11
5.7502976402
 21
5.2655663265
  0
LWPOLYLINE
  5
21B
100
AcDbEntity
  8
0
100
AcDbPolyline
 62
7
  6
CONTINUOUS
 90
11
 70
0
 10
7.6760997652
 20
5.2279390283
 10
7.6761969984
 20
5.2279514542
 10
7.6762930245
 20
5.2279630927
 10
7.6763877963
 20
5.2279739639
 10
7.676481299
 20
5.2279840917
 10
7.6765735342
 20
5.2279935016
 10
7.6766644795
 20
5.2280022165
 10
7.6767540775
 20
5.228010256
 10
7.6768423743
 20
5.2280176493
 10
7.6769295038
 20
5.2280244303
 10
7.6770156543
 20
5.2280306334
  0
LINE
  5
21C
100
AcDbEntity
  8
0
100
AcDbLine
 62
7
  6
CONTINUOUS
 10
7.6640201668
 20
5.2183764484
 11
7.6639944255
 21
5.218304869
  0
LINE
  5
21D
100
AcDbEntity
  8
0
100
AcDbLine
 62
9
  6
CONTINUOUS
 10
3.4174188067
 20
5.2130663265
 11
3.5165511466
 21
5.2130663265
  0
LINE
  5
21E
100
AcDbEntity
  8
0
100
AcDbLine
 62
9
  6
CONTINUOUS
 10
7.5465511484
 20
5.2130663267
 11
7.6456764736
 21
5.2130663265
  0
LINE
  5
21F
100
AcDbEntity
  8
0
100
AcDbLine
 62
7
  6
CONTINUOUS
 10
8.7440476402
 20
5.2280663265
 11
7.5465476402
 21
5.2280663265
  0
LINE
  5
220
100
AcDbEntity
  8
0
100
AcDbLine
 62
7
  6
CONTINUOUS
 10
3.5165476402
 20
5.2280663265
 11
2.3190476402
 21
5.2280663265
  0
LINE
  5
221
100
AcDbEntity
  8
0
100
AcDbLine
 62
9
  6
CONTINUOUS
 10
8.7440476402
 20
5.2430663265
 11
7.5165476402
 21
5.2430663261
  0
LINE
  5
222
100
AcDbEntity
  8
0
100
AcDbLine
 62
9
  6
CONTINUOUS
 10
2.3190476402
 20
5.2430663265
 11
3.5465476402
 21
5.2430663265
  0
LINE
  5
223
100
AcDbEntity
  8
0
100
AcDbLine
 62
9
  6
CONTINUOUS
 10
2.3190476402
 20
5.2880663265
 11
3.5465476402
 21
5.2880663269
  0
LINE
  5
224
100
AcDbEntity
  8
0
100
AcDbLine
 62
9
  6
CONTINUOUS
 10
7.5165476402
 20
5.2880663265
 11
8.7440476402
 21
5.2880663265
  0
LINE
  5
225
100
AcDbEntity
  8
0
100
AcDbLine
 62
7
  6
CONTINUOUS
 10
2.3190476402
 20
5.3030663265
 11
3.5165476402
 21
5.3030663265
  0
LINE
  5
226
100
AcDbEntity
  8
0
100
AcDbLine
 62
7
  6
CONTINUOUS
 10
7.5465476402
 20
5.3030663265
 11
8.7440476402
 21
5.3030663265
  0
LINE
  5
227
100
AcDbEntity
  8
0
100
AcDbLine
 62
9
  6
CONTINUOUS
 10
7.6456764736
 20
5.3180663265
 11
7.5465441338
 21
5.3180663265
  0
LINE
  5
228
100
AcDbEntity
  8
0
100
AcDbLine
 62
9
  6
CONTINUOUS
 10
3.5165441319
 20
5.3180663263
 11
3.4174188067
 21
5.3180663265
  0
LINE
  5
229
100
AcDbEntity
  8
0
100
AcDbLine
 62
9
  6
CONTINUOUS
 10
7.5165476402
 20
5.2430663265
 11
7.5165476402
 21
5.2880663265
  0
LINE
  5
22A
100
AcDbEntity
  8
0
100
AcDbLine
 62
7
  6
CONTINUOUS
 10
7.5315476402
 20
5.2430663265
 11
7.5315476402
 21
5.2880663265
  0
LINE
  5
22B
100
AcDbEntity
  8
0
100
AcDbLine
 62
9
  6
CONTINUOUS
 10
7.5615476402
 20
5.2280663265
 11
7.5615476402
 21
5.3030663265
  0
LINE
  5
22C
100
AcDbEntity
  8
0
100
AcDbLine
 62
9
  6
CONTINUOUS
 10
7.6456764736
 20
5.3180663265
 11
7.6456764736
 21
5.3030663265
  0
LINE
  5
22D
100
AcDbEntity
  8
0
100
AcDbLine
 62
9
  6
CONTINUOUS
 10
7.6456764736
 20
5.2130663265
 11
7.6456764736
 21
5.2280663265
  0
LWPOLYLINE
  5
22E
100
AcDbEntity
  8
0
100
AcDbPolyline
 62
7
  6
CONTINUOUS
 90
11
 70
0
 10
3.3869955151
 20
5.3031936248
 10
3.386898282
 20
5.3031811989
 10
3.3868022558
 20
5.3031695603
 10
3.386707484
 20
5.3031586892
 10
3.3866139813
 20
5.3031485614
 10
3.3865217461
 20
5.3031391514
 10
3.3864308008
 20
5.3031304366
 10
3.3863412028
 20
5.303122397
 10
3.386252906
 20
5.3031150038
 10
3.3861657766
 20
5.3031082227
 10
3.386079626
 20
5.3031020197
  0
LINE
  5
22F
100
AcDbEntity
  8
0
100
AcDbLine
 62
7
  6
CONTINUOUS
 10
5.643080038
 20
5.5867524474
 11
5.6430779432
 21
5.5867531748
  0
LINE
  5
230
100
AcDbEntity
  8
0
100
AcDbLine
 62
7
  6
CONTINUOUS
 10
5.437797626
 20
5.8165663265
 11
5.6252976543
 21
5.8165663265
  0
LINE
  5
231
100
AcDbEntity
  8
0
100
AcDbLine
 62
9
  6
CONTINUOUS
 10
8.7440476402
 20
5.3030663265
 11
8.7440476402
 21
5.2880663265
  0
LINE
  5
232
100
AcDbEntity
  8
0
100
AcDbLine
 62
9
  6
CONTINUOUS
 10
8.7440476402
 20
5.2280663265
 11
8.7440476402
 21
5.2430663265
  0
ARC
  5
233
100
AcDbEntity
  8
0
100
AcDbCircle
 62
7
  6
CONTINUOUS
 10
3.5315476402
 20
5.2655663265
 40
0.495
100
AcDbArc
 50
184.3449074503
 51
175.6550925497
  0
ARC
  5
234
100
AcDbEntity
  8
0
100
AcDbCircle
 62
9
  6
CONTINUOUS
 10
3.5315476402
 20
5.2655663265
 40
0.48
100
AcDbArc
 50
184.4808632364
 51
175.519136764
  0
ARC
  5
235
100
AcDbEntity
  8
0
100
AcDbCircle
 62
7
  6
CONTINUOUS
 10
3.5315476402
 20
5.2655663265
 40
0.1875
100
AcDbArc
 50
191.5374614063
 51
168.4625385937
  0
ARC
  5
236
100
AcDbEntity
  8
0
100
AcDbCircle
 62
9
  6
CONTINUOUS
 10
3.5315476402
 20
5.2655663265
 40
0.1725
100
AcDbArc
 50
192.5561182634
 51
167.4438817377
  0
ARC
  5
237
100
AcDbEntity
  8
0
100
AcDbCircle
 62
7
  6
CONTINUOUS
 10
3.5315476402
 20
5.2655663265
 40
0.140625
100
AcDbArc
 50
199.7154670857
 51
160.2845329143
  0
ARC
  5
238
100
AcDbEntity
  8
0
100
AcDbCircle
 62
9
  6
CONTINUOUS
 10
3.5315476402
 20
5.2655663265
 40
0.125625
100
AcDbArc
 50
204.7027354428
 51
155.2972645572
  0
ARC
  5
239
100
AcDbEntity
  8
0
100
AcDbCircle
 62
7
  6
CONTINUOUS
 10
2.3190476402
 20
5.2655663265
 40
0.0375
100
AcDbArc
 50
90.0
 51
270.0
  0
ARC
  5
23A
100
AcDbEntity
  8
0
100
AcDbCircle
 62
9
  6
CONTINUOUS
 10
3.5165476402
 20
5.2430663265
 40
0.0299999996
100
AcDbArc
 50
270.0066967341
 51
360.0
  0
ARC
  5
23B
100
AcDbEntity
  8
0
100
AcDbCircle
 62
9
  6
CONTINUOUS
 10
3.5165476402
 20
5.2880663265
 40
0.0299999996
100
AcDbArc
 50
0.0
 51
90.0067002011
  0
ARC
  5
23C
100
AcDbEntity
  8
0
100
AcDbCircle
 62
9
  6
CONTINUOUS
 10
2.3190476402
 20
5.2655663265
 40
0.0225
100
AcDbArc
 50
90.0
 51
270.0
  0
ARC
  5
23D
100
AcDbEntity
  8
0
100
AcDbCircle
 62
7
  6
CONTINUOUS
 10
3.5165476402
 20
5.2880663265
 40
0.015
100
AcDbArc
 50
0.0
 51
90.0
  0
ARC
  5
23E
100
AcDbEntity
  8
0
100
AcDbCircle
 62
7
  6
CONTINUOUS
 10
3.5165476402
 20
5.2430663265
 40
0.015
100
AcDbArc
 50
270.0
 51
360.0
  0
ARC
  5
23F
100
AcDbEntity
  8
0
100
AcDbCircle
 62
7
  6
CONTINUOUS
 10
3.3850454537
 20
5.3180663265
 40
0.015
100
AcDbArc
 50
274.2596686743
 51
340.2845329143
  0
ARC
  5
240
100
AcDbEntity
  8
0
100
AcDbCircle
 62
7
  6
CONTINUOUS
 10
3.3850454537
 20
5.2130663265
 40
0.015
100
AcDbArc
 50
19.7154670857
 51
87.8701656635
  0
ARC
  5
241
100
AcDbEntity
  8
0
100
AcDbCircle
 62
7
  6
CONTINUOUS
 10
5.5315476402
 20
1.7025663265
 40
0.21875
100
AcDbArc
 50
180.0
 51
360.0
  0
ARC
  5
242
100
AcDbEntity
  8
0
100
AcDbCircle
 62
7
  6
CONTINUOUS
 10
5.5315476402
 20
5.2655663265
 40
0.495
100
AcDbArc
 50
296.228815069
 51
79.0818058999
  0
ARC
  5
243
100
AcDbEntity
  8
0
100
AcDbCircle
 62
7
  6
CONTINUOUS
 10
5.5315476402
 20
5.2655663265
 40
0.495
100
AcDbArc
 50
100.9181941001
 51
243.771184931
  0
ARC
  5
244
100
AcDbEntity
  8
0
100
AcDbCircle
 62
9
  6
CONTINUOUS
 10
5.5315476402
 20
5.2655663265
 40
0.48
100
AcDbArc
 50
101.2639665297
 51
242.8875559938
  0
ARC
  5
245
100
AcDbEntity
  8
0
100
AcDbCircle
 62
9
  6
CONTINUOUS
 10
5.5315476402
 20
5.2655663265
 40
0.48
100
AcDbArc
 50
297.1124440047
 51
78.7360334703
  0
ARC
  5
246
100
AcDbEntity
  8
0
100
AcDbCircle
 62
7
  6
CONTINUOUS
 10
5.5315476402
 20
5.2655663265
 40
0.34
100
AcDbArc
 50
310.0463187007
 51
229.9536812993
  0
ARC
  5
247
100
AcDbEntity
  8
0
100
AcDbCircle
 62
9
  6
CONTINUOUS
 10
5.5315476402
 20
5.2655663265
 40
0.325
100
AcDbArc
 50
312.3078051745
 51
227.6921948695
  0
ARC
  5
248
100
AcDbEntity
  8
0
100
AcDbCircle
 62
7
  6
CONTINUOUS
 10
5.5315476402
 20
5.2655663265
 40
0.21875
100
AcDbArc
 50
0.0
 51
180.0
  0
ARC
  5
249
100
AcDbEntity
  8
0
100
AcDbCircle
 62
9
  6
CONTINUOUS
 10
7.5465476402
 20
5.2430663265
 40
0.0299999996
100
AcDbArc
 50
180.0
 51
270.0067002011
  0
ARC
  5
24A
100
AcDbEntity
  8
0
100
AcDbCircle
 62
7
  6
CONTINUOUS
 10
7.5465476402
 20
5.2430663265
 40
0.015
100
AcDbArc
 50
180.0
 51
270.0
  0
ARC
  5
24B
100
AcDbEntity
  8
0
100
AcDbCircle
 62
7
  6
CONTINUOUS
 10
7.6780498266
 20
5.2130663265
 40
0.015
100
AcDbArc
 50
94.2596686743
 51
160.2845329143
  0
ARC
  5
24C
100
AcDbEntity
  8
0
100
AcDbCircle
 62
7
  6
CONTINUOUS
 10
7.5315476402
 20
5.2655663265
 40
0.495
100
AcDbArc
 50
4.3448845689
 51
355.6551154311
  0
ARC
  5
24D
100
AcDbEntity
  8
0
100
AcDbCircle
 62
9
  6
CONTINUOUS
 10
7.5315476402
 20
5.2655663265
 40
0.48
100
AcDbArc
 50
4.4808365678
 51
355.5191634324
  0
ARC
  5
24E
100
AcDbEntity
  8
0
100
AcDbCircle
 62
7
  6
CONTINUOUS
 10
7.5315476402
 20
5.2655663265
 40
0.1875
100
AcDbArc
 50
11.5375618608
 51
348.4624381392
  0
ARC
  5
24F
100
AcDbEntity
  8
0
100
AcDbCircle
 62
9
  6
CONTINUOUS
 10
7.5315476402
 20
5.2655663265
 40
0.1725
100
AcDbArc
 50
12.5565267756
 51
347.4434732252
  0
ARC
  5
250
100
AcDbEntity
  8
0
100
AcDbCircle
 62
7
  6
CONTINUOUS
 10
7.5315476402
 20
5.2655663265
 40
0.140625
100
AcDbArc
 50
19.7154670857
 51
340.2845329143
  0
ARC
  5
251
100
AcDbEntity
  8
0
100
AcDbCircle
 62
9
  6
CONTINUOUS
 10
7.5315476402
 20
5.2655663265
 40
0.125625
100
AcDbArc
 50
24.7027354428
 51
335.2972645572
  0
ARC
  5
252
100
AcDbEntity
  8
0
100
AcDbCircle
 62
7
  6
CONTINUOUS
 10
8.7440476402
 20
5.2655663265
 40
0.0375
100
AcDbArc
 50
270.0
 51
90.0
  0
ARC
  5
253
100
AcDbEntity
  8
0
100
AcDbCircle
 62
9
  6
CONTINUOUS
 10
7.5465476402
 20
5.2880663265
 40
0.0299999996
100
AcDbArc
 50
90.0066967341
 51
180.0
  0
ARC
  5
254
100
AcDbEntity
  8
0
100
AcDbCircle
 62
9
  6
CONTINUOUS
 10
8.7440476402
 20
5.2655663265
 40
0.0225
100
AcDbArc
 50
270.0
 51
90.0
  0
ARC
  5
255
100
AcDbEntity
  8
0
100
AcDbCircle
 62
7
  6
CONTINUOUS
 10
7.5465476402
 20
5.2880663265
 40
0.015
100
AcDbArc
 50
90.0
 51
180.0
  0
ARC
  5
256
100
AcDbEntity
  8
0
100
AcDbCircle
 62
7
  6
CONTINUOUS
 10
7.6780498266
 20
5.3180663265
 40
0.015
100
AcDbArc
 50
199.7154670857
 51
263.6104969956
  0
LINE
  5
257
100
AcDbEntity
  8
0
100
AcDbLine
 62
9
  6
CONTINUOUS
 10
7.5465476402
 20
5.2280663265
 11
7.5465511484
 21
5.2130663267
  0
LINE
  5
258
100
AcDbEntity
  8
0
100
AcDbLine
 62
9
  6
CONTINUOUS
 10
7.5465441319
 20
5.3180663265
 11
7.5465476402
 21
5.3030663265
  0
SPLINE
  5
259
100
AcDbEntity
  8
0
100
AcDbSpline
 62
9
  6
CONTINUOUS
 70
0
 71
3
 72
39
 73
35
 74
0
 42
0.0000001
 43
0.0000001
 44
0.0000000001
 40
0.0
 40
0.0
 40
0.0
 40
0.0
 40
0.0000236774
 40
0.0000935604
 40
0.0002096191
 40
0.000371823
 40
0.0008345438
 40
0.0014814777
 40
0.0023123793
 40
0.0033270035
 40
0.004525105
 40
0.0059063746
 40
0.0092148916
 40
0.0132442682
 40
0.0179859673
 40
0.0234313827
 40
0.0295712691
 40
0.0363960434
 40
0.0520606969
 40
0.0703206648
 40
0.0910455364
 40
0.1141067479
 40
0.13937713
 40
0.1667197688
 40
0.1959912289
 40
0.2597389374
 40
0.3295063191
 40
0.4042806196
 40
0.4830809908
 40
0.565069434
 40
0.649502988
 40
0.8231897203
 40
0.9114256413
 40
1.0
 40
1.0
 40
1.0
 40
1.0
 10
3.3991661464
 20
5.2181265675
 30
0.0
 10
3.3991662637
 20
5.2181264747
 30
0.0
 10
3.3991669043
 20
5.2181264689
 30
0.0
 10
3.3991681286
 20
5.2181260337
 30
0.0
 10
3.3991703034
 20
5.2181255963
 30
0.0
 10
3.3991748351
 20
5.2181244714
 30
0.0
 10
3.3991826675
 20
5.218122651
 30
0.0
 10
3.3991945861
 20
5.2181198103
 30
0.0
 10
3.3992099076
 20
5.2181161886
 30
0.0
 10
3.3992286124
 20
5.2181117564
 30
0.0
 10
3.3992507009
 20
5.2181065253
 30
0.0
 10
3.3992868863
 20
5.2180979514
 30
0.0
 10
3.3993404731
 20
5.2180852584
 30
0.0
 10
3.3994147185
 20
5.2180676989
 30
0.0
 10
3.3995021077
 20
5.2180470738
 30
0.0
 10
3.3996024853
 20
5.2180234507
 30
0.0
 10
3.3997156684
 20
5.2179968086
 30
0.0
 10
3.3998916516
 20
5.2179552648
 30
0.0
 10
3.4001420189
 20
5.2178956367
 30
0.0
 10
3.4004776148
 20
5.2178149408
 30
0.0
 10
3.4008585756
 20
5.2177230888
 30
0.0
 10
3.4012824633
 20
5.2176203743
 30
0.0
 10
3.4017467298
 20
5.2175068181
 30
0.0
 10
3.4022488029
 20
5.2173827482
 30
0.0
 10
3.4029863068
 20
5.2171983977
 30
0.0
 10
3.4039829909
 20
5.2169459936
 30
0.0
 10
3.4052569286
 20
5.2166177442
 30
0.0
 10
3.4066201003
 20
5.2162549647
 30
0.0
 10
3.4080561546
 20
5.2158659849
 30
0.0
 10
3.4095480675
 20
5.2154500054
 30
0.0
 10
3.4116131749
 20
5.2148586617
 30
0.0
 10
3.4137100149
 20
5.2142348638
 30
0.0
 10
3.415823568
 20
5.2135764591
 30
0.0
 10
3.4168872154
 20
5.2132362622
 30
0.0
 10
3.4174196326
 20
5.2130645312
 30
0.0
  0
SPLINE
  5
25A
100
AcDbEntity
  8
0
100
AcDbSpline
 62
9
  6
CONTINUOUS
 70
0
 71
3
 72
40
 73
36
 74
0
 42
0.0000001
 43
0.0000001
 44
0.0000000001
 40
0.0
 40
0.0
 40
0.0
 40
0.0
 40
0.0885741235
 40
0.1768099375
 40
0.2642723251
 40
0.3504975994
 40
0.4349309247
 40
0.5169191899
 40
0.5957193767
 40
0.6704937821
 40
0.7402616246
 40
0.8040086422
 40
0.8332799836
 40
0.8606229813
 40
0.8858935496
 40
0.9089545343
 40
0.9296792107
 40
0.9479392317
 40
0.9636040282
 40
0.9704288637
 40
0.9765687887
 40
0.9820142081
 40
0.986755874
 40
0.9907851938
 40
0.9940936456
 40
0.9954748845
 40
0.9966729591
 40
0.9976875626
 40
0.9985184516
 40
0.999165383
 40
0.9996281134
 40
0.9997903273
 40
0.9999063997
 40
0.9999763005
 40
1.0
 40
1.0
 40
1.0
 40
1.0
 10
3.4174196655
 20
5.3180681934
 30
0.0
 10
3.4168872347
 20
5.317896502
 30
0.0
 10
3.4158235799
 20
5.3175563232
 30
0.0
 10
3.414230005
 20
5.3170597648
 30
0.0
 10
3.4126464155
 20
5.3165812322
 30
0.0
 10
3.4110821705
 20
5.316121902
 30
0.0
 10
3.4095480926
 20
5.3156826913
 30
0.0
 10
3.4080561861
 20
5.3152666844
 30
0.0
 10
3.40662012
 20
5.3148777294
 30
0.0
 10
3.4052569454
 20
5.3145149301
 30
0.0
 10
3.4039830187
 20
5.3141866192
 30
0.0
 10
3.4029863203
 20
5.3139342632
 30
0.0
 10
3.402248812
 20
5.3137499294
 30
0.0
 10
3.4017467399
 20
5.3136258351
 30
0.0
 10
3.4012824728
 20
5.3135122647
 30
0.0
 10
3.4008585818
 20
5.3134095627
 30
0.0
 10
3.4004776193
 20
5.3133177208
 30
0.0
 10
3.4001420227
 20
5.3132370212
 30
0.0
 10
3.3998916541
 20
5.3131773874
 30
0.0
 10
3.3997156693
 20
5.3131358402
 30
0.0
 10
3.3996024854
 20
5.3131091967
 30
0.0
 10
3.3995021074
 20
5.3130855734
 30
0.0
 10
3.3994147181
 20
5.3130649496
 30
0.0
 10
3.3993404728
 20
5.3130473921
 30
0.0
 10
3.3992868864
 20
5.3130347009
 30
0.0
 10
3.3992507014
 20
5.3130261281
 30
0.0
 10
3.3992286131
 20
5.3130208975
 30
0.0
 10
3.3992099086
 20
5.3130164656
 30
0.0
 10
3.3991945872
 20
5.3130128441
 30
0.0
 10
3.3991826686
 20
5.3130100034
 30
0.0
 10
3.3991748361
 20
5.3130081826
 30
0.0
 10
3.3991703042
 20
5.3130070576
 30
0.0
 10
3.3991681292
 20
5.3130066199
 30
0.0
 10
3.3991669046
 20
5.3130061846
 30
0.0
 10
3.3991662638
 20
5.3130061784
 30
0.0
 10
3.3991661464
 20
5.3130060856
 30
0.0
  0
LINE
  5
25B
100
AcDbEntity
  8
0
100
AcDbLine
 62
9
  6
CONTINUOUS
 10
3.5165476402
 20
5.3030663265
 11
3.5165441319
 21
5.3180663263
  0
LINE
  5
25C
100
AcDbEntity
  8
0
100
AcDbLine
 62
9
  6
CONTINUOUS
 10
3.5165511484
 20
5.2130663265
 11
3.5165476402
 21
5.2280663265
  0
SPLINE
  5
25D
100
AcDbEntity
  8
0
100
AcDbSpline
 62
9
  6
CONTINUOUS
 70
0
 71
3
 72
39
 73
35
 74
0
 42
0.0000001
 43
0.0000001
 44
0.0000000001
 40
0.0
 40
0.0
 40
0.0
 40
0.0
 40
0.0000236774
 40
0.0000935604
 40
0.0002096191
 40
0.000371823
 40
0.0008345438
 40
0.0014814777
 40
0.0023123793
 40
0.0033270035
 40
0.004525105
 40
0.0059063746
 40
0.0092148916
 40
0.0132442682
 40
0.0179859673
 40
0.0234313827
 40
0.0295712691
 40
0.0363960434
 40
0.0520606969
 40
0.0703206648
 40
0.0910455364
 40
0.1141067479
 40
0.13937713
 40
0.1667197688
 40
0.1959912289
 40
0.2597389374
 40
0.3295063191
 40
0.4042806196
 40
0.4830809908
 40
0.565069434
 40
0.649502988
 40
0.8231897203
 40
0.9114256413
 40
1.0
 40
1.0
 40
1.0
 40
1.0
 10
7.6639291339
 20
5.3130060856
 30
0.0
 10
7.6639290166
 20
5.3130061783
 30
0.0
 10
7.663928376
 20
5.3130061841
 30
0.0
 10
7.6639271517
 20
5.3130066194
 30
0.0
 10
7.6639249769
 20
5.3130070568
 30
0.0
 10
7.6639204452
 20
5.3130081816
 30
0.0
 10
7.6639126128
 20
5.3130100021
 30
0.0
 10
7.6639006942
 20
5.3130128428
 30
0.0
 10
7.6638853727
 20
5.3130164644
 30
0.0
 10
7.663866668
 20
5.3130208967
 30
0.0
 10
7.6638445794
 20
5.3130261278
 30
0.0
 10
7.663808394
 20
5.3130347017
 30
0.0
 10
7.6637548072
 20
5.3130473947
 30
0.0
 10
7.6636805618
 20
5.3130649542
 30
0.0
 10
7.6635931726
 20
5.3130855792
 30
0.0
 10
7.663492795
 20
5.3131092023
 30
0.0
 10
7.6633796119
 20
5.3131358444
 30
0.0
 10
7.6632036287
 20
5.3131773882
 30
0.0
 10
7.6629532614
 20
5.3132370163
 30
0.0
 10
7.6626176655
 20
5.3133177122
 30
0.0
 10
7.6622367047
 20
5.3134095643
 30
0.0
 10
7.661812817
 20
5.3135122788
 30
0.0
 10
7.6613485505
 20
5.3136258349
 30
0.0
 10
7.6608464774
 20
5.3137499049
 30
0.0
 10
7.6601089735
 20
5.3139342554
 30
0.0
 10
7.6591122894
 20
5.3141866595
 30
0.0
 10
7.6578383517
 20
5.3145149088
 30
0.0
 10
7.65647518
 20
5.3148776883
 30
0.0
 10
7.6550391257
 20
5.3152666682
 30
0.0
 10
7.6535472129
 20
5.3156826477
 30
0.0
 10
7.6514821055
 20
5.3162739914
 30
0.0
 10
7.6493852654
 20
5.3168977893
 30
0.0
 10
7.6472717123
 20
5.3175561939
 30
0.0
 10
7.6462080649
 20
5.3178963909
 30
0.0
 10
7.6456756477
 20
5.3180681219
 30
0.0
  0
SPLINE
  5
25E
100
AcDbEntity
  8
0
100
AcDbSpline
 62
9
  6
CONTINUOUS
 70
0
 71
3
 72
40
 73
36
 74
0
 42
0.0000001
 43
0.0000001
 44
0.0000000001
 40
0.0
 40
0.0
 40
0.0
 40
0.0
 40
0.0885741235
 40
0.1768099375
 40
0.2642723251
 40
0.3504975994
 40
0.4349309247
 40
0.5169191899
 40
0.5957193767
 40
0.6704937821
 40
0.7402616246
 40
0.8040086422
 40
0.8332799836
 40
0.8606229813
 40
0.8858935496
 40
0.9089545343
 40
0.9296792107
 40
0.9479392317
 40
0.9636040282
 40
0.9704288637
 40
0.9765687887
 40
0.9820142081
 40
0.986755874
 40
0.9907851938
 40
0.9940936456
 40
0.9954748845
 40
0.9966729591
 40
0.9976875626
 40
0.9985184516
 40
0.999165383
 40
0.9996281134
 40
0.9997903273
 40
0.9999063997
 40
0.9999763005
 40
1.0
 40
1.0
 40
1.0
 40
1.0
 10
7.6456756148
 20
5.2130644596
 30
0.0
 10
7.6462080456
 20
5.2132361511
 30
0.0
 10
7.6472717004
 20
5.2135763298
 30
0.0
 10
7.6488652753
 20
5.2140728882
 30
0.0
 10
7.6504488648
 20
5.2145514209
 30
0.0
 10
7.6520131099
 20
5.215010751
 30
0.0
 10
7.6535471877
 20
5.2154499618
 30
0.0
 10
7.6550390942
 20
5.2158659687
 30
0.0
 10
7.6564751604
 20
5.2162549237
 30
0.0
 10
7.6578383349
 20
5.216617723
 30
0.0
 10
7.6591122616
 20
5.2169460339
 30
0.0
 10
7.6601089601
 20
5.2171983898
 30
0.0
 10
7.6608464683
 20
5.2173827237
 30
0.0
 10
7.6613485404
 20
5.217506818
 30
0.0
 10
7.6618128075
 20
5.2176203884
 30
0.0
 10
7.6622366985
 20
5.2177230904
 30
0.0
 10
7.6626176611
 20
5.2178149322
 30
0.0
 10
7.6629532576
 20
5.2178956319
 30
0.0
 10
7.6632036262
 20
5.2179552657
 30
0.0
 10
7.663379611
 20
5.2179968128
 30
0.0
 10
7.6634927949
 20
5.2180234564
 30
0.0
 10
7.6635931729
 20
5.2180470796
 30
0.0
 10
7.6636805623
 20
5.2180677034
 30
0.0
 10
7.6637548075
 20
5.2180852609
 30
0.0
 10
7.6638083939
 20
5.2180979522
 30
0.0
 10
7.6638445789
 20
5.2181065249
 30
0.0
 10
7.6638666672
 20
5.2181117555
 30
0.0
 10
7.6638853718
 20
5.2181161874
 30
0.0
 10
7.6639006931
 20
5.218119809
 30
0.0
 10
7.6639126117
 20
5.2181226497
 30
0.0
 10
7.6639204442
 20
5.2181244704
 30
0.0
 10
7.6639249761
 20
5.2181255954
 30
0.0
 10
7.6639271511
 20
5.2181260332
 30
0.0
 10
7.6639283758
 20
5.2181264684
 30
0.0
 10
7.6639290165
 20
5.2181264747
 30
0.0
 10
7.6639291339
 20
5.2181265675
 30
0.0
  0
ENDSEC
  0
SECTION
  2
OBJECTS
  0
DICTIONARY
  5
C
100
AcDbDictionary
280
0
281
1
  3
ACAD_GROUP
350
D
  3
ACAD_MLINESTYLE
350
17
  3
ACAD_LAYOUT
350
1A
  3
ACAD_PLOTSETTINGS
350
19
  3
ACAD_PLOTSTYLENAME
350
E
  0
DICTIONARY
  5
D
102
{ACAD_REACTORS
330
C
102
}
100
AcDbDictionary
280
0
281
1
  0
ACDBDICTIONARYWDFLT
  5
E
102
{ACAD_REACTORS
330
C
102
}
100
AcDbDictionary
281
1
  3
Normal
350
F
100
AcDbDictionaryWithDefault
340
F
  0
DICTIONARY
  5
17
102
{ACAD_REACTORS
330
C
102
}
100
AcDbDictionary
280
0
281
1
  3
Standard
350
18
  0
DICTIONARY
  5
19
102
{ACAD_REACTORS
330
C
102
}
100
AcDbDictionary
281
1
  0
DICTIONARY
  5
1A
102
{ACAD_REACTORS
330
C
102
}
100
AcDbDictionary
281
1
  3
Model
350
25F
  3
Layout1
350
260
  0
ACDBPLACEHOLDER
  5
F
102
{ACAD_REACTORS
330
E
102
}
  0
MLINESTYLE
  5
18
102
{ACAD_REACTORS
330
17
102
}
100
AcDbMlineStyle
  2
STANDARD
 70
0
  3

 62
256
 51
90.0
 52
90.0
 71
2
 49
0.5
 62
256
  6
BYLAYER
 49
-0.5
 62
256
  6
BYLAYER
  0
LAYOUT
  5
25F
102
{ACAD_REACTORS
330
1A
102
}
100
AcDbPlotSettings
  1

  2
none_device
  4
ANSI_A_(11.00_x_8.50_Inches)
  6

 40
0.0
 41
0.0
 42
0.0
 43
0.0
 44
279.4
 45
215.9
 46
0.0
 47
0.0
 48
0.0
 49
0.0
140
0.0
141
0.0
142
1.0
143
1.0
 70
1024
 72
0
 73
0
 74
0
  7

 75
0
147
1.0
148
0.0
149
0.0
100
AcDbLayout
  1
Model
 70
0
 71
0
 10
0.0
 20
0.0
 11
11.0
 21
8.5
 12
0.0
 22
0.0
 32
0.0
 14
0.0
 24
0.0
 34
0.0
 15
0.0
 25
0.0
 35
0.0
146
0.0
 13
0.0
 23
0.0
 33
0.0
 16
1.0
 26
0.0
 36
0.0
 17
0.0
 27
1.0
 37
0.0
 76
0
330
202
345
0
346
0
  0
LAYOUT
  5
260
102
{ACAD_REACTORS
330
1A
102
}
100
AcDbPlotSettings
  1

  2
none_device
  4
ANSI_A_(11.00_x_8.50_Inches)
  6

 40
0.0
 41
0.0
 42
0.0
 43
0.0
 44
279.4
 45
215.9
 46
0.0
 47
0.0
 48
0.0
 49
0.0
140
0.0
141
0.0
142
1.0
143
1.0
 70
0
 72
0
 73
0
 74
0
  7

 75
0
147
1.0
148
0.0
149
0.0
100
AcDbLayout
  1
Layout1
 70
0
 71
1
 10
0.0
 20
0.0
 11
11.0
 21
8.5
 12
0.0
 22
0.0
 32
0.0
 14
0.0
 24
0.0
 34
0.0
 15
0.0
 25
0.0
 35
0.0
146
0.0
 13
0.0
 23
0.0
 33
0.0
 16
1.0
 26
0.0
 36
0.0
 17
0.0
 27
1.0
 37
0.0
 76
0
330
203
345
0
346
0
  0
ENDSEC
  0
EOF
