999
DXF file: 3330c_front.dxf
999
Pro/ENGINEER 2019352 by Parametric Technology Corporation
  0
SECTION
  2
HEADER
  9
$ACADVER
  1
AC1032
  9
$DWGCODEPAGE
  3
ANSI_1252
  9
$EXTMAX
 10
11.0
 20
8.5
 30
0.0
  9
$EXTMIN
 10
0.0
 20
0.0
 30
0.0
  9
$LIMMIN
 10
0.0
 20
0.0
  9
$LIMMAX
 10
11.0
 20
8.5
  9
$VIEWCTR
 10
5.5
 20
4.25
  9
$VIEWSIZE
 40
8.5
  9
$CLAYER
  8
0
  9
$LTSCALE
 40
0.605
  9
$CELTYPE
  6
BYLAYER
  9
$DIMSCALE
 40
1.0
  9
$DIMASZ
 40
0.1
  9
$DIMEXO
 40
0.0625
  9
$DIMDLI
 40
0.418
  9
$DIMEXE
 40
0.125
  9
$DIMCEN
 40
0.099
  9
$DIMLFAC
 40
1.0
  9
$DIMBLK
  1
_FILLED
  9
$DIMALT
 70
1
  9
$DIMALTD
 70
2
  9
$DIMALTTD
 70
2
  9
$DIMALTF
 40
25.4
  9
$DIMTXT
 40
0.08
  9
$DIMTOL
 70
1
  9
$DIMLIM
 70
0
  9
$DIMTFAC
 40
1.0
  9
$DIMTP
 40
0.001
  9
$DIMTM
 40
0.001
  9
$DIMGAP
 40
0.09
  9
$DIMDSEP
 70
46
  9
$AUNITS
 70
0
  9
$PDMODE
 70
3
  9
$PDSIZE
 40
0.3125
  9
$HANDSEED
  5
2D0
  9
$TILEMODE
 70
1
  9
$MEASUREMENT
 70
0
  9
$INSUNITS
 70
1
  0
ENDSEC
  0
SECTION
  2
CLASSES
  0
CLASS
  1
ACDBDICTIONARYWDFLT
  2
AcDbDictionaryWithDefault
  3
AutoCAD 2000
 90
0
 91
1
280
0
281
0
  0
CLASS
  1
ACDBPLACEHOLDER
  2
AcDbPlaceHolder
  3
AutoCAD 2000
 90
0
 91
1
280
0
281
0
  0
CLASS
  1
LAYOUT
  2
AcDbLayout
  3
AutoCAD 2000
 90
0
 91
0
280
0
281
0
  0
ENDSEC
  0
SECTION
  2
TABLES
  0
TABLE
  2
VPORT
  5
8
100
AcDbSymbolTable
 70
2
  0
VPORT
  5
1F4
100
AcDbSymbolTableRecord
100
AcDbViewportTableRecord
  2
*ACTIVE
 70
0
 10
0.0
 20
0.0
 11
1.0
 21
1.0
 12
5.5
 22
4.25
 13
0.0
 23
0.0
 14
1.0
 24
1.0
 15
0.0
 25
0.0
 16
0.0
 26
0.0
 36
1.0
 17
0.0
 27
0.0
 37
0.0
 40
8.5
 41
1.2941176471
 42
50.0
 43
0.0
 44
0.0
 50
0.0
 51
0.0
 71
0
 72
100
 73
1
 74
1
 75
0
 76
0
 77
0
 78
0
  0
ENDTAB
  0
TABLE
  2
LTYPE
  5
5
100
AcDbSymbolTable
 70
6
  0
LTYPE
  5
14
100
AcDbSymbolTableRecord
100
AcDbLinetypeTableRecord
  2
BYBLOCK
 70
0
  3

 72
65
 73
0
 40
0.0
  0
LTYPE
  5
15
100
AcDbSymbolTableRecord
100
AcDbLinetypeTableRecord
  2
BYLAYER
 70
0
  3

 72
65
 73
0
 40
0.0
  0
LTYPE
  5
16
100
AcDbSymbolTableRecord
100
AcDbLinetypeTableRecord
  2
CONTINUOUS
 70
64
  3
Solid line
 72
65
 73
0
 40
0.0
  0
LTYPE
  5
1F5
100
AcDbSymbolTableRecord
100
AcDbLinetypeTableRecord
  2
CENTER
 70
64
  3
____ _ ____ _ ____ _ ____ _ ____ _ ____ _ ____
 72
65
 73
4
 40
0.6
 49
0.375
 74
0
 49
-0.075
 74
0
 49
0.075
 74
0
 49
-0.075
 74
0
  0
LTYPE
  5
1F6
100
AcDbSymbolTableRecord
100
AcDbLinetypeTableRecord
  2
HIDDEN
 70
64
  3
- - - - - - - - - - - - - - - - - - - -
 72
65
 73
2
 40
0.2
 49
0.1
 74
0
 49
-0.1
 74
0
  0
LTYPE
  5
1F7
100
AcDbSymbolTableRecord
100
AcDbLinetypeTableRecord
  2
PHANTOM
 70
64
  3
_____ _ _ _____ _ _ _____ _ _ _____
 72
65
 73
6
 40
0.8
 49
0.45
 74
0
 49
-0.05
 74
0
 49
0.1
 74
0
 49
-0.05
 74
0
 49
0.1
 74
0
 49
-0.05
 74
0
  0
LTYPE
  5
1F8
100
AcDbSymbolTableRecord
100
AcDbLinetypeTableRecord
  2
DOT
 70
64
  3
. . . . . . . . . . . . . . . . . . . .
 72
65
 73
2
 40
0.2
 49
0.1
 74
0
 49
-0.1
 74
0
  0
LTYPE
  5
1F9
100
AcDbSymbolTableRecord
100
AcDbLinetypeTableRecord
  2
DASHED
 70
64
  3
- - - - - - - - - - - - - - - - - - - -
 72
65
 73
2
 40
0.2
 49
0.1
 74
0
 49
-0.1
 74
0
  0
ENDTAB
  0
TABLE
  2
LAYER
  5
2
100
AcDbSymbolTable
 70
36
  0
LAYER
  5
10
100
AcDbSymbolTableRecord
100
AcDbLayerTableRecord
  2
0
 70
0
 62
7
  6
CONTINUOUS
370
-3
390
F
  0
LAYER
  5
1FA
100
AcDbSymbolTableRecord
100
AcDbLayerTableRecord
  2
DEFAULT_1
 70
0
 62
7
  6
CENTER
370
-3
390
F
  0
LAYER
  5
1FB
100
AcDbSymbolTableRecord
100
AcDbLayerTableRecord
  2
DEFAULT_2
 70
0
 62
8
  6
HIDDEN
370
-3
390
F
  0
LAYER
  5
1FC
100
AcDbSymbolTableRecord
100
AcDbLayerTableRecord
  2
DEFAULT_3
 70
0
 62
7
  6
PHANTOM
370
-3
390
F
  0
LAYER
  5
1FD
100
AcDbSymbolTableRecord
100
AcDbLayerTableRecord
  2
2-127_ASSY_PLANES
 70
0
 62
7
  6
CONTINUOUS
370
-3
390
F
  0
LAYER
  5
1FE
100
AcDbSymbolTableRecord
100
AcDbLayerTableRecord
  2
ALL_ASSEMBLY_MEMBERS
 70
0
 62
7
  6
CONTINUOUS
370
-3
390
F
  0
LAYER
  5
1FF
100
AcDbSymbolTableRecord
100
AcDbLayerTableRecord
  2
ALL_FEATURES
 70
0
 62
7
  6
CONTINUOUS
370
-3
390
F
  0
LAYER
  5
200
100
AcDbSymbolTableRecord
100
AcDbLayerTableRecord
  2
AXES_FEATURES
 70
0
 62
7
  6
CONTINUOUS
370
-3
390
F
  0
LAYER
  5
201
100
AcDbSymbolTableRecord
100
AcDbLayerTableRecord
  2
CHAMFER_FEATURES
 70
0
 62
7
  6
CONTINUOUS
370
-3
390
F
  0
LAYER
  5
202
100
AcDbSymbolTableRecord
100
AcDbLayerTableRecord
  2
CUT_FEATURES
 70
0
 62
7
  6
CONTINUOUS
370
-3
390
F
  0
LAYER
  5
203
100
AcDbSymbolTableRecord
100
AcDbLayerTableRecord
  2
DATUM_CURVES
 70
0
 62
7
  6
CONTINUOUS
370
-3
390
F
  0
LAYER
  5
204
100
AcDbSymbolTableRecord
100
AcDbLayerTableRecord
  2
DATUM_PLANES
 70
0
 62
7
  6
CONTINUOUS
370
-3
390
F
  0
LAYER
  5
205
100
AcDbSymbolTableRecord
100
AcDbLayerTableRecord
  2
DEFAULT_COORDINATE_SYSTEM
 70
0
 62
7
  6
CONTINUOUS
370
-3
390
F
  0
LAYER
  5
206
100
AcDbSymbolTableRecord
100
AcDbLayerTableRecord
  2
DEFAULT_DATUM_AXES
 70
0
 62
7
  6
CONTINUOUS
370
-3
390
F
  0
LAYER
  5
207
100
AcDbSymbolTableRecord
100
AcDbLayerTableRecord
  2
DEFAULT_DATUM_CURVES
 70
0
 62
7
  6
CONTINUOUS
370
-3
390
F
  0
LAYER
  5
208
100
AcDbSymbolTableRecord
100
AcDbLayerTableRecord
  2
DEFAULT_DATUM_PLANES
 70
0
 62
7
  6
CONTINUOUS
370
-3
390
F
  0
LAYER
  5
209
100
AcDbSymbolTableRecord
100
AcDbLayerTableRecord
  2
DEFAULT_SURFACES
 70
0
 62
7
  6
CONTINUOUS
370
-3
390
F
  0
LAYER
  5
20A
100
AcDbSymbolTableRecord
100
AcDbLayerTableRecord
  2
DIMENSIONS
 70
0
 62
7
  6
CONTINUOUS
370
-3
390
F
  0
LAYER
  5
20B
100
AcDbSymbolTableRecord
100
AcDbLayerTableRecord
  2
HOLE_FEATURES
 70
0
 62
7
  6
CONTINUOUS
370
-3
390
F
  0
LAYER
  5
20C
100
AcDbSymbolTableRecord
100
AcDbLayerTableRecord
  2
NONE
 70
0
 62
7
  6
CONTINUOUS
370
-3
390
F
  0
LAYER
  5
20D
100
AcDbSymbolTableRecord
100
AcDbLayerTableRecord
  2
PART_REFERENCE_DIMENSIONS
 70
0
 62
7
  6
CONTINUOUS
370
-3
390
F
  0
LAYER
  5
20E
100
AcDbSymbolTableRecord
100
AcDbLayerTableRecord
  2
PLATEDSURF
 70
0
 62
7
  6
CONTINUOUS
370
-3
390
F
  0
LAYER
  5
20F
100
AcDbSymbolTableRecord
100
AcDbLayerTableRecord
  2
PLATEDSURFACE
 70
0
 62
7
  6
CONTINUOUS
370
-3
390
F
  0
LAYER
  5
210
100
AcDbSymbolTableRecord
100
AcDbLayerTableRecord
  2
PROTRUSION_FEATURES
 70
0
 62
7
  6
CONTINUOUS
370
-3
390
F
  0
LAYER
  5
211
100
AcDbSymbolTableRecord
100
AcDbLayerTableRecord
  2
QUILT
 70
0
 62
7
  6
CONTINUOUS
370
-3
390
F
  0
LAYER
  5
212
100
AcDbSymbolTableRecord
100
AcDbLayerTableRecord
  2
QUILTS
 70
0
 62
7
  6
CONTINUOUS
370
-3
390
F
  0
LAYER
  5
213
100
AcDbSymbolTableRecord
100
AcDbLayerTableRecord
  2
REFERENCE_DIMENSIONS
 70
0
 62
7
  6
CONTINUOUS
370
-3
390
F
  0
LAYER
  5
214
100
AcDbSymbolTableRecord
100
AcDbLayerTableRecord
  2
ROUND_FEATURES
 70
0
 62
7
  6
CONTINUOUS
370
-3
390
F
  0
LAYER
  5
215
100
AcDbSymbolTableRecord
100
AcDbLayerTableRecord
  2
SIZE_REF
 70
0
 62
7
  6
CONTINUOUS
370
-3
390
F
  0
LAYER
  5
216
100
AcDbSymbolTableRecord
100
AcDbLayerTableRecord
  2
WETTED_SURFACES
 70
0
 62
7
  6
CONTINUOUS
370
-3
390
F
  0
LAYER
  5
217
100
AcDbSymbolTableRecord
100
AcDbLayerTableRecord
  2
WETTED_SURFACE_AREA
 70
0
 62
7
  6
CONTINUOUS
370
-3
390
F
  0
LAYER
  5
218
100
AcDbSymbolTableRecord
100
AcDbLayerTableRecord
  2
XSEC_DATUMS
 70
0
 62
7
  6
CONTINUOUS
370
-3
390
F
  0
ENDTAB
  0
TABLE
  2
STYLE
  5
3
100
AcDbSymbolTable
 70
1
  0
STYLE
  5
11
100
AcDbSymbolTableRecord
100
AcDbTextStyleTableRecord
  2
STANDARD
 70
0
 40
0.0
 41
0.8
 50
0.0
 71
0
 42
0.2
  3
txt
  4

  0
STYLE
  5
219
100
AcDbSymbolTableRecord
100
AcDbTextStyleTableRecord
  2
TEXTSTYLE_1
 70
0
 40
0.0
 41
0.8
 50
0.0
 71
0
 42
0.2
  3
gdt
  4

  0
ENDTAB
  0
TABLE
  2
VIEW
  5
6
100
AcDbSymbolTable
 70
0
  0
ENDTAB
  0
TABLE
  2
UCS
  5
7
100
AcDbSymbolTable
 70
0
  0
ENDTAB
  0
TABLE
  2
APPID
  5
9
100
AcDbSymbolTable
 70
1
  0
APPID
  5
21A
100
AcDbSymbolTableRecord
100
AcDbRegAppTableRecord
  2
ACAD
 70
0
  0
ENDTAB
  0
TABLE
  2
BLOCK_RECORD
  5
1
100
AcDbSymbolTable
 70
0
  0
BLOCK_RECORD
  5
21B
100
AcDbSymbolTableRecord
100
AcDbBlockTableRecord
  2
*Model_Space
  0
BLOCK_RECORD
  5
21C
100
AcDbSymbolTableRecord
100
AcDbBlockTableRecord
  2
*Paper_Space
  0
BLOCK_RECORD
  5
21D
100
AcDbSymbolTableRecord
100
AcDbBlockTableRecord
  2
_FILLED
  0
ENDTAB
  0
TABLE
  2
DIMSTYLE
  5
A
100
AcDbSymbolTable
 70
1
100
AcDbDimStyleTable
 71
0
  0
DIMSTYLE
105
21E
100
AcDbSymbolTableRecord
100
AcDbDimStyleTableRecord
  2
STANDARD
 70
0
  3

  4

 40
1.0
 41
0.1
 42
0.0625
 43
0.38
 44
0.125
 45
0.0
 46
0.0
 47
0.001
 48
0.001
140
0.08
141
0.09
142
0.0
143
25.4
144
1.0
145
0.0
146
1.0
147
0.09
 71
1.0
 72
0.0
 73
1
 74
1
 75
0
 76
0
 77
0
 78
4
 79
1
170
1
171
2
172
0
173
0
174
0
175
0
176
0
177
0
178
0
270
2
179
3
271
3
272
3
273
2
274
2
275
0
280
0
281
0
282
0
283
1
284
4
285
0
286
0
287
3
288
0
340
11
278
46
341
21D
342
21D
343
21D
344
21D
  0
ENDTAB
  0
ENDSEC
  0
SECTION
  2
BLOCKS
  0
BLOCK
  5
20
100
AcDbEntity
  8
0
100
AcDbBlockBegin
  2
*Model_Space
 70
0
 10
0.0
 20
0.0
 30
0.0
  3
*Model_Space
  1

  0
ENDBLK
  5
21
100
AcDbEntity
  8
0
100
AcDbBlockEnd
  0
BLOCK
  5
1C
100
AcDbEntity
  8
0
100
AcDbBlockBegin
  2
*Paper_Space
 70
0
 10
0.0
 20
0.0
 30
0.0
  3
*Paper_Space
  1

  0
ENDBLK
  5
1D
100
AcDbEntity
  8
0
100
AcDbBlockEnd
  0
BLOCK
  5
21F
100
AcDbEntity
  8
0
100
AcDbBlockBegin
  2
_FILLED
 70
64
 10
0.0
 20
0.0
  3
_FILLED
  1

  0
SOLID
  5
220
100
AcDbEntity
  8
0
  6
BYBLOCK
 62
0
100
AcDbTrace
 10
0.0
 20
0.0
 11
-1.0
 21
0.2
 12
-1.0
 22
-0.2
 13
-1.0
 23
-0.2
  0
ENDBLK
  5
221
100
AcDbEntity
  8
0
  6
BYBLOCK
 62
0
100
AcDbBlockEnd
  0
ENDSEC
  0
SECTION
  2
ENTITIES
  0
MTEXT
  5
222
100
AcDbEntity
  8
0
100
AcDbMText
 62
2
  6
CONTINUOUS
  7
STANDARD
 71
3
 72
1
 10
5.7736629548
 20
0.8313301157
 30
0.0
 11
1.0
 21
0.0
 31
0.0
 73
2
 44
0.9
  1
SCALE 0.500
 40
0.08
 41
0.704
  0
LINE
  5
223
100
AcDbEntity
  8
0
100
AcDbLine
 62
7
  6
CONTINUOUS
 10
0.0
 20
0.0
 11
0.0
 21
8.5
  0
LINE
  5
224
100
AcDbEntity
  8
0
100
AcDbLine
 62
7
  6
CONTINUOUS
 10
0.0
 20
0.0
 11
11.0
 21
0.0
  0
LINE
  5
225
100
AcDbEntity
  8
0
100
AcDbLine
 62
7
  6
CONTINUOUS
 10
0.0
 20
8.5
 11
11.0
 21
8.5
  0
LINE
  5
226
100
AcDbEntity
  8
0
100
AcDbLine
 62
7
  6
CONTINUOUS
 10
11.0
 20
0.0
 11
11.0
 21
8.5
  0
LINE
  5
227
100
AcDbEntity
  8
0
100
AcDbLine
 62
7
  6
CONTINUOUS
 10
2.6044345985
 20
2.8712535787
 11
2.6044345985
 21
2.6822535787
  0
LINE
  5
228
100
AcDbEntity
  8
0
100
AcDbLine
 62
7
  6
CONTINUOUS
 10
2.6419345985
 20
2.6672535787
 11
2.6419345985
 21
2.8862535787
  0
LINE
  5
229
100
AcDbEntity
  8
0
100
AcDbLine
 62
7
  6
CONTINUOUS
 10
7.7831845985
 20
1.6017535787
 11
6.9256845985
 21
1.6017535787
  0
LINE
  5
22A
100
AcDbEntity
  8
ALL_ASSEMBLY_MEMBERS
100
AcDbLine
 62
7
  6
CONTINUOUS
 10
5.7831845985
 20
1.6017535787
 11
4.9256845985
 21
1.6017535787
  0
LINE
  5
22B
100
AcDbEntity
  8
0
100
AcDbLine
 62
7
  6
CONTINUOUS
 10
3.7831845985
 20
1.6017535787
 11
2.9256845985
 21
1.6017535787
  0
LINE
  5
22C
100
AcDbEntity
  8
0
100
AcDbLine
 62
7
  6
CONTINUOUS
 10
7.8494345985
 20
1.6107535787
 11
6.8594345985
 21
1.6107535787
  0
LINE
  5
22D
100
AcDbEntity
  8
ALL_ASSEMBLY_MEMBERS
100
AcDbLine
 62
7
  6
CONTINUOUS
 10
5.8494345985
 20
1.6107535787
 11
4.8594345985
 21
1.6107535787
  0
LINE
  5
22E
100
AcDbEntity
  8
0
100
AcDbLine
 62
7
  6
CONTINUOUS
 10
2.8594345985
 20
1.6107535787
 11
3.8494345985
 21
1.6107535787
  0
LINE
  5
22F
100
AcDbEntity
  8
0
100
AcDbLine
 62
7
  6
CONTINUOUS
 10
2.8594345985
 20
1.6957535787
 11
3.8494345985
 21
1.6957535787
  0
LINE
  5
230
100
AcDbEntity
  8
0
100
AcDbLine
 62
7
  6
CONTINUOUS
 10
6.8594345985
 20
1.6957535787
 11
7.8494345985
 21
1.6957535787
  0
LINE
  5
231
100
AcDbEntity
  8
0
100
AcDbLine
 62
7
  6
CONTINUOUS
 10
2.8744345985
 20
1.7107535787
 11
3.8344345985
 21
1.7107535787
  0
LINE
  5
232
100
AcDbEntity
  8
0
100
AcDbLine
 62
7
  6
CONTINUOUS
 10
6.8744345985
 20
1.7107535787
 11
7.8344345985
 21
1.7107535787
  0
LINE
  5
233
100
AcDbEntity
  8
0
100
AcDbLine
 62
7
  6
CONTINUOUS
 10
3.1669345985
 20
1.7157535787
 11
3.5419345985
 21
1.7157535787
  0
LINE
  5
234
100
AcDbEntity
  8
0
100
AcDbLine
 62
7
  6
CONTINUOUS
 10
7.1669345985
 20
1.7157535787
 11
7.5419345985
 21
1.7157535787
  0
LINE
  5
235
100
AcDbEntity
  8
ALL_ASSEMBLY_MEMBERS
100
AcDbLine
 62
7
  6
CONTINUOUS
 10
4.8594345985
 20
1.7207535787
 11
5.8494345985
 21
1.7207535787
  0
LINE
  5
236
100
AcDbEntity
  8
ALL_ASSEMBLY_MEMBERS
100
AcDbLine
 62
7
  6
CONTINUOUS
 10
4.8744345985
 20
1.7357535787
 11
5.8344345985
 21
1.7357535787
  0
LINE
  5
237
100
AcDbEntity
  8
ALL_ASSEMBLY_MEMBERS
100
AcDbLine
 62
7
  6
CONTINUOUS
 10
5.6944345985
 20
1.7407535787
 11
5.0144345985
 21
1.7407535787
  0
LINE
  5
238
100
AcDbEntity
  8
0
100
AcDbLine
 62
7
  6
CONTINUOUS
 10
2.8594345985
 20
1.6107535787
 11
2.8594345985
 21
1.6957535787
  0
LINE
  5
239
100
AcDbEntity
  8
0
100
AcDbLine
 62
7
  6
CONTINUOUS
 10
3.1669345985
 20
1.7157535787
 11
3.1669345985
 21
2.5057535787
  0
LINE
  5
23A
100
AcDbEntity
  8
0
100
AcDbLine
 62
7
  6
CONTINUOUS
 10
3.1719345985
 20
1.7157535787
 11
3.1719345985
 21
1.7107535787
  0
LINE
  5
23B
100
AcDbEntity
  8
0
100
AcDbLine
 62
7
  6
CONTINUOUS
 10
3.2079324121
 20
2.6822535787
 11
3.2079324121
 21
2.8862535787
  0
LINE
  5
23C
100
AcDbEntity
  8
0
100
AcDbLine
 62
7
  6
CONTINUOUS
 10
3.2138095985
 20
2.5312535787
 11
3.2138095985
 21
2.6522535787
  0
LINE
  5
23D
100
AcDbEntity
  8
0
100
AcDbLine
 62
7
  6
CONTINUOUS
 10
3.2220531047
 20
2.8712535787
 11
3.2220531047
 21
2.6822535787
  0
LINE
  5
23E
100
AcDbEntity
  8
0
100
AcDbLine
 62
7
  6
CONTINUOUS
 10
3.2269345985
 20
2.5207535787
 11
3.2269345985
 21
2.5312535787
  0
LINE
  5
23F
100
AcDbEntity
  8
0
100
AcDbLine
 62
7
  6
CONTINUOUS
 10
3.3069948395
 20
2.6822535787
 11
3.3069948395
 21
2.8712535787
  0
LINE
  5
240
100
AcDbEntity
  8
0
100
AcDbLine
 62
7
  6
CONTINUOUS
 10
3.3169345985
 20
2.8712535787
 11
3.3169345985
 21
2.6822535787
  0
LINE
  5
241
100
AcDbEntity
  8
0
100
AcDbLine
 62
7
  6
CONTINUOUS
 10
3.3919345985
 20
2.8712535787
 11
3.3919345985
 21
2.6822535787
  0
LINE
  5
242
100
AcDbEntity
  8
0
100
AcDbLine
 62
7
  6
CONTINUOUS
 10
3.4018743575
 20
2.8712535787
 11
3.4018743575
 21
2.6822535787
  0
LINE
  5
243
100
AcDbEntity
  8
0
100
AcDbLine
 62
7
  6
CONTINUOUS
 10
3.4819345985
 20
2.5207535787
 11
3.4819345985
 21
2.5312535787
  0
LINE
  5
244
100
AcDbEntity
  8
0
100
AcDbLine
 62
7
  6
CONTINUOUS
 10
3.4868160922
 20
2.6822535787
 11
3.4868160922
 21
2.8712535787
  0
LINE
  5
245
100
AcDbEntity
  8
0
100
AcDbLine
 62
7
  6
CONTINUOUS
 10
3.4950595985
 20
2.5312535787
 11
3.4950595985
 21
2.6522535787
  0
LINE
  5
246
100
AcDbEntity
  8
0
100
AcDbLine
 62
7
  6
CONTINUOUS
 10
3.5009367849
 20
2.6822535787
 11
3.5009367849
 21
2.8862535787
  0
LINE
  5
247
100
AcDbEntity
  8
0
100
AcDbLine
 62
7
  6
CONTINUOUS
 10
3.1669345985
 20
2.5057535787
 11
3.5419345985
 21
2.5057535787
  0
LINE
  5
248
100
AcDbEntity
  8
0
100
AcDbLine
 62
7
  6
CONTINUOUS
 10
7.1669345985
 20
2.5057535787
 11
7.5419345985
 21
2.5057535787
  0
LINE
  5
249
100
AcDbEntity
  8
0
100
AcDbLine
 62
7
  6
CONTINUOUS
 10
3.1819345985
 20
2.5207535787
 11
3.5269345985
 21
2.5207535787
  0
LINE
  5
24A
100
AcDbEntity
  8
0
100
AcDbLine
 62
7
  6
CONTINUOUS
 10
7.1819345985
 20
2.5207535787
 11
7.5269345985
 21
2.5207535787
  0
LINE
  5
24B
100
AcDbEntity
  8
0
100
AcDbLine
 62
7
  6
CONTINUOUS
 10
3.2138095985
 20
2.5312535787
 11
3.4950595985
 21
2.5312535787
  0
LINE
  5
24C
100
AcDbEntity
  8
0
100
AcDbLine
 62
7
  6
CONTINUOUS
 10
7.2138095985
 20
2.5312535787
 11
7.4950595985
 21
2.5312535787
  0
LINE
  5
24D
100
AcDbEntity
  8
0
100
AcDbLine
 62
7
  6
CONTINUOUS
 10
7.4950595985
 20
2.6522535787
 11
7.4935821024
 21
2.6522535787
  0
LINE
  5
24E
100
AcDbEntity
  8
0
100
AcDbLine
 62
7
  6
CONTINUOUS
 10
7.3747659238
 20
2.6522535787
 11
7.3341032732
 21
2.6522535787
  0
LINE
  5
24F
100
AcDbEntity
  8
0
100
AcDbLine
 62
7
  6
CONTINUOUS
 10
7.2152870946
 20
2.6522535787
 11
7.2138095985
 21
2.6522535787
  0
LINE
  5
250
100
AcDbEntity
  8
0
100
AcDbLine
 62
7
  6
CONTINUOUS
 10
3.4950595985
 20
2.6522535787
 11
3.4935821024
 21
2.6522535787
  0
LINE
  5
251
100
AcDbEntity
  8
0
100
AcDbLine
 62
7
  6
CONTINUOUS
 10
3.3747659238
 20
2.6522535787
 11
3.3341032732
 21
2.6522535787
  0
LINE
  5
252
100
AcDbEntity
  8
0
100
AcDbLine
 62
7
  6
CONTINUOUS
 10
3.2152870946
 20
2.6522535787
 11
3.2138095985
 21
2.6522535787
  0
LINE
  5
253
100
AcDbEntity
  8
0
100
AcDbLine
 62
7
  6
CONTINUOUS
 10
3.5369345985
 20
1.7157535787
 11
3.5369345985
 21
1.7107535787
  0
LINE
  5
254
100
AcDbEntity
  8
0
100
AcDbLine
 62
7
  6
CONTINUOUS
 10
3.5419345985
 20
1.7157535787
 11
3.5419345985
 21
2.5057535787
  0
LINE
  5
255
100
AcDbEntity
  8
0
100
AcDbLine
 62
7
  6
CONTINUOUS
 10
8.0894345985
 20
2.6672535787
 11
7.5084245027
 21
2.6672535787
  0
LINE
  5
256
100
AcDbEntity
  8
0
100
AcDbLine
 62
7
  6
CONTINUOUS
 10
7.3769345985
 20
2.6672535787
 11
7.3319345985
 21
2.6672535787
  0
LINE
  5
257
100
AcDbEntity
  8
0
100
AcDbLine
 62
7
  6
CONTINUOUS
 10
7.2004446942
 20
2.6672535787
 11
6.6194345985
 21
2.6672535787
  0
LINE
  5
258
100
AcDbEntity
  8
0
100
AcDbLine
 62
7
  6
CONTINUOUS
 10
4.0894345985
 20
2.6672535787
 11
3.5084245027
 21
2.6672535787
  0
LINE
  5
259
100
AcDbEntity
  8
0
100
AcDbLine
 62
7
  6
CONTINUOUS
 10
3.3769345985
 20
2.6672535787
 11
3.3319345985
 21
2.6672535787
  0
LINE
  5
25A
100
AcDbEntity
  8
0
100
AcDbLine
 62
7
  6
CONTINUOUS
 10
3.2004446942
 20
2.6672535787
 11
2.6194345985
 21
2.6672535787
  0
LINE
  5
25B
100
AcDbEntity
  8
0
100
AcDbLine
 62
7
  6
CONTINUOUS
 10
2.6044345985
 20
2.6822535787
 11
3.2220531047
 21
2.6822535787
  0
LINE
  5
25C
100
AcDbEntity
  8
0
100
AcDbLine
 62
7
  6
CONTINUOUS
 10
3.3069948395
 20
2.6822535787
 11
3.4018743575
 21
2.6822535787
  0
LINE
  5
25D
100
AcDbEntity
  8
0
100
AcDbLine
 62
7
  6
CONTINUOUS
 10
3.4868160922
 20
2.6822535787
 11
4.1044345985
 21
2.6822535787
  0
LINE
  5
25E
100
AcDbEntity
  8
0
100
AcDbLine
 62
7
  6
CONTINUOUS
 10
6.6044345985
 20
2.6822535787
 11
7.2220531047
 21
2.6822535787
  0
LINE
  5
25F
100
AcDbEntity
  8
0
100
AcDbLine
 62
7
  6
CONTINUOUS
 10
7.3069948395
 20
2.6822535787
 11
7.4018743575
 21
2.6822535787
  0
LINE
  5
260
100
AcDbEntity
  8
0
100
AcDbLine
 62
7
  6
CONTINUOUS
 10
7.4868160922
 20
2.6822535787
 11
8.1044345985
 21
2.6822535787
  0
LINE
  5
261
100
AcDbEntity
  8
0
100
AcDbLine
 62
7
  6
CONTINUOUS
 10
2.6044345985
 20
2.8712535787
 11
4.1044345985
 21
2.8712535787
  0
LINE
  5
262
100
AcDbEntity
  8
0
100
AcDbLine
 62
7
  6
CONTINUOUS
 10
6.6044345985
 20
2.8712535787
 11
8.1044345985
 21
2.8712535787
  0
LINE
  5
263
100
AcDbEntity
  8
0
100
AcDbLine
 62
7
  6
CONTINUOUS
 10
2.6194345985
 20
2.8862535787
 11
4.0894345985
 21
2.8862535787
  0
LINE
  5
264
100
AcDbEntity
  8
0
100
AcDbLine
 62
7
  6
CONTINUOUS
 10
6.6194345985
 20
2.8862535787
 11
8.0894345985
 21
2.8862535787
  0
LINE
  5
265
100
AcDbEntity
  8
0
100
AcDbLine
 62
7
  6
CONTINUOUS
 10
3.8494345985
 20
1.6107535787
 11
3.8494345985
 21
1.6957535787
  0
LINE
  5
266
100
AcDbEntity
  8
ALL_ASSEMBLY_MEMBERS
100
AcDbLine
 62
7
  6
CONTINUOUS
 10
5.0144345985
 20
3.1582535787
 11
5.6944345985
 21
3.1582535787
  0
LINE
  5
267
100
AcDbEntity
  8
ALL_ASSEMBLY_MEMBERS
100
AcDbLine
 62
7
  6
CONTINUOUS
 10
5.0294345985
 20
3.1732535787
 11
5.6794345985
 21
3.1732535787
  0
LINE
  5
268
100
AcDbEntity
  8
0
100
AcDbLine
 62
7
  6
CONTINUOUS
 10
4.0669345985
 20
2.6672535787
 11
4.0669345985
 21
2.8862535787
  0
LINE
  5
269
100
AcDbEntity
  8
0
100
AcDbLine
 62
7
  6
CONTINUOUS
 10
4.1044345985
 20
2.8712535787
 11
4.1044345985
 21
2.6822535787
  0
LINE
  5
26A
100
AcDbEntity
  8
ALL_ASSEMBLY_MEMBERS
100
AcDbLine
 62
7
  6
CONTINUOUS
 10
4.8594345985
 20
1.6107535787
 11
4.8594345985
 21
1.7207535787
  0
LINE
  5
26B
100
AcDbEntity
  8
ALL_ASSEMBLY_MEMBERS
100
AcDbLine
 62
7
  6
CONTINUOUS
 10
5.0144345985
 20
1.7407535787
 11
5.0144345985
 21
3.1582535787
  0
LINE
  5
26C
100
AcDbEntity
  8
ALL_ASSEMBLY_MEMBERS
100
AcDbLine
 62
7
  6
CONTINUOUS
 10
5.0219345985
 20
1.7407535787
 11
5.0219345985
 21
1.7357535787
  0
LINE
  5
26D
100
AcDbEntity
  8
ALL_ASSEMBLY_MEMBERS
100
AcDbLine
 62
7
  6
CONTINUOUS
 10
5.1356845985
 20
3.1732535787
 11
5.1356845985
 21
7.1392535787
  0
LINE
  5
26E
100
AcDbEntity
  8
ALL_ASSEMBLY_MEMBERS
100
AcDbLine
 62
7
  6
CONTINUOUS
 10
5.5731845985
 20
3.1732535787
 11
5.5731845985
 21
7.1392535787
  0
LINE
  5
26F
100
AcDbEntity
  8
ALL_ASSEMBLY_MEMBERS
100
AcDbLine
 62
7
  6
CONTINUOUS
 10
5.5731845985
 20
4.5782535787
 11
5.1356845985
 21
4.5782535787
  0
LINE
  5
270
100
AcDbEntity
  8
ALL_ASSEMBLY_MEMBERS
100
AcDbLine
 62
7
  6
CONTINUOUS
 10
5.6869345985
 20
1.7407535787
 11
5.6869345985
 21
1.7357535787
  0
LINE
  5
271
100
AcDbEntity
  8
ALL_ASSEMBLY_MEMBERS
100
AcDbLine
 62
7
  6
CONTINUOUS
 10
5.6944345985
 20
1.7407535787
 11
5.6944345985
 21
3.1582535787
  0
LINE
  5
272
100
AcDbEntity
  8
ALL_ASSEMBLY_MEMBERS
100
AcDbLine
 62
7
  6
CONTINUOUS
 10
5.8494345985
 20
1.6107535787
 11
5.8494345985
 21
1.7207535787
  0
LINE
  5
273
100
AcDbEntity
  8
ALL_ASSEMBLY_MEMBERS
100
AcDbLine
 62
7
  6
CONTINUOUS
 10
5.5731845985
 20
4.9832535787
 11
5.1356845985
 21
4.9832535787
  0
LINE
  5
274
100
AcDbEntity
  8
ALL_ASSEMBLY_MEMBERS
100
AcDbLine
 62
7
  6
CONTINUOUS
 10
5.1356845985
 20
5.3577535787
 11
5.5731845985
 21
5.3577535787
  0
LINE
  5
275
100
AcDbEntity
  8
0
100
AcDbLine
 62
7
  6
CONTINUOUS
 10
6.6044345985
 20
2.8712535787
 11
6.6044345985
 21
2.6822535787
  0
LINE
  5
276
100
AcDbEntity
  8
0
100
AcDbLine
 62
7
  6
CONTINUOUS
 10
6.6419345985
 20
2.6672535787
 11
6.6419345985
 21
2.8862535787
  0
LINE
  5
277
100
AcDbEntity
  8
0
100
AcDbLine
 62
7
  6
CONTINUOUS
 10
6.8594345985
 20
1.6107535787
 11
6.8594345985
 21
1.6957535787
  0
LINE
  5
278
100
AcDbEntity
  8
0
100
AcDbLine
 62
7
  6
CONTINUOUS
 10
7.1669345985
 20
1.7157535787
 11
7.1669345985
 21
2.5057535787
  0
LINE
  5
279
100
AcDbEntity
  8
0
100
AcDbLine
 62
7
  6
CONTINUOUS
 10
7.1719345985
 20
1.7157535787
 11
7.1719345985
 21
1.7107535787
  0
LINE
  5
27A
100
AcDbEntity
  8
0
100
AcDbLine
 62
7
  6
CONTINUOUS
 10
7.2079324121
 20
2.6822535787
 11
7.2079324121
 21
2.8862535787
  0
LINE
  5
27B
100
AcDbEntity
  8
0
100
AcDbLine
 62
7
  6
CONTINUOUS
 10
7.2138095985
 20
2.5312535787
 11
7.2138095985
 21
2.6522535787
  0
LINE
  5
27C
100
AcDbEntity
  8
0
100
AcDbLine
 62
7
  6
CONTINUOUS
 10
7.2220531047
 20
2.8712535787
 11
7.2220531047
 21
2.6822535787
  0
LINE
  5
27D
100
AcDbEntity
  8
0
100
AcDbLine
 62
7
  6
CONTINUOUS
 10
7.2269345985
 20
2.5207535787
 11
7.2269345985
 21
2.5312535787
  0
LINE
  5
27E
100
AcDbEntity
  8
0
100
AcDbLine
 62
7
  6
CONTINUOUS
 10
7.3069948395
 20
2.6822535787
 11
7.3069948395
 21
2.8712535787
  0
LINE
  5
27F
100
AcDbEntity
  8
0
100
AcDbLine
 62
7
  6
CONTINUOUS
 10
7.3169345985
 20
2.6822535787
 11
7.3169345985
 21
2.8712535787
  0
LINE
  5
280
100
AcDbEntity
  8
0
100
AcDbLine
 62
7
  6
CONTINUOUS
 10
7.3919345985
 20
2.6822535787
 11
7.3919345985
 21
2.8712535787
  0
LINE
  5
281
100
AcDbEntity
  8
0
100
AcDbLine
 62
7
  6
CONTINUOUS
 10
7.4018743575
 20
2.8712535787
 11
7.4018743575
 21
2.6822535787
  0
LINE
  5
282
100
AcDbEntity
  8
0
100
AcDbLine
 62
7
  6
CONTINUOUS
 10
7.4819345985
 20
2.5207535787
 11
7.4819345985
 21
2.5312535787
  0
LINE
  5
283
100
AcDbEntity
  8
0
100
AcDbLine
 62
7
  6
CONTINUOUS
 10
7.4868160922
 20
2.6822535787
 11
7.4868160922
 21
2.8712535787
  0
LINE
  5
284
100
AcDbEntity
  8
0
100
AcDbLine
 62
7
  6
CONTINUOUS
 10
7.4950595985
 20
2.5312535787
 11
7.4950595985
 21
2.6522535787
  0
LINE
  5
285
100
AcDbEntity
  8
0
100
AcDbLine
 62
7
  6
CONTINUOUS
 10
7.5009367849
 20
2.8862535787
 11
7.5009367849
 21
2.6822535787
  0
LINE
  5
286
100
AcDbEntity
  8
0
100
AcDbLine
 62
7
  6
CONTINUOUS
 10
7.5369345985
 20
1.7157535787
 11
7.5369345985
 21
1.7107535787
  0
LINE
  5
287
100
AcDbEntity
  8
0
100
AcDbLine
 62
7
  6
CONTINUOUS
 10
7.5419345985
 20
1.7157535787
 11
7.5419345985
 21
2.5057535787
  0
LINE
  5
288
100
AcDbEntity
  8
0
100
AcDbLine
 62
7
  6
CONTINUOUS
 10
7.8494345985
 20
1.6107535787
 11
7.8494345985
 21
1.6957535787
  0
LINE
  5
289
100
AcDbEntity
  8
0
100
AcDbLine
 62
7
  6
CONTINUOUS
 10
8.0669345985
 20
2.6672535787
 11
8.0669345985
 21
2.8862535787
  0
LINE
  5
28A
100
AcDbEntity
  8
0
100
AcDbLine
 62
7
  6
CONTINUOUS
 10
8.1044345985
 20
2.8712535787
 11
8.1044345985
 21
2.6822535787
  0
ARC
  5
28B
100
AcDbEntity
  8
0
100
AcDbCircle
 62
7
  6
CONTINUOUS
 10
3.7831845985
 20
1.6275035787
 40
0.02575
100
AcDbArc
 50
270.0
 51
319.4015915452
  0
ARC
  5
28C
100
AcDbEntity
  8
0
100
AcDbCircle
 62
7
  6
CONTINUOUS
 10
2.9256845985
 20
1.6275035787
 40
0.02575
100
AcDbArc
 50
220.5984084548
 51
270.0
  0
ARC
  5
28D
100
AcDbEntity
  8
ALL_ASSEMBLY_MEMBERS
100
AcDbCircle
 62
7
  6
CONTINUOUS
 10
4.9256845985
 20
1.6275035787
 40
0.02575
100
AcDbArc
 50
220.5984084548
 51
270.0
  0
ARC
  5
28E
100
AcDbEntity
  8
0
100
AcDbCircle
 62
7
  6
CONTINUOUS
 10
3.8344345985
 20
1.6957535787
 40
0.015
100
AcDbArc
 50
0.0
 51
90.0
  0
ARC
  5
28F
100
AcDbEntity
  8
0
100
AcDbCircle
 62
7
  6
CONTINUOUS
 10
2.8744345985
 20
1.6957535787
 40
0.015
100
AcDbArc
 50
90.0
 51
180.0
  0
ARC
  5
290
100
AcDbEntity
  8
ALL_ASSEMBLY_MEMBERS
100
AcDbCircle
 62
7
  6
CONTINUOUS
 10
4.8744345985
 20
1.7207535787
 40
0.015
100
AcDbArc
 50
90.0
 51
180.0
  0
ARC
  5
291
100
AcDbEntity
  8
0
100
AcDbCircle
 62
7
  6
CONTINUOUS
 10
3.5269345985
 20
2.5057535787
 40
0.015
100
AcDbArc
 50
0.0
 51
90.0
  0
ARC
  5
292
100
AcDbEntity
  8
0
100
AcDbCircle
 62
7
  6
CONTINUOUS
 10
3.1819345985
 20
2.5057535787
 40
0.015
100
AcDbArc
 50
90.0
 51
180.0
  0
ARC
  5
293
100
AcDbEntity
  8
0
100
AcDbCircle
 62
7
  6
CONTINUOUS
 10
4.0894345985
 20
2.6822535787
 40
0.015
100
AcDbArc
 50
270.0
 51
360.0
  0
ARC
  5
294
100
AcDbEntity
  8
0
100
AcDbCircle
 62
7
  6
CONTINUOUS
 10
4.0894345985
 20
2.8712535787
 40
0.015
100
AcDbArc
 50
0.0
 51
90.0
  0
ARC
  5
295
100
AcDbEntity
  8
0
100
AcDbCircle
 62
7
  6
CONTINUOUS
 10
2.6194345985
 20
2.8712535787
 40
0.015
100
AcDbArc
 50
90.0
 51
180.0
  0
ARC
  5
296
100
AcDbEntity
  8
0
100
AcDbCircle
 62
7
  6
CONTINUOUS
 10
2.6194345985
 20
2.6822535787
 40
0.015
100
AcDbArc
 50
180.0
 51
270.0
  0
ARC
  5
297
100
AcDbEntity
  8
0
100
AcDbCircle
 62
7
  6
CONTINUOUS
 10
3.1988095985
 20
2.6522535787
 40
0.015
100
AcDbArc
 50
0.0
 51
78.0
  0
ARC
  5
298
100
AcDbEntity
  8
0
100
AcDbCircle
 62
7
  6
CONTINUOUS
 10
3.5100595984
 20
2.6522535787
 40
0.015
100
AcDbArc
 50
102.0
 51
180.0
  0
ARC
  5
299
100
AcDbEntity
  8
0
100
AcDbCircle
 62
7
  6
CONTINUOUS
 10
3.3319345985
 20
2.6822535787
 40
0.015
100
AcDbArc
 50
180.0
 51
270.0
  0
ARC
  5
29A
100
AcDbEntity
  8
0
100
AcDbCircle
 62
7
  6
CONTINUOUS
 10
3.3769345985
 20
2.6822535787
 40
0.015
100
AcDbArc
 50
270.0
 51
360.0
  0
ARC
  5
29B
100
AcDbEntity
  8
0
100
AcDbCircle
 62
7
  6
CONTINUOUS
 10
3.3319345985
 20
2.8712535787
 40
0.015
100
AcDbArc
 50
90.0
 51
180.0
  0
ARC
  5
29C
100
AcDbEntity
  8
0
100
AcDbCircle
 62
7
  6
CONTINUOUS
 10
3.3769345985
 20
2.8712535787
 40
0.015
100
AcDbArc
 50
0.0
 51
90.0
  0
ARC
  5
29D
100
AcDbEntity
  8
ALL_ASSEMBLY_MEMBERS
100
AcDbCircle
 62
7
  6
CONTINUOUS
 10
5.0294345985
 20
3.1582535787
 40
0.015
100
AcDbArc
 50
90.0
 51
180.0
  0
ARC
  5
29E
100
AcDbEntity
  8
0
100
AcDbCircle
 62
7
  6
CONTINUOUS
 10
7.7831845985
 20
1.6275035787
 40
0.02575
100
AcDbArc
 50
270.0
 51
319.4015915452
  0
ARC
  5
29F
100
AcDbEntity
  8
0
100
AcDbCircle
 62
7
  6
CONTINUOUS
 10
6.9256845985
 20
1.6275035787
 40
0.02575
100
AcDbArc
 50
220.5984084548
 51
270.0
  0
ARC
  5
2A0
100
AcDbEntity
  8
ALL_ASSEMBLY_MEMBERS
100
AcDbCircle
 62
7
  6
CONTINUOUS
 10
5.7831845985
 20
1.6275035787
 40
0.02575
100
AcDbArc
 50
270.0
 51
319.4015915452
  0
ARC
  5
2A1
100
AcDbEntity
  8
0
100
AcDbCircle
 62
7
  6
CONTINUOUS
 10
6.8744345985
 20
1.6957535787
 40
0.015
100
AcDbArc
 50
90.0
 51
180.0
  0
ARC
  5
2A2
100
AcDbEntity
  8
0
100
AcDbCircle
 62
7
  6
CONTINUOUS
 10
7.8344345985
 20
1.6957535787
 40
0.015
100
AcDbArc
 50
0.0
 51
90.0
  0
ARC
  5
2A3
100
AcDbEntity
  8
ALL_ASSEMBLY_MEMBERS
100
AcDbCircle
 62
7
  6
CONTINUOUS
 10
5.8344345985
 20
1.7207535787
 40
0.015
100
AcDbArc
 50
0.0
 51
90.0
  0
ARC
  5
2A4
100
AcDbEntity
  8
0
100
AcDbCircle
 62
7
  6
CONTINUOUS
 10
7.1819345985
 20
2.5057535787
 40
0.015
100
AcDbArc
 50
90.0
 51
180.0
  0
ARC
  5
2A5
100
AcDbEntity
  8
0
100
AcDbCircle
 62
7
  6
CONTINUOUS
 10
7.5269345985
 20
2.5057535787
 40
0.015
100
AcDbArc
 50
0.0
 51
90.0
  0
ARC
  5
2A6
100
AcDbEntity
  8
0
100
AcDbCircle
 62
7
  6
CONTINUOUS
 10
6.6194345985
 20
2.6822535787
 40
0.015
100
AcDbArc
 50
180.0
 51
270.0
  0
ARC
  5
2A7
100
AcDbEntity
  8
0
100
AcDbCircle
 62
7
  6
CONTINUOUS
 10
6.6194345985
 20
2.8712535787
 40
0.015
100
AcDbArc
 50
90.0
 51
180.0
  0
ARC
  5
2A8
100
AcDbEntity
  8
0
100
AcDbCircle
 62
7
  6
CONTINUOUS
 10
8.0894345985
 20
2.8712535787
 40
0.015
100
AcDbArc
 50
0.0
 51
90.0
  0
ARC
  5
2A9
100
AcDbEntity
  8
0
100
AcDbCircle
 62
7
  6
CONTINUOUS
 10
8.0894345985
 20
2.6822535787
 40
0.015
100
AcDbArc
 50
270.0
 51
360.0
  0
ARC
  5
2AA
100
AcDbEntity
  8
0
100
AcDbCircle
 62
7
  6
CONTINUOUS
 10
7.5100595984
 20
2.6522535787
 40
0.015
100
AcDbArc
 50
102.0
 51
180.0
  0
ARC
  5
2AB
100
AcDbEntity
  8
0
100
AcDbCircle
 62
7
  6
CONTINUOUS
 10
7.1988095985
 20
2.6522535787
 40
0.015
100
AcDbArc
 50
0.0
 51
78.0
  0
ARC
  5
2AC
100
AcDbEntity
  8
0
100
AcDbCircle
 62
7
  6
CONTINUOUS
 10
7.3319345985
 20
2.6822535787
 40
0.015
100
AcDbArc
 50
180.0
 51
270.0
  0
ARC
  5
2AD
100
AcDbEntity
  8
0
100
AcDbCircle
 62
7
  6
CONTINUOUS
 10
7.3769345985
 20
2.6822535787
 40
0.015
100
AcDbArc
 50
270.0
 51
360.0
  0
ARC
  5
2AE
100
AcDbEntity
  8
0
100
AcDbCircle
 62
7
  6
CONTINUOUS
 10
7.3319345985
 20
2.8712535787
 40
0.015
100
AcDbArc
 50
90.0
 51
180.0
  0
ARC
  5
2AF
100
AcDbEntity
  8
0
100
AcDbCircle
 62
7
  6
CONTINUOUS
 10
7.3769345985
 20
2.8712535787
 40
0.015
100
AcDbArc
 50
0.0
 51
90.0
  0
ARC
  5
2B0
100
AcDbEntity
  8
ALL_ASSEMBLY_MEMBERS
100
AcDbCircle
 62
7
  6
CONTINUOUS
 10
5.6794345985
 20
3.1582535787
 40
0.015
100
AcDbArc
 50
0.0
 51
90.0
  0
ARC
  5
2B1
100
AcDbEntity
  8
ALL_ASSEMBLY_MEMBERS
100
AcDbCircle
 62
7
  6
CONTINUOUS
 10
5.3544345985
 20
7.1392535787
 40
0.21875
100
AcDbArc
 50
0.0
 51
180.0
  0
SPLINE
  5
2B2
100
AcDbEntity
  8
0
100
AcDbSpline
 62
7
  6
CONTINUOUS
 70
0
 71
3
 72
19
 73
15
 74
0
 42
0.0000001
 43
0.0000001
 44
0.0000000001
 40
0.0
 40
0.0
 40
0.0
 40
0.0
 40
0.026406396
 40
0.0577917039
 40
0.0946531329
 40
0.1373722774
 40
0.1856945489
 40
0.2394148828
 40
0.2982112429
 40
0.3617791254
 40
0.5019582751
 40
0.6575288548
 40
0.8252337778
 40
1.0
 40
1.0
 40
1.0
 40
1.0
 10
7.508424691
 20
2.6672535787
 30
0.0
 10
7.5082690802
 20
2.6672535804
 30
0.0
 10
7.5079285629
 20
2.6673164147
 30
0.0
 10
7.5074158884
 20
2.6675434447
 30
0.0
 10
7.5068684777
 20
2.6679051969
 30
0.0
 10
7.506290356
 20
2.668390687
 30
0.0
 10
7.5056916758
 20
2.6689999049
 30
0.0
 10
7.5050799943
 20
2.66972492
 30
0.0
 10
7.5044665751
 20
2.6705628161
 30
0.0
 10
7.5036330326
 20
2.6718672353
 30
0.0
 10
7.5026636554
 20
2.6737562154
 30
0.0
 10
7.5017219569
 20
2.676327688
 30
0.0
 10
7.5010872705
 20
2.6792024579
 30
0.0
 10
7.5009368296
 20
2.681223695
 30
0.0
 10
7.5009367849
 20
2.6822535787
 30
0.0
  0
SPLINE
  5
2B3
100
AcDbEntity
  8
0
100
AcDbSpline
 62
7
  6
CONTINUOUS
 70
0
 71
3
 72
24
 73
20
 74
0
 42
0.0000001
 43
0.0000001
 44
0.0000000001
 40
0.0
 40
0.0
 40
0.0
 40
0.0
 40
0.0068767222
 40
0.0150213505
 40
0.0249128944
 40
0.0367863453
 40
0.0507438037
 40
0.0668188227
 40
0.0849921625
 40
0.1052193933
 40
0.1515835431
 40
0.2053381265
 40
0.2658154647
 40
0.3323220251
 40
0.4041646763
 40
0.4806604412
 40
0.6448952358
 40
0.8197817262
 40
1.0
 40
1.0
 40
1.0
 40
1.0
 10
7.4935821024
 20
2.6522535787
 30
0.0
 10
7.493510126
 20
2.6522540761
 30
0.0
 10
7.4933526728
 20
2.6522875114
 30
0.0
 10
7.4931233838
 20
2.6524167351
 30
0.0
 10
7.4928857314
 20
2.6526226155
 30
0.0
 10
7.4926376827
 20
2.6529033724
 30
0.0
 10
7.49237955
 20
2.6532586042
 30
0.0
 10
7.4921125783
 20
2.6536871286
 30
0.0
 10
7.4918378951
 20
2.6541870537
 30
0.0
 10
7.4914452242
 20
2.6549829029
 30
0.0
 10
7.4909518451
 20
2.6561429411
 30
0.0
 10
7.4903765122
 20
2.6577229466
 30
0.0
 10
7.4898071768
 20
2.6595275816
 30
0.0
 10
7.4892565665
 20
2.6615349758
 30
0.0
 10
7.4887370765
 20
2.6637233649
 30
0.0
 10
7.4880857686
 20
2.6669300432
 30
0.0
 10
7.4874255639
 20
2.6712330391
 30
0.0
 10
7.4869297235
 20
2.6766493556
 30
0.0
 10
7.4868161064
 20
2.6803672491
 30
0.0
 10
7.4868160922
 20
2.6822535787
 30
0.0
  0
SPLINE
  5
2B4
100
AcDbEntity
  8
0
100
AcDbSpline
 62
7
  6
CONTINUOUS
 70
0
 71
3
 72
20
 73
16
 74
0
 42
0.0000001
 43
0.0000001
 44
0.0000000001
 40
0.0
 40
0.0
 40
0.0
 40
0.0
 40
0.0625370441
 40
0.1248955413
 40
0.1870934299
 40
0.2491667763
 40
0.3111637264
 40
0.3731409193
 40
0.4351573753
 40
0.4972695681
 40
0.621822517
 40
0.7471733799
 40
0.8101995666
 40
0.873410767
 40
1.0
 40
1.0
 40
1.0
 40
1.0
 10
7.3341032732
 20
2.6522535787
 30
0.0
 10
7.3331684229
 20
2.6522546444
 30
0.0
 10
7.3312996185
 20
2.6523601397
 30
0.0
 10
7.3285381689
 20
2.6528388396
 30
0.0
 10
7.3258543396
 20
2.6536217733
 30
0.0
 10
7.3232784274
 20
2.6546936079
 30
0.0
 10
7.3208359719
 20
2.6560347579
 30
0.0
 10
7.3185484784
 20
2.6576237911
 30
0.0
 10
7.3164336067
 20
2.6594387766
 30
0.0
 10
7.3138623897
 20
2.6621306889
 30
0.0
 10
7.3111438583
 20
2.6659572966
 30
0.0
 10
7.3091652729
 20
2.6702252449
 30
0.0
 10
7.3080455607
 20
2.6738201541
 30
0.0
 10
7.307239034
 20
2.6775160514
 30
0.0
 10
7.3069948998
 20
2.6803612273
 30
0.0
 10
7.3069948395
 20
2.6822535787
 30
0.0
  0
SPLINE
  5
2B5
100
AcDbEntity
  8
0
100
AcDbSpline
 62
7
  6
CONTINUOUS
 70
0
 71
3
 72
16
 73
12
 74
0
 42
0.0000001
 43
0.0000001
 44
0.0000000001
 40
0.0
 40
0.0
 40
0.0
 40
0.0
 40
0.1211578242
 40
0.2431147567
 40
0.3659945762
 40
0.4902613601
 40
0.6159956465
 40
0.6794413748
 40
0.7432079974
 40
0.8714478485
 40
1.0
 40
1.0
 40
1.0
 40
1.0
 10
7.2361737974
 20
2.8862535787
 30
0.0
 10
7.2352512735
 20
2.8862535787
 30
0.0
 10
7.2333946377
 20
2.8860576922
 30
0.0
 10
7.2307242787
 20
2.8851970578
 30
0.0
 10
7.2282645755
 20
2.8837967771
 30
0.0
 10
7.2261139782
 20
2.8819155265
 30
0.0
 10
7.2246460686
 20
2.880013205
 30
0.0
 10
7.2236992376
 20
2.8783332012
 30
0.0
 10
7.2229067674
 20
2.8765539853
 30
0.0
 10
7.2222354821
 20
2.874191978
 30
0.0
 10
7.2220531047
 20
2.8722324047
 30
0.0
 10
7.2220531047
 20
2.8712535787
 30
0.0
  0
SPLINE
  5
2B6
100
AcDbEntity
  8
0
100
AcDbSpline
 62
7
  6
CONTINUOUS
 70
0
 71
3
 72
19
 73
15
 74
0
 42
0.0000001
 43
0.0000001
 44
0.0000000001
 40
0.0
 40
0.0
 40
0.0
 40
0.0
 40
0.0298996229
 40
0.0619916709
 40
0.097879317
 40
0.1386411147
 40
0.1848575212
 40
0.2367519537
 40
0.2943405909
 40
0.3574104858
 40
0.4983610045
 40
0.6558518296
 40
0.8251223262
 40
1.0
 40
1.0
 40
1.0
 40
1.0
 10
7.3120550807
 20
2.8862535787
 30
0.0
 10
7.3118883517
 20
2.8862535787
 30
0.0
 10
7.3115410059
 20
2.8862004368
 30
0.0
 10
7.3110393308
 20
2.885972263
 30
0.0
 10
7.3105532169
 20
2.8856031526
 30
0.0
 10
7.3100864392
 20
2.8850980335
 30
0.0
 10
7.3096404459
 20
2.8844628122
 30
0.0
 10
7.3092178263
 20
2.8837029503
 30
0.0
 10
7.3088225369
 20
2.8828246542
 30
0.0
 10
7.3083175095
 20
2.8814550703
 30
0.0
 10
7.3077913321
 20
2.8795048895
 30
0.0
 10
7.3073371759
 20
2.8769340227
 30
0.0
 10
7.3070580258
 20
2.8741484061
 30
0.0
 10
7.3069948396
 20
2.8722287472
 30
0.0
 10
7.3069948396
 20
2.8712535787
 30
0.0
  0
SPLINE
  5
2B7
100
AcDbEntity
  8
0
100
AcDbSpline
 62
7
  6
CONTINUOUS
 70
0
 71
3
 72
18
 73
14
 74
0
 42
0.0000001
 43
0.0000001
 44
0.0000000001
 40
0.0
 40
0.0
 40
0.0
 40
0.0
 40
0.1265136325
 40
0.189727454
 40
0.2527546578
 40
0.3781078841
 40
0.5027069243
 40
0.5648471793
 40
0.6269010397
 40
0.750788929
 40
0.812909358
 40
0.8751773934
 40
1.0
 40
1.0
 40
1.0
 40
1.0
 10
7.4018743575
 20
2.6822535787
 30
0.0
 10
7.4018742195
 20
2.6803630796
 30
0.0
 10
7.4016298248
 20
2.6775201661
 30
0.0
 10
7.4008246588
 20
2.6738265754
 30
0.0
 10
7.3997063997
 20
2.6702326332
 30
0.0
 10
7.397729532
 20
2.6659649947
 30
0.0
 10
7.3950127249
 20
2.6621382077
 30
0.0
 10
7.3924419138
 20
2.6594449671
 30
0.0
 10
7.3896261131
 20
2.6570265779
 30
0.0
 10
7.3864511085
 20
2.6550515931
 30
0.0
 10
7.3830197643
 20
2.6536239215
 30
0.0
 10
7.3794400458
 20
2.652577773
 30
0.0
 10
7.3766311538
 20
2.6522537863
 30
0.0
 10
7.3747659238
 20
2.6522535787
 30
0.0
  0
SPLINE
  5
2B8
100
AcDbEntity
  8
0
100
AcDbSpline
 62
7
  6
CONTINUOUS
 70
0
 71
3
 72
18
 73
14
 74
0
 42
0.0000001
 43
0.0000001
 44
0.0000000001
 40
0.0
 40
0.0
 40
0.0
 40
0.0
 40
0.1746002109
 40
0.342264443
 40
0.4977967876
 40
0.6379797096
 40
0.7602855957
 40
0.814007947
 40
0.8623132283
 40
0.9049677024
 40
0.9419547921
 40
0.9734721161
 40
1.0
 40
1.0
 40
1.0
 40
1.0
 10
7.2079324121
 20
2.6822535787
 30
0.0
 10
7.2079323171
 20
2.6812244354
 30
0.0
 10
7.2077814874
 20
2.6792039699
 30
0.0
 10
7.2071474299
 20
2.6763300084
 30
0.0
 10
7.2062062811
 20
2.6737577405
 30
0.0
 10
7.2050787295
 20
2.6715606418
 30
0.0
 10
7.2040310908
 20
2.6700122196
 30
0.0
 10
7.2031781204
 20
2.6690004805
 30
0.0
 10
7.2025794935
 20
2.6683917139
 30
0.0
 10
7.2020027207
 20
2.6679038226
 30
0.0
 10
7.2014527457
 20
2.6675434193
 30
0.0
 10
7.2009375322
 20
2.6673164605
 30
0.0
 10
7.2005954413
 20
2.667253614
 30
0.0
 10
7.2004390784
 20
2.6672535787
 30
0.0
  0
SPLINE
  5
2B9
100
AcDbEntity
  8
0
100
AcDbSpline
 62
7
  6
CONTINUOUS
 70
0
 71
3
 72
24
 73
20
 74
0
 42
0.0000001
 43
0.0000001
 44
0.0000000001
 40
0.0
 40
0.0
 40
0.0
 40
0.0
 40
0.1800380505
 40
0.3548571423
 40
0.5190571103
 40
0.5955622536
 40
0.667426589
 40
0.7339606811
 40
0.7944716217
 40
0.8482681801
 40
0.8946731715
 40
0.9149153389
 40
0.9331046124
 40
0.949199219
 40
0.9631775636
 40
0.9750621748
 40
0.9849633836
 40
0.9931191222
 40
1.0
 40
1.0
 40
1.0
 40
1.0
 10
7.2220531047
 20
2.6822535787
 30
0.0
 10
7.2220530671
 20
2.6803691523
 30
0.0
 10
7.2219394018
 20
2.676653894
 30
0.0
 10
7.2214442441
 20
2.6712405439
 30
0.0
 10
7.2207847376
 20
2.6669384688
 30
0.0
 10
7.2201339464
 20
2.6637317547
 30
0.0
 10
7.2196145402
 20
2.6615427353
 30
0.0
 10
7.2190639721
 20
2.6595344515
 30
0.0
 10
7.2184946071
 20
2.6577287105
 30
0.0
 10
7.2179190539
 20
2.6561475058
 30
0.0
 10
7.2174255658
 20
2.6549864156
 30
0.0
 10
7.2170327418
 20
2.6541898125
 30
0.0
 10
7.2167578673
 20
2.6536893947
 30
0.0
 10
7.2164906405
 20
2.6532603397
 30
0.0
 10
7.2162323597
 20
2.6529045605
 30
0.0
 10
7.2159840057
 20
2.6526234532
 30
0.0
 10
7.2157457522
 20
2.6524177738
 30
0.0
 10
7.215516792
 20
2.6522877804
 30
0.0
 10
7.2153591155
 20
2.6522536283
 30
0.0
 10
7.2152870946
 20
2.6522535787
 30
0.0
  0
SPLINE
  5
2BA
100
AcDbEntity
  8
0
100
AcDbSpline
 62
7
  6
CONTINUOUS
 70
0
 71
3
 72
19
 73
15
 74
0
 42
0.0000001
 43
0.0000001
 44
0.0000000001
 40
0.0
 40
0.0
 40
0.0
 40
0.0
 40
0.0298996166
 40
0.0619916606
 40
0.0978793046
 40
0.138641102
 40
0.184857509
 40
0.2367519424
 40
0.2943405807
 40
0.3574104764
 40
0.4983609968
 40
0.6558518239
 40
0.8251223235
 40
1.0
 40
1.0
 40
1.0
 40
1.0
 10
7.3968141166
 20
2.8862535787
 30
0.0
 10
7.3969808455
 20
2.8862535787
 30
0.0
 10
7.3973281912
 20
2.8862004368
 30
0.0
 10
7.3978298662
 20
2.885972263
 30
0.0
 10
7.3983159801
 20
2.8856031526
 30
0.0
 10
7.3987827578
 20
2.8850980335
 30
0.0
 10
7.3992287511
 20
2.8844628122
 30
0.0
 10
7.3996513707
 20
2.8837029503
 30
0.0
 10
7.4000466601
 20
2.8828246542
 30
0.0
 10
7.4005516875
 20
2.8814550703
 30
0.0
 10
7.4010778649
 20
2.8795048895
 30
0.0
 10
7.4015320211
 20
2.8769340227
 30
0.0
 10
7.4018111713
 20
2.8741484062
 30
0.0
 10
7.4018743576
 20
2.8722287472
 30
0.0
 10
7.4018743576
 20
2.8712535787
 30
0.0
  0
SPLINE
  5
2BB
100
AcDbEntity
  8
0
100
AcDbSpline
 62
7
  6
CONTINUOUS
 70
0
 71
3
 72
16
 73
12
 74
0
 42
0.0000001
 43
0.0000001
 44
0.0000000001
 40
0.0
 40
0.0
 40
0.0
 40
0.0
 40
0.1211578216
 40
0.2431147535
 40
0.3659945735
 40
0.490261358
 40
0.6159956447
 40
0.6794413731
 40
0.743207996
 40
0.871447848
 40
1.0
 40
1.0
 40
1.0
 40
1.0
 10
7.4726953997
 20
2.8862535787
 30
0.0
 10
7.4736179236
 20
2.8862535787
 30
0.0
 10
7.4754745594
 20
2.8860576922
 30
0.0
 10
7.4781449184
 20
2.8851970577
 30
0.0
 10
7.4806046215
 20
2.883796777
 30
0.0
 10
7.4827552188
 20
2.8819155265
 30
0.0
 10
7.4842231284
 20
2.880013205
 30
0.0
 10
7.4851699594
 20
2.8783332012
 30
0.0
 10
7.4859624296
 20
2.8765539852
 30
0.0
 10
7.4866337149
 20
2.874191978
 30
0.0
 10
7.4868160923
 20
2.8722324047
 30
0.0
 10
7.4868160923
 20
2.8712535787
 30
0.0
  0
SPLINE
  5
2BC
100
AcDbEntity
  8
0
100
AcDbSpline
 62
7
  6
CONTINUOUS
 70
0
 71
3
 72
15
 73
11
 74
0
 42
0.0000001
 43
0.0000001
 44
0.0000000001
 40
0.0
 40
0.0
 40
0.0
 40
0.0
 40
0.1242637336
 40
0.2488456916
 40
0.373459752
 40
0.4983198876
 40
0.6234363238
 40
0.7487812315
 40
0.8744558577
 40
1.0
 40
1.0
 40
1.0
 40
1.0
 10
7.5084245027
 20
2.6672535787
 30
0.0
 10
7.507455225
 20
2.6672535787
 30
0.0
 10
7.5055089275
 20
2.6670586335
 30
0.0
 10
7.5027059932
 20
2.666201058
 30
0.0
 10
7.5001220766
 20
2.6648044921
 30
0.0
 10
7.4978600413
 20
2.6629255244
 30
0.0
 10
7.4960021577
 20
2.6606389466
 30
0.0
 10
7.4946219452
 20
2.658028311
 30
0.0
 10
7.4937746743
 20
2.6551974925
 30
0.0
 10
7.4935821135
 20
2.6532328439
 30
0.0
 10
7.4935821023
 20
2.6522535787
 30
0.0
  0
SPLINE
  5
2BD
100
AcDbEntity
  8
0
100
AcDbSpline
 62
7
  6
CONTINUOUS
 70
0
 71
3
 72
22
 73
18
 74
0
 42
0.0000001
 43
0.0000001
 44
0.0000000001
 40
0.0
 40
0.0
 40
0.0
 40
0.0
 40
0.0069251881
 40
0.0146043683
 40
0.0235753067
 40
0.0341692009
 40
0.060885833
 40
0.095530321
 40
0.1381615592
 40
0.1885688381
 40
0.2464440251
 40
0.3113053259
 40
0.3825446977
 40
0.4595352849
 40
0.6279741496
 40
0.8106053139
 40
1.0
 40
1.0
 40
1.0
 40
1.0
 10
7.3319345985
 20
2.6672535787
 30
0.0
 10
7.3319702393
 20
2.6672535787
 30
0.0
 10
7.332045834
 20
2.6672397132
 30
0.0
 10
7.3321537448
 20
2.667181243
 30
0.0
 10
7.3322592902
 20
2.667087626
 30
0.0
 10
7.332409643
 20
2.6669019392
 30
0.0
 10
7.3325875558
 20
2.666574449
 30
0.0
 10
7.3327822752
 20
2.6660754255
 30
0.0
 10
7.3329704084
 20
2.6654451512
 30
0.0
 10
7.3331500036
 20
2.6646892575
 30
0.0
 10
7.3333186727
 20
2.6638140444
 30
0.0
 10
7.3334747528
 20
2.6628278735
 30
0.0
 10
7.3336167459
 20
2.6617403034
 30
0.0
 10
7.3337900687
 20
2.66011968
 30
0.0
 10
7.3339567138
 20
2.6579224024
 30
0.0
 10
7.3340764483
 20
2.655143078
 30
0.0
 10
7.3341033587
 20
2.6532283063
 30
0.0
 10
7.3341032731
 20
2.6522535787
 30
0.0
  0
SPLINE
  5
2BE
100
AcDbEntity
  8
0
100
AcDbSpline
 62
7
  6
CONTINUOUS
 70
0
 71
3
 72
22
 73
18
 74
0
 42
0.0000001
 43
0.0000001
 44
0.0000000001
 40
0.0
 40
0.0
 40
0.0
 40
0.0
 40
0.0069700532
 40
0.0146850241
 40
0.0236822903
 40
0.0342945929
 40
0.0610305802
 40
0.0956794546
 40
0.1383064175
 40
0.1887045011
 40
0.2465677393
 40
0.3114155714
 40
0.3826406923
 40
0.4596167467
 40
0.6280271318
 40
0.8106314707
 40
1.0
 40
1.0
 40
1.0
 40
1.0
 10
7.3769345985
 20
2.6672535787
 30
0.0
 10
7.3768987219
 20
2.6672535787
 30
0.0
 10
7.3768226988
 20
2.6672397485
 30
0.0
 10
7.3767141239
 20
2.6671813104
 30
0.0
 10
7.3766079923
 20
2.6670876915
 30
0.0
 10
7.3764569839
 20
2.6669020606
 30
0.0
 10
7.3762784591
 20
2.6665745674
 30
0.0
 10
7.3760833872
 20
2.6660754845
 30
0.0
 10
7.3758951894
 20
2.6654451772
 30
0.0
 10
7.3757157593
 20
2.6646892661
 30
0.0
 10
7.3755474197
 20
2.6638140443
 30
0.0
 10
7.3753917876
 20
2.6628278692
 30
0.0
 10
7.3752503221
 20
2.6617402967
 30
0.0
 10
7.3750777781
 20
2.6601196602
 30
0.0
 10
7.3749120699
 20
2.6579223714
 30
0.0
 10
7.3747928763
 20
2.6551430657
 30
0.0
 10
7.3747659238
 20
2.6532283063
 30
0.0
 10
7.3747659238
 20
2.6522535787
 30
0.0
  0
SPLINE
  5
2BF
100
AcDbEntity
  8
0
100
AcDbSpline
 62
7
  6
CONTINUOUS
 70
0
 71
3
 72
15
 73
11
 74
0
 42
0.0000001
 43
0.0000001
 44
0.0000000001
 40
0.0
 40
0.0
 40
0.0
 40
0.0
 40
0.1242514132
 40
0.2488285529
 40
0.3734439232
 40
0.4983083484
 40
0.6234296379
 40
0.7487782961
 40
0.8744548489
 40
1.0
 40
1.0
 40
1.0
 40
1.0
 10
7.2004446942
 20
2.6672535787
 30
0.0
 10
7.201413868
 20
2.6672535787
 30
0.0
 10
7.2033600148
 20
2.6670586156
 30
0.0
 10
7.2061627882
 20
2.6662010279
 30
0.0
 10
7.2087466845
 20
2.6648044714
 30
0.0
 10
7.2110088031
 20
2.6629255192
 30
0.0
 10
7.2128668244
 20
2.6606389574
 30
0.0
 10
7.2142471849
 20
2.6580283322
 30
0.0
 10
7.2150945379
 20
2.6551975032
 30
0.0
 10
7.2152870947
 20
2.6532328437
 30
0.0
 10
7.2152870947
 20
2.6522535787
 30
0.0
  0
SPLINE
  5
2C0
100
AcDbEntity
  8
0
100
AcDbSpline
 62
7
  6
CONTINUOUS
 70
0
 71
3
 72
20
 73
16
 74
0
 42
0.0000001
 43
0.0000001
 44
0.0000000001
 40
0.0
 40
0.0
 40
0.0
 40
0.0
 40
0.0625370291
 40
0.1248955135
 40
0.1870933901
 40
0.2491667251
 40
0.3111636661
 40
0.3731408512
 40
0.4351573011
 40
0.497269489
 40
0.6218224371
 40
0.7471733055
 40
0.810199502
 40
0.8734107342
 40
1.0
 40
1.0
 40
1.0
 40
1.0
 10
3.3341032732
 20
2.6522535787
 30
0.0
 10
3.3331684231
 20
2.6522546452
 30
0.0
 10
3.3312996192
 20
2.6523601394
 30
0.0
 10
3.3285381701
 20
2.6528388391
 30
0.0
 10
3.3258543414
 20
2.6536217729
 30
0.0
 10
3.3232784294
 20
2.6546936069
 30
0.0
 10
3.3208359743
 20
2.6560347566
 30
0.0
 10
3.3185484808
 20
2.6576237892
 30
0.0
 10
3.3164336092
 20
2.6594387743
 30
0.0
 10
3.3138623919
 20
2.6621306861
 30
0.0
 10
3.3111438602
 20
2.6659572936
 30
0.0
 10
3.309165274
 20
2.6702252418
 30
0.0
 10
3.3080455614
 20
2.6738201516
 30
0.0
 10
3.3072390346
 20
2.67751605
 30
0.0
 10
3.3069948998
 20
2.6803612268
 30
0.0
 10
3.3069948395
 20
2.6822535787
 30
0.0
  0
SPLINE
  5
2C1
100
AcDbEntity
  8
0
100
AcDbSpline
 62
7
  6
CONTINUOUS
 70
0
 71
3
 72
18
 73
14
 74
0
 42
0.0000001
 43
0.0000001
 44
0.0000000001
 40
0.0
 40
0.0
 40
0.0
 40
0.0
 40
0.1265136325
 40
0.189727454
 40
0.2527546578
 40
0.3781078841
 40
0.5027069243
 40
0.5648471793
 40
0.6269010397
 40
0.750788929
 40
0.812909358
 40
0.8751773934
 40
1.0
 40
1.0
 40
1.0
 40
1.0
 10
3.4018743575
 20
2.6822535787
 30
0.0
 10
3.4018742195
 20
2.6803630796
 30
0.0
 10
3.4016298248
 20
2.6775201661
 30
0.0
 10
3.4008246588
 20
2.6738265754
 30
0.0
 10
3.3997063997
 20
2.6702326332
 30
0.0
 10
3.397729532
 20
2.6659649947
 30
0.0
 10
3.3950127249
 20
2.6621382077
 30
0.0
 10
3.3924419138
 20
2.6594449671
 30
0.0
 10
3.3896261131
 20
2.6570265779
 30
0.0
 10
3.3864511085
 20
2.6550515931
 30
0.0
 10
3.3830197643
 20
2.6536239215
 30
0.0
 10
3.3794400458
 20
2.652577773
 30
0.0
 10
3.3766311538
 20
2.6522537863
 30
0.0
 10
3.3747659238
 20
2.6522535787
 30
0.0
  0
SPLINE
  5
2C2
100
AcDbEntity
  8
0
100
AcDbSpline
 62
7
  6
CONTINUOUS
 70
0
 71
3
 72
18
 73
14
 74
0
 42
0.0000001
 43
0.0000001
 44
0.0000000001
 40
0.0
 40
0.0
 40
0.0
 40
0.0
 40
0.1746001939
 40
0.3422644092
 40
0.4977967378
 40
0.6379796439
 40
0.7602855179
 40
0.814007863
 40
0.8623131312
 40
0.904967592
 40
0.9419546963
 40
0.9734720748
 40
1.0
 40
1.0
 40
1.0
 40
1.0
 10
3.2079324121
 20
2.6822535787
 30
0.0
 10
3.2079323171
 20
2.6812244354
 30
0.0
 10
3.2077814874
 20
2.6792039698
 30
0.0
 10
3.2071474299
 20
2.6763300083
 30
0.0
 10
3.206206281
 20
2.6737577403
 30
0.0
 10
3.2050787294
 20
2.6715606415
 30
0.0
 10
3.2040310907
 20
2.6700122194
 30
0.0
 10
3.2031781201
 20
2.6690004804
 30
0.0
 10
3.2025794934
 20
2.6683917137
 30
0.0
 10
3.2020027207
 20
2.6679038223
 30
0.0
 10
3.2014527452
 20
2.667543419
 30
0.0
 10
3.2009375307
 20
2.6673164606
 30
0.0
 10
3.2005954392
 20
2.667253614
 30
0.0
 10
3.2004390761
 20
2.6672535787
 30
0.0
  0
SPLINE
  5
2C3
100
AcDbEntity
  8
0
100
AcDbSpline
 62
7
  6
CONTINUOUS
 70
0
 71
3
 72
24
 73
20
 74
0
 42
0.0000001
 43
0.0000001
 44
0.0000000001
 40
0.0
 40
0.0
 40
0.0
 40
0.0
 40
0.1800380505
 40
0.3548571425
 40
0.5190571106
 40
0.5955622539
 40
0.6674265894
 40
0.7339606815
 40
0.794471622
 40
0.8482681802
 40
0.894673172
 40
0.9149153397
 40
0.9331046135
 40
0.9491992203
 40
0.9631775648
 40
0.9750621756
 40
0.984963384
 40
0.9931191224
 40
1.0
 40
1.0
 40
1.0
 40
1.0
 10
3.2220531047
 20
2.6822535787
 30
0.0
 10
3.2220530671
 20
2.6803691523
 30
0.0
 10
3.2219394018
 20
2.6766538939
 30
0.0
 10
3.2214442441
 20
2.6712405439
 30
0.0
 10
3.2207847376
 20
2.6669384688
 30
0.0
 10
3.2201339464
 20
2.6637317547
 30
0.0
 10
3.2196145402
 20
2.6615427353
 30
0.0
 10
3.2190639721
 20
2.6595344515
 30
0.0
 10
3.2184946071
 20
2.6577287105
 30
0.0
 10
3.2179190539
 20
2.6561475058
 30
0.0
 10
3.2174255658
 20
2.6549864156
 30
0.0
 10
3.2170327418
 20
2.6541898125
 30
0.0
 10
3.2167578673
 20
2.6536893947
 30
0.0
 10
3.2164906405
 20
2.6532603396
 30
0.0
 10
3.2162323597
 20
2.6529045605
 30
0.0
 10
3.2159840057
 20
2.6526234532
 30
0.0
 10
3.2157457522
 20
2.6524177738
 30
0.0
 10
3.2155167919
 20
2.6522877804
 30
0.0
 10
3.2153591155
 20
2.6522536283
 30
0.0
 10
3.2152870946
 20
2.6522535787
 30
0.0
  0
SPLINE
  5
2C4
100
AcDbEntity
  8
0
100
AcDbSpline
 62
7
  6
CONTINUOUS
 70
0
 71
3
 72
19
 73
15
 74
0
 42
0.0000001
 43
0.0000001
 44
0.0000000001
 40
0.0
 40
0.0
 40
0.0
 40
0.0
 40
0.0264059757
 40
0.0577913599
 40
0.0946528294
 40
0.1373720405
 40
0.1856944166
 40
0.2394148153
 40
0.2982112698
 40
0.3617792352
 40
0.5019585389
 40
0.657529215
 40
0.8252339783
 40
1.0
 40
1.0
 40
1.0
 40
1.0
 10
3.5084246819
 20
2.6672535787
 30
0.0
 10
3.5082690736
 20
2.6672535803
 30
0.0
 10
3.507928559
 20
2.6673164171
 30
0.0
 10
3.5074158862
 20
2.6675434449
 30
0.0
 10
3.5068684755
 20
2.6679051991
 30
0.0
 10
3.5062903534
 20
2.6683906897
 30
0.0
 10
3.5056916721
 20
2.6689999081
 30
0.0
 10
3.5050799911
 20
2.669724925
 30
0.0
 10
3.5044665709
 20
2.6705628215
 30
0.0
 10
3.503633029
 20
2.6718672424
 30
0.0
 10
3.5026636511
 20
2.6737562232
 30
0.0
 10
3.5017219556
 20
2.676327696
 30
0.0
 10
3.5010872678
 20
2.6792024624
 30
0.0
 10
3.5009368296
 20
2.6812236967
 30
0.0
 10
3.5009367849
 20
2.6822535787
 30
0.0
  0
SPLINE
  5
2C5
100
AcDbEntity
  8
0
100
AcDbSpline
 62
7
  6
CONTINUOUS
 70
0
 71
3
 72
24
 73
20
 74
0
 42
0.0000001
 43
0.0000001
 44
0.0000000001
 40
0.0
 40
0.0
 40
0.0
 40
0.0
 40
0.0068767289
 40
0.0150213634
 40
0.0249129146
 40
0.0367863908
 40
0.0507438681
 40
0.0668188975
 40
0.0849922563
 40
0.1052195153
 40
0.151583713
 40
0.2053383439
 40
0.2658157295
 40
0.3323223293
 40
0.4041650085
 40
0.4806607818
 40
0.6448955899
 40
0.819781868
 40
1.0
 40
1.0
 40
1.0
 40
1.0
 10
3.4935821024
 20
2.6522535787
 30
0.0
 10
3.4935101259
 20
2.6522540749
 30
0.0
 10
3.4933526725
 20
2.6522875118
 30
0.0
 10
3.4931233837
 20
2.6524167355
 30
0.0
 10
3.4928857303
 20
2.6526226156
 30
0.0
 10
3.4926376821
 20
2.6529033737
 30
0.0
 10
3.4923795491
 20
2.6532586059
 30
0.0
 10
3.492112577
 20
2.6536871306
 30
0.0
 10
3.4918378936
 20
2.6541870563
 30
0.0
 10
3.4914452226
 20
2.6549829066
 30
0.0
 10
3.4909518432
 20
2.656142946
 30
0.0
 10
3.49037651
 20
2.6577229531
 30
0.0
 10
3.4898071745
 20
2.6595275895
 30
0.0
 10
3.4892565643
 20
2.661534985
 30
0.0
 10
3.4887370742
 20
2.6637233749
 30
0.0
 10
3.4880857667
 20
2.6669300538
 30
0.0
 10
3.487425563
 20
2.6712330478
 30
0.0
 10
3.4869297223
 20
2.6766493607
 30
0.0
 10
3.4868161064
 20
2.6803672505
 30
0.0
 10
3.4868160922
 20
2.6822535787
 30
0.0
  0
SPLINE
  5
2C6
100
AcDbEntity
  8
0
100
AcDbSpline
 62
7
  6
CONTINUOUS
 70
0
 71
3
 72
19
 73
15
 74
0
 42
0.0000001
 43
0.0000001
 44
0.0000000001
 40
0.0
 40
0.0
 40
0.0
 40
0.0
 40
0.0298996229
 40
0.0619916709
 40
0.097879317
 40
0.1386411147
 40
0.1848575212
 40
0.2367519537
 40
0.2943405909
 40
0.3574104858
 40
0.4983610045
 40
0.6558518296
 40
0.8251223262
 40
1.0
 40
1.0
 40
1.0
 40
1.0
 10
3.3120550807
 20
2.8862535787
 30
0.0
 10
3.3118883517
 20
2.8862535787
 30
0.0
 10
3.3115410059
 20
2.8862004368
 30
0.0
 10
3.3110393308
 20
2.885972263
 30
0.0
 10
3.3105532169
 20
2.8856031526
 30
0.0
 10
3.3100864392
 20
2.8850980335
 30
0.0
 10
3.3096404459
 20
2.8844628122
 30
0.0
 10
3.3092178263
 20
2.8837029503
 30
0.0
 10
3.3088225369
 20
2.8828246542
 30
0.0
 10
3.3083175095
 20
2.8814550703
 30
0.0
 10
3.3077913321
 20
2.8795048895
 30
0.0
 10
3.3073371759
 20
2.8769340227
 30
0.0
 10
3.3070580258
 20
2.8741484061
 30
0.0
 10
3.3069948396
 20
2.8722287472
 30
0.0
 10
3.3069948396
 20
2.8712535787
 30
0.0
  0
SPLINE
  5
2C7
100
AcDbEntity
  8
0
100
AcDbSpline
 62
7
  6
CONTINUOUS
 70
0
 71
3
 72
19
 73
15
 74
0
 42
0.0000001
 43
0.0000001
 44
0.0000000001
 40
0.0
 40
0.0
 40
0.0
 40
0.0
 40
0.0298996166
 40
0.0619916606
 40
0.0978793046
 40
0.138641102
 40
0.184857509
 40
0.2367519424
 40
0.2943405807
 40
0.3574104764
 40
0.4983609968
 40
0.6558518239
 40
0.8251223235
 40
1.0
 40
1.0
 40
1.0
 40
1.0
 10
3.3968141166
 20
2.8862535787
 30
0.0
 10
3.3969808455
 20
2.8862535787
 30
0.0
 10
3.3973281912
 20
2.8862004368
 30
0.0
 10
3.3978298662
 20
2.885972263
 30
0.0
 10
3.3983159801
 20
2.8856031526
 30
0.0
 10
3.3987827578
 20
2.8850980335
 30
0.0
 10
3.3992287511
 20
2.8844628122
 30
0.0
 10
3.3996513707
 20
2.8837029503
 30
0.0
 10
3.4000466601
 20
2.8828246542
 30
0.0
 10
3.4005516875
 20
2.8814550703
 30
0.0
 10
3.4010778649
 20
2.8795048895
 30
0.0
 10
3.4015320211
 20
2.8769340227
 30
0.0
 10
3.4018111713
 20
2.8741484062
 30
0.0
 10
3.4018743576
 20
2.8722287472
 30
0.0
 10
3.4018743576
 20
2.8712535787
 30
0.0
  0
SPLINE
  5
2C8
100
AcDbEntity
  8
0
100
AcDbSpline
 62
7
  6
CONTINUOUS
 70
0
 71
3
 72
16
 73
12
 74
0
 42
0.0000001
 43
0.0000001
 44
0.0000000001
 40
0.0
 40
0.0
 40
0.0
 40
0.0
 40
0.1211578216
 40
0.2431147535
 40
0.3659945735
 40
0.490261358
 40
0.6159956447
 40
0.6794413731
 40
0.743207996
 40
0.871447848
 40
1.0
 40
1.0
 40
1.0
 40
1.0
 10
3.4726953997
 20
2.8862535787
 30
0.0
 10
3.4736179236
 20
2.8862535787
 30
0.0
 10
3.4754745594
 20
2.8860576922
 30
0.0
 10
3.4781449184
 20
2.8851970577
 30
0.0
 10
3.4806046215
 20
2.883796777
 30
0.0
 10
3.4827552188
 20
2.8819155265
 30
0.0
 10
3.4842231284
 20
2.880013205
 30
0.0
 10
3.4851699594
 20
2.8783332012
 30
0.0
 10
3.4859624296
 20
2.8765539852
 30
0.0
 10
3.4866337149
 20
2.874191978
 30
0.0
 10
3.4868160923
 20
2.8722324047
 30
0.0
 10
3.4868160923
 20
2.8712535787
 30
0.0
  0
SPLINE
  5
2C9
100
AcDbEntity
  8
0
100
AcDbSpline
 62
7
  6
CONTINUOUS
 70
0
 71
3
 72
16
 73
12
 74
0
 42
0.0000001
 43
0.0000001
 44
0.0000000001
 40
0.0
 40
0.0
 40
0.0
 40
0.0
 40
0.1211578242
 40
0.2431147567
 40
0.3659945762
 40
0.4902613601
 40
0.6159956465
 40
0.6794413748
 40
0.7432079974
 40
0.8714478485
 40
1.0
 40
1.0
 40
1.0
 40
1.0
 10
3.2361737974
 20
2.8862535787
 30
0.0
 10
3.2352512735
 20
2.8862535787
 30
0.0
 10
3.2333946377
 20
2.8860576922
 30
0.0
 10
3.2307242787
 20
2.8851970578
 30
0.0
 10
3.2282645755
 20
2.8837967771
 30
0.0
 10
3.2261139782
 20
2.8819155265
 30
0.0
 10
3.2246460686
 20
2.880013205
 30
0.0
 10
3.2236992376
 20
2.8783332012
 30
0.0
 10
3.2229067674
 20
2.8765539853
 30
0.0
 10
3.2222354821
 20
2.874191978
 30
0.0
 10
3.2220531047
 20
2.8722324047
 30
0.0
 10
3.2220531047
 20
2.8712535787
 30
0.0
  0
SPLINE
  5
2CA
100
AcDbEntity
  8
0
100
AcDbSpline
 62
7
  6
CONTINUOUS
 70
0
 71
3
 72
15
 73
11
 74
0
 42
0.0000001
 43
0.0000001
 44
0.0000000001
 40
0.0
 40
0.0
 40
0.0
 40
0.0
 40
0.1242514132
 40
0.2488285529
 40
0.3734439232
 40
0.4983083484
 40
0.6234296379
 40
0.7487782961
 40
0.8744548489
 40
1.0
 40
1.0
 40
1.0
 40
1.0
 10
3.2004446942
 20
2.6672535787
 30
0.0
 10
3.201413868
 20
2.6672535787
 30
0.0
 10
3.2033600148
 20
2.6670586156
 30
0.0
 10
3.2061627882
 20
2.6662010279
 30
0.0
 10
3.2087466845
 20
2.6648044714
 30
0.0
 10
3.2110088031
 20
2.6629255192
 30
0.0
 10
3.2128668244
 20
2.6606389574
 30
0.0
 10
3.2142471849
 20
2.6580283322
 30
0.0
 10
3.2150945379
 20
2.6551975032
 30
0.0
 10
3.2152870947
 20
2.6532328437
 30
0.0
 10
3.2152870947
 20
2.6522535787
 30
0.0
  0
SPLINE
  5
2CB
100
AcDbEntity
  8
0
100
AcDbSpline
 62
7
  6
CONTINUOUS
 70
0
 71
3
 72
15
 73
11
 74
0
 42
0.0000001
 43
0.0000001
 44
0.0000000001
 40
0.0
 40
0.0
 40
0.0
 40
0.0
 40
0.1242637069
 40
0.2488456544
 40
0.3734597177
 40
0.4983198626
 40
0.6234363093
 40
0.7487812252
 40
0.8744558556
 40
1.0
 40
1.0
 40
1.0
 40
1.0
 10
3.5084245027
 20
2.6672535787
 30
0.0
 10
3.5074552252
 20
2.6672535787
 30
0.0
 10
3.5055089281
 20
2.6670586335
 30
0.0
 10
3.5027059941
 20
2.666201058
 30
0.0
 10
3.5001220776
 20
2.664804492
 30
0.0
 10
3.4978600421
 20
2.6629255244
 30
0.0
 10
3.4960021581
 20
2.6606389467
 30
0.0
 10
3.4946219453
 20
2.6580283111
 30
0.0
 10
3.4937746742
 20
2.6551974925
 30
0.0
 10
3.4935821135
 20
2.6532328439
 30
0.0
 10
3.4935821023
 20
2.6522535787
 30
0.0
  0
SPLINE
  5
2CC
100
AcDbEntity
  8
0
100
AcDbSpline
 62
7
  6
CONTINUOUS
 70
0
 71
3
 72
22
 73
18
 74
0
 42
0.0000001
 43
0.0000001
 44
0.0000000001
 40
0.0
 40
0.0
 40
0.0
 40
0.0
 40
0.0069251571
 40
0.0146043126
 40
0.0235752328
 40
0.0341691143
 40
0.060885733
 40
0.0955302181
 40
0.1381614592
 40
0.1885687444
 40
0.2464439397
 40
0.3113052498
 40
0.3825446314
 40
0.4595352287
 40
0.6279741131
 40
0.8106052958
 40
1.0
 40
1.0
 40
1.0
 40
1.0
 10
3.3319345985
 20
2.6672535787
 30
0.0
 10
3.3319702391
 20
2.6672535787
 30
0.0
 10
3.3320458335
 20
2.6672397132
 30
0.0
 10
3.3321537439
 20
2.667181243
 30
0.0
 10
3.3322592889
 20
2.667087626
 30
0.0
 10
3.3324096412
 20
2.6669019391
 30
0.0
 10
3.3325875536
 20
2.6665744489
 30
0.0
 10
3.3327822728
 20
2.6660754255
 30
0.0
 10
3.332970406
 20
2.6654451512
 30
0.0
 10
3.3331500012
 20
2.6646892575
 30
0.0
 10
3.3333186706
 20
2.6638140444
 30
0.0
 10
3.333474751
 20
2.6628278735
 30
0.0
 10
3.3336167444
 20
2.6617403034
 30
0.0
 10
3.3337900677
 20
2.66011968
 30
0.0
 10
3.3339567135
 20
2.6579224025
 30
0.0
 10
3.3340764484
 20
2.655143078
 30
0.0
 10
3.3341033588
 20
2.6532283063
 30
0.0
 10
3.3341032731
 20
2.6522535787
 30
0.0
  0
SPLINE
  5
2CD
100
AcDbEntity
  8
0
100
AcDbSpline
 62
7
  6
CONTINUOUS
 70
0
 71
3
 72
22
 73
18
 74
0
 42
0.0000001
 43
0.0000001
 44
0.0000000001
 40
0.0
 40
0.0
 40
0.0
 40
0.0
 40
0.0069700532
 40
0.0146850241
 40
0.0236822903
 40
0.0342945929
 40
0.0610305802
 40
0.0956794546
 40
0.1383064175
 40
0.1887045011
 40
0.2465677393
 40
0.3114155714
 40
0.3826406923
 40
0.4596167467
 40
0.6280271318
 40
0.8106314707
 40
1.0
 40
1.0
 40
1.0
 40
1.0
 10
3.3769345985
 20
2.6672535787
 30
0.0
 10
3.3768987219
 20
2.6672535787
 30
0.0
 10
3.3768226988
 20
2.6672397485
 30
0.0
 10
3.3767141239
 20
2.6671813104
 30
0.0
 10
3.3766079923
 20
2.6670876915
 30
0.0
 10
3.3764569839
 20
2.6669020606
 30
0.0
 10
3.3762784591
 20
2.6665745674
 30
0.0
 10
3.3760833872
 20
2.6660754845
 30
0.0
 10
3.3758951894
 20
2.6654451772
 30
0.0
 10
3.3757157593
 20
2.6646892661
 30
0.0
 10
3.3755474197
 20
2.6638140443
 30
0.0
 10
3.3753917876
 20
2.6628278692
 30
0.0
 10
3.3752503221
 20
2.6617402967
 30
0.0
 10
3.3750777781
 20
2.6601196602
 30
0.0
 10
3.3749120699
 20
2.6579223714
 30
0.0
 10
3.3747928763
 20
2.6551430657
 30
0.0
 10
3.3747659238
 20
2.6532283063
 30
0.0
 10
3.3747659238
 20
2.6522535787
 30
0.0
  0
ENDSEC
  0
SECTION
  2
OBJECTS
  0
DICTIONARY
  5
C
100
AcDbDictionary
280
0
281
1
  3
ACAD_GROUP
350
D
  3
ACAD_MLINESTYLE
350
17
  3
ACAD_LAYOUT
350
1A
  3
ACAD_PLOTSETTINGS
350
19
  3
ACAD_PLOTSTYLENAME
350
E
  0
DICTIONARY
  5
D
102
{ACAD_REACTORS
330
C
102
}
100
AcDbDictionary
280
0
281
1
  0
ACDBDICTIONARYWDFLT
  5
E
102
{ACAD_REACTORS
330
C
102
}
100
AcDbDictionary
281
1
  3
Normal
350
F
100
AcDbDictionaryWithDefault
340
F
  0
DICTIONARY
  5
17
102
{ACAD_REACTORS
330
C
102
}
100
AcDbDictionary
280
0
281
1
  3
Standard
350
18
  0
DICTIONARY
  5
19
102
{ACAD_REACTORS
330
C
102
}
100
AcDbDictionary
281
1
  0
DICTIONARY
  5
1A
102
{ACAD_REACTORS
330
C
102
}
100
AcDbDictionary
281
1
  3
Model
350
2CE
  3
Layout1
350
2CF
  0
ACDBPLACEHOLDER
  5
F
102
{ACAD_REACTORS
330
E
102
}
  0
MLINESTYLE
  5
18
102
{ACAD_REACTORS
330
17
102
}
100
AcDbMlineStyle
  2
STANDARD
 70
0
  3

 62
256
 51
90.0
 52
90.0
 71
2
 49
0.5
 62
256
  6
BYLAYER
 49
-0.5
 62
256
  6
BYLAYER
  0
LAYOUT
  5
2CE
102
{ACAD_REACTORS
330
1A
102
}
100
AcDbPlotSettings
  1

  2
none_device
  4
ANSI_A_(11.00_x_8.50_Inches)
  6

 40
0.0
 41
0.0
 42
0.0
 43
0.0
 44
279.4
 45
215.9
 46
0.0
 47
0.0
 48
0.0
 49
0.0
140
0.0
141
0.0
142
1.0
143
1.0
 70
1024
 72
0
 73
0
 74
0
  7

 75
0
147
1.0
148
0.0
149
0.0
100
AcDbLayout
  1
Model
 70
0
 71
0
 10
0.0
 20
0.0
 11
11.0
 21
8.5
 12
0.0
 22
0.0
 32
0.0
 14
0.0
 24
0.0
 34
0.0
 15
0.0
 25
0.0
 35
0.0
146
0.0
 13
0.0
 23
0.0
 33
0.0
 16
1.0
 26
0.0
 36
0.0
 17
0.0
 27
1.0
 37
0.0
 76
0
330
21B
345
0
346
0
  0
LAYOUT
  5
2CF
102
{ACAD_REACTORS
330
1A
102
}
100
AcDbPlotSettings
  1

  2
none_device
  4
ANSI_A_(11.00_x_8.50_Inches)
  6

 40
0.0
 41
0.0
 42
0.0
 43
0.0
 44
279.4
 45
215.9
 46
0.0
 47
0.0
 48
0.0
 49
0.0
140
0.0
141
0.0
142
1.0
143
1.0
 70
0
 72
0
 73
0
 74
0
  7

 75
0
147
1.0
148
0.0
149
0.0
100
AcDbLayout
  1
Layout1
 70
0
 71
1
 10
0.0
 20
0.0
 11
11.0
 21
8.5
 12
0.0
 22
0.0
 32
0.0
 14
0.0
 24
0.0
 34
0.0
 15
0.0
 25
0.0
 35
0.0
146
0.0
 13
0.0
 23
0.0
 33
0.0
 16
1.0
 26
0.0
 36
0.0
 17
0.0
 27
1.0
 37
0.0
 76
0
330
21C
345
0
346
0
  0
ENDSEC
  0
EOF
