999
DXF file: 3330c_right.dxf
999
Pro/ENGINEER 2019352 by Parametric Technology Corporation
  0
SECTION
  2
HEADER
  9
$ACADVER
  1
AC1032
  9
$DWGCODEPAGE
  3
ANSI_1252
  9
$EXTMAX
 10
11.0
 20
8.5
 30
0.0
  9
$EXTMIN
 10
0.0
 20
0.0
 30
0.0
  9
$LIMMIN
 10
0.0
 20
0.0
  9
$LIMMAX
 10
11.0
 20
8.5
  9
$VIEWCTR
 10
5.5
 20
4.25
  9
$VIEWSIZE
 40
8.5
  9
$CLAYER
  8
0
  9
$LTSCALE
 40
0.605
  9
$CELTYPE
  6
BYLAYER
  9
$DIMSCALE
 40
1.0
  9
$DIMASZ
 40
0.1
  9
$DIMEXO
 40
0.0625
  9
$DIMDLI
 40
0.418
  9
$DIMEXE
 40
0.125
  9
$DIMCEN
 40
0.099
  9
$DIMLFAC
 40
1.0
  9
$DIMBLK
  1
_FILLED
  9
$DIMALT
 70
1
  9
$DIMALTD
 70
2
  9
$DIMALTTD
 70
2
  9
$DIMALTF
 40
25.4
  9
$DIMTXT
 40
0.08
  9
$DIMTOL
 70
1
  9
$DIMLIM
 70
0
  9
$DIMTFAC
 40
1.0
  9
$DIMTP
 40
0.001
  9
$DIMTM
 40
0.001
  9
$DIMGAP
 40
0.09
  9
$DIMDSEP
 70
46
  9
$AUNITS
 70
0
  9
$PDMODE
 70
3
  9
$PDSIZE
 40
0.3125
  9
$HANDSEED
  5
297
  9
$TILEMODE
 70
1
  9
$MEASUREMENT
 70
0
  9
$INSUNITS
 70
1
  0
ENDSEC
  0
SECTION
  2
CLASSES
  0
CLASS
  1
ACDBDICTIONARYWDFLT
  2
AcDbDictionaryWithDefault
  3
AutoCAD 2000
 90
0
 91
1
280
0
281
0
  0
CLASS
  1
ACDBPLACEHOLDER
  2
AcDbPlaceHolder
  3
AutoCAD 2000
 90
0
 91
1
280
0
281
0
  0
CLASS
  1
LAYOUT
  2
AcDbLayout
  3
AutoCAD 2000
 90
0
 91
0
280
0
281
0
  0
ENDSEC
  0
SECTION
  2
TABLES
  0
TABLE
  2
VPORT
  5
8
100
AcDbSymbolTable
 70
2
  0
VPORT
  5
1F4
100
AcDbSymbolTableRecord
100
AcDbViewportTableRecord
  2
*ACTIVE
 70
0
 10
0.0
 20
0.0
 11
1.0
 21
1.0
 12
5.5
 22
4.25
 13
0.0
 23
0.0
 14
1.0
 24
1.0
 15
0.0
 25
0.0
 16
0.0
 26
0.0
 36
1.0
 17
0.0
 27
0.0
 37
0.0
 40
8.5
 41
1.2941176471
 42
50.0
 43
0.0
 44
0.0
 50
0.0
 51
0.0
 71
0
 72
100
 73
1
 74
1
 75
0
 76
0
 77
0
 78
0
  0
ENDTAB
  0
TABLE
  2
LTYPE
  5
5
100
AcDbSymbolTable
 70
6
  0
LTYPE
  5
14
100
AcDbSymbolTableRecord
100
AcDbLinetypeTableRecord
  2
BYBLOCK
 70
0
  3

 72
65
 73
0
 40
0.0
  0
LTYPE
  5
15
100
AcDbSymbolTableRecord
100
AcDbLinetypeTableRecord
  2
BYLAYER
 70
0
  3

 72
65
 73
0
 40
0.0
  0
LTYPE
  5
16
100
AcDbSymbolTableRecord
100
AcDbLinetypeTableRecord
  2
CONTINUOUS
 70
64
  3
Solid line
 72
65
 73
0
 40
0.0
  0
LTYPE
  5
1F5
100
AcDbSymbolTableRecord
100
AcDbLinetypeTableRecord
  2
CENTER
 70
64
  3
____ _ ____ _ ____ _ ____ _ ____ _ ____ _ ____
 72
65
 73
4
 40
0.6
 49
0.375
 74
0
 49
-0.075
 74
0
 49
0.075
 74
0
 49
-0.075
 74
0
  0
LTYPE
  5
1F6
100
AcDbSymbolTableRecord
100
AcDbLinetypeTableRecord
  2
HIDDEN
 70
64
  3
- - - - - - - - - - - - - - - - - - - -
 72
65
 73
2
 40
0.2
 49
0.1
 74
0
 49
-0.1
 74
0
  0
LTYPE
  5
1F7
100
AcDbSymbolTableRecord
100
AcDbLinetypeTableRecord
  2
PHANTOM
 70
64
  3
_____ _ _ _____ _ _ _____ _ _ _____
 72
65
 73
6
 40
0.8
 49
0.45
 74
0
 49
-0.05
 74
0
 49
0.1
 74
0
 49
-0.05
 74
0
 49
0.1
 74
0
 49
-0.05
 74
0
  0
LTYPE
  5
1F8
100
AcDbSymbolTableRecord
100
AcDbLinetypeTableRecord
  2
DOT
 70
64
  3
. . . . . . . . . . . . . . . . . . . .
 72
65
 73
2
 40
0.2
 49
0.1
 74
0
 49
-0.1
 74
0
  0
LTYPE
  5
1F9
100
AcDbSymbolTableRecord
100
AcDbLinetypeTableRecord
  2
DASHED
 70
64
  3
- - - - - - - - - - - - - - - - - - - -
 72
65
 73
2
 40
0.2
 49
0.1
 74
0
 49
-0.1
 74
0
  0
ENDTAB
  0
TABLE
  2
LAYER
  5
2
100
AcDbSymbolTable
 70
36
  0
LAYER
  5
10
100
AcDbSymbolTableRecord
100
AcDbLayerTableRecord
  2
0
 70
0
 62
7
  6
CONTINUOUS
370
-3
390
F
  0
LAYER
  5
1FA
100
AcDbSymbolTableRecord
100
AcDbLayerTableRecord
  2
DEFAULT_1
 70
0
 62
7
  6
CENTER
370
-3
390
F
  0
LAYER
  5
1FB
100
AcDbSymbolTableRecord
100
AcDbLayerTableRecord
  2
DEFAULT_2
 70
0
 62
8
  6
HIDDEN
370
-3
390
F
  0
LAYER
  5
1FC
100
AcDbSymbolTableRecord
100
AcDbLayerTableRecord
  2
DEFAULT_3
 70
0
 62
7
  6
PHANTOM
370
-3
390
F
  0
LAYER
  5
1FD
100
AcDbSymbolTableRecord
100
AcDbLayerTableRecord
  2
2-127_ASSY_PLANES
 70
0
 62
7
  6
CONTINUOUS
370
-3
390
F
  0
LAYER
  5
1FE
100
AcDbSymbolTableRecord
100
AcDbLayerTableRecord
  2
ALL_ASSEMBLY_MEMBERS
 70
0
 62
7
  6
CONTINUOUS
370
-3
390
F
  0
LAYER
  5
1FF
100
AcDbSymbolTableRecord
100
AcDbLayerTableRecord
  2
ALL_FEATURES
 70
0
 62
7
  6
CONTINUOUS
370
-3
390
F
  0
LAYER
  5
200
100
AcDbSymbolTableRecord
100
AcDbLayerTableRecord
  2
AXES_FEATURES
 70
0
 62
7
  6
CONTINUOUS
370
-3
390
F
  0
LAYER
  5
201
100
AcDbSymbolTableRecord
100
AcDbLayerTableRecord
  2
CHAMFER_FEATURES
 70
0
 62
7
  6
CONTINUOUS
370
-3
390
F
  0
LAYER
  5
202
100
AcDbSymbolTableRecord
100
AcDbLayerTableRecord
  2
CUT_FEATURES
 70
0
 62
7
  6
CONTINUOUS
370
-3
390
F
  0
LAYER
  5
203
100
AcDbSymbolTableRecord
100
AcDbLayerTableRecord
  2
DATUM_CURVES
 70
0
 62
7
  6
CONTINUOUS
370
-3
390
F
  0
LAYER
  5
204
100
AcDbSymbolTableRecord
100
AcDbLayerTableRecord
  2
DATUM_PLANES
 70
0
 62
7
  6
CONTINUOUS
370
-3
390
F
  0
LAYER
  5
205
100
AcDbSymbolTableRecord
100
AcDbLayerTableRecord
  2
DEFAULT_COORDINATE_SYSTEM
 70
0
 62
7
  6
CONTINUOUS
370
-3
390
F
  0
LAYER
  5
206
100
AcDbSymbolTableRecord
100
AcDbLayerTableRecord
  2
DEFAULT_DATUM_AXES
 70
0
 62
7
  6
CONTINUOUS
370
-3
390
F
  0
LAYER
  5
207
100
AcDbSymbolTableRecord
100
AcDbLayerTableRecord
  2
DEFAULT_DATUM_CURVES
 70
0
 62
7
  6
CONTINUOUS
370
-3
390
F
  0
LAYER
  5
208
100
AcDbSymbolTableRecord
100
AcDbLayerTableRecord
  2
DEFAULT_DATUM_PLANES
 70
0
 62
7
  6
CONTINUOUS
370
-3
390
F
  0
LAYER
  5
209
100
AcDbSymbolTableRecord
100
AcDbLayerTableRecord
  2
DEFAULT_SURFACES
 70
0
 62
7
  6
CONTINUOUS
370
-3
390
F
  0
LAYER
  5
20A
100
AcDbSymbolTableRecord
100
AcDbLayerTableRecord
  2
DIMENSIONS
 70
0
 62
7
  6
CONTINUOUS
370
-3
390
F
  0
LAYER
  5
20B
100
AcDbSymbolTableRecord
100
AcDbLayerTableRecord
  2
HOLE_FEATURES
 70
0
 62
7
  6
CONTINUOUS
370
-3
390
F
  0
LAYER
  5
20C
100
AcDbSymbolTableRecord
100
AcDbLayerTableRecord
  2
NONE
 70
0
 62
7
  6
CONTINUOUS
370
-3
390
F
  0
LAYER
  5
20D
100
AcDbSymbolTableRecord
100
AcDbLayerTableRecord
  2
PART_REFERENCE_DIMENSIONS
 70
0
 62
7
  6
CONTINUOUS
370
-3
390
F
  0
LAYER
  5
20E
100
AcDbSymbolTableRecord
100
AcDbLayerTableRecord
  2
PLATEDSURF
 70
0
 62
7
  6
CONTINUOUS
370
-3
390
F
  0
LAYER
  5
20F
100
AcDbSymbolTableRecord
100
AcDbLayerTableRecord
  2
PLATEDSURFACE
 70
0
 62
7
  6
CONTINUOUS
370
-3
390
F
  0
LAYER
  5
210
100
AcDbSymbolTableRecord
100
AcDbLayerTableRecord
  2
PROTRUSION_FEATURES
 70
0
 62
7
  6
CONTINUOUS
370
-3
390
F
  0
LAYER
  5
211
100
AcDbSymbolTableRecord
100
AcDbLayerTableRecord
  2
QUILT
 70
0
 62
7
  6
CONTINUOUS
370
-3
390
F
  0
LAYER
  5
212
100
AcDbSymbolTableRecord
100
AcDbLayerTableRecord
  2
QUILTS
 70
0
 62
7
  6
CONTINUOUS
370
-3
390
F
  0
LAYER
  5
213
100
AcDbSymbolTableRecord
100
AcDbLayerTableRecord
  2
REFERENCE_DIMENSIONS
 70
0
 62
7
  6
CONTINUOUS
370
-3
390
F
  0
LAYER
  5
214
100
AcDbSymbolTableRecord
100
AcDbLayerTableRecord
  2
ROUND_FEATURES
 70
0
 62
7
  6
CONTINUOUS
370
-3
390
F
  0
LAYER
  5
215
100
AcDbSymbolTableRecord
100
AcDbLayerTableRecord
  2
SIZE_REF
 70
0
 62
7
  6
CONTINUOUS
370
-3
390
F
  0
LAYER
  5
216
100
AcDbSymbolTableRecord
100
AcDbLayerTableRecord
  2
WETTED_SURFACES
 70
0
 62
7
  6
CONTINUOUS
370
-3
390
F
  0
LAYER
  5
217
100
AcDbSymbolTableRecord
100
AcDbLayerTableRecord
  2
WETTED_SURFACE_AREA
 70
0
 62
7
  6
CONTINUOUS
370
-3
390
F
  0
LAYER
  5
218
100
AcDbSymbolTableRecord
100
AcDbLayerTableRecord
  2
XSEC_DATUMS
 70
0
 62
7
  6
CONTINUOUS
370
-3
390
F
  0
ENDTAB
  0
TABLE
  2
STYLE
  5
3
100
AcDbSymbolTable
 70
1
  0
STYLE
  5
11
100
AcDbSymbolTableRecord
100
AcDbTextStyleTableRecord
  2
STANDARD
 70
0
 40
0.0
 41
0.8
 50
0.0
 71
0
 42
0.2
  3
txt
  4

  0
STYLE
  5
219
100
AcDbSymbolTableRecord
100
AcDbTextStyleTableRecord
  2
TEXTSTYLE_1
 70
0
 40
0.0
 41
0.8
 50
0.0
 71
0
 42
0.2
  3
gdt
  4

  0
ENDTAB
  0
TABLE
  2
VIEW
  5
6
100
AcDbSymbolTable
 70
0
  0
ENDTAB
  0
TABLE
  2
UCS
  5
7
100
AcDbSymbolTable
 70
0
  0
ENDTAB
  0
TABLE
  2
APPID
  5
9
100
AcDbSymbolTable
 70
1
  0
APPID
  5
21A
100
AcDbSymbolTableRecord
100
AcDbRegAppTableRecord
  2
ACAD
 70
0
  0
ENDTAB
  0
TABLE
  2
BLOCK_RECORD
  5
1
100
AcDbSymbolTable
 70
0
  0
BLOCK_RECORD
  5
21B
100
AcDbSymbolTableRecord
100
AcDbBlockTableRecord
  2
*Model_Space
  0
BLOCK_RECORD
  5
21C
100
AcDbSymbolTableRecord
100
AcDbBlockTableRecord
  2
*Paper_Space
  0
BLOCK_RECORD
  5
21D
100
AcDbSymbolTableRecord
100
AcDbBlockTableRecord
  2
_FILLED
  0
ENDTAB
  0
TABLE
  2
DIMSTYLE
  5
A
100
AcDbSymbolTable
 70
1
100
AcDbDimStyleTable
 71
0
  0
DIMSTYLE
105
21E
100
AcDbSymbolTableRecord
100
AcDbDimStyleTableRecord
  2
STANDARD
 70
0
  3

  4

 40
1.0
 41
0.1
 42
0.0625
 43
0.38
 44
0.125
 45
0.0
 46
0.0
 47
0.001
 48
0.001
140
0.08
141
0.09
142
0.0
143
25.4
144
1.0
145
0.0
146
1.0
147
0.09
 71
1.0
 72
0.0
 73
1
 74
1
 75
0
 76
0
 77
0
 78
4
 79
1
170
1
171
2
172
0
173
0
174
0
175
0
176
0
177
0
178
0
270
2
179
3
271
3
272
3
273
2
274
2
275
0
280
0
281
0
282
0
283
1
284
4
285
0
286
0
287
3
288
0
340
11
278
46
341
21D
342
21D
343
21D
344
21D
  0
ENDTAB
  0
ENDSEC
  0
SECTION
  2
BLOCKS
  0
BLOCK
  5
20
100
AcDbEntity
  8
0
100
AcDbBlockBegin
  2
*Model_Space
 70
0
 10
0.0
 20
0.0
 30
0.0
  3
*Model_Space
  1

  0
ENDBLK
  5
21
100
AcDbEntity
  8
0
100
AcDbBlockEnd
  0
BLOCK
  5
1C
100
AcDbEntity
  8
0
100
AcDbBlockBegin
  2
*Paper_Space
 70
0
 10
0.0
 20
0.0
 30
0.0
  3
*Paper_Space
  1

  0
ENDBLK
  5
1D
100
AcDbEntity
  8
0
100
AcDbBlockEnd
  0
BLOCK
  5
21F
100
AcDbEntity
  8
0
100
AcDbBlockBegin
  2
_FILLED
 70
64
 10
0.0
 20
0.0
  3
_FILLED
  1

  0
SOLID
  5
220
100
AcDbEntity
  8
0
  6
BYBLOCK
 62
0
100
AcDbTrace
 10
0.0
 20
0.0
 11
-1.0
 21
0.2
 12
-1.0
 22
-0.2
 13
-1.0
 23
-0.2
  0
ENDBLK
  5
221
100
AcDbEntity
  8
0
  6
BYBLOCK
 62
0
100
AcDbBlockEnd
  0
ENDSEC
  0
SECTION
  2
ENTITIES
  0
MTEXT
  5
222
100
AcDbEntity
  8
0
100
AcDbMText
 62
2
  6
CONTINUOUS
  7
STANDARD
 71
3
 72
1
 10
5.6998976197
 20
0.8313301157
 30
0.0
 11
1.0
 21
0.0
 31
0.0
 73
2
 44
0.9
  1
SCALE 0.500
 40
0.08
 41
0.704
  0
LINE
  5
223
100
AcDbEntity
  8
0
100
AcDbLine
 62
7
  6
CONTINUOUS
 10
0.0
 20
0.0
 11
0.0
 21
8.5
  0
LINE
  5
224
100
AcDbEntity
  8
0
100
AcDbLine
 62
7
  6
CONTINUOUS
 10
0.0
 20
0.0
 11
11.0
 21
0.0
  0
LINE
  5
225
100
AcDbEntity
  8
0
100
AcDbLine
 62
7
  6
CONTINUOUS
 10
0.0
 20
8.5
 11
11.0
 21
8.5
  0
LINE
  5
226
100
AcDbEntity
  8
0
100
AcDbLine
 62
7
  6
CONTINUOUS
 10
11.0
 20
0.0
 11
11.0
 21
8.5
  0
LINE
  5
227
100
AcDbEntity
  8
0
100
AcDbLine
 62
7
  6
CONTINUOUS
 10
7.2993754463
 20
1.6017535787
 11
6.4418754463
 21
1.6017535787
  0
LINE
  5
228
100
AcDbEntity
  8
0
100
AcDbLine
 62
7
  6
CONTINUOUS
 10
6.3756261989
 20
1.6107535787
 11
7.3656246937
 21
1.6107535787
  0
LINE
  5
229
100
AcDbEntity
  8
0
100
AcDbLine
 62
7
  6
CONTINUOUS
 10
6.3756254463
 20
1.6957535787
 11
7.3656254463
 21
1.6957535787
  0
LINE
  5
22A
100
AcDbEntity
  8
0
100
AcDbLine
 62
7
  6
CONTINUOUS
 10
6.3906293567
 20
1.7107535787
 11
7.3506215359
 21
1.7107535787
  0
LINE
  5
22B
100
AcDbEntity
  8
0
100
AcDbLine
 62
7
  6
CONTINUOUS
 10
6.6831254463
 20
1.7157535787
 11
7.0581254463
 21
1.7157535787
  0
LINE
  5
22C
100
AcDbEntity
  8
ALL_ASSEMBLY_MEMBERS
100
AcDbLine
 62
7
  6
CONTINUOUS
 10
6.3756254463
 20
1.7207535787
 11
6.6831254463
 21
1.7207535787
  0
LINE
  5
22D
100
AcDbEntity
  8
ALL_ASSEMBLY_MEMBERS
100
AcDbLine
 62
7
  6
CONTINUOUS
 10
7.0581254463
 20
1.7207535787
 11
7.3656254463
 21
1.7207535787
  0
LINE
  5
22E
100
AcDbEntity
  8
ALL_ASSEMBLY_MEMBERS
100
AcDbLine
 62
7
  6
CONTINUOUS
 10
6.3906293567
 20
1.7357535787
 11
6.6831254463
 21
1.7357535787
  0
LINE
  5
22F
100
AcDbEntity
  8
ALL_ASSEMBLY_MEMBERS
100
AcDbLine
 62
7
  6
CONTINUOUS
 10
7.0581254463
 20
1.7357535787
 11
7.3506215359
 21
1.7357535787
  0
LINE
  5
230
100
AcDbEntity
  8
ALL_ASSEMBLY_MEMBERS
100
AcDbLine
 62
7
  6
CONTINUOUS
 10
7.2106254463
 20
1.7407535787
 11
7.0581254463
 21
1.7407535787
  0
LINE
  5
231
100
AcDbEntity
  8
ALL_ASSEMBLY_MEMBERS
100
AcDbLine
 62
7
  6
CONTINUOUS
 10
6.6831254463
 20
1.7407535787
 11
6.5306254463
 21
1.7407535787
  0
LINE
  5
232
100
AcDbEntity
  8
ALL_ASSEMBLY_MEMBERS
100
AcDbLine
 62
7
  6
CONTINUOUS
 10
3.0888754463
 20
4.5782535787
 11
3.0888754463
 21
5.3577535787
  0
LINE
  5
233
100
AcDbEntity
  8
0
100
AcDbLine
 62
7
  6
CONTINUOUS
 10
7.4216254463
 20
2.1370035787
 11
7.1918122946
 21
2.1370035787
  0
LINE
  5
234
100
AcDbEntity
  8
ALL_FEATURES
100
AcDbLine
 62
7
  6
CONTINUOUS
 10
7.4216254463
 20
2.3245035787
 11
7.1918122946
 21
2.3245035787
  0
LINE
  5
235
100
AcDbEntity
  8
0
100
AcDbLine
 62
7
  6
CONTINUOUS
 10
6.6831254463
 20
2.5057535787
 11
7.0581254463
 21
2.5057535787
  0
LINE
  5
236
100
AcDbEntity
  8
0
100
AcDbLine
 62
7
  6
CONTINUOUS
 10
6.6981254463
 20
2.5207535787
 11
7.0431254463
 21
2.5207535787
  0
LINE
  5
237
100
AcDbEntity
  8
0
100
AcDbLine
 62
7
  6
CONTINUOUS
 10
6.7300067649
 20
2.5312535787
 11
7.0112441277
 21
2.5312535787
  0
LINE
  5
238
100
AcDbEntity
  8
ALL_ASSEMBLY_MEMBERS
100
AcDbLine
 62
7
  6
CONTINUOUS
 10
3.5263754463
 20
4.5782535787
 11
3.5263754463
 21
5.3577535787
  0
LINE
  5
239
100
AcDbEntity
  8
0
100
AcDbLine
 62
7
  6
CONTINUOUS
 10
7.0112504463
 20
2.6522535787
 11
7.0097729502
 21
2.6522535787
  0
LINE
  5
23A
100
AcDbEntity
  8
0
100
AcDbLine
 62
7
  6
CONTINUOUS
 10
6.8909567716
 20
2.6522535787
 11
6.850294121
 21
2.6522535787
  0
LINE
  5
23B
100
AcDbEntity
  8
0
100
AcDbLine
 62
7
  6
CONTINUOUS
 10
6.7314779424
 20
2.6522535787
 11
6.7300004463
 21
2.6522535787
  0
LINE
  5
23C
100
AcDbEntity
  8
0
100
AcDbLine
 62
7
  6
CONTINUOUS
 10
7.6056254463
 20
2.6672535787
 11
7.0246153506
 21
2.6672535787
  0
LINE
  5
23D
100
AcDbEntity
  8
0
100
AcDbLine
 62
7
  6
CONTINUOUS
 10
6.8931254463
 20
2.6672535787
 11
6.8481254463
 21
2.6672535787
  0
LINE
  5
23E
100
AcDbEntity
  8
0
100
AcDbLine
 62
7
  6
CONTINUOUS
 10
6.716635542
 20
2.6672535787
 11
6.1356254463
 21
2.6672535787
  0
LINE
  5
23F
100
AcDbEntity
  8
0
100
AcDbLine
 62
7
  6
CONTINUOUS
 10
6.1206254463
 20
2.6822535787
 11
6.7382439525
 21
2.6822535787
  0
LINE
  5
240
100
AcDbEntity
  8
0
100
AcDbLine
 62
7
  6
CONTINUOUS
 10
6.8231856872
 20
2.6822535787
 11
6.9180652053
 21
2.6822535787
  0
LINE
  5
241
100
AcDbEntity
  8
0
100
AcDbLine
 62
7
  6
CONTINUOUS
 10
7.00300694
 20
2.6822535787
 11
7.6206254463
 21
2.6822535787
  0
LINE
  5
242
100
AcDbEntity
  8
0
100
AcDbLine
 62
7
  6
CONTINUOUS
 10
6.1206254463
 20
2.8712535787
 11
7.6206254463
 21
2.8712535787
  0
LINE
  5
243
100
AcDbEntity
  8
0
100
AcDbLine
 62
7
  6
CONTINUOUS
 10
6.1356254463
 20
2.8862535787
 11
7.6056254463
 21
2.8862535787
  0
LINE
  5
244
100
AcDbEntity
  8
ALL_ASSEMBLY_MEMBERS
100
AcDbLine
 62
7
  6
CONTINUOUS
 10
6.5306254463
 20
3.1582535787
 11
7.2106254463
 21
3.1582535787
  0
LINE
  5
245
100
AcDbEntity
  8
ALL_ASSEMBLY_MEMBERS
100
AcDbLine
 62
7
  6
CONTINUOUS
 10
6.5456254463
 20
3.1732535787
 11
7.1956254463
 21
3.1732535787
  0
LINE
  5
246
100
AcDbEntity
  8
ALL_ASSEMBLY_MEMBERS
100
AcDbLine
 62
7
  6
CONTINUOUS
 10
3.0888754463
 20
4.5782535787
 11
3.5263754463
 21
4.5782535787
  0
LINE
  5
247
100
AcDbEntity
  8
ALL_ASSEMBLY_MEMBERS
100
AcDbLine
 62
7
  6
CONTINUOUS
 10
3.0888754463
 20
4.9832535787
 11
3.5263754463
 21
4.9832535787
  0
LINE
  5
248
100
AcDbEntity
  8
0
100
AcDbLine
 62
7
  6
CONTINUOUS
 10
6.1206254463
 20
2.6822535787
 11
6.1206254463
 21
2.8712535787
  0
LINE
  5
249
100
AcDbEntity
  8
0
100
AcDbLine
 62
7
  6
CONTINUOUS
 10
6.1581254463
 20
2.6672535787
 11
6.1581254463
 21
2.8862535787
  0
LINE
  5
24A
100
AcDbEntity
  8
ALL_ASSEMBLY_MEMBERS
100
AcDbLine
 62
7
  6
CONTINUOUS
 10
7.0893754463
 20
5.3577535787
 11
6.6518754463
 21
5.3577535787
  0
LINE
  5
24B
100
AcDbEntity
  8
ALL_ASSEMBLY_MEMBERS
100
AcDbLine
 62
7
  6
CONTINUOUS
 10
3.0888754463
 20
5.3577535787
 11
3.5263754463
 21
5.3577535787
  0
LINE
  5
24C
100
AcDbEntity
  8
ALL_ASSEMBLY_MEMBERS
100
AcDbLine
 62
7
  6
CONTINUOUS
 10
7.2106254463
 20
1.8122537329
 11
7.2106037735
 21
1.8123175904
  0
LINE
  5
24D
100
AcDbEntity
  8
ALL_ASSEMBLY_MEMBERS
100
AcDbLine
 62
7
  6
CONTINUOUS
 10
6.3756254463
 20
1.7207535787
 11
6.3756254463
 21
1.6957535787
  0
LINE
  5
24E
100
AcDbEntity
  8
0
100
AcDbLine
 62
7
  6
CONTINUOUS
 10
6.3756254463
 20
1.6957535787
 11
6.3756254463
 21
1.6107535787
  0
LINE
  5
24F
100
AcDbEntity
  8
ALL_ASSEMBLY_MEMBERS
100
AcDbLine
 62
7
  6
CONTINUOUS
 10
6.5306254463
 20
3.1582535787
 11
6.5306254463
 21
2.8862535787
  0
LINE
  5
250
100
AcDbEntity
  8
ALL_ASSEMBLY_MEMBERS
100
AcDbLine
 62
7
  6
CONTINUOUS
 10
6.5306254463
 20
2.6672535787
 11
6.5306254463
 21
1.7407535787
  0
LINE
  5
251
100
AcDbEntity
  8
ALL_ASSEMBLY_MEMBERS
100
AcDbLine
 62
7
  6
CONTINUOUS
 10
6.5381254463
 20
1.7357535787
 11
6.5381254463
 21
1.7407535787
  0
LINE
  5
252
100
AcDbEntity
  8
ALL_ASSEMBLY_MEMBERS
100
AcDbLine
 62
7
  6
CONTINUOUS
 10
6.6518754463
 20
5.3577535787
 11
6.6518754463
 21
3.1732535787
  0
LINE
  5
253
100
AcDbEntity
  8
0
100
AcDbLine
 62
7
  6
CONTINUOUS
 10
6.6831254463
 20
1.7157535787
 11
6.6831254463
 21
2.5057535787
  0
LINE
  5
254
100
AcDbEntity
  8
0
100
AcDbLine
 62
7
  6
CONTINUOUS
 10
6.6881254463
 20
1.7107535787
 11
6.6881254463
 21
1.7157535787
  0
LINE
  5
255
100
AcDbEntity
  8
0
100
AcDbLine
 62
7
  6
CONTINUOUS
 10
6.7241232599
 20
2.6822535787
 11
6.7241232599
 21
2.8862535787
  0
LINE
  5
256
100
AcDbEntity
  8
0
100
AcDbLine
 62
7
  6
CONTINUOUS
 10
6.7300004463
 20
2.5312535787
 11
6.7300004463
 21
2.6522535787
  0
LINE
  5
257
100
AcDbEntity
  8
0
100
AcDbLine
 62
7
  6
CONTINUOUS
 10
6.7382439525
 20
2.8712535787
 11
6.7382439525
 21
2.6822535787
  0
LINE
  5
258
100
AcDbEntity
  8
0
100
AcDbLine
 62
7
  6
CONTINUOUS
 10
6.7431254463
 20
2.5312535787
 11
6.7431254463
 21
2.5207535787
  0
LINE
  5
259
100
AcDbEntity
  8
0
100
AcDbLine
 62
7
  6
CONTINUOUS
 10
6.8231856872
 20
2.6822535787
 11
6.8231856872
 21
2.8712535787
  0
LINE
  5
25A
100
AcDbEntity
  8
0
100
AcDbLine
 62
7
  6
CONTINUOUS
 10
6.8331254463
 20
2.8712535787
 11
6.8331254463
 21
2.6822535787
  0
LINE
  5
25B
100
AcDbEntity
  8
0
100
AcDbLine
 62
7
  6
CONTINUOUS
 10
6.9081254463
 20
2.8712535787
 11
6.9081254463
 21
2.6822535787
  0
LINE
  5
25C
100
AcDbEntity
  8
0
100
AcDbLine
 62
7
  6
CONTINUOUS
 10
6.9180652053
 20
2.8712535787
 11
6.9180652053
 21
2.6822535787
  0
LINE
  5
25D
100
AcDbEntity
  8
0
100
AcDbLine
 62
7
  6
CONTINUOUS
 10
6.9981254463
 20
2.5312535787
 11
6.9981254463
 21
2.5207535787
  0
LINE
  5
25E
100
AcDbEntity
  8
0
100
AcDbLine
 62
7
  6
CONTINUOUS
 10
7.00300694
 20
2.6822535787
 11
7.00300694
 21
2.8712535787
  0
LINE
  5
25F
100
AcDbEntity
  8
0
100
AcDbLine
 62
7
  6
CONTINUOUS
 10
7.0112504463
 20
2.5312535787
 11
7.0112504463
 21
2.6522535787
  0
LINE
  5
260
100
AcDbEntity
  8
0
100
AcDbLine
 62
7
  6
CONTINUOUS
 10
7.0171276327
 20
2.8862535787
 11
7.0171276327
 21
2.6822535787
  0
LINE
  5
261
100
AcDbEntity
  8
0
100
AcDbLine
 62
7
  6
CONTINUOUS
 10
7.0531254463
 20
1.7107535787
 11
7.0531254463
 21
1.7157535787
  0
LINE
  5
262
100
AcDbEntity
  8
0
100
AcDbLine
 62
7
  6
CONTINUOUS
 10
7.0581254463
 20
1.7157535787
 11
7.0581254463
 21
2.5057535787
  0
LINE
  5
263
100
AcDbEntity
  8
ALL_ASSEMBLY_MEMBERS
100
AcDbLine
 62
7
  6
CONTINUOUS
 10
7.0893754463
 20
5.3577535787
 11
7.0893754463
 21
3.1732535787
  0
LINE
  5
264
100
AcDbEntity
  8
ALL_ASSEMBLY_MEMBERS
100
AcDbLine
 62
7
  6
CONTINUOUS
 10
7.1918122946
 20
2.6672535787
 11
7.1918122946
 21
1.9205035787
  0
LINE
  5
265
100
AcDbEntity
  8
ALL_ASSEMBLY_MEMBERS
100
AcDbLine
 62
7
  6
CONTINUOUS
 10
7.2031254463
 20
1.7357535787
 11
7.2031254463
 21
1.7407535787
  0
LINE
  5
266
100
AcDbEntity
  8
ALL_ASSEMBLY_MEMBERS
100
AcDbLine
 62
7
  6
CONTINUOUS
 10
7.2106254463
 20
3.1582535787
 11
7.2106254463
 21
2.902254219
  0
LINE
  5
267
100
AcDbEntity
  8
ALL_ASSEMBLY_MEMBERS
100
AcDbLine
 62
7
  6
CONTINUOUS
 10
7.2106254463
 20
1.8122529385
 11
7.2106254463
 21
1.7407535787
  0
LINE
  5
268
100
AcDbEntity
  8
ALL_ASSEMBLY_MEMBERS
100
AcDbLine
 62
7
  6
CONTINUOUS
 10
7.3656254463
 20
1.7207535787
 11
7.3656254463
 21
1.6957535787
  0
LINE
  5
269
100
AcDbEntity
  8
0
100
AcDbLine
 62
7
  6
CONTINUOUS
 10
7.3656254463
 20
1.6957535787
 11
7.3656254463
 21
1.6107535787
  0
LINE
  5
26A
100
AcDbEntity
  8
ALL_FEATURES
100
AcDbLine
 62
7
  6
CONTINUOUS
 10
7.4216254463
 20
2.1370035787
 11
7.4216254463
 21
2.3245035787
  0
LINE
  5
26B
100
AcDbEntity
  8
0
100
AcDbLine
 62
7
  6
CONTINUOUS
 10
7.5831254463
 20
2.6672535787
 11
7.5831254463
 21
2.8862535787
  0
LINE
  5
26C
100
AcDbEntity
  8
0
100
AcDbLine
 62
7
  6
CONTINUOUS
 10
7.6206254463
 20
2.8712535787
 11
7.6206254463
 21
2.6822535787
  0
LINE
  5
26D
100
AcDbEntity
  8
ALL_ASSEMBLY_MEMBERS
100
AcDbLine
 62
7
  6
CONTINUOUS
 10
7.2106034877
 20
2.9021897739
 11
7.2106247024
 21
2.9022528746
  0
LINE
  5
26E
100
AcDbEntity
  8
ALL_ASSEMBLY_MEMBERS
100
AcDbLine
 62
7
  6
CONTINUOUS
 10
7.2106247024
 20
2.9022528746
 11
7.2106048365
 21
2.9021938161
  0
ARC
  5
26F
100
AcDbEntity
  8
ALL_ASSEMBLY_MEMBERS
100
AcDbCircle
 62
7
  6
CONTINUOUS
 10
5.0891254463
 20
5.3577535787
 40
2.00025
100
AcDbArc
 50
0.0
 51
180.0
  0
ARC
  5
270
100
AcDbEntity
  8
ALL_ASSEMBLY_MEMBERS
100
AcDbCircle
 62
7
  6
CONTINUOUS
 10
5.0891254463
 20
5.3577535787
 40
1.56275
100
AcDbArc
 50
0.0
 51
180.0
  0
ARC
  5
271
100
AcDbEntity
  8
0
100
AcDbCircle
 62
7
  6
CONTINUOUS
 10
6.4418754463
 20
1.6275035787
 40
0.02575
100
AcDbArc
 50
220.5984084548
 51
270.0
  0
ARC
  5
272
100
AcDbEntity
  8
0
100
AcDbCircle
 62
7
  6
CONTINUOUS
 10
7.2993754463
 20
1.6275035787
 40
0.02575
100
AcDbArc
 50
270.0
 51
319.4015915452
  0
ARC
  5
273
100
AcDbEntity
  8
ALL_ASSEMBLY_MEMBERS
100
AcDbCircle
 62
7
  6
CONTINUOUS
 10
7.3506254463
 20
1.7207535787
 40
0.015
100
AcDbArc
 50
0.0
 51
90.0
  0
ARC
  5
274
100
AcDbEntity
  8
ALL_ASSEMBLY_MEMBERS
100
AcDbCircle
 62
7
  6
CONTINUOUS
 10
6.3906254463
 20
1.7207535787
 40
0.015
100
AcDbArc
 50
90.0
 51
180.0
  0
ARC
  5
275
100
AcDbEntity
  8
0
100
AcDbCircle
 62
7
  6
CONTINUOUS
 10
6.3906254463
 20
1.6957535787
 40
0.015
100
AcDbArc
 50
90.0
 51
180.0
  0
ARC
  5
276
100
AcDbEntity
  8
0
100
AcDbCircle
 62
7
  6
CONTINUOUS
 10
7.3506254463
 20
1.6957535787
 40
0.015
100
AcDbArc
 50
0.0
 51
90.0
  0
ARC
  5
277
100
AcDbEntity
  8
0
100
AcDbCircle
 62
7
  6
CONTINUOUS
 10
6.6981254463
 20
2.5057535787
 40
0.015
100
AcDbArc
 50
90.0
 51
180.0
  0
ARC
  5
278
100
AcDbEntity
  8
0
100
AcDbCircle
 62
7
  6
CONTINUOUS
 10
7.0431254463
 20
2.5057535787
 40
0.015
100
AcDbArc
 50
0.0
 51
90.0
  0
ARC
  5
279
100
AcDbEntity
  8
0
100
AcDbCircle
 62
7
  6
CONTINUOUS
 10
7.6056254463
 20
2.6822535787
 40
0.015
100
AcDbArc
 50
270.0
 51
360.0
  0
ARC
  5
27A
100
AcDbEntity
  8
0
100
AcDbCircle
 62
7
  6
CONTINUOUS
 10
6.1356254463
 20
2.6822535787
 40
0.015
100
AcDbArc
 50
180.0
 51
270.0
  0
ARC
  5
27B
100
AcDbEntity
  8
0
100
AcDbCircle
 62
7
  6
CONTINUOUS
 10
7.6056254463
 20
2.8712535787
 40
0.015
100
AcDbArc
 50
0.0
 51
90.0
  0
ARC
  5
27C
100
AcDbEntity
  8
0
100
AcDbCircle
 62
7
  6
CONTINUOUS
 10
6.1356254463
 20
2.8712535787
 40
0.015
100
AcDbArc
 50
90.0
 51
180.0
  0
ARC
  5
27D
100
AcDbEntity
  8
0
100
AcDbCircle
 62
7
  6
CONTINUOUS
 10
6.7150004463
 20
2.6522535787
 40
0.015
100
AcDbArc
 50
0.0
 51
78.0
  0
ARC
  5
27E
100
AcDbEntity
  8
0
100
AcDbCircle
 62
7
  6
CONTINUOUS
 10
7.0262504463
 20
2.6522535787
 40
0.015
100
AcDbArc
 50
102.0
 51
180.0
  0
ARC
  5
27F
100
AcDbEntity
  8
0
100
AcDbCircle
 62
7
  6
CONTINUOUS
 10
6.8481254463
 20
2.6822535787
 40
0.015
100
AcDbArc
 50
180.0
 51
270.0
  0
ARC
  5
280
100
AcDbEntity
  8
0
100
AcDbCircle
 62
7
  6
CONTINUOUS
 10
6.8481254463
 20
2.8712535787
 40
0.015
100
AcDbArc
 50
90.0
 51
180.0
  0
ARC
  5
281
100
AcDbEntity
  8
0
100
AcDbCircle
 62
7
  6
CONTINUOUS
 10
6.8931254463
 20
2.8712535787
 40
0.015
100
AcDbArc
 50
0.0
 51
90.0
  0
ARC
  5
282
100
AcDbEntity
  8
0
100
AcDbCircle
 62
7
  6
CONTINUOUS
 10
6.8931254463
 20
2.6822535787
 40
0.015
100
AcDbArc
 50
270.0
 51
360.0
  0
ARC
  5
283
100
AcDbEntity
  8
ALL_ASSEMBLY_MEMBERS
100
AcDbCircle
 62
7
  6
CONTINUOUS
 10
6.5456254463
 20
3.1582535787
 40
0.015
100
AcDbArc
 50
90.0
 51
180.0
  0
ARC
  5
284
100
AcDbEntity
  8
ALL_ASSEMBLY_MEMBERS
100
AcDbCircle
 62
7
  6
CONTINUOUS
 10
7.1956254463
 20
3.1582535787
 40
0.015
100
AcDbArc
 50
0.0
 51
90.0
  0
SPLINE
  5
285
100
AcDbEntity
  8
0
100
AcDbSpline
 62
7
  6
CONTINUOUS
 70
0
 71
3
 72
20
 73
16
 74
0
 42
0.0000001
 43
0.0000001
 44
0.0000000001
 40
0.0
 40
0.0
 40
0.0
 40
0.0
 40
0.0264722633
 40
0.057814463
 40
0.0755265602
 40
0.0947400002
 40
0.1374365461
 40
0.1857683948
 40
0.2394889759
 40
0.2982853736
 40
0.361854121
 40
0.502032485
 40
0.6575948405
 40
0.8252666627
 40
1.0
 40
1.0
 40
1.0
 40
1.0
 10
7.0246164794
 20
2.6672535787
 30
0.0
 10
7.0244604687
 20
2.6672535899
 30
0.0
 10
7.0241197253
 20
2.6673159981
 30
0.0
 10
7.0237106188
 20
2.6674975586
 30
0.0
 10
7.0233650772
 20
2.6677041241
 30
0.0
 10
7.0229789542
 20
2.6679713596
 30
0.0
 10
7.0224814234
 20
2.6683914074
 30
0.0
 10
7.0218822378
 20
2.6689998217
 30
0.0
 10
7.0212706683
 20
2.6697252167
 30
0.0
 10
7.0206572075
 20
2.670563147
 30
0.0
 10
7.0198236321
 20
2.6718676985
 30
0.0
 10
7.018854165
 20
2.6737567588
 30
0.0
 10
7.0179127468
 20
2.6763282824
 30
0.0
 10
7.0172778363
 20
2.6792027818
 30
0.0
 10
7.0171276717
 20
2.681223811
 30
0.0
 10
7.0171276327
 20
2.6822535787
 30
0.0
  0
SPLINE
  5
286
100
AcDbEntity
  8
0
100
AcDbSpline
 62
7
  6
CONTINUOUS
 70
0
 71
3
 72
24
 73
20
 74
0
 42
0.0000001
 43
0.0000001
 44
0.0000000001
 40
0.0
 40
0.0
 40
0.0
 40
0.0
 40
0.0068779584
 40
0.0150233963
 40
0.0249154876
 40
0.0367874424
 40
0.050747901
 40
0.0668254695
 40
0.0849990614
 40
0.1052261208
 40
0.1515944451
 40
0.205351728
 40
0.2658315593
 40
0.332340705
 40
0.4041850115
 40
0.4806804986
 40
0.6449178125
 40
0.8197868786
 40
1.0
 40
1.0
 40
1.0
 40
1.0
 10
7.0097729502
 20
2.6522535787
 30
0.0
 10
7.0097009613
 20
2.6522541434
 30
0.0
 10
7.0095434514
 20
2.6522873441
 30
0.0
 10
7.009314226
 20
2.6524168393
 30
0.0
 10
7.009076603
 20
2.6526226903
 30
0.0
 10
7.0088283926
 20
2.6529033513
 30
0.0
 10
7.0085703469
 20
2.6532587035
 30
0.0
 10
7.008303385
 20
2.6536873009
 30
0.0
 10
7.0080286484
 20
2.6541872287
 30
0.0
 10
7.0076359379
 20
2.6549831098
 30
0.0
 10
7.0071425968
 20
2.656143242
 30
0.0
 10
7.0065672168
 20
2.6577233343
 30
0.0
 10
7.005997882
 20
2.6595280575
 30
0.0
 10
7.0054472904
 20
2.6615355306
 30
0.0
 10
7.0049277677
 20
2.6637239561
 30
0.0
 10
7.0042765031
 20
2.666930688
 30
0.0
 10
7.0036163669
 20
2.6712335333
 30
0.0
 10
7.0031204489
 20
2.6766496376
 30
0.0
 10
7.0030069545
 20
2.6803673017
 30
0.0
 10
7.00300694
 20
2.6822535787
 30
0.0
  0
SPLINE
  5
287
100
AcDbEntity
  8
0
100
AcDbSpline
 62
7
  6
CONTINUOUS
 70
0
 71
3
 72
20
 73
16
 74
0
 42
0.0000001
 43
0.0000001
 44
0.0000000001
 40
0.0
 40
0.0
 40
0.0
 40
0.0
 40
0.0625339389
 40
0.1248892302
 40
0.1870843799
 40
0.2491557189
 40
0.3111506188
 40
0.373126427
 40
0.4351421665
 40
0.4972534149
 40
0.6218066453
 40
0.7471571104
 40
0.8101858282
 40
0.8734068666
 40
1.0
 40
1.0
 40
1.0
 40
1.0
 10
6.850294121
 20
2.6522535787
 30
0.0
 10
6.8493593176
 20
2.6522545187
 30
0.0
 10
6.8474905933
 20
2.6523600784
 30
0.0
 10
6.8447293374
 20
2.6528389612
 30
0.0
 10
6.8420455135
 20
2.6536214958
 30
0.0
 10
6.8394697796
 20
2.6546935051
 30
0.0
 10
6.8370273039
 20
2.6560344244
 30
0.0
 10
6.8347398508
 20
2.6576234149
 30
0.0
 10
6.832624957
 20
2.6594382949
 30
0.0
 10
6.8300536697
 20
2.6621301137
 30
0.0
 10
6.827335133
 20
2.6659566878
 30
0.0
 10
6.8253563371
 20
2.6702245742
 30
0.0
 10
6.8242365835
 20
2.6738196628
 30
0.0
 10
6.8234301177
 20
2.6775158135
 30
0.0
 10
6.8231857572
 20
2.6803611703
 30
0.0
 10
6.8231856872
 20
2.6822535787
 30
0.0
  0
SPLINE
  5
288
100
AcDbEntity
  8
0
100
AcDbSpline
 62
7
  6
CONTINUOUS
 70
0
 71
3
 72
18
 73
14
 74
0
 42
0.0000001
 43
0.0000001
 44
0.0000000001
 40
0.0
 40
0.0
 40
0.0
 40
0.0
 40
0.1265136245
 40
0.1897274289
 40
0.2527546311
 40
0.3781078786
 40
0.5027068974
 40
0.5648471475
 40
0.6269010295
 40
0.750788877
 40
0.8129092333
 40
0.8751773166
 40
1.0
 40
1.0
 40
1.0
 40
1.0
 10
6.9180652053
 20
2.6822535787
 30
0.0
 10
6.9180650676
 20
2.6803630798
 30
0.0
 10
6.917820679
 20
2.6775201663
 30
0.0
 10
6.9170155132
 20
2.6738265758
 30
0.0
 10
6.9158972491
 20
2.6702326352
 30
0.0
 10
6.9139203794
 20
2.6659649983
 30
0.0
 10
6.9112035747
 20
2.6621382098
 30
0.0
 10
6.9086327638
 20
2.6594449693
 30
0.0
 10
6.9058169653
 20
2.6570265785
 30
0.0
 10
6.902641963
 20
2.6550515911
 30
0.0
 10
6.8992106135
 20
2.6536239336
 30
0.0
 10
6.8956308955
 20
2.6525777892
 30
0.0
 10
6.8928220027
 20
2.6522537666
 30
0.0
 10
6.8909567716
 20
2.6522535787
 30
0.0
  0
SPLINE
  5
289
100
AcDbEntity
  8
0
100
AcDbSpline
 62
7
  6
CONTINUOUS
 70
0
 71
3
 72
18
 73
14
 74
0
 42
0.0000001
 43
0.0000001
 44
0.0000000001
 40
0.0
 40
0.0
 40
0.0
 40
0.0
 40
0.1745947048
 40
0.3422534841
 40
0.4977806345
 40
0.6379583899
 40
0.7602603442
 40
0.8139806895
 40
0.8622816906
 40
0.904931884
 40
0.9419237191
 40
0.9734587007
 40
1.0
 40
1.0
 40
1.0
 40
1.0
 10
6.7241232599
 20
2.6822535787
 30
0.0
 10
6.7241231647
 20
2.681224426
 30
0.0
 10
6.7239723261
 20
2.6792039436
 30
0.0
 10
6.7233382662
 20
2.6763299573
 30
0.0
 10
6.7223970968
 20
2.6737576781
 30
0.0
 10
6.7212695482
 20
2.6715605598
 30
0.0
 10
6.7202218788
 20
2.6700121427
 30
0.0
 10
6.719368887
 20
2.6690004313
 30
0.0
 10
6.7187703095
 20
2.6683916575
 30
0.0
 10
6.7181935664
 20
2.6679037165
 30
0.0
 10
6.7176434211
 20
2.6675433078
 30
0.0
 10
6.717127899
 20
2.6673164665
 30
0.0
 10
6.7167856175
 20
2.6672536189
 30
0.0
 10
6.7166291692
 20
2.6672535787
 30
0.0
  0
SPLINE
  5
28A
100
AcDbEntity
  8
0
100
AcDbSpline
 62
7
  6
CONTINUOUS
 70
0
 71
3
 72
24
 73
20
 74
0
 42
0.0000001
 43
0.0000001
 44
0.0000000001
 40
0.0
 40
0.0
 40
0.0
 40
0.0
 40
0.1800380666
 40
0.354857227
 40
0.5190572191
 40
0.595562364
 40
0.6674267121
 40
0.7339608045
 40
0.7944716961
 40
0.8482682108
 40
0.8946733147
 40
0.9149156052
 40
0.9331049904
 40
0.949199651
 40
0.9631779556
 40
0.9750624355
 40
0.9849635201
 40
0.9931192025
 40
1.0
 40
1.0
 40
1.0
 40
1.0
 10
6.7382439525
 20
2.6822535787
 30
0.0
 10
6.738243915
 20
2.6803691523
 30
0.0
 10
6.7381302463
 20
2.6766538934
 30
0.0
 10
6.7376350908
 20
2.6712405426
 30
0.0
 10
6.7369755858
 20
2.6669384665
 30
0.0
 10
6.7363247937
 20
2.6637317525
 30
0.0
 10
6.7358053874
 20
2.661542733
 30
0.0
 10
6.7352548195
 20
2.6595344498
 30
0.0
 10
6.7346854541
 20
2.65772871
 30
0.0
 10
6.7341098994
 20
2.6561475058
 30
0.0
 10
6.7336164115
 20
2.6549864135
 30
0.0
 10
6.7332235896
 20
2.6541898055
 30
0.0
 10
6.7329487161
 20
2.6536893837
 30
0.0
 10
6.7326814897
 20
2.6532603268
 30
0.0
 10
6.7324232083
 20
2.6529045495
 30
0.0
 10
6.7321748511
 20
2.652623449
 30
0.0
 10
6.7319365946
 20
2.6524177779
 30
0.0
 10
6.7317076349
 20
2.6522877903
 30
0.0
 10
6.7315499625
 20
2.6522536336
 30
0.0
 10
6.7314779424
 20
2.6522535787
 30
0.0
  0
SPLINE
  5
28B
100
AcDbEntity
  8
0
100
AcDbSpline
 62
7
  6
CONTINUOUS
 70
0
 71
3
 72
16
 73
12
 74
0
 42
0.0000001
 43
0.0000001
 44
0.0000000001
 40
0.0
 40
0.0
 40
0.0
 40
0.0
 40
0.1211578216
 40
0.2431147535
 40
0.3659945735
 40
0.490261358
 40
0.6159956447
 40
0.6794413731
 40
0.743207996
 40
0.8714478479
 40
1.0
 40
1.0
 40
1.0
 40
1.0
 10
6.9888862475
 20
2.8862535787
 30
0.0
 10
6.9898087714
 20
2.8862535787
 30
0.0
 10
6.9916654072
 20
2.8860576922
 30
0.0
 10
6.9943357661
 20
2.8851970577
 30
0.0
 10
6.9967954693
 20
2.883796777
 30
0.0
 10
6.9989460666
 20
2.8819155265
 30
0.0
 10
7.0004139761
 20
2.880013205
 30
0.0
 10
7.0013608072
 20
2.8783332012
 30
0.0
 10
7.0021532774
 20
2.8765539852
 30
0.0
 10
7.0028245627
 20
2.874191978
 30
0.0
 10
7.0030069401
 20
2.8722324047
 30
0.0
 10
7.0030069401
 20
2.8712535787
 30
0.0
  0
SPLINE
  5
28C
100
AcDbEntity
  8
0
100
AcDbSpline
 62
7
  6
CONTINUOUS
 70
0
 71
3
 72
16
 73
12
 74
0
 42
0.0000001
 43
0.0000001
 44
0.0000000001
 40
0.0
 40
0.0
 40
0.0
 40
0.0
 40
0.1211578242
 40
0.2431147568
 40
0.3659945762
 40
0.4902613601
 40
0.6159956465
 40
0.6794413748
 40
0.7432079975
 40
0.8714478485
 40
1.0
 40
1.0
 40
1.0
 40
1.0
 10
6.7523646452
 20
2.8862535787
 30
0.0
 10
6.7514421213
 20
2.8862535787
 30
0.0
 10
6.7495854855
 20
2.8860576922
 30
0.0
 10
6.7469151264
 20
2.8851970578
 30
0.0
 10
6.7444554233
 20
2.8837967771
 30
0.0
 10
6.742304826
 20
2.8819155265
 30
0.0
 10
6.7408369164
 20
2.880013205
 30
0.0
 10
6.7398900854
 20
2.8783332012
 30
0.0
 10
6.7390976152
 20
2.8765539853
 30
0.0
 10
6.7384263299
 20
2.874191978
 30
0.0
 10
6.7382439525
 20
2.8722324047
 30
0.0
 10
6.7382439525
 20
2.8712535787
 30
0.0
  0
SPLINE
  5
28D
100
AcDbEntity
  8
0
100
AcDbSpline
 62
7
  6
CONTINUOUS
 70
0
 71
3
 72
19
 73
15
 74
0
 42
0.0000001
 43
0.0000001
 44
0.0000000001
 40
0.0
 40
0.0
 40
0.0
 40
0.0
 40
0.0298996229
 40
0.0619916709
 40
0.097879317
 40
0.1386411147
 40
0.1848575212
 40
0.2367519537
 40
0.2943405909
 40
0.3574104858
 40
0.4983610045
 40
0.6558518296
 40
0.8251223262
 40
1.0
 40
1.0
 40
1.0
 40
1.0
 10
6.8282459284
 20
2.8862535787
 30
0.0
 10
6.8280791995
 20
2.8862535787
 30
0.0
 10
6.8277318537
 20
2.8862004368
 30
0.0
 10
6.8272301786
 20
2.885972263
 30
0.0
 10
6.8267440647
 20
2.8856031526
 30
0.0
 10
6.826277287
 20
2.8850980335
 30
0.0
 10
6.8258312936
 20
2.8844628122
 30
0.0
 10
6.8254086741
 20
2.8837029503
 30
0.0
 10
6.8250133846
 20
2.8828246542
 30
0.0
 10
6.8245083573
 20
2.8814550703
 30
0.0
 10
6.8239821799
 20
2.8795048895
 30
0.0
 10
6.8235280237
 20
2.8769340227
 30
0.0
 10
6.8232488736
 20
2.8741484061
 30
0.0
 10
6.8231856874
 20
2.8722287472
 30
0.0
 10
6.8231856874
 20
2.8712535787
 30
0.0
  0
SPLINE
  5
28E
100
AcDbEntity
  8
0
100
AcDbSpline
 62
7
  6
CONTINUOUS
 70
0
 71
3
 72
19
 73
15
 74
0
 42
0.0000001
 43
0.0000001
 44
0.0000000001
 40
0.0
 40
0.0
 40
0.0
 40
0.0
 40
0.0298996166
 40
0.0619916606
 40
0.0978793046
 40
0.138641102
 40
0.1848575091
 40
0.2367519425
 40
0.2943405807
 40
0.3574104764
 40
0.4983609969
 40
0.655851824
 40
0.8251223235
 40
1.0
 40
1.0
 40
1.0
 40
1.0
 10
6.9130049643
 20
2.8862535787
 30
0.0
 10
6.9131716933
 20
2.8862535787
 30
0.0
 10
6.913519039
 20
2.8862004368
 30
0.0
 10
6.914020714
 20
2.885972263
 30
0.0
 10
6.9145068278
 20
2.8856031526
 30
0.0
 10
6.9149736056
 20
2.8850980335
 30
0.0
 10
6.9154195989
 20
2.8844628122
 30
0.0
 10
6.9158422185
 20
2.8837029503
 30
0.0
 10
6.9162375079
 20
2.8828246542
 30
0.0
 10
6.9167425353
 20
2.8814550703
 30
0.0
 10
6.9172687127
 20
2.8795048895
 30
0.0
 10
6.9177228688
 20
2.8769340227
 30
0.0
 10
6.918002019
 20
2.8741484062
 30
0.0
 10
6.9180652053
 20
2.8722287472
 30
0.0
 10
6.9180652053
 20
2.8712535787
 30
0.0
  0
SPLINE
  5
28F
100
AcDbEntity
  8
0
100
AcDbSpline
 62
7
  6
CONTINUOUS
 70
0
 71
3
 72
22
 73
18
 74
0
 42
0.0000001
 43
0.0000001
 44
0.0000000001
 40
0.0
 40
0.0
 40
0.0
 40
0.0
 40
0.006929815
 40
0.0146126842
 40
0.0235863348
 40
0.0341821247
 40
0.0609007493
 40
0.0955456879
 40
0.138176484
 40
0.1885828137
 40
0.246456768
 40
0.3113166796
 40
0.3825545821
 40
0.4595436715
 40
0.6279796028
 40
0.8106080063
 40
1.0
 40
1.0
 40
1.0
 40
1.0
 10
6.8481254463
 20
2.6672535787
 30
0.0
 10
6.8481611114
 20
2.6672535787
 30
0.0
 10
6.8482367502
 20
2.6672397169
 30
0.0
 10
6.8483447296
 20
2.66718125
 30
0.0
 10
6.8484503354
 20
2.6670876328
 30
0.0
 10
6.8486007558
 20
2.6669019517
 30
0.0
 10
6.8487787316
 20
2.6665744612
 30
0.0
 10
6.8489734873
 20
2.6660754316
 30
0.0
 10
6.849161627
 20
2.6654451538
 30
0.0
 10
6.849341205
 20
2.6646892584
 30
0.0
 10
6.84950984
 20
2.6638140444
 30
0.0
 10
6.8496658738
 20
2.662827873
 30
0.0
 10
6.8498078124
 20
2.6617403027
 30
0.0
 10
6.8499810547
 20
2.6601196779
 30
0.0
 10
6.8501476032
 20
2.6579223992
 30
0.0
 10
6.8502672823
 20
2.6551430767
 30
0.0
 10
6.8502941974
 20
2.6532283063
 30
0.0
 10
6.8502941209
 20
2.6522535787
 30
0.0
  0
SPLINE
  5
290
100
AcDbEntity
  8
0
100
AcDbSpline
 62
7
  6
CONTINUOUS
 70
0
 71
3
 72
22
 73
18
 74
0
 42
0.0000001
 43
0.0000001
 44
0.0000000001
 40
0.0
 40
0.0
 40
0.0
 40
0.0
 40
0.0069700537
 40
0.0146850249
 40
0.0236822914
 40
0.0342945942
 40
0.0610305819
 40
0.0956794565
 40
0.1383064194
 40
0.188704503
 40
0.2465677412
 40
0.3114155731
 40
0.3826406938
 40
0.4596167481
 40
0.6280271327
 40
0.8106314712
 40
1.0
 40
1.0
 40
1.0
 40
1.0
 10
6.8931254463
 20
2.6672535787
 30
0.0
 10
6.8930895696
 20
2.6672535787
 30
0.0
 10
6.8930135466
 20
2.6672397485
 30
0.0
 10
6.8929049716
 20
2.6671813104
 30
0.0
 10
6.8927988401
 20
2.6670876915
 30
0.0
 10
6.8926478317
 20
2.6669020606
 30
0.0
 10
6.8924693068
 20
2.6665745674
 30
0.0
 10
6.8922742349
 20
2.6660754845
 30
0.0
 10
6.8920860371
 20
2.6654451772
 30
0.0
 10
6.891906607
 20
2.6646892661
 30
0.0
 10
6.8917382674
 20
2.6638140443
 30
0.0
 10
6.8915826353
 20
2.6628278692
 30
0.0
 10
6.8914411698
 20
2.6617402967
 30
0.0
 10
6.8912686258
 20
2.6601196602
 30
0.0
 10
6.8911029176
 20
2.6579223714
 30
0.0
 10
6.890983724
 20
2.6551430657
 30
0.0
 10
6.8909567716
 20
2.6532283063
 30
0.0
 10
6.8909567716
 20
2.6522535787
 30
0.0
  0
SPLINE
  5
291
100
AcDbEntity
  8
0
100
AcDbSpline
 62
7
  6
CONTINUOUS
 70
0
 71
3
 72
15
 73
11
 74
0
 42
0.0000001
 43
0.0000001
 44
0.0000000001
 40
0.0
 40
0.0
 40
0.0
 40
0.0
 40
0.1242514133
 40
0.2488285532
 40
0.3734439235
 40
0.4983083487
 40
0.6234296381
 40
0.7487782963
 40
0.8744548489
 40
1.0
 40
1.0
 40
1.0
 40
1.0
 10
6.716635542
 20
2.6672535787
 30
0.0
 10
6.7176047157
 20
2.6672535787
 30
0.0
 10
6.7195508626
 20
2.6670586156
 30
0.0
 10
6.7223536359
 20
2.6662010279
 30
0.0
 10
6.7249375323
 20
2.6648044714
 30
0.0
 10
6.7271996508
 20
2.6629255192
 30
0.0
 10
6.7290576721
 20
2.6606389574
 30
0.0
 10
6.7304380327
 20
2.6580283322
 30
0.0
 10
6.7312853856
 20
2.6551975032
 30
0.0
 10
6.7314779424
 20
2.6532328437
 30
0.0
 10
6.7314779424
 20
2.6522535787
 30
0.0
  0
SPLINE
  5
292
100
AcDbEntity
  8
0
100
AcDbSpline
 62
7
  6
CONTINUOUS
 70
0
 71
3
 72
15
 73
11
 74
0
 42
0.0000001
 43
0.0000001
 44
0.0000000001
 40
0.0
 40
0.0
 40
0.0
 40
0.0
 40
0.1242651565
 40
0.2488476717
 40
0.3734615806
 40
0.4983212195
 40
0.6234370939
 40
0.7487815681
 40
0.8744559728
 40
1.0
 40
1.0
 40
1.0
 40
1.0
 10
7.0246153506
 20
2.6672535787
 30
0.0
 10
7.0236460608
 20
2.6672535787
 30
0.0
 10
7.021699746
 20
2.6670586356
 30
0.0
 10
7.018896793
 20
2.6662010616
 30
0.0
 10
7.0163128741
 20
2.6648044945
 30
0.0
 10
7.0140508485
 20
2.662925525
 30
0.0
 10
7.0121929808
 20
2.6606389454
 30
0.0
 10
7.0108127854
 20
2.6580283086
 30
0.0
 10
7.009965524
 20
2.6551974913
 30
0.0
 10
7.0097729627
 20
2.6532328439
 30
0.0
 10
7.0097729501
 20
2.6522535787
 30
0.0
  0
LINE
  5
293
100
AcDbEntity
  8
ALL_ASSEMBLY_MEMBERS
100
AcDbLine
 62
7
  6
CONTINUOUS
 10
7.2106048365
 20
2.9021938161
 11
7.2055953033
 21
2.8863055696
  0
SPLINE
  5
294
100
AcDbEntity
  8
ALL_ASSEMBLY_MEMBERS
100
AcDbSpline
 62
7
  6
CONTINUOUS
 70
0
 71
3
 72
19
 73
15
 74
0
 42
0.0000001
 43
0.0000001
 44
0.0000000001
 40
0.0
 40
0.0
 40
0.0
 40
0.0
 40
0.0961447909
 40
0.1914400756
 40
0.284765927
 40
0.3752588994
 40
0.5446369553
 40
0.6939187831
 40
0.8181857919
 40
0.8695466627
 40
0.9130307807
 40
0.9481858439
 40
0.9745897981
 40
1.0
 40
1.0
 40
1.0
 40
1.0
 10
7.1918122946
 20
1.9205035787
 30
0.0
 10
7.19180654
 20
1.9169688228
 30
0.0
 10
7.191930268
 20
1.909929719
 30
0.0
 10
7.1924836803
 20
1.8994730209
 30
0.0
 10
7.1933705531
 20
1.8892478555
 30
0.0
 10
7.1949046766
 20
1.8763516895
 30
0.0
 10
7.1973590159
 20
1.8615014231
 30
0.0
 10
7.20084759
 20
1.8455894934
 30
0.0
 10
7.2038930437
 20
1.8340358892
 30
0.0
 10
7.2061445983
 20
1.8263010874
 30
0.0
 10
7.2075400095
 20
1.8217297379
 30
0.0
 10
7.2087094362
 20
1.8180490906
 30
0.0
 10
7.2097000386
 20
1.815008957
 30
0.0
 10
7.2103057416
 20
1.8132028566
 30
0.0
 10
7.2106034919
 20
1.8123173712
 30
0.0
  0
ENDSEC
  0
SECTION
  2
OBJECTS
  0
DICTIONARY
  5
C
100
AcDbDictionary
280
0
281
1
  3
ACAD_GROUP
350
D
  3
ACAD_MLINESTYLE
350
17
  3
ACAD_LAYOUT
350
1A
  3
ACAD_PLOTSETTINGS
350
19
  3
ACAD_PLOTSTYLENAME
350
E
  0
DICTIONARY
  5
D
102
{ACAD_REACTORS
330
C
102
}
100
AcDbDictionary
280
0
281
1
  0
ACDBDICTIONARYWDFLT
  5
E
102
{ACAD_REACTORS
330
C
102
}
100
AcDbDictionary
281
1
  3
Normal
350
F
100
AcDbDictionaryWithDefault
340
F
  0
DICTIONARY
  5
17
102
{ACAD_REACTORS
330
C
102
}
100
AcDbDictionary
280
0
281
1
  3
Standard
350
18
  0
DICTIONARY
  5
19
102
{ACAD_REACTORS
330
C
102
}
100
AcDbDictionary
281
1
  0
DICTIONARY
  5
1A
102
{ACAD_REACTORS
330
C
102
}
100
AcDbDictionary
281
1
  3
Model
350
295
  3
Layout1
350
296
  0
ACDBPLACEHOLDER
  5
F
102
{ACAD_REACTORS
330
E
102
}
  0
MLINESTYLE
  5
18
102
{ACAD_REACTORS
330
17
102
}
100
AcDbMlineStyle
  2
STANDARD
 70
0
  3

 62
256
 51
90.0
 52
90.0
 71
2
 49
0.5
 62
256
  6
BYLAYER
 49
-0.5
 62
256
  6
BYLAYER
  0
LAYOUT
  5
295
102
{ACAD_REACTORS
330
1A
102
}
100
AcDbPlotSettings
  1

  2
none_device
  4
ANSI_A_(11.00_x_8.50_Inches)
  6

 40
0.0
 41
0.0
 42
0.0
 43
0.0
 44
279.4
 45
215.9
 46
0.0
 47
0.0
 48
0.0
 49
0.0
140
0.0
141
0.0
142
1.0
143
1.0
 70
1024
 72
0
 73
0
 74
0
  7

 75
0
147
1.0
148
0.0
149
0.0
100
AcDbLayout
  1
Model
 70
0
 71
0
 10
0.0
 20
0.0
 11
11.0
 21
8.5
 12
0.0
 22
0.0
 32
0.0
 14
0.0
 24
0.0
 34
0.0
 15
0.0
 25
0.0
 35
0.0
146
0.0
 13
0.0
 23
0.0
 33
0.0
 16
1.0
 26
0.0
 36
0.0
 17
0.0
 27
1.0
 37
0.0
 76
0
330
21B
345
0
346
0
  0
LAYOUT
  5
296
102
{ACAD_REACTORS
330
1A
102
}
100
AcDbPlotSettings
  1

  2
none_device
  4
ANSI_A_(11.00_x_8.50_Inches)
  6

 40
0.0
 41
0.0
 42
0.0
 43
0.0
 44
279.4
 45
215.9
 46
0.0
 47
0.0
 48
0.0
 49
0.0
140
0.0
141
0.0
142
1.0
143
1.0
 70
0
 72
0
 73
0
 74
0
  7

 75
0
147
1.0
148
0.0
149
0.0
100
AcDbLayout
  1
Layout1
 70
0
 71
1
 10
0.0
 20
0.0
 11
11.0
 21
8.5
 12
0.0
 22
0.0
 32
0.0
 14
0.0
 24
0.0
 34
0.0
 15
0.0
 25
0.0
 35
0.0
146
0.0
 13
0.0
 23
0.0
 33
0.0
 16
1.0
 26
0.0
 36
0.0
 17
0.0
 27
1.0
 37
0.0
 76
0
330
21C
345
0
346
0
  0
ENDSEC
  0
EOF
