999
DXF file: E:\BRASSTECH\JOE\EN-3XXX\EN-3934\Webdata\1\CAD\3330_FRONT.dxf
999
Pro/ENGINEER 2018400 by Parametric Technology Corporation
  0
SECTION
  2
HEADER
  9
$ACADVER
  1
AC1018
  9
$DWGCODEPAGE
  3
ANSI_1252
  9
$EXTMAX
 10
22.0
 20
17.0
 30
0.0
  9
$EXTMIN
 10
0.0
 20
0.0
 30
0.0
  9
$LIMMIN
 10
0.0
 20
0.0
  9
$LIMMAX
 10
22.0
 20
17.0
  9
$VIEWCTR
 10
11.0
 20
8.5
  9
$VIEWSIZE
 40
17.0
  9
$CLAYER
  8
0
  9
$LTSCALE
 40
1.21
  9
$CELTYPE
  6
BYLAYER
  9
$DIMSCALE
 40
1.0
  9
$DIMASZ
 40
0.1
  9
$DIMEXO
 40
0.0625
  9
$DIMDLI
 40
0.836
  9
$DIMEXE
 40
0.125
  9
$DIMCEN
 40
0.198
  9
$DIMLFAC
 40
1.0
  9
$DIMBLK
  1
_FILLED
  9
$DIMALT
 70
1
  9
$DIMALTD
 70
2
  9
$DIMALTTD
 70
2
  9
$DIMALTF
 40
25.4
  9
$DIMTXT
 40
0.08
  9
$DIMTOL
 70
1
  9
$DIMLIM
 70
0
  9
$DIMTFAC
 40
1.0
  9
$DIMTP
 40
0.001
  9
$DIMTM
 40
0.001
  9
$DIMGAP
 40
0.09
  9
$DIMDSEP
 70
46
  9
$AUNITS
 70
0
  9
$PDMODE
 70
3
  9
$PDSIZE
 40
0.06
  9
$HANDSEED
  5
2AE
  9
$TILEMODE
 70
1
  9
$MEASUREMENT
 70
0
  9
$INSUNITS
 70
1
  0
ENDSEC
  0
SECTION
  2
CLASSES
  0
CLASS
  1
ACDBDICTIONARYWDFLT
  2
AcDbDictionaryWithDefault
  3
AutoCAD 2000
 90
0
 91
1
280
0
281
0
  0
CLASS
  1
ACDBPLACEHOLDER
  2
AcDbPlaceHolder
  3
AutoCAD 2000
 90
0
 91
1
280
0
281
0
  0
CLASS
  1
LAYOUT
  2
AcDbLayout
  3
AutoCAD 2000
 90
0
 91
0
280
0
281
0
  0
ENDSEC
  0
SECTION
  2
TABLES
  0
TABLE
  2
VPORT
  5
8
100
AcDbSymbolTable
 70
2
  0
VPORT
  5
1F4
100
AcDbSymbolTableRecord
100
AcDbViewportTableRecord
  2
*ACTIVE
 70
0
 10
0.0
 20
0.0
 11
1.0
 21
1.0
 12
11.0
 22
8.5
 13
0.0
 23
0.0
 14
1.0
 24
1.0
 15
0.0
 25
0.0
 16
0.0
 26
0.0
 36
1.0
 17
0.0
 27
0.0
 37
0.0
 40
17.0
 41
1.2941176471
 42
50.0
 43
0.0
 44
0.0
 50
0.0
 51
0.0
 71
0
 72
100
 73
1
 74
1
 75
0
 76
0
 77
0
 78
0
  0
ENDTAB
  0
TABLE
  2
LTYPE
  5
5
100
AcDbSymbolTable
 70
6
  0
LTYPE
  5
14
100
AcDbSymbolTableRecord
100
AcDbLinetypeTableRecord
  2
BYBLOCK
 70
0
  3

 72
65
 73
0
 40
0.0
  0
LTYPE
  5
15
100
AcDbSymbolTableRecord
100
AcDbLinetypeTableRecord
  2
BYLAYER
 70
0
  3

 72
65
 73
0
 40
0.0
  0
LTYPE
  5
16
100
AcDbSymbolTableRecord
100
AcDbLinetypeTableRecord
  2
CONTINUOUS
 70
64
  3
Solid line
 72
65
 73
0
 40
0.0
  0
LTYPE
  5
1F5
100
AcDbSymbolTableRecord
100
AcDbLinetypeTableRecord
  2
CENTER
 70
64
  3
____ _ ____ _ ____ _ ____ _ ____ _ ____ _ ____
 72
65
 73
4
 40
0.6
 49
0.375
 74
0
 49
-0.075
 74
0
 49
0.075
 74
0
 49
-0.075
 74
0
  0
LTYPE
  5
1F6
100
AcDbSymbolTableRecord
100
AcDbLinetypeTableRecord
  2
HIDDEN
 70
64
  3
- - - - - - - - - - - - - - - - - - - -
 72
65
 73
2
 40
0.2
 49
0.1
 74
0
 49
-0.1
 74
0
  0
LTYPE
  5
1F7
100
AcDbSymbolTableRecord
100
AcDbLinetypeTableRecord
  2
PHANTOM
 70
64
  3
_____ _ _ _____ _ _ _____ _ _ _____
 72
65
 73
6
 40
0.8
 49
0.45
 74
0
 49
-0.05
 74
0
 49
0.1
 74
0
 49
-0.05
 74
0
 49
0.1
 74
0
 49
-0.05
 74
0
  0
LTYPE
  5
1F8
100
AcDbSymbolTableRecord
100
AcDbLinetypeTableRecord
  2
DOT
 70
64
  3
. . . . . . . . . . . . . . . . . . . .
 72
65
 73
2
 40
0.2
 49
0.1
 74
0
 49
-0.1
 74
0
  0
LTYPE
  5
1F9
100
AcDbSymbolTableRecord
100
AcDbLinetypeTableRecord
  2
DASHED
 70
64
  3
- - - - - - - - - - - - - - - - - - - -
 72
65
 73
2
 40
0.2
 49
0.1
 74
0
 49
-0.1
 74
0
  0
ENDTAB
  0
TABLE
  2
LAYER
  5
2
100
AcDbSymbolTable
 70
36
  0
LAYER
  5
10
100
AcDbSymbolTableRecord
100
AcDbLayerTableRecord
  2
0
 70
0
 62
7
  6
CONTINUOUS
370
-3
390
F
  0
LAYER
  5
1FA
100
AcDbSymbolTableRecord
100
AcDbLayerTableRecord
  2
DEFAULT_1
 70
0
 62
7
  6
CENTER
370
-3
390
F
  0
LAYER
  5
1FB
100
AcDbSymbolTableRecord
100
AcDbLayerTableRecord
  2
DEFAULT_2
 70
0
 62
8
  6
HIDDEN
370
-3
390
F
  0
LAYER
  5
1FC
100
AcDbSymbolTableRecord
100
AcDbLayerTableRecord
  2
DEFAULT_3
 70
0
 62
7
  6
PHANTOM
370
-3
390
F
  0
LAYER
  5
1FD
100
AcDbSymbolTableRecord
100
AcDbLayerTableRecord
  2
ALL_FEATURES
 70
0
 62
7
  6
CONTINUOUS
370
-3
390
F
  0
LAYER
  5
1FE
100
AcDbSymbolTableRecord
100
AcDbLayerTableRecord
  2
AXES_FEATURES
 70
0
 62
7
  6
CONTINUOUS
370
-3
390
F
  0
LAYER
  5
1FF
100
AcDbSymbolTableRecord
100
AcDbLayerTableRecord
  2
DIMENSIONS
 70
0
 62
7
  6
CONTINUOUS
370
-3
390
F
  0
ENDTAB
  0
TABLE
  2
STYLE
  5
3
100
AcDbSymbolTable
 70
1
  0
STYLE
  5
11
100
AcDbSymbolTableRecord
100
AcDbTextStyleTableRecord
  2
STANDARD
 70
0
 40
0.0
 41
0.8
 50
0.0
 71
0
 42
0.2
  3
txt
  4

  0
STYLE
  5
200
100
AcDbSymbolTableRecord
100
AcDbTextStyleTableRecord
  2
TEXTSTYLE_1
 70
0
 40
0.0
 41
0.8
 50
0.0
 71
0
 42
0.2
  3
gdt
  4

  0
ENDTAB
  0
TABLE
  2
VIEW
  5
6
100
AcDbSymbolTable
 70
0
  0
ENDTAB
  0
TABLE
  2
UCS
  5
7
100
AcDbSymbolTable
 70
0
  0
ENDTAB
  0
TABLE
  2
APPID
  5
9
100
AcDbSymbolTable
 70
1
  0
APPID
  5
201
100
AcDbSymbolTableRecord
100
AcDbRegAppTableRecord
  2
ACAD
 70
0
  0
ENDTAB
  0
TABLE
  2
BLOCK_RECORD
  5
1
100
AcDbSymbolTable
 70
0
  0
BLOCK_RECORD
  5
202
100
AcDbSymbolTableRecord
100
AcDbBlockTableRecord
  2
*Model_Space
  0
BLOCK_RECORD
  5
203
100
AcDbSymbolTableRecord
100
AcDbBlockTableRecord
  2
*Paper_Space
  0
BLOCK_RECORD
  5
204
100
AcDbSymbolTableRecord
100
AcDbBlockTableRecord
  2
_FILLED
  0
ENDTAB
  0
TABLE
  2
DIMSTYLE
  5
A
100
AcDbSymbolTable
 70
1
100
AcDbDimStyleTable
 71
0
  0
DIMSTYLE
105
205
100
AcDbSymbolTableRecord
100
AcDbDimStyleTableRecord
  2
STANDARD
 70
0
  3

  4

 40
1.0
 41
0.1
 42
0.0625
 43
0.38
 44
0.125
 45
0.0
 46
0.0
 47
0.001
 48
0.001
140
0.08
141
0.09
142
0.0
143
25.4
144
1.0
145
0.0
146
1.0
147
0.09
 71
1.0
 72
0.0
 73
1
 74
1
 75
0
 76
0
 77
0
 78
4
 79
1
170
1
171
2
172
0
173
0
174
0
175
0
176
0
177
0
178
0
270
2
179
3
271
3
272
3
273
2
274
2
275
0
280
0
281
0
282
0
283
1
284
4
285
0
286
0
287
3
288
0
340
11
278
46
341
204
342
204
343
204
344
204
  0
ENDTAB
  0
ENDSEC
  0
SECTION
  2
BLOCKS
  0
BLOCK
  5
20
100
AcDbEntity
  8
0
100
AcDbBlockBegin
  2
*Model_Space
 70
0
 10
0.0
 20
0.0
 30
0.0
  3
*Model_Space
  1

  0
ENDBLK
  5
21
100
AcDbEntity
  8
0
100
AcDbBlockEnd
  0
BLOCK
  5
1C
100
AcDbEntity
  8
0
100
AcDbBlockBegin
  2
*Paper_Space
 70
0
 10
0.0
 20
0.0
 30
0.0
  3
*Paper_Space
  1

  0
ENDBLK
  5
1D
100
AcDbEntity
  8
0
100
AcDbBlockEnd
  0
BLOCK
  5
206
100
AcDbEntity
  8
0
100
AcDbBlockBegin
  2
_FILLED
 70
64
 10
0.0
 20
0.0
  3
_FILLED
  1

  0
SOLID
  5
207
100
AcDbEntity
  8
0
  6
BYBLOCK
 62
0
100
AcDbTrace
 10
0.0
 20
0.0
 11
-1.0
 21
0.2
 12
-1.0
 22
-0.2
 13
-1.0
 23
-0.2
  0
ENDBLK
  5
208
100
AcDbEntity
  8
0
  6
BYBLOCK
 62
0
100
AcDbBlockEnd
  0
ENDSEC
  0
SECTION
  2
ENTITIES
  0
LINE
  5
209
100
AcDbEntity
  8
0
100
AcDbLine
 62
7
  6
CONTINUOUS
 10
5.4376923427
 20
10.1130445021
 11
5.4376923427
 21
9.7350445021
  0
LINE
  5
20A
100
AcDbEntity
  8
0
100
AcDbLine
 62
9
  6
CONTINUOUS
 10
5.5126923427
 20
10.1430445021
 11
5.5126923427
 21
9.7050445021
  0
LINE
  5
20B
100
AcDbEntity
  8
0
100
AcDbLine
 62
7
  6
CONTINUOUS
 10
5.9376923427
 20
7.8320445021
 11
5.9376923427
 21
7.6620445021
  0
LINE
  5
20C
100
AcDbEntity
  8
0
100
AcDbLine
 62
7
  6
CONTINUOUS
 10
6.5626923427
 20
9.3820445021
 11
6.5626923427
 21
7.8720445021
  0
LINE
  5
20D
100
AcDbEntity
  8
0
100
AcDbLine
 62
7
  6
CONTINUOUS
 10
6.5726923427
 20
7.8720445021
 11
6.5726923427
 21
7.8620445021
  0
LINE
  5
20E
100
AcDbEntity
  8
0
100
AcDbLine
 62
9
  6
CONTINUOUS
 10
6.6446879699
 20
9.7350445021
 11
6.6446879699
 21
10.1430445021
  0
LINE
  5
20F
100
AcDbEntity
  8
0
100
AcDbLine
 62
7
  6
CONTINUOUS
 10
6.6564423427
 20
9.6750445021
 11
6.6564423427
 21
9.4330445021
  0
LINE
  5
210
100
AcDbEntity
  8
0
100
AcDbLine
 62
9
  6
CONTINUOUS
 10
6.6729293552
 20
9.7350445018
 11
6.6729293552
 21
10.1130445021
  0
LINE
  5
211
100
AcDbEntity
  8
0
100
AcDbLine
 62
7
  6
CONTINUOUS
 10
6.6826923427
 20
9.4330445021
 11
6.6826923427
 21
9.4120445021
  0
LINE
  5
212
100
AcDbEntity
  8
0
100
AcDbLine
 62
9
  6
CONTINUOUS
 10
6.8428128247
 20
10.1130445021
 11
6.8428128247
 21
9.7350445019
  0
LINE
  5
213
100
AcDbEntity
  8
0
100
AcDbLine
 62
7
  6
CONTINUOUS
 10
6.8626923427
 20
9.7350445021
 11
6.8626923427
 21
10.1130445021
  0
LINE
  5
214
100
AcDbEntity
  8
0
100
AcDbLine
 62
7
  6
CONTINUOUS
 10
7.0126923427
 20
10.1130445021
 11
7.0126923427
 21
9.7350445021
  0
LINE
  5
215
100
AcDbEntity
  8
0
100
AcDbLine
 62
9
  6
CONTINUOUS
 10
7.0325718608
 20
9.7350445019
 11
7.0325718608
 21
10.1130445021
  0
LINE
  5
216
100
AcDbEntity
  8
0
100
AcDbLine
 62
7
  6
CONTINUOUS
 10
7.1926923427
 20
9.4330445021
 11
7.1926923427
 21
9.4120445021
  0
LINE
  5
217
100
AcDbEntity
  8
0
100
AcDbLine
 62
9
  6
CONTINUOUS
 10
7.2024553303
 20
10.1130445021
 11
7.2024553303
 21
9.7350445018
  0
LINE
  5
218
100
AcDbEntity
  8
0
100
AcDbLine
 62
7
  6
CONTINUOUS
 10
7.2189423427
 20
9.6750445021
 11
7.2189423427
 21
9.4330445021
  0
LINE
  5
219
100
AcDbEntity
  8
0
100
AcDbLine
 62
9
  6
CONTINUOUS
 10
7.2306967156
 20
10.1430445021
 11
7.2306967156
 21
9.7350445021
  0
LINE
  5
21A
100
AcDbEntity
  8
0
100
AcDbLine
 62
7
  6
CONTINUOUS
 10
7.3026923427
 20
7.8720445021
 11
7.3026923427
 21
7.8620445021
  0
LINE
  5
21B
100
AcDbEntity
  8
0
100
AcDbLine
 62
7
  6
CONTINUOUS
 10
7.3126923427
 20
9.3820445021
 11
7.3126923427
 21
7.8720445021
  0
LINE
  5
21C
100
AcDbEntity
  8
0
100
AcDbLine
 62
7
  6
CONTINUOUS
 10
7.9376923427
 20
7.8320445021
 11
7.9376923427
 21
7.6620445021
  0
LINE
  5
21D
100
AcDbEntity
  8
0
100
AcDbLine
 62
9
  6
CONTINUOUS
 10
8.3626923427
 20
9.7050445021
 11
8.3626923427
 21
10.1430445021
  0
LINE
  5
21E
100
AcDbEntity
  8
0
100
AcDbLine
 62
7
  6
CONTINUOUS
 10
8.4376923427
 20
10.1130445021
 11
8.4376923427
 21
9.7350445021
  0
LINE
  5
21F
100
AcDbEntity
  8
0
100
AcDbLine
 62
7
  6
CONTINUOUS
 10
5.9376923427
 20
7.6620445021
 11
7.9376923427
 21
7.6620445021
  0
LINE
  5
220
100
AcDbEntity
  8
0
100
AcDbLine
 62
7
  6
CONTINUOUS
 10
9.8876923427
 20
7.6620445021
 11
11.9876923427
 21
7.6620445021
  0
LINE
  5
221
100
AcDbEntity
  8
0
100
AcDbLine
 62
7
  6
CONTINUOUS
 10
13.9376923427
 20
7.6620445021
 11
15.9376923427
 21
7.6620445021
  0
LINE
  5
222
100
AcDbEntity
  8
0
100
AcDbLine
 62
9
  6
CONTINUOUS
 10
15.9376923427
 20
7.8320445021
 11
13.9376923427
 21
7.8320445021
  0
LINE
  5
223
100
AcDbEntity
  8
0
100
AcDbLine
 62
9
  6
CONTINUOUS
 10
7.9376923427
 20
7.8320445021
 11
5.9376923427
 21
7.8320445021
  0
LINE
  5
224
100
AcDbEntity
  8
0
100
AcDbLine
 62
7
  6
CONTINUOUS
 10
15.9076923427
 20
7.8620445021
 11
13.9676923427
 21
7.8620445021
  0
LINE
  5
225
100
AcDbEntity
  8
0
100
AcDbLine
 62
7
  6
CONTINUOUS
 10
7.9076923427
 20
7.8620445021
 11
5.9676923427
 21
7.8620445021
  0
LINE
  5
226
100
AcDbEntity
  8
0
100
AcDbLine
 62
7
  6
CONTINUOUS
 10
6.5626923427
 20
7.8720445021
 11
7.3126923427
 21
7.8720445021
  0
LINE
  5
227
100
AcDbEntity
  8
0
100
AcDbLine
 62
7
  6
CONTINUOUS
 10
14.5626923427
 20
7.8720445021
 11
15.3126923427
 21
7.8720445021
  0
LINE
  5
228
100
AcDbEntity
  8
0
100
AcDbLine
 62
9
  6
CONTINUOUS
 10
11.9876923427
 20
7.8820445021
 11
9.8876923427
 21
7.8820445021
  0
LINE
  5
229
100
AcDbEntity
  8
0
100
AcDbLine
 62
7
  6
CONTINUOUS
 10
11.9576923427
 20
7.9120445021
 11
9.9176923427
 21
7.9120445021
  0
LINE
  5
22A
100
AcDbEntity
  8
0
100
AcDbLine
 62
7
  6
CONTINUOUS
 10
10.2501927222
 20
7.9220445021
 11
11.6251919633
 21
7.9220445021
  0
LINE
  5
22B
100
AcDbEntity
  8
0
100
AcDbLine
 62
7
  6
CONTINUOUS
 10
9.8876923427
 20
7.8820445021
 11
9.8876923427
 21
7.6620445021
  0
LINE
  5
22C
100
AcDbEntity
  8
0
100
AcDbLine
 62
7
  6
CONTINUOUS
 10
10.2501923427
 20
9.1820445021
 11
10.2501923427
 21
7.9220445021
  0
LINE
  5
22D
100
AcDbEntity
  8
0
100
AcDbLine
 62
7
  6
CONTINUOUS
 10
10.2726923427
 20
7.9220445021
 11
10.2726923427
 21
7.9120445021
  0
LINE
  5
22E
100
AcDbEntity
  8
0
100
AcDbLine
 62
7
  6
CONTINUOUS
 10
10.4684423427
 20
9.2120445021
 11
10.4684423427
 21
10.4040445021
  0
LINE
  5
22F
100
AcDbEntity
  8
0
100
AcDbLine
 62
7
  6
CONTINUOUS
 10
10.4801923427
 20
9.7750445021
 11
10.4801923427
 21
9.8380445021
  0
LINE
  5
230
100
AcDbEntity
  8
0
100
AcDbLine
 62
9
  6
CONTINUOUS
 10
11.6251923427
 20
9.1820445021
 11
10.2501923427
 21
9.1820445021
  0
LINE
  5
231
100
AcDbEntity
  8
0
100
AcDbLine
 62
7
  6
CONTINUOUS
 10
11.5951918822
 20
9.2120445021
 11
10.2801928033
 21
9.2120445021
  0
LINE
  5
232
100
AcDbEntity
  8
0
100
AcDbLine
 62
9
  6
CONTINUOUS
 10
15.3126923427
 20
9.3820445021
 11
14.5626923427
 21
9.3820445021
  0
LINE
  5
233
100
AcDbEntity
  8
0
100
AcDbLine
 62
9
  6
CONTINUOUS
 10
7.3126923427
 20
9.3820445021
 11
6.5626923427
 21
9.3820445021
  0
LINE
  5
234
100
AcDbEntity
  8
0
100
AcDbLine
 62
7
  6
CONTINUOUS
 10
10.4684604667
 20
9.4000445021
 11
11.4069242187
 21
9.4000445021
  0
LINE
  5
235
100
AcDbEntity
  8
0
100
AcDbLine
 62
7
  6
CONTINUOUS
 10
15.2826923427
 20
9.4120445021
 11
14.5926923427
 21
9.4120445021
  0
LINE
  5
236
100
AcDbEntity
  8
0
100
AcDbLine
 62
7
  6
CONTINUOUS
 10
7.2826923427
 20
9.4120445021
 11
6.5926923427
 21
9.4120445021
  0
LINE
  5
237
100
AcDbEntity
  8
0
100
AcDbLine
 62
7
  6
CONTINUOUS
 10
6.6564423427
 20
9.4330445021
 11
7.2189423427
 21
9.4330445021
  0
LINE
  5
238
100
AcDbEntity
  8
0
100
AcDbLine
 62
7
  6
CONTINUOUS
 10
14.6564423427
 20
9.4330445021
 11
15.2189423427
 21
9.4330445021
  0
LINE
  5
239
100
AcDbEntity
  8
0
100
AcDbLine
 62
9
  6
CONTINUOUS
 10
15.2189423427
 20
9.6750445021
 11
15.2159873505
 21
9.6750445021
  0
LINE
  5
23A
100
AcDbEntity
  8
0
100
AcDbLine
 62
9
  6
CONTINUOUS
 10
14.9783549933
 20
9.6750445021
 11
14.897029692
 21
9.6750445021
  0
LINE
  5
23B
100
AcDbEntity
  8
0
100
AcDbLine
 62
9
  6
CONTINUOUS
 10
14.659397335
 20
9.6750445021
 11
14.6564423427
 21
9.6750445021
  0
LINE
  5
23C
100
AcDbEntity
  8
0
100
AcDbLine
 62
9
  6
CONTINUOUS
 10
7.2189423427
 20
9.6750445021
 11
7.2159873505
 21
9.6750445021
  0
LINE
  5
23D
100
AcDbEntity
  8
0
100
AcDbLine
 62
9
  6
CONTINUOUS
 10
6.9783549933
 20
9.6750445021
 11
6.897029692
 21
9.6750445021
  0
LINE
  5
23E
100
AcDbEntity
  8
0
100
AcDbLine
 62
9
  6
CONTINUOUS
 10
6.659397335
 20
9.6750445021
 11
6.6564423427
 21
9.6750445021
  0
LINE
  5
23F
100
AcDbEntity
  8
0
100
AcDbLine
 62
7
  6
CONTINUOUS
 10
11.3951923427
 20
9.7750445021
 11
11.3951923427
 21
9.8380445021
  0
LINE
  5
240
100
AcDbEntity
  8
0
100
AcDbLine
 62
7
  6
CONTINUOUS
 10
11.4069423427
 20
9.2120445021
 11
11.4069423427
 21
10.4040445021
  0
LINE
  5
241
100
AcDbEntity
  8
0
100
AcDbLine
 62
7
  6
CONTINUOUS
 10
11.6026923427
 20
7.9220445021
 11
11.6026923427
 21
7.9120445021
  0
LINE
  5
242
100
AcDbEntity
  8
0
100
AcDbLine
 62
7
  6
CONTINUOUS
 10
11.6251923427
 20
9.1820445021
 11
11.6251923427
 21
7.9220445021
  0
LINE
  5
243
100
AcDbEntity
  8
0
100
AcDbLine
 62
7
  6
CONTINUOUS
 10
5.4676923427
 20
9.7050445021
 11
6.6297125635
 21
9.7050445021
  0
LINE
  5
244
100
AcDbEntity
  8
0
100
AcDbLine
 62
7
  6
CONTINUOUS
 10
6.8926923427
 20
9.7050445021
 11
6.9826923427
 21
9.7050445021
  0
LINE
  5
245
100
AcDbEntity
  8
0
100
AcDbLine
 62
7
  6
CONTINUOUS
 10
7.2456721498
 20
9.7050445021
 11
8.4076897833
 21
9.7050445021
  0
LINE
  5
246
100
AcDbEntity
  8
0
100
AcDbLine
 62
7
  6
CONTINUOUS
 10
13.4676923427
 20
9.7050445021
 11
14.6297125635
 21
9.7050445021
  0
LINE
  5
247
100
AcDbEntity
  8
0
100
AcDbLine
 62
7
  6
CONTINUOUS
 10
14.8926923427
 20
9.7050445021
 11
14.9826923427
 21
9.7050445021
  0
LINE
  5
248
100
AcDbEntity
  8
0
100
AcDbLine
 62
7
  6
CONTINUOUS
 10
15.2456721497
 20
9.7050445021
 11
16.4076897833
 21
9.7050445021
  0
LINE
  5
249
100
AcDbEntity
  8
0
100
AcDbLine
 62
9
  6
CONTINUOUS
 10
5.4376923427
 20
9.7350445021
 11
6.6729293552
 21
9.7350445021
  0
LINE
  5
24A
100
AcDbEntity
  8
0
100
AcDbLine
 62
9
  6
CONTINUOUS
 10
6.8428128247
 20
9.7350445021
 11
7.0325718608
 21
9.7350445021
  0
LINE
  5
24B
100
AcDbEntity
  8
0
100
AcDbLine
 62
9
  6
CONTINUOUS
 10
7.2024553302
 20
9.7350445021
 11
8.4376923427
 21
9.7350445021
  0
LINE
  5
24C
100
AcDbEntity
  8
0
100
AcDbLine
 62
9
  6
CONTINUOUS
 10
13.4376923427
 20
9.7350445021
 11
14.6729293552
 21
9.7350445021
  0
LINE
  5
24D
100
AcDbEntity
  8
0
100
AcDbLine
 62
9
  6
CONTINUOUS
 10
14.8428128247
 20
9.7350445021
 11
15.0325718608
 21
9.7350445021
  0
LINE
  5
24E
100
AcDbEntity
  8
0
100
AcDbLine
 62
9
  6
CONTINUOUS
 10
15.2024553302
 20
9.7350445021
 11
16.4376923427
 21
9.7350445021
  0
LINE
  5
24F
100
AcDbEntity
  8
0
100
AcDbLine
 62
7
  6
CONTINUOUS
 10
11.4069242187
 20
9.7750445021
 11
10.4684604667
 21
9.7750445021
  0
LINE
  5
250
100
AcDbEntity
  8
0
100
AcDbLine
 62
7
  6
CONTINUOUS
 10
10.4684604667
 20
9.8380445021
 11
11.4069242187
 21
9.8380445021
  0
LINE
  5
251
100
AcDbEntity
  8
0
100
AcDbLine
 62
9
  6
CONTINUOUS
 10
11.4069423427
 20
9.9045445021
 11
10.4684423427
 21
9.9045445021
  0
LINE
  5
252
100
AcDbEntity
  8
0
100
AcDbLine
 62
7
  6
CONTINUOUS
 10
11.9876923427
 20
7.8820445021
 11
11.9876923427
 21
7.6620445021
  0
LINE
  5
253
100
AcDbEntity
  8
0
100
AcDbLine
 62
9
  6
CONTINUOUS
 10
16.4376923427
 20
10.1130445021
 11
13.4376923427
 21
10.1130445021
  0
LINE
  5
254
100
AcDbEntity
  8
0
100
AcDbLine
 62
9
  6
CONTINUOUS
 10
8.4376923427
 20
10.1130445021
 11
5.4376923427
 21
10.1130445021
  0
LINE
  5
255
100
AcDbEntity
  8
0
100
AcDbLine
 62
7
  6
CONTINUOUS
 10
5.4676962906
 20
10.1430445021
 11
8.4076883949
 21
10.1430445021
  0
LINE
  5
256
100
AcDbEntity
  8
0
100
AcDbLine
 62
7
  6
CONTINUOUS
 10
13.4676962906
 20
10.1430445021
 11
16.4076883949
 21
10.1430445021
  0
LINE
  5
257
100
AcDbEntity
  8
0
100
AcDbLine
 62
7
  6
CONTINUOUS
 10
13.4376923427
 20
10.1130445021
 11
13.4376923427
 21
9.7350445021
  0
LINE
  5
258
100
AcDbEntity
  8
0
100
AcDbLine
 62
9
  6
CONTINUOUS
 10
13.5126923427
 20
10.1430445021
 11
13.5126923427
 21
9.7050445021
  0
LINE
  5
259
100
AcDbEntity
  8
0
100
AcDbLine
 62
7
  6
CONTINUOUS
 10
13.9376923427
 20
7.8320445021
 11
13.9376923427
 21
7.6620445021
  0
LINE
  5
25A
100
AcDbEntity
  8
0
100
AcDbLine
 62
7
  6
CONTINUOUS
 10
14.5626923427
 20
9.3820445021
 11
14.5626923427
 21
7.8720445021
  0
LINE
  5
25B
100
AcDbEntity
  8
0
100
AcDbLine
 62
7
  6
CONTINUOUS
 10
14.5726923427
 20
7.8720445021
 11
14.5726923427
 21
7.8620445021
  0
LINE
  5
25C
100
AcDbEntity
  8
0
100
AcDbLine
 62
9
  6
CONTINUOUS
 10
14.6446879699
 20
9.7350445021
 11
14.6446879699
 21
10.1430445021
  0
LINE
  5
25D
100
AcDbEntity
  8
0
100
AcDbLine
 62
7
  6
CONTINUOUS
 10
14.6564423427
 20
9.6750445021
 11
14.6564423427
 21
9.4330445021
  0
LINE
  5
25E
100
AcDbEntity
  8
0
100
AcDbLine
 62
9
  6
CONTINUOUS
 10
14.6729293552
 20
9.7350445018
 11
14.6729293552
 21
10.1130445021
  0
LINE
  5
25F
100
AcDbEntity
  8
0
100
AcDbLine
 62
7
  6
CONTINUOUS
 10
14.6826923427
 20
9.4330445021
 11
14.6826923427
 21
9.4120445021
  0
LINE
  5
260
100
AcDbEntity
  8
0
100
AcDbLine
 62
9
  6
CONTINUOUS
 10
14.8428128247
 20
10.1130445021
 11
14.8428128247
 21
9.7350445019
  0
LINE
  5
261
100
AcDbEntity
  8
0
100
AcDbLine
 62
7
  6
CONTINUOUS
 10
14.8626923427
 20
9.7350445021
 11
14.8626923427
 21
10.1130445021
  0
LINE
  5
262
100
AcDbEntity
  8
0
100
AcDbLine
 62
7
  6
CONTINUOUS
 10
15.0126923427
 20
10.1130445021
 11
15.0126923427
 21
9.7350445021
  0
LINE
  5
263
100
AcDbEntity
  8
0
100
AcDbLine
 62
9
  6
CONTINUOUS
 10
15.0325718608
 20
9.7350445019
 11
15.0325718608
 21
10.1130445021
  0
LINE
  5
264
100
AcDbEntity
  8
0
100
AcDbLine
 62
7
  6
CONTINUOUS
 10
15.1926923427
 20
9.4330445021
 11
15.1926923427
 21
9.4120445021
  0
LINE
  5
265
100
AcDbEntity
  8
0
100
AcDbLine
 62
9
  6
CONTINUOUS
 10
15.2024553303
 20
10.1130445021
 11
15.2024553303
 21
9.7350445018
  0
LINE
  5
266
100
AcDbEntity
  8
0
100
AcDbLine
 62
7
  6
CONTINUOUS
 10
15.2189423427
 20
9.6750445021
 11
15.2189423427
 21
9.4330445021
  0
LINE
  5
267
100
AcDbEntity
  8
0
100
AcDbLine
 62
9
  6
CONTINUOUS
 10
15.2306967156
 20
10.1430445021
 11
15.2306967156
 21
9.7350445021
  0
LINE
  5
268
100
AcDbEntity
  8
0
100
AcDbLine
 62
7
  6
CONTINUOUS
 10
15.3026923427
 20
7.8720445021
 11
15.3026923427
 21
7.8620445021
  0
LINE
  5
269
100
AcDbEntity
  8
0
100
AcDbLine
 62
7
  6
CONTINUOUS
 10
15.3126923427
 20
9.3820445021
 11
15.3126923427
 21
7.8720445021
  0
LINE
  5
26A
100
AcDbEntity
  8
0
100
AcDbLine
 62
7
  6
CONTINUOUS
 10
15.9376923427
 20
7.8320445021
 11
15.9376923427
 21
7.6620445021
  0
LINE
  5
26B
100
AcDbEntity
  8
0
100
AcDbLine
 62
9
  6
CONTINUOUS
 10
16.3626923427
 20
9.7050445021
 11
16.3626923427
 21
10.1430445021
  0
LINE
  5
26C
100
AcDbEntity
  8
0
100
AcDbLine
 62
7
  6
CONTINUOUS
 10
16.4376923427
 20
10.1130445021
 11
16.4376923427
 21
9.7350445021
  0
ARC
  5
26D
100
AcDbEntity
  8
0
100
AcDbCircle
 62
7
  6
CONTINUOUS
 10
10.9376923427
 20
10.4040445021
 40
0.46925
100
AcDbArc
 50
0.0
 51
180.0
  0
ARC
  5
26E
100
AcDbEntity
  8
0
100
AcDbCircle
 62
7
  6
CONTINUOUS
 10
15.9076923427
 20
7.8320445021
 40
0.03
100
AcDbArc
 50
0.0
 51
90.0
  0
ARC
  5
26F
100
AcDbEntity
  8
0
100
AcDbCircle
 62
7
  6
CONTINUOUS
 10
13.9676923427
 20
7.8320445021
 40
0.03
100
AcDbArc
 50
90.0
 51
180.0
  0
ARC
  5
270
100
AcDbEntity
  8
0
100
AcDbCircle
 62
7
  6
CONTINUOUS
 10
5.9676923427
 20
7.8320445021
 40
0.03
100
AcDbArc
 50
90.0
 51
180.0
  0
ARC
  5
271
100
AcDbEntity
  8
0
100
AcDbCircle
 62
7
  6
CONTINUOUS
 10
7.9076923427
 20
7.8320445021
 40
0.03
100
AcDbArc
 50
0.0
 51
90.0
  0
ARC
  5
272
100
AcDbEntity
  8
0
100
AcDbCircle
 62
7
  6
CONTINUOUS
 10
11.9576923427
 20
7.8820445021
 40
0.03
100
AcDbArc
 50
0.0
 51
90.0
  0
ARC
  5
273
100
AcDbEntity
  8
0
100
AcDbCircle
 62
7
  6
CONTINUOUS
 10
9.9176923427
 20
7.8820445021
 40
0.03
100
AcDbArc
 50
90.0
 51
180.0
  0
ARC
  5
274
100
AcDbEntity
  8
0
100
AcDbCircle
 62
7
  6
CONTINUOUS
 10
14.5926923427
 20
9.3820445021
 40
0.03
100
AcDbArc
 50
90.0
 51
180.0
  0
ARC
  5
275
100
AcDbEntity
  8
0
100
AcDbCircle
 62
7
  6
CONTINUOUS
 10
15.2826923427
 20
9.3820445021
 40
0.03
100
AcDbArc
 50
0.0
 51
90.0
  0
ARC
  5
276
100
AcDbEntity
  8
0
100
AcDbCircle
 62
7
  6
CONTINUOUS
 10
7.2826923427
 20
9.3820445021
 40
0.03
100
AcDbArc
 50
0.0
 51
90.0
  0
ARC
  5
277
100
AcDbEntity
  8
0
100
AcDbCircle
 62
7
  6
CONTINUOUS
 10
6.5926923427
 20
9.3820445021
 40
0.03
100
AcDbArc
 50
90.0
 51
180.0
  0
ARC
  5
278
100
AcDbEntity
  8
0
100
AcDbCircle
 62
7
  6
CONTINUOUS
 10
11.5951923427
 20
9.1820445021
 40
0.03
100
AcDbArc
 50
0.0
 51
90.0
  0
ARC
  5
279
100
AcDbEntity
  8
0
100
AcDbCircle
 62
7
  6
CONTINUOUS
 10
10.2801923427
 20
9.1820445021
 40
0.03
100
AcDbArc
 50
90.0
 51
180.0
  0
ARC
  5
27A
100
AcDbEntity
  8
0
100
AcDbCircle
 62
7
  6
CONTINUOUS
 10
13.4676923427
 20
9.7350445021
 40
0.03
100
AcDbArc
 50
180.0
 51
270.0
  0
ARC
  5
27B
100
AcDbEntity
  8
0
100
AcDbCircle
 62
7
  6
CONTINUOUS
 10
14.6264423428
 20
9.6750445021
 40
0.03
100
AcDbArc
 50
0.0
 51
83.8058444297
  0
ARC
  5
27C
100
AcDbEntity
  8
0
100
AcDbCircle
 62
7
  6
CONTINUOUS
 10
14.9826923427
 20
10.1130445021
 40
0.03
100
AcDbArc
 50
0.0
 51
90.0
  0
ARC
  5
27D
100
AcDbEntity
  8
0
100
AcDbCircle
 62
7
  6
CONTINUOUS
 10
14.8926923427
 20
10.1130445021
 40
0.03
100
AcDbArc
 50
90.0
 51
180.0
  0
ARC
  5
27E
100
AcDbEntity
  8
0
100
AcDbCircle
 62
7
  6
CONTINUOUS
 10
16.4076923427
 20
9.7350445021
 40
0.03
100
AcDbArc
 50
270.0
 51
360.0
  0
ARC
  5
27F
100
AcDbEntity
  8
0
100
AcDbCircle
 62
7
  6
CONTINUOUS
 10
16.4076923427
 20
10.1130445021
 40
0.03
100
AcDbArc
 50
0.0
 51
90.0
  0
ARC
  5
280
100
AcDbEntity
  8
0
100
AcDbCircle
 62
7
  6
CONTINUOUS
 10
13.4676923427
 20
10.1130445021
 40
0.03
100
AcDbArc
 50
90.0
 51
180.0
  0
ARC
  5
281
100
AcDbEntity
  8
0
100
AcDbCircle
 62
7
  6
CONTINUOUS
 10
14.8926923427
 20
9.7350445021
 40
0.03
100
AcDbArc
 50
180.0
 51
270.0
  0
ARC
  5
282
100
AcDbEntity
  8
0
100
AcDbCircle
 62
7
  6
CONTINUOUS
 10
14.9826923427
 20
9.7350445021
 40
0.03
100
AcDbArc
 50
270.0
 51
360.0
  0
ARC
  5
283
100
AcDbEntity
  8
0
100
AcDbCircle
 62
7
  6
CONTINUOUS
 10
15.2489423426
 20
9.6750445021
 40
0.03
100
AcDbArc
 50
96.1941557121
 51
180.0
  0
ARC
  5
284
100
AcDbEntity
  8
0
100
AcDbCircle
 62
7
  6
CONTINUOUS
 10
6.9826923427
 20
10.1130445021
 40
0.03
100
AcDbArc
 50
0.0
 51
90.0
  0
ARC
  5
285
100
AcDbEntity
  8
0
100
AcDbCircle
 62
7
  6
CONTINUOUS
 10
6.8926923427
 20
10.1130445021
 40
0.03
100
AcDbArc
 50
90.0
 51
180.0
  0
ARC
  5
286
100
AcDbEntity
  8
0
100
AcDbCircle
 62
7
  6
CONTINUOUS
 10
8.4076923427
 20
9.7350445021
 40
0.03
100
AcDbArc
 50
270.0
 51
360.0
  0
ARC
  5
287
100
AcDbEntity
  8
0
100
AcDbCircle
 62
7
  6
CONTINUOUS
 10
7.2489423426
 20
9.6750445021
 40
0.03
100
AcDbArc
 50
96.1941555703
 51
180.0
  0
ARC
  5
288
100
AcDbEntity
  8
0
100
AcDbCircle
 62
7
  6
CONTINUOUS
 10
5.4676923427
 20
9.7350445021
 40
0.03
100
AcDbArc
 50
180.0
 51
270.0
  0
ARC
  5
289
100
AcDbEntity
  8
0
100
AcDbCircle
 62
7
  6
CONTINUOUS
 10
5.4676923427
 20
10.1130445021
 40
0.03
100
AcDbArc
 50
90.0
 51
180.0
  0
ARC
  5
28A
100
AcDbEntity
  8
0
100
AcDbCircle
 62
7
  6
CONTINUOUS
 10
8.4076923427
 20
10.1130445021
 40
0.03
100
AcDbArc
 50
0.0
 51
90.0
  0
ARC
  5
28B
100
AcDbEntity
  8
0
100
AcDbCircle
 62
7
  6
CONTINUOUS
 10
6.6264423428
 20
9.6750445021
 40
0.03
100
AcDbArc
 50
0.0
 51
83.8057918443
  0
ARC
  5
28C
100
AcDbEntity
  8
0
100
AcDbCircle
 62
7
  6
CONTINUOUS
 10
6.8926923427
 20
9.7350445021
 40
0.03
100
AcDbArc
 50
180.0
 51
270.0
  0
ARC
  5
28D
100
AcDbEntity
  8
0
100
AcDbCircle
 62
7
  6
CONTINUOUS
 10
6.9826923427
 20
9.7350445021
 40
0.03
100
AcDbArc
 50
270.0
 51
360.0
  0
SPLINE
  5
28E
100
AcDbEntity
  8
0
100
AcDbSpline
 62
9
  6
CONTINUOUS
 70
0
 71
3
 72
19
 73
15
 74
0
 42
0.0000001
 43
0.0000001
 44
0.0000000001
 40
0.0
 40
0.0
 40
0.0
 40
0.0
 40
0.1748776765
 40
0.344148176
 40
0.5016390031
 40
0.6425895236
 40
0.7056594193
 40
0.7632480575
 40
0.815142491
 40
0.861358898
 40
0.9021206954
 40
0.9380083394
 40
0.9701003834
 40
1.0
 40
1.0
 40
1.0
 40
1.0
 10
15.0325718608
 20
10.1130445021
 30
0.0
 10
15.0325718608
 20
10.1149948391
 30
0.0
 10
15.0324454883
 20
10.1188341571
 30
0.0
 10
15.0318871879
 20
10.1244053902
 30
0.0
 10
15.0309788755
 20
10.1295471237
 30
0.0
 10
15.0299265208
 20
10.1334474853
 30
0.0
 10
15.028916466
 20
10.1361866532
 30
0.0
 10
15.0281258871
 20
10.1379432453
 30
0.0
 10
15.027280648
 20
10.1394629691
 30
0.0
 10
15.0263886613
 20
10.1407334118
 30
0.0
 10
15.0254551059
 20
10.14174365
 30
0.0
 10
15.0244828782
 20
10.1424818708
 30
0.0
 10
15.0234795282
 20
10.1429382183
 30
0.0
 10
15.0227848367
 20
10.1430445021
 30
0.0
 10
15.0224513789
 20
10.1430445021
 30
0.0
  0
SPLINE
  5
28F
100
AcDbEntity
  8
0
100
AcDbSpline
 62
9
  6
CONTINUOUS
 70
0
 71
3
 72
16
 73
12
 74
0
 42
0.0000001
 43
0.0000001
 44
0.0000000001
 40
0.0
 40
0.0
 40
0.0
 40
0.0
 40
0.1285521515
 40
0.2567920026
 40
0.3205586252
 40
0.3840043535
 40
0.5097386399
 40
0.6340054238
 40
0.7568852432
 40
0.8788421758
 40
1.0
 40
1.0
 40
1.0
 40
1.0
 10
15.2024553302
 20
10.1130445021
 30
0.0
 10
15.2024553302
 20
10.1150021542
 30
0.0
 10
15.2020905755
 20
10.1189213008
 30
0.0
 10
15.2007480049
 20
10.1236453153
 30
0.0
 10
15.1991630645
 20
10.1272037472
 30
0.0
 10
15.1972694025
 20
10.1305637548
 30
0.0
 10
15.1943335834
 20
10.1343683977
 30
0.0
 10
15.1900323888
 20
10.1381308989
 30
0.0
 10
15.1851129824
 20
10.1409314603
 30
0.0
 10
15.1797722644
 20
10.1426527291
 30
0.0
 10
15.1760589927
 20
10.1430445021
 30
0.0
 10
15.1742139449
 20
10.1430445021
 30
0.0
  0
SPLINE
  5
290
100
AcDbEntity
  8
0
100
AcDbSpline
 62
9
  6
CONTINUOUS
 70
0
 71
3
 72
18
 73
14
 74
0
 42
0.0000001
 43
0.0000001
 44
0.0000000001
 40
0.0
 40
0.0
 40
0.0
 40
0.0
 40
0.0265994476
 40
0.0578443898
 40
0.0947784243
 40
0.1375161747
 40
0.1858932286
 40
0.239657065
 40
0.3620578069
 40
0.5023142293
 40
0.6579016193
 40
0.8254907507
 40
1.0
 40
1.0
 40
1.0
 40
1.0
 10
15.2456723342
 20
9.7050445021
 30
0.0
 10
15.2453588518
 20
9.7050445724
 30
0.0
 10
15.2446765685
 20
9.7051679287
 30
0.0
 10
15.2436519863
 20
9.7056276344
 30
0.0
 10
15.2425563323
 20
9.706348171
 30
0.0
 10
15.2414007157
 20
9.7073227892
 30
0.0
 10
15.2402017338
 20
9.7085412965
 30
0.0
 10
15.2384959391
 20
9.7105671657
 30
0.0
 10
15.2364004879
 20
9.7136655033
 30
0.0
 10
15.2341446603
 20
9.718060842
 30
0.0
 10
15.2322642758
 20
9.7232050051
 30
0.0
 10
15.2309944153
 20
9.7289496706
 30
0.0
 10
15.2306968048
 20
9.7329878591
 30
0.0
 10
15.2306967156
 20
9.7350445021
 30
0.0
  0
SPLINE
  5
291
100
AcDbEntity
  8
0
100
AcDbSpline
 62
9
  6
CONTINUOUS
 70
0
 71
3
 72
15
 73
11
 74
0
 42
0.0000001
 43
0.0000001
 44
0.0000000001
 40
0.0
 40
0.0
 40
0.0
 40
0.0
 40
0.1242523571
 40
0.2488307046
 40
0.3734451503
 40
0.4983079835
 40
0.6234277211
 40
0.7487755997
 40
0.8744536325
 40
1.0
 40
1.0
 40
1.0
 40
1.0
 10
15.2456715583
 20
9.7050445021
 30
0.0
 10
15.243733198
 20
9.7050445021
 30
0.0
 10
15.2398408798
 20
9.7046545357
 30
0.0
 10
15.2342353103
 20
9.7029393892
 30
0.0
 10
15.2290675618
 20
9.7001462457
 30
0.0
 10
15.2245433805
 20
9.6963883863
 30
0.0
 10
15.2208273891
 20
9.6918153107
 30
0.0
 10
15.2180666416
 20
9.6865940939
 30
0.0
 10
15.2163719682
 20
9.6809324013
 30
0.0
 10
15.2159868146
 20
9.6770030492
 30
0.0
 10
15.2159868146
 20
9.6750445021
 30
0.0
  0
SPLINE
  5
292
100
AcDbEntity
  8
0
100
AcDbSpline
 62
9
  6
CONTINUOUS
 70
0
 71
3
 72
25
 73
21
 74
0
 42
0.0000001
 43
0.0000001
 44
0.0000000001
 40
0.0
 40
0.0
 40
0.0
 40
0.0
 40
0.0149163106
 40
0.024798448
 40
0.0366457138
 40
0.0505969166
 40
0.0666926361
 40
0.1051617816
 40
0.1516005456
 40
0.2054048636
 40
0.265926486
 40
0.3324808687
 40
0.4043472835
 40
0.4808163961
 40
0.5612358241
 40
0.6449670708
 40
0.7313809164
 40
0.8198624959
 40
0.9096839222
 40
1.0
 40
1.0
 40
1.0
 40
1.0
 10
15.2159873505
 20
9.6750445021
 30
0.0
 10
15.2156752545
 20
9.6750525084
 30
0.0
 10
15.21517245
 20
9.6752905297
 30
0.0
 10
15.2145949015
 20
9.6757886945
 30
0.0
 10
15.2140952376
 20
9.6763485426
 30
0.0
 10
15.2135789667
 20
9.6770577448
 30
0.0
 10
15.2128202407
 20
9.678276023
 30
0.0
 10
15.2118588259
 20
9.6801622941
 30
0.0
 10
15.210722215
 20
9.6828352881
 30
0.0
 10
15.2095712309
 20
9.6859985826
 30
0.0
 10
15.2084321227
 20
9.6896100045
 30
0.0
 10
15.2073310104
 20
9.6936265887
 30
0.0
 10
15.2062926788
 20
9.6980036199
 30
0.0
 10
15.2053420321
 20
9.7026969756
 30
0.0
 10
15.2044949873
 20
9.707662177
 30
0.0
 10
15.2037676264
 20
9.7128566069
 30
0.0
 10
15.2031866762
 20
9.7182394638
 30
0.0
 10
15.2027869866
 20
9.7237666326
 30
0.0
 10
15.2025509267
 20
9.7293844963
 30
0.0
 10
15.2024769471
 20
9.7331543085
 30
0.0
 10
15.2024553303
 20
9.7350445018
 30
0.0
  0
SPLINE
  5
293
100
AcDbEntity
  8
0
100
AcDbSpline
 62
9
  6
CONTINUOUS
 70
0
 71
3
 72
23
 73
19
 74
0
 42
0.0000001
 43
0.0000001
 44
0.0000000001
 40
0.0
 40
0.0
 40
0.0
 40
0.0
 40
0.1769303359
 40
0.35771564
 40
0.4464308114
 40
0.5321460898
 40
0.6133647422
 40
0.6885997884
 40
0.7565342292
 40
0.8164814737
 40
0.8679295669
 40
0.9104120272
 40
0.9437475148
 40
0.9686785214
 40
0.9784092223
 40
0.9866191753
 40
0.9936575154
 40
1.0
 40
1.0
 40
1.0
 40
1.0
 10
14.9783549933
 20
9.6750445021
 30
0.0
 10
14.9783549933
 20
9.676865912
 30
0.0
 10
14.9784038642
 20
9.680548551
 30
0.0
 10
14.9785895808
 20
9.6851413503
 30
0.0
 10
14.9788299324
 20
9.6887903862
 30
0.0
 10
14.9790503285
 20
9.6914130835
 30
0.0
 10
14.9793091702
 20
9.6938928089
 30
0.0
 10
14.9796035691
 20
9.696184222
 30
0.0
 10
14.9799323843
 20
9.6982495537
 30
0.0
 10
14.9802876747
 20
9.7000616907
 30
0.0
 10
14.9806618517
 20
9.7016015073
 30
0.0
 10
14.9810470409
 20
9.7028552841
 30
0.0
 10
14.9814407375
 20
9.703816094
 30
0.0
 10
14.9817944489
 20
9.7044260663
 30
0.0
 10
14.9820862652
 20
9.7047591427
 30
0.0
 10
14.9822870436
 20
9.7049224016
 30
0.0
 10
14.9824885949
 20
9.7050215612
 30
0.0
 10
14.98262705
 20
9.7050444999
 30
0.0
 10
14.9826923427
 20
9.7050445021
 30
0.0
  0
SPLINE
  5
294
100
AcDbEntity
  8
0
100
AcDbSpline
 62
9
  6
CONTINUOUS
 70
0
 71
3
 72
22
 73
18
 74
0
 42
0.0000001
 43
0.0000001
 44
0.0000000001
 40
0.0
 40
0.0
 40
0.0
 40
0.0
 40
0.0069707332
 40
0.014686421
 40
0.0236844009
 40
0.0342973613
 40
0.061034275
 40
0.0956835399
 40
0.1383107933
 40
0.1887088014
 40
0.2465713758
 40
0.3114182509
 40
0.3826422188
 40
0.459616963
 40
0.6280251627
 40
0.8106307569
 40
1.0
 40
1.0
 40
1.0
 40
1.0
 10
14.89268782
 20
9.7050445021
 30
0.0
 10
14.8927595806
 20
9.7050445021
 30
0.0
 10
14.8929116418
 20
9.7050168397
 30
0.0
 10
14.8931288141
 20
9.7048999572
 30
0.0
 10
14.8933411005
 20
9.7047127115
 30
0.0
 10
14.8936431484
 20
9.7043414417
 30
0.0
 10
14.8940002402
 20
9.7036864513
 30
0.0
 10
14.8943904302
 20
9.7026882796
 30
0.0
 10
14.8947668588
 20
9.7014276619
 30
0.0
 10
14.8951257501
 20
9.6999158443
 30
0.0
 10
14.8954624599
 20
9.6981654161
 30
0.0
 10
14.8957737516
 20
9.6961930896
 30
0.0
 10
14.8960567076
 20
9.6940179733
 30
0.0
 10
14.8964018272
 20
9.6907767366
 30
0.0
 10
14.8967332827
 20
9.6863821644
 30
0.0
 10
14.8969716887
 20
9.6808235303
 30
0.0
 10
14.8970256053
 20
9.6769939738
 30
0.0
 10
14.8970256053
 20
9.6750445021
 30
0.0
  0
SPLINE
  5
295
100
AcDbEntity
  8
0
100
AcDbSpline
 62
9
  6
CONTINUOUS
 70
0
 71
3
 72
22
 73
18
 74
0
 42
0.0000001
 43
0.0000001
 44
0.0000000001
 40
0.0
 40
0.0
 40
0.0
 40
0.0
 40
0.0625569432
 40
0.125007799
 40
0.1872561252
 40
0.2493770708
 40
0.3732297538
 40
0.4972237204
 40
0.5594592158
 40
0.621829611
 40
0.6844275577
 40
0.7472732784
 40
0.8102598352
 40
0.8418004796
 40
0.8733816419
 40
0.9366752275
 40
1.0
 40
1.0
 40
1.0
 40
1.0
 10
14.897029692
 20
9.6750445021
 30
0.0
 10
14.8951595729
 20
9.6750630658
 30
0.0
 10
14.8914214168
 20
9.675289074
 30
0.0
 10
14.8858896874
 20
9.676218837
 30
0.0
 10
14.8805129356
 20
9.6777784319
 30
0.0
 10
14.8736538784
 20
9.6806444002
 30
0.0
 10
14.8657235916
 20
9.6855780103
 30
0.0
 10
14.8589611133
 20
9.6920121463
 30
0.0
 10
14.8543670276
 20
9.6978661677
 30
0.0
 10
14.8513392542
 20
9.7025831897
 30
0.0
 10
14.848741595
 20
9.7075690738
 30
0.0
 10
14.8465762936
 20
9.7127772557
 30
0.0
 10
14.845172929
 20
9.7172762064
 30
0.0
 10
14.8443203684
 20
9.7209500809
 30
0.0
 10
14.8436438589
 20
9.7246696557
 30
0.0
 10
14.8430895809
 20
9.7293712899
 30
0.0
 10
14.8428791804
 20
9.7331524988
 30
0.0
 10
14.8428128247
 20
9.7350445019
 30
0.0
  0
SPLINE
  5
296
100
AcDbEntity
  8
0
100
AcDbSpline
 62
9
  6
CONTINUOUS
 70
0
 71
3
 72
24
 73
20
 74
0
 42
0.0000001
 43
0.0000001
 44
0.0000000001
 40
0.0
 40
0.0
 40
0.0
 40
0.0
 40
0.0068788662
 40
0.0150399401
 40
0.0249496706
 40
0.0368393655
 40
0.0508163557
 40
0.0669154829
 40
0.0851130012
 40
0.1053609987
 40
0.1517563462
 40
0.2055466708
 40
0.2660624988
 40
0.3325981182
 40
0.404452612
 40
0.4809396312
 40
0.6451108986
 40
0.8200031453
 40
1.0
 40
1.0
 40
1.0
 40
1.0
 10
14.659397335
 20
9.6750445021
 30
0.0
 10
14.6595413327
 20
9.6750446017
 30
0.0
 10
14.6598567197
 20
9.6751133144
 30
0.0
 10
14.6603144654
 20
9.6753740435
 30
0.0
 10
14.6607909443
 20
9.6757859997
 30
0.0
 10
14.6612877342
 20
9.6763484483
 30
0.0
 10
14.6618046368
 20
9.6770599542
 30
0.0
 10
14.6623393538
 20
9.6779181708
 30
0.0
 10
14.6628894671
 20
9.6789192312
 30
0.0
 10
14.6636754185
 20
9.680512365
 30
0.0
 10
14.6646625355
 20
9.6828342337
 30
0.0
 10
14.6658128865
 20
9.6859966318
 30
0.0
 10
14.6669512534
 20
9.6896081699
 30
0.0
 10
14.6680521222
 20
9.693624678
 30
0.0
 10
14.6690909403
 20
9.6980020713
 30
0.0
 10
14.6703937668
 20
9.704413953
 30
0.0
 10
14.671710972
 20
9.7130188925
 30
0.0
 10
14.6726998807
 20
9.7238455377
 30
0.0
 10
14.6729292809
 20
9.7312765626
 30
0.0
 10
14.6729293552
 20
9.7350445018
 30
0.0
  0
SPLINE
  5
297
100
AcDbEntity
  8
0
100
AcDbSpline
 62
9
  6
CONTINUOUS
 70
0
 71
3
 72
18
 73
14
 74
0
 42
0.0000001
 43
0.0000001
 44
0.0000000001
 40
0.0
 40
0.0
 40
0.0
 40
0.0
 40
0.1248044163
 40
0.1871137723
 40
0.2492504764
 40
0.3112917511
 40
0.3732869374
 40
0.4973128514
 40
0.5595886412
 40
0.6220346772
 40
0.747352301
 40
0.8735177044
 40
1.0
 40
1.0
 40
1.0
 40
1.0
 10
14.9783549933
 20
9.6750445021
 30
0.0
 10
14.982084993
 20
9.6750449149
 30
0.0
 10
14.9877031769
 20
9.6756970106
 30
0.0
 10
14.994864165
 20
9.6777860245
 30
0.0
 10
15.0000204737
 20
9.6799331903
 30
0.0
 10
15.0049071353
 20
9.6826165011
 30
0.0
 10
15.0110024106
 20
9.686855735
 30
0.0
 10
15.0164193655
 20
9.6920121647
 30
0.0
 10
15.0210152856
 20
9.6978661877
 30
0.0
 10
15.0250664255
 20
9.7041573237
 30
0.0
 10
15.0290320193
 20
9.7127224185
 30
0.0
 10
15.0319174152
 20
9.7236978618
 30
0.0
 10
15.0325715873
 20
9.7312643558
 30
0.0
 10
15.0325718608
 20
9.7350445019
 30
0.0
  0
SPLINE
  5
298
100
AcDbEntity
  8
0
100
AcDbSpline
 62
9
  6
CONTINUOUS
 70
0
 71
3
 72
15
 73
11
 74
0
 42
0.0000001
 43
0.0000001
 44
0.0000000001
 40
0.0
 40
0.0
 40
0.0
 40
0.0
 40
0.1172401627
 40
0.2411702941
 40
0.3702590955
 40
0.5016748302
 40
0.6328050283
 40
0.7611204831
 40
0.8839571518
 40
1.0
 40
1.0
 40
1.0
 40
1.0
 10
14.6593973339
 20
9.6750445021
 30
0.0
 10
14.6593973335
 20
9.6768733204
 30
0.0
 10
14.6590511481
 20
9.6806429889
 30
0.0
 10
14.657469673
 20
9.6862346709
 30
0.0
 10
14.6546979469
 20
9.6915973025
 30
0.0
 10
14.65086336
 20
9.6964089822
 30
0.0
 10
14.6461026342
 20
9.7002879799
 30
0.0
 10
14.6407942603
 20
9.7030928776
 30
0.0
 10
14.6352568656
 20
9.7046940119
 30
0.0
 10
14.6315226757
 20
9.7050444909
 30
0.0
 10
14.6297125343
 20
9.7050444988
 30
0.0
  0
SPLINE
  5
299
100
AcDbEntity
  8
0
100
AcDbSpline
 62
9
  6
CONTINUOUS
 70
0
 71
3
 72
16
 73
12
 74
0
 42
0.0000001
 43
0.0000001
 44
0.0000000001
 40
0.0
 40
0.0
 40
0.0
 40
0.0
 40
0.1285521515
 40
0.2567920026
 40
0.3205586252
 40
0.3840043535
 40
0.5097386399
 40
0.6340054238
 40
0.7568852433
 40
0.8788421758
 40
1.0
 40
1.0
 40
1.0
 40
1.0
 10
14.6729293552
 20
10.1130445021
 30
0.0
 10
14.6729293552
 20
10.1150021542
 30
0.0
 10
14.67329411
 20
10.1189213008
 30
0.0
 10
14.6746366805
 20
10.1236453153
 30
0.0
 10
14.676221621
 20
10.1272037472
 30
0.0
 10
14.678115283
 20
10.1305637548
 30
0.0
 10
14.6810511021
 20
10.1343683977
 30
0.0
 10
14.6853522967
 20
10.1381308989
 30
0.0
 10
14.6902717031
 20
10.1409314603
 30
0.0
 10
14.6956124211
 20
10.1426527291
 30
0.0
 10
14.6993256928
 20
10.1430445021
 30
0.0
 10
14.7011707406
 20
10.1430445021
 30
0.0
  0
SPLINE
  5
29A
100
AcDbEntity
  8
0
100
AcDbSpline
 62
9
  6
CONTINUOUS
 70
0
 71
3
 72
19
 73
15
 74
0
 42
0.0000001
 43
0.0000001
 44
0.0000000001
 40
0.0
 40
0.0
 40
0.0
 40
0.0
 40
0.1748776765
 40
0.344148176
 40
0.5016390031
 40
0.6425895236
 40
0.7056594193
 40
0.7632480575
 40
0.8151424909
 40
0.861358898
 40
0.9021206954
 40
0.9380083394
 40
0.9701003834
 40
1.0
 40
1.0
 40
1.0
 40
1.0
 10
14.8428128247
 20
10.1130445021
 30
0.0
 10
14.8428128247
 20
10.1149948391
 30
0.0
 10
14.8429391972
 20
10.1188341571
 30
0.0
 10
14.8434974976
 20
10.1244053902
 30
0.0
 10
14.84440581
 20
10.1295471237
 30
0.0
 10
14.8454581647
 20
10.1334474853
 30
0.0
 10
14.8464682194
 20
10.1361866532
 30
0.0
 10
14.8472587984
 20
10.1379432453
 30
0.0
 10
14.8481040375
 20
10.1394629691
 30
0.0
 10
14.8489960241
 20
10.1407334118
 30
0.0
 10
14.8499295796
 20
10.14174365
 30
0.0
 10
14.8509018073
 20
10.1424818708
 30
0.0
 10
14.8519051573
 20
10.1429382183
 30
0.0
 10
14.8525998488
 20
10.1430445021
 30
0.0
 10
14.8529333066
 20
10.1430445021
 30
0.0
  0
SPLINE
  5
29B
100
AcDbEntity
  8
0
100
AcDbSpline
 62
9
  6
CONTINUOUS
 70
0
 71
3
 72
15
 73
11
 74
0
 42
0.0000001
 43
0.0000001
 44
0.0000000001
 40
0.0
 40
0.0
 40
0.0
 40
0.0
 40
0.154679741
 40
0.3058848665
 40
0.4497791175
 40
0.5843878446
 40
0.7079786419
 40
0.8193404087
 40
0.9171029514
 40
1.0
 40
1.0
 40
1.0
 40
1.0
 10
14.6446879699
 20
9.7350445021
 30
0.0
 10
14.6446878208
 20
9.7334278426
 30
0.0
 10
14.6444955331
 20
9.7302282382
 30
0.0
 10
14.6436950456
 20
9.7255866799
 30
0.0
 10
14.6424472387
 20
9.7212634044
 30
0.0
 10
14.6408787061
 20
9.7173572727
 30
0.0
 10
14.6390957381
 20
9.713924244
 30
0.0
 10
14.6372030658
 20
9.7110003375
 30
0.0
 10
14.6352960602
 20
9.7086111731
 30
0.0
 10
14.6339439758
 20
9.7072818446
 30
0.0
 10
14.6332738858
 20
9.7067326195
 30
0.0
  0
SPLINE
  5
29C
100
AcDbEntity
  8
0
100
AcDbSpline
 62
9
  6
CONTINUOUS
 70
0
 71
3
 72
11
 73
7
 74
0
 42
0.0000001
 43
0.0000001
 44
0.0000000001
 40
0.0
 40
0.0
 40
0.0
 40
0.0
 40
0.3042709216
 40
0.5710202035
 40
0.8014839346
 40
1.0
 40
1.0
 40
1.0
 40
1.0
 10
14.6332738858
 20
9.7067326195
 30
0.0
 10
14.6329591891
 20
9.706474685
 30
0.0
 10
14.6323469599
 20
9.706015767
 30
0.0
 10
14.6314173641
 20
9.7054757731
 30
0.0
 10
14.6305467856
 20
9.705135677
 30
0.0
 10
14.629972705
 20
9.7050445523
 30
0.0
 10
14.6297072332
 20
9.7050445021
 30
0.0
  0
SPLINE
  5
29D
100
AcDbEntity
  8
0
100
AcDbSpline
 62
9
  6
CONTINUOUS
 70
0
 71
3
 72
23
 73
19
 74
0
 42
0.0000001
 43
0.0000001
 44
0.0000000001
 40
0.0
 40
0.0
 40
0.0
 40
0.0
 40
0.1769303359
 40
0.35771564
 40
0.4464308114
 40
0.5321460898
 40
0.6133647422
 40
0.6885997884
 40
0.7565342292
 40
0.8164814737
 40
0.8679295669
 40
0.9104120272
 40
0.9437475148
 40
0.9686785214
 40
0.9784092223
 40
0.9866191753
 40
0.9936575154
 40
1.0
 40
1.0
 40
1.0
 40
1.0
 10
6.9783549933
 20
9.6750445021
 30
0.0
 10
6.9783549933
 20
9.676865912
 30
0.0
 10
6.9784038642
 20
9.680548551
 30
0.0
 10
6.9785895808
 20
9.6851413503
 30
0.0
 10
6.9788299324
 20
9.6887903862
 30
0.0
 10
6.9790503285
 20
9.6914130835
 30
0.0
 10
6.9793091702
 20
9.6938928089
 30
0.0
 10
6.9796035691
 20
9.696184222
 30
0.0
 10
6.9799323843
 20
9.6982495537
 30
0.0
 10
6.9802876747
 20
9.7000616907
 30
0.0
 10
6.9806618517
 20
9.7016015073
 30
0.0
 10
6.9810470409
 20
9.7028552841
 30
0.0
 10
6.9814407375
 20
9.703816094
 30
0.0
 10
6.9817944489
 20
9.7044260663
 30
0.0
 10
6.9820862652
 20
9.7047591427
 30
0.0
 10
6.9822870436
 20
9.7049224016
 30
0.0
 10
6.9824885949
 20
9.7050215612
 30
0.0
 10
6.98262705
 20
9.7050444999
 30
0.0
 10
6.9826923427
 20
9.7050445021
 30
0.0
  0
SPLINE
  5
29E
100
AcDbEntity
  8
0
100
AcDbSpline
 62
9
  6
CONTINUOUS
 70
0
 71
3
 72
22
 73
18
 74
0
 42
0.0000001
 43
0.0000001
 44
0.0000000001
 40
0.0
 40
0.0
 40
0.0
 40
0.0
 40
0.0069707337
 40
0.0146864219
 40
0.0236844021
 40
0.0342973627
 40
0.0610342769
 40
0.0956835419
 40
0.1383107955
 40
0.1887088036
 40
0.246571378
 40
0.311418253
 40
0.3826422207
 40
0.4596169647
 40
0.628025164
 40
0.8106307576
 40
1.0
 40
1.0
 40
1.0
 40
1.0
 10
6.8926878169
 20
9.7050445021
 30
0.0
 10
6.8927595774
 20
9.7050445021
 30
0.0
 10
6.8929116387
 20
9.7050168397
 30
0.0
 10
6.893128811
 20
9.7048999573
 30
0.0
 10
6.8933410975
 20
9.7047127115
 30
0.0
 10
6.8936431453
 20
9.7043414417
 30
0.0
 10
6.8940002372
 20
9.7036864513
 30
0.0
 10
6.8943904272
 20
9.7026882796
 30
0.0
 10
6.8947668558
 20
9.7014276619
 30
0.0
 10
6.8951257472
 20
9.6999158443
 30
0.0
 10
6.895462457
 20
9.6981654161
 30
0.0
 10
6.8957737487
 20
9.6961930896
 30
0.0
 10
6.8960567048
 20
9.6940179733
 30
0.0
 10
6.8964018243
 20
9.6907767366
 30
0.0
 10
6.8967332798
 20
9.6863821644
 30
0.0
 10
6.8969716859
 20
9.6808235303
 30
0.0
 10
6.8970256025
 20
9.6769939738
 30
0.0
 10
6.8970256025
 20
9.6750445021
 30
0.0
  0
SPLINE
  5
29F
100
AcDbEntity
  8
0
100
AcDbSpline
 62
9
  6
CONTINUOUS
 70
0
 71
3
 72
22
 73
18
 74
0
 42
0.0000001
 43
0.0000001
 44
0.0000000001
 40
0.0
 40
0.0
 40
0.0
 40
0.0
 40
0.0625569579
 40
0.125007788
 40
0.1872560764
 40
0.2493770209
 40
0.3732297415
 40
0.4972236934
 40
0.5594591638
 40
0.6218295518
 40
0.6844275191
 40
0.747273256
 40
0.8102598076
 40
0.8418004476
 40
0.8733816119
 40
0.9366752146
 40
1.0
 40
1.0
 40
1.0
 40
1.0
 10
6.897029692
 20
9.6750445021
 30
0.0
 10
6.8951595727
 20
9.6750630828
 30
0.0
 10
6.8914214192
 20
9.6752890988
 30
0.0
 10
6.8858896878
 20
9.6762188385
 30
0.0
 10
6.8805129348
 20
9.6777784243
 30
0.0
 10
6.8736538807
 20
9.6806443998
 30
0.0
 10
6.8657235956
 20
9.6855780113
 30
0.0
 10
6.8589611138
 20
9.692012143
 30
0.0
 10
6.8543670296
 20
9.6978661637
 30
0.0
 10
6.8513392578
 20
9.7025831858
 30
0.0
 10
6.8487415953
 20
9.7075690688
 30
0.0
 10
6.8465762897
 20
9.7127772498
 30
0.0
 10
6.8451729288
 20
9.7172762021
 30
0.0
 10
6.8443203789
 20
9.7209500787
 30
0.0
 10
6.8436438772
 20
9.7246696552
 30
0.0
 10
6.8430896019
 20
9.7293712902
 30
0.0
 10
6.8428791904
 20
9.7331524988
 30
0.0
 10
6.8428128247
 20
9.7350445019
 30
0.0
  0
SPLINE
  5
2A0
100
AcDbEntity
  8
0
100
AcDbSpline
 62
9
  6
CONTINUOUS
 70
0
 71
3
 72
19
 73
15
 74
0
 42
0.0000001
 43
0.0000001
 44
0.0000000001
 40
0.0
 40
0.0
 40
0.0
 40
0.0
 40
0.1748776765
 40
0.344148176
 40
0.5016390031
 40
0.6425895236
 40
0.7056594193
 40
0.7632480575
 40
0.8151424909
 40
0.861358898
 40
0.9021206954
 40
0.9380083394
 40
0.9701003834
 40
1.0
 40
1.0
 40
1.0
 40
1.0
 10
6.8428128247
 20
10.1130445021
 30
0.0
 10
6.8428128247
 20
10.1149948391
 30
0.0
 10
6.8429391972
 20
10.1188341571
 30
0.0
 10
6.8434974976
 20
10.1244053902
 30
0.0
 10
6.84440581
 20
10.1295471237
 30
0.0
 10
6.8454581647
 20
10.1334474853
 30
0.0
 10
6.8464682194
 20
10.1361866532
 30
0.0
 10
6.8472587984
 20
10.1379432453
 30
0.0
 10
6.8481040375
 20
10.1394629691
 30
0.0
 10
6.8489960241
 20
10.1407334118
 30
0.0
 10
6.8499295796
 20
10.14174365
 30
0.0
 10
6.8509018073
 20
10.1424818708
 30
0.0
 10
6.8519051573
 20
10.1429382183
 30
0.0
 10
6.8525998488
 20
10.1430445021
 30
0.0
 10
6.8529333066
 20
10.1430445021
 30
0.0
  0
SPLINE
  5
2A1
100
AcDbEntity
  8
0
100
AcDbSpline
 62
9
  6
CONTINUOUS
 70
0
 71
3
 72
16
 73
12
 74
0
 42
0.0000001
 43
0.0000001
 44
0.0000000001
 40
0.0
 40
0.0
 40
0.0
 40
0.0
 40
0.1285521515
 40
0.2567920026
 40
0.3205586252
 40
0.3840043535
 40
0.5097386399
 40
0.6340054238
 40
0.7568852433
 40
0.8788421758
 40
1.0
 40
1.0
 40
1.0
 40
1.0
 10
6.6729293552
 20
10.1130445021
 30
0.0
 10
6.6729293552
 20
10.1150021542
 30
0.0
 10
6.67329411
 20
10.1189213008
 30
0.0
 10
6.6746366805
 20
10.1236453153
 30
0.0
 10
6.676221621
 20
10.1272037472
 30
0.0
 10
6.678115283
 20
10.1305637548
 30
0.0
 10
6.6810511021
 20
10.1343683977
 30
0.0
 10
6.6853522967
 20
10.1381308989
 30
0.0
 10
6.6902717031
 20
10.1409314603
 30
0.0
 10
6.6956124211
 20
10.1426527291
 30
0.0
 10
6.6993256928
 20
10.1430445021
 30
0.0
 10
6.7011707406
 20
10.1430445021
 30
0.0
  0
SPLINE
  5
2A2
100
AcDbEntity
  8
0
100
AcDbSpline
 62
9
  6
CONTINUOUS
 70
0
 71
3
 72
15
 73
11
 74
0
 42
0.0000001
 43
0.0000001
 44
0.0000000001
 40
0.0
 40
0.0
 40
0.0
 40
0.0
 40
0.1172401598
 40
0.2411702888
 40
0.3702590887
 40
0.5016748229
 40
0.6328050215
 40
0.7611204779
 40
0.8839571489
 40
1.0
 40
1.0
 40
1.0
 40
1.0
 10
6.6593973339
 20
9.6750445021
 30
0.0
 10
6.6593973335
 20
9.6768733203
 30
0.0
 10
6.6590511481
 20
9.6806429888
 30
0.0
 10
6.6574696731
 20
9.6862346707
 30
0.0
 10
6.6546979471
 20
9.6915973022
 30
0.0
 10
6.6508633602
 20
9.696408982
 30
0.0
 10
6.6461026344
 20
9.7002879797
 30
0.0
 10
6.6407942605
 20
9.7030928776
 30
0.0
 10
6.6352568658
 20
9.7046940119
 30
0.0
 10
6.6315226757
 20
9.7050444909
 30
0.0
 10
6.6297125343
 20
9.7050444988
 30
0.0
  0
SPLINE
  5
2A3
100
AcDbEntity
  8
0
100
AcDbSpline
 62
9
  6
CONTINUOUS
 70
0
 71
3
 72
15
 73
11
 74
0
 42
0.0000001
 43
0.0000001
 44
0.0000000001
 40
0.0
 40
0.0
 40
0.0
 40
0.0
 40
0.1546797501
 40
0.3058848836
 40
0.4497791405
 40
0.5843878716
 40
0.70797867
 40
0.81934043
 40
0.9171029575
 40
1.0
 40
1.0
 40
1.0
 40
1.0
 10
6.6446879699
 20
9.7350445021
 30
0.0
 10
6.6446878208
 20
9.7334278424
 30
0.0
 10
6.6444955331
 20
9.7302282375
 30
0.0
 10
6.6436950453
 20
9.7255866786
 30
0.0
 10
6.6424472382
 20
9.7212634026
 30
0.0
 10
6.6408787051
 20
9.7173572706
 30
0.0
 10
6.6390957366
 20
9.7139242418
 30
0.0
 10
6.6372030642
 20
9.7110003352
 30
0.0
 10
6.6352960588
 20
9.7086111707
 30
0.0
 10
6.6339439741
 20
9.7072818425
 30
0.0
 10
6.6332738838
 20
9.7067326177
 30
0.0
  0
SPLINE
  5
2A4
100
AcDbEntity
  8
0
100
AcDbSpline
 62
9
  6
CONTINUOUS
 70
0
 71
3
 72
11
 73
7
 74
0
 42
0.0000001
 43
0.0000001
 44
0.0000000001
 40
0.0
 40
0.0
 40
0.0
 40
0.0
 40
0.304270902
 40
0.5710202351
 40
0.8014840087
 40
1.0
 40
1.0
 40
1.0
 40
1.0
 10
6.6332738838
 20
9.7067326177
 30
0.0
 10
6.6329591871
 20
9.7064746834
 30
0.0
 10
6.6323469577
 20
9.7060157658
 30
0.0
 10
6.6314173616
 20
9.7054757727
 30
0.0
 10
6.6305467831
 20
9.7051356771
 30
0.0
 10
6.6299727027
 20
9.7050445524
 30
0.0
 10
6.629707231
 20
9.7050445021
 30
0.0
  0
SPLINE
  5
2A5
100
AcDbEntity
  8
0
100
AcDbSpline
 62
9
  6
CONTINUOUS
 70
0
 71
3
 72
19
 73
15
 74
0
 42
0.0000001
 43
0.0000001
 44
0.0000000001
 40
0.0
 40
0.0
 40
0.0
 40
0.0
 40
0.1748776765
 40
0.344148176
 40
0.5016390031
 40
0.6425895236
 40
0.7056594193
 40
0.7632480575
 40
0.815142491
 40
0.861358898
 40
0.9021206954
 40
0.9380083394
 40
0.9701003834
 40
1.0
 40
1.0
 40
1.0
 40
1.0
 10
7.0325718608
 20
10.1130445021
 30
0.0
 10
7.0325718608
 20
10.1149948391
 30
0.0
 10
7.0324454883
 20
10.1188341571
 30
0.0
 10
7.0318871879
 20
10.1244053902
 30
0.0
 10
7.0309788755
 20
10.1295471237
 30
0.0
 10
7.0299265208
 20
10.1334474853
 30
0.0
 10
7.028916466
 20
10.1361866532
 30
0.0
 10
7.0281258871
 20
10.1379432453
 30
0.0
 10
7.027280648
 20
10.1394629691
 30
0.0
 10
7.0263886613
 20
10.1407334118
 30
0.0
 10
7.0254551059
 20
10.14174365
 30
0.0
 10
7.0244828782
 20
10.1424818708
 30
0.0
 10
7.0234795282
 20
10.1429382183
 30
0.0
 10
7.0227848367
 20
10.1430445021
 30
0.0
 10
7.0224513789
 20
10.1430445021
 30
0.0
  0
SPLINE
  5
2A6
100
AcDbEntity
  8
0
100
AcDbSpline
 62
9
  6
CONTINUOUS
 70
0
 71
3
 72
16
 73
12
 74
0
 42
0.0000001
 43
0.0000001
 44
0.0000000001
 40
0.0
 40
0.0
 40
0.0
 40
0.0
 40
0.1285521515
 40
0.2567920026
 40
0.3205586252
 40
0.3840043535
 40
0.5097386399
 40
0.6340054238
 40
0.7568852432
 40
0.8788421758
 40
1.0
 40
1.0
 40
1.0
 40
1.0
 10
7.2024553302
 20
10.1130445021
 30
0.0
 10
7.2024553302
 20
10.1150021542
 30
0.0
 10
7.2020905755
 20
10.1189213008
 30
0.0
 10
7.2007480049
 20
10.1236453153
 30
0.0
 10
7.1991630645
 20
10.1272037472
 30
0.0
 10
7.1972694025
 20
10.1305637548
 30
0.0
 10
7.1943335834
 20
10.1343683977
 30
0.0
 10
7.1900323888
 20
10.1381308989
 30
0.0
 10
7.1851129824
 20
10.1409314603
 30
0.0
 10
7.1797722644
 20
10.1426527291
 30
0.0
 10
7.1760589927
 20
10.1430445021
 30
0.0
 10
7.1742139449
 20
10.1430445021
 30
0.0
  0
SPLINE
  5
2A7
100
AcDbEntity
  8
0
100
AcDbSpline
 62
9
  6
CONTINUOUS
 70
0
 71
3
 72
24
 73
20
 74
0
 42
0.0000001
 43
0.0000001
 44
0.0000000001
 40
0.0
 40
0.0
 40
0.0
 40
0.0
 40
0.006878866
 40
0.0150399399
 40
0.0249496703
 40
0.036839365
 40
0.050816355
 40
0.0669154819
 40
0.0851129999
 40
0.1053609972
 40
0.1517563445
 40
0.2055466694
 40
0.266062498
 40
0.3325981177
 40
0.4044526113
 40
0.4809396302
 40
0.6451108976
 40
0.820003145
 40
1.0
 40
1.0
 40
1.0
 40
1.0
 10
6.659397335
 20
9.6750445021
 30
0.0
 10
6.6595413327
 20
9.6750446017
 30
0.0
 10
6.6598567197
 20
9.6751133145
 30
0.0
 10
6.6603144654
 20
9.6753740436
 30
0.0
 10
6.6607909443
 20
9.6757859998
 30
0.0
 10
6.6612877342
 20
9.6763484483
 30
0.0
 10
6.6618046368
 20
9.6770599542
 30
0.0
 10
6.6623393538
 20
9.6779181708
 30
0.0
 10
6.6628894671
 20
9.6789192312
 30
0.0
 10
6.6636754185
 20
9.680512365
 30
0.0
 10
6.6646625355
 20
9.6828342336
 30
0.0
 10
6.6658128865
 20
9.6859966318
 30
0.0
 10
6.6669512534
 20
9.6896081699
 30
0.0
 10
6.6680521222
 20
9.693624678
 30
0.0
 10
6.6690909403
 20
9.6980020713
 30
0.0
 10
6.6703937668
 20
9.704413953
 30
0.0
 10
6.671710972
 20
9.7130188925
 30
0.0
 10
6.6726998806
 20
9.7238455377
 30
0.0
 10
6.6729292809
 20
9.7312765626
 30
0.0
 10
6.6729293552
 20
9.7350445018
 30
0.0
  0
SPLINE
  5
2A8
100
AcDbEntity
  8
0
100
AcDbSpline
 62
9
  6
CONTINUOUS
 70
0
 71
3
 72
15
 73
11
 74
0
 42
0.0000001
 43
0.0000001
 44
0.0000000001
 40
0.0
 40
0.0
 40
0.0
 40
0.0
 40
0.1242523573
 40
0.2488307051
 40
0.3734451508
 40
0.4983079841
 40
0.6234277217
 40
0.7487756002
 40
0.8744536328
 40
1.0
 40
1.0
 40
1.0
 40
1.0
 10
7.2456715596
 20
9.7050445021
 30
0.0
 10
7.2437331993
 20
9.7050445021
 30
0.0
 10
7.2398408811
 20
9.7046545357
 30
0.0
 10
7.2342353116
 20
9.7029393892
 30
0.0
 10
7.229067563
 20
9.7001462457
 30
0.0
 10
7.2245433817
 20
9.6963883863
 30
0.0
 10
7.2208273903
 20
9.6918153107
 30
0.0
 10
7.2180666428
 20
9.6865940939
 30
0.0
 10
7.2163719694
 20
9.6809324013
 30
0.0
 10
7.2159868158
 20
9.6770030492
 30
0.0
 10
7.2159868158
 20
9.6750445021
 30
0.0
  0
SPLINE
  5
2A9
100
AcDbEntity
  8
0
100
AcDbSpline
 62
9
  6
CONTINUOUS
 70
0
 71
3
 72
25
 73
21
 74
0
 42
0.0000001
 43
0.0000001
 44
0.0000000001
 40
0.0
 40
0.0
 40
0.0
 40
0.0
 40
0.0149160731
 40
0.0247983543
 40
0.0366458643
 40
0.0505972609
 40
0.0666930578
 40
0.1051621273
 40
0.1516007644
 40
0.2054050499
 40
0.2659266905
 40
0.3324811073
 40
0.4043475735
 40
0.4808167379
 40
0.5612361799
 40
0.6449673854
 40
0.7313811397
 40
0.8198625992
 40
0.9096839413
 40
1.0
 40
1.0
 40
1.0
 40
1.0
 10
7.2159873505
 20
9.6750445021
 30
0.0
 10
7.2156752583
 20
9.6750524649
 30
0.0
 10
7.2151724365
 20
9.6752904907
 30
0.0
 10
7.2145949013
 20
9.6757886691
 30
0.0
 10
7.2140952391
 20
9.6763485367
 30
0.0
 10
7.2135789687
 20
9.6770577521
 30
0.0
 10
7.2128202421
 20
9.6782760352
 30
0.0
 10
7.2118588234
 20
9.6801623016
 30
0.0
 10
7.2107222118
 20
9.6828352909
 30
0.0
 10
7.2095712298
 20
9.6859985839
 30
0.0
 10
7.2084321222
 20
9.6896100074
 30
0.0
 10
7.2073310085
 20
9.6936265945
 30
0.0
 10
7.206292675
 20
9.6980036292
 30
0.0
 10
7.2053420292
 20
9.7026969888
 30
0.0
 10
7.2044949898
 20
9.7076621929
 30
0.0
 10
7.2037676324
 20
9.712856622
 30
0.0
 10
7.2031866756
 20
9.718239474
 30
0.0
 10
7.2027869673
 20
9.7237666366
 30
0.0
 10
7.2025509051
 20
9.7293844971
 30
0.0
 10
7.2024769367
 20
9.7331543083
 30
0.0
 10
7.2024553303
 20
9.7350445018
 30
0.0
  0
SPLINE
  5
2AA
100
AcDbEntity
  8
0
100
AcDbSpline
 62
9
  6
CONTINUOUS
 70
0
 71
3
 72
18
 73
14
 74
0
 42
0.0000001
 43
0.0000001
 44
0.0000000001
 40
0.0
 40
0.0
 40
0.0
 40
0.0
 40
0.0265989818
 40
0.0578441542
 40
0.0947782134
 40
0.1375159459
 40
0.185893034
 40
0.2396569033
 40
0.3620576725
 40
0.5023141266
 40
0.6579015519
 40
0.825490713
 40
1.0
 40
1.0
 40
1.0
 40
1.0
 10
7.2456723253
 20
9.7050445021
 30
0.0
 10
7.2453588485
 20
9.7050445721
 30
0.0
 10
7.2446765694
 20
9.7051679339
 30
0.0
 10
7.2436519879
 20
9.7056276327
 30
0.0
 10
7.2425563322
 20
9.7063481722
 30
0.0
 10
7.2414007166
 20
9.7073227913
 30
0.0
 10
7.2402017336
 20
9.7085412976
 30
0.0
 10
7.238495938
 20
9.7105671666
 30
0.0
 10
7.2364004874
 20
9.7136655047
 30
0.0
 10
7.2341446599
 20
9.718060843
 30
0.0
 10
7.2322642741
 20
9.7232050055
 30
0.0
 10
7.2309944187
 20
9.7289496714
 30
0.0
 10
7.2306968048
 20
9.7329878592
 30
0.0
 10
7.2306967156
 20
9.7350445021
 30
0.0
  0
SPLINE
  5
2AB
100
AcDbEntity
  8
0
100
AcDbSpline
 62
9
  6
CONTINUOUS
 70
0
 71
3
 72
18
 73
14
 74
0
 42
0.0000001
 43
0.0000001
 44
0.0000000001
 40
0.0
 40
0.0
 40
0.0
 40
0.0
 40
0.1248044163
 40
0.1871137723
 40
0.2492504764
 40
0.3112917511
 40
0.3732869374
 40
0.4973128514
 40
0.5595886412
 40
0.6220346772
 40
0.747352301
 40
0.8735177044
 40
1.0
 40
1.0
 40
1.0
 40
1.0
 10
6.9783549933
 20
9.6750445021
 30
0.0
 10
6.982084993
 20
9.6750449149
 30
0.0
 10
6.9877031769
 20
9.6756970106
 30
0.0
 10
6.994864165
 20
9.6777860245
 30
0.0
 10
7.0000204737
 20
9.6799331903
 30
0.0
 10
7.0049071353
 20
9.6826165011
 30
0.0
 10
7.0110024106
 20
9.686855735
 30
0.0
 10
7.0164193655
 20
9.6920121647
 30
0.0
 10
7.0210152856
 20
9.6978661877
 30
0.0
 10
7.0250664255
 20
9.7041573237
 30
0.0
 10
7.0290320193
 20
9.7127224185
 30
0.0
 10
7.0319174152
 20
9.7236978618
 30
0.0
 10
7.0325715873
 20
9.7312643558
 30
0.0
 10
7.0325718608
 20
9.7350445019
 30
0.0
  0
ENDSEC
  0
SECTION
  2
OBJECTS
  0
DICTIONARY
  5
C
100
AcDbDictionary
280
0
281
1
  3
ACAD_GROUP
350
D
  3
ACAD_MLINESTYLE
350
17
  3
ACAD_LAYOUT
350
1A
  3
ACAD_PLOTSETTINGS
350
19
  3
ACAD_PLOTSTYLENAME
350
E
  0
DICTIONARY
  5
D
102
{ACAD_REACTORS
330
C
102
}
100
AcDbDictionary
280
0
281
1
  0
ACDBDICTIONARYWDFLT
  5
E
102
{ACAD_REACTORS
330
C
102
}
100
AcDbDictionary
281
1
  3
Normal
350
F
100
AcDbDictionaryWithDefault
340
F
  0
DICTIONARY
  5
17
102
{ACAD_REACTORS
330
C
102
}
100
AcDbDictionary
280
0
281
1
  3
Standard
350
18
  0
DICTIONARY
  5
19
102
{ACAD_REACTORS
330
C
102
}
100
AcDbDictionary
281
1
  0
DICTIONARY
  5
1A
102
{ACAD_REACTORS
330
C
102
}
100
AcDbDictionary
281
1
  3
Model
350
2AC
  3
Layout1
350
2AD
  0
ACDBPLACEHOLDER
  5
F
102
{ACAD_REACTORS
330
E
102
}
  0
MLINESTYLE
  5
18
102
{ACAD_REACTORS
330
17
102
}
100
AcDbMlineStyle
  2
STANDARD
 70
0
  3

 62
256
 51
90.0
 52
90.0
 71
2
 49
0.5
 62
256
  6
BYLAYER
 49
-0.5
 62
256
  6
BYLAYER
  0
LAYOUT
  5
2AC
102
{ACAD_REACTORS
330
1A
102
}
100
AcDbPlotSettings
  1

  2
none_device
  4
ANSI_C_(22.00_x_17.00_Inches)
  6

 40
0.0
 41
0.0
 42
0.0
 43
0.0
 44
558.8
 45
431.8
 46
0.0
 47
0.0
 48
0.0
 49
0.0
140
0.0
141
0.0
142
1.0
143
1.0
 70
1024
 72
0
 73
0
 74
0
  7

 75
0
147
1.0
148
0.0
149
0.0
100
AcDbLayout
  1
Model
 70
0
 71
0
 10
0.0
 20
0.0
 11
22.0
 21
17.0
 12
0.0
 22
0.0
 32
0.0
 14
0.0
 24
0.0
 34
0.0
 15
0.0
 25
0.0
 35
0.0
146
0.0
 13
0.0
 23
0.0
 33
0.0
 16
1.0
 26
0.0
 36
0.0
 17
0.0
 27
1.0
 37
0.0
 76
0
330
202
345
0
346
0
  0
LAYOUT
  5
2AD
102
{ACAD_REACTORS
330
1A
102
}
100
AcDbPlotSettings
  1

  2
none_device
  4
ANSI_C_(22.00_x_17.00_Inches)
  6

 40
0.0
 41
0.0
 42
0.0
 43
0.0
 44
558.8
 45
431.8
 46
0.0
 47
0.0
 48
0.0
 49
0.0
140
0.0
141
0.0
142
1.0
143
1.0
 70
0
 72
0
 73
0
 74
0
  7

 75
0
147
1.0
148
0.0
149
0.0
100
AcDbLayout
  1
Layout1
 70
0
 71
1
 10
0.0
 20
0.0
 11
22.0
 21
17.0
 12
0.0
 22
0.0
 32
0.0
 14
0.0
 24
0.0
 34
0.0
 15
0.0
 25
0.0
 35
0.0
146
0.0
 13
0.0
 23
0.0
 33
0.0
 16
1.0
 26
0.0
 36
0.0
 17
0.0
 27
1.0
 37
0.0
 76
0
330
203
345
0
346
0
  0
ENDSEC
  0
EOF
