999
DXF file: 3380_FRONT.dxf
999
Pro/ENGINEER 2019352 by Parametric Technology Corporation
  0
SECTION
  2
HEADER
  9
$ACADVER
  1
AC1032
  9
$DWGCODEPAGE
  3
ANSI_1252
  9
$EXTMAX
 10
11.0
 20
8.5
 30
0.0
  9
$EXTMIN
 10
0.0
 20
0.0
 30
0.0
  9
$LIMMIN
 10
0.0
 20
0.0
  9
$LIMMAX
 10
11.0
 20
8.5
  9
$VIEWCTR
 10
5.5
 20
4.25
  9
$VIEWSIZE
 40
8.5
  9
$CLAYER
  8
0
  9
$LTSCALE
 40
0.605
  9
$CELTYPE
  6
BYLAYER
  9
$DIMSCALE
 40
1.0
  9
$DIMASZ
 40
0.1
  9
$DIMEXO
 40
0.0625
  9
$DIMDLI
 40
0.418
  9
$DIMEXE
 40
0.125
  9
$DIMCEN
 40
0.099
  9
$DIMLFAC
 40
1.0
  9
$DIMBLK
  1
_FILLED
  9
$DIMALT
 70
1
  9
$DIMALTD
 70
2
  9
$DIMALTTD
 70
2
  9
$DIMALTF
 40
25.4
  9
$DIMTXT
 40
0.08
  9
$DIMTOL
 70
1
  9
$DIMLIM
 70
0
  9
$DIMTFAC
 40
1.0
  9
$DIMTP
 40
0.001
  9
$DIMTM
 40
0.001
  9
$DIMGAP
 40
0.09
  9
$DIMDSEP
 70
46
  9
$AUNITS
 70
0
  9
$PDMODE
 70
3
  9
$PDSIZE
 40
0.3125
  9
$HANDSEED
  5
283
  9
$TILEMODE
 70
1
  9
$MEASUREMENT
 70
0
  9
$INSUNITS
 70
1
  0
ENDSEC
  0
SECTION
  2
CLASSES
  0
CLASS
  1
ACDBDICTIONARYWDFLT
  2
AcDbDictionaryWithDefault
  3
AutoCAD 2000
 90
0
 91
1
280
0
281
0
  0
CLASS
  1
ACDBPLACEHOLDER
  2
AcDbPlaceHolder
  3
AutoCAD 2000
 90
0
 91
1
280
0
281
0
  0
CLASS
  1
LAYOUT
  2
AcDbLayout
  3
AutoCAD 2000
 90
0
 91
0
280
0
281
0
  0
ENDSEC
  0
SECTION
  2
TABLES
  0
TABLE
  2
VPORT
  5
8
100
AcDbSymbolTable
 70
2
  0
VPORT
  5
1F4
100
AcDbSymbolTableRecord
100
AcDbViewportTableRecord
  2
*ACTIVE
 70
0
 10
0.0
 20
0.0
 11
1.0
 21
1.0
 12
5.5
 22
4.25
 13
0.0
 23
0.0
 14
1.0
 24
1.0
 15
0.0
 25
0.0
 16
0.0
 26
0.0
 36
1.0
 17
0.0
 27
0.0
 37
0.0
 40
8.5
 41
1.2941176471
 42
50.0
 43
0.0
 44
0.0
 50
0.0
 51
0.0
 71
0
 72
100
 73
1
 74
1
 75
0
 76
0
 77
0
 78
0
  0
ENDTAB
  0
TABLE
  2
LTYPE
  5
5
100
AcDbSymbolTable
 70
6
  0
LTYPE
  5
14
100
AcDbSymbolTableRecord
100
AcDbLinetypeTableRecord
  2
BYBLOCK
 70
0
  3

 72
65
 73
0
 40
0.0
  0
LTYPE
  5
15
100
AcDbSymbolTableRecord
100
AcDbLinetypeTableRecord
  2
BYLAYER
 70
0
  3

 72
65
 73
0
 40
0.0
  0
LTYPE
  5
16
100
AcDbSymbolTableRecord
100
AcDbLinetypeTableRecord
  2
CONTINUOUS
 70
64
  3
Solid line
 72
65
 73
0
 40
0.0
  0
LTYPE
  5
1F5
100
AcDbSymbolTableRecord
100
AcDbLinetypeTableRecord
  2
CENTER
 70
64
  3
____ _ ____ _ ____ _ ____ _ ____ _ ____ _ ____
 72
65
 73
4
 40
0.6
 49
0.375
 74
0
 49
-0.075
 74
0
 49
0.075
 74
0
 49
-0.075
 74
0
  0
LTYPE
  5
1F6
100
AcDbSymbolTableRecord
100
AcDbLinetypeTableRecord
  2
HIDDEN
 70
64
  3
- - - - - - - - - - - - - - - - - - - -
 72
65
 73
2
 40
0.2
 49
0.1
 74
0
 49
-0.1
 74
0
  0
LTYPE
  5
1F7
100
AcDbSymbolTableRecord
100
AcDbLinetypeTableRecord
  2
PHANTOM
 70
64
  3
_____ _ _ _____ _ _ _____ _ _ _____
 72
65
 73
6
 40
0.8
 49
0.45
 74
0
 49
-0.05
 74
0
 49
0.1
 74
0
 49
-0.05
 74
0
 49
0.1
 74
0
 49
-0.05
 74
0
  0
LTYPE
  5
1F8
100
AcDbSymbolTableRecord
100
AcDbLinetypeTableRecord
  2
DOT
 70
64
  3
. . . . . . . . . . . . . . . . . . . .
 72
65
 73
2
 40
0.2
 49
0.1
 74
0
 49
-0.1
 74
0
  0
LTYPE
  5
1F9
100
AcDbSymbolTableRecord
100
AcDbLinetypeTableRecord
  2
DASHED
 70
64
  3
- - - - - - - - - - - - - - - - - - - -
 72
65
 73
2
 40
0.2
 49
0.1
 74
0
 49
-0.1
 74
0
  0
ENDTAB
  0
TABLE
  2
LAYER
  5
2
100
AcDbSymbolTable
 70
36
  0
LAYER
  5
10
100
AcDbSymbolTableRecord
100
AcDbLayerTableRecord
  2
0
 70
0
 62
7
  6
CONTINUOUS
370
-3
390
F
  0
LAYER
  5
1FA
100
AcDbSymbolTableRecord
100
AcDbLayerTableRecord
  2
DEFAULT_1
 70
0
 62
7
  6
CENTER
370
-3
390
F
  0
LAYER
  5
1FB
100
AcDbSymbolTableRecord
100
AcDbLayerTableRecord
  2
DEFAULT_2
 70
0
 62
8
  6
HIDDEN
370
-3
390
F
  0
LAYER
  5
1FC
100
AcDbSymbolTableRecord
100
AcDbLayerTableRecord
  2
DEFAULT_3
 70
0
 62
7
  6
PHANTOM
370
-3
390
F
  0
LAYER
  5
1FD
100
AcDbSymbolTableRecord
100
AcDbLayerTableRecord
  2
DEFAULT_COORDINATE_SYSTEM
 70
0
 62
7
  6
CONTINUOUS
370
-3
390
F
  0
LAYER
  5
1FE
100
AcDbSymbolTableRecord
100
AcDbLayerTableRecord
  2
DEFAULT_DATUM_AXES
 70
0
 62
7
  6
CONTINUOUS
370
-3
390
F
  0
LAYER
  5
1FF
100
AcDbSymbolTableRecord
100
AcDbLayerTableRecord
  2
DEFAULT_DATUM_PLANES
 70
0
 62
7
  6
CONTINUOUS
370
-3
390
F
  0
ENDTAB
  0
TABLE
  2
STYLE
  5
3
100
AcDbSymbolTable
 70
1
  0
STYLE
  5
11
100
AcDbSymbolTableRecord
100
AcDbTextStyleTableRecord
  2
STANDARD
 70
0
 40
0.0
 41
0.8
 50
0.0
 71
0
 42
0.2
  3
txt
  4

  0
STYLE
  5
200
100
AcDbSymbolTableRecord
100
AcDbTextStyleTableRecord
  2
TEXTSTYLE_1
 70
0
 40
0.0
 41
0.8
 50
0.0
 71
0
 42
0.2
  3
gdt
  4

  0
ENDTAB
  0
TABLE
  2
VIEW
  5
6
100
AcDbSymbolTable
 70
0
  0
ENDTAB
  0
TABLE
  2
UCS
  5
7
100
AcDbSymbolTable
 70
0
  0
ENDTAB
  0
TABLE
  2
APPID
  5
9
100
AcDbSymbolTable
 70
1
  0
APPID
  5
201
100
AcDbSymbolTableRecord
100
AcDbRegAppTableRecord
  2
ACAD
 70
0
  0
ENDTAB
  0
TABLE
  2
BLOCK_RECORD
  5
1
100
AcDbSymbolTable
 70
0
  0
BLOCK_RECORD
  5
202
100
AcDbSymbolTableRecord
100
AcDbBlockTableRecord
  2
*Model_Space
  0
BLOCK_RECORD
  5
203
100
AcDbSymbolTableRecord
100
AcDbBlockTableRecord
  2
*Paper_Space
  0
BLOCK_RECORD
  5
204
100
AcDbSymbolTableRecord
100
AcDbBlockTableRecord
  2
_FILLED
  0
ENDTAB
  0
TABLE
  2
DIMSTYLE
  5
A
100
AcDbSymbolTable
 70
1
100
AcDbDimStyleTable
 71
0
  0
DIMSTYLE
105
205
100
AcDbSymbolTableRecord
100
AcDbDimStyleTableRecord
  2
STANDARD
 70
0
  3

  4

 40
1.0
 41
0.1
 42
0.0625
 43
0.38
 44
0.125
 45
0.0
 46
0.0
 47
0.001
 48
0.001
140
0.08
141
0.09
142
0.0
143
25.4
144
1.0
145
0.0
146
1.0
147
0.09
 71
1.0
 72
0.0
 73
1
 74
1
 75
0
 76
0
 77
0
 78
4
 79
1
170
1
171
2
172
0
173
0
174
0
175
0
176
0
177
0
178
0
270
2
179
3
271
3
272
3
273
2
274
2
275
0
280
0
281
0
282
0
283
1
284
4
285
0
286
0
287
3
288
0
340
11
278
46
341
204
342
204
343
204
344
204
  0
ENDTAB
  0
ENDSEC
  0
SECTION
  2
BLOCKS
  0
BLOCK
  5
20
100
AcDbEntity
  8
0
100
AcDbBlockBegin
  2
*Model_Space
 70
0
 10
0.0
 20
0.0
 30
0.0
  3
*Model_Space
  1

  0
ENDBLK
  5
21
100
AcDbEntity
  8
0
100
AcDbBlockEnd
  0
BLOCK
  5
1C
100
AcDbEntity
  8
0
100
AcDbBlockBegin
  2
*Paper_Space
 70
0
 10
0.0
 20
0.0
 30
0.0
  3
*Paper_Space
  1

  0
ENDBLK
  5
1D
100
AcDbEntity
  8
0
100
AcDbBlockEnd
  0
BLOCK
  5
206
100
AcDbEntity
  8
0
100
AcDbBlockBegin
  2
_FILLED
 70
64
 10
0.0
 20
0.0
  3
_FILLED
  1

  0
SOLID
  5
207
100
AcDbEntity
  8
0
  6
BYBLOCK
 62
0
100
AcDbTrace
 10
0.0
 20
0.0
 11
-1.0
 21
0.2
 12
-1.0
 22
-0.2
 13
-1.0
 23
-0.2
  0
ENDBLK
  5
208
100
AcDbEntity
  8
0
  6
BYBLOCK
 62
0
100
AcDbBlockEnd
  0
ENDSEC
  0
SECTION
  2
ENTITIES
  0
MTEXT
  5
209
100
AcDbEntity
  8
0
100
AcDbMText
 62
2
  6
CONTINUOUS
  7
STANDARD
 71
3
 72
1
 10
5.9739937986
 20
2.3917998999
 30
0.0
 11
1.0
 21
0.0
 31
0.0
 73
2
 44
0.9
  1
SCALE 0.500
 40
0.08
 41
0.704
  0
LINE
  5
20A
100
AcDbEntity
  8
0
100
AcDbLine
 62
7
  6
CONTINUOUS
 10
0.0
 20
0.0
 11
0.0
 21
8.5
  0
LINE
  5
20B
100
AcDbEntity
  8
0
100
AcDbLine
 62
7
  6
CONTINUOUS
 10
0.0
 20
0.0
 11
11.0
 21
0.0
  0
LINE
  5
20C
100
AcDbEntity
  8
0
100
AcDbLine
 62
7
  6
CONTINUOUS
 10
0.0
 20
8.5
 11
11.0
 21
8.5
  0
LINE
  5
20D
100
AcDbEntity
  8
0
100
AcDbLine
 62
7
  6
CONTINUOUS
 10
11.0
 20
0.0
 11
11.0
 21
8.5
  0
LINE
  5
20E
100
AcDbEntity
  8
0
100
AcDbLine
 62
7
  6
CONTINUOUS
 10
2.3718841196
 20
4.2737225653
 11
2.3718841196
 21
4.0847225653
  0
LINE
  5
20F
100
AcDbEntity
  8
0
100
AcDbLine
 62
7
  6
CONTINUOUS
 10
2.4093841196
 20
4.0697225653
 11
2.4093841196
 21
4.2887225653
  0
LINE
  5
210
100
AcDbEntity
  8
0
100
AcDbLine
 62
7
  6
CONTINUOUS
 10
3.1268841196
 20
2.9382225653
 11
3.1268841196
 21
3.0232225653
  0
LWPOLYLINE
  5
211
100
AcDbEntity
  8
0
100
AcDbPolyline
 62
7
  6
CONTINUOUS
 90
3
 70
0
 10
3.6068876279
 20
4.2137225653
 10
3.6068866978
 20
4.2137395547
 10
3.6068859125
 20
4.2137904848
  0
LINE
  5
212
100
AcDbEntity
  8
0
100
AcDbLine
 62
7
  6
CONTINUOUS
 10
3.6068859125
 20
4.2137904848
 11
3.6068847925
 21
4.2139936295
  0
LINE
  5
213
100
AcDbEntity
  8
0
100
AcDbLine
 62
7
  6
CONTINUOUS
 10
3.4343841196
 20
3.0432225653
 11
3.4343841196
 21
3.8332225653
  0
LINE
  5
214
100
AcDbEntity
  8
0
100
AcDbLine
 62
7
  6
CONTINUOUS
 10
3.4393841196
 20
3.0432225653
 11
3.4393841196
 21
3.0382225653
  0
LINE
  5
215
100
AcDbEntity
  8
0
100
AcDbLine
 62
7
  6
CONTINUOUS
 10
3.4753819332
 20
4.0847225653
 11
3.4753819332
 21
4.1987225652
  0
LINE
  5
216
100
AcDbEntity
  8
0
100
AcDbLine
 62
7
  6
CONTINUOUS
 10
3.4812591196
 20
3.8587225653
 11
3.4812591196
 21
4.0547225653
  0
LINE
  5
217
100
AcDbEntity
  8
0
100
AcDbLine
 62
7
  6
CONTINUOUS
 10
3.4895026259
 20
4.0847225653
 11
3.4895026259
 21
4.1987225653
  0
LINE
  5
218
100
AcDbEntity
  8
0
100
AcDbLine
 62
7
  6
CONTINUOUS
 10
3.4943841196
 20
3.8482225653
 11
3.4943841196
 21
3.8587225653
  0
LINE
  5
219
100
AcDbEntity
  8
0
100
AcDbLine
 62
7
  6
CONTINUOUS
 10
3.5077552862
 20
4.2137225653
 11
3.5077552862
 21
4.2287225653
  0
LINE
  5
21A
100
AcDbEntity
  8
0
100
AcDbLine
 62
7
  6
CONTINUOUS
 10
3.5918841196
 20
4.2737225653
 11
3.5918841196
 21
4.2887225653
  0
LINE
  5
21B
100
AcDbEntity
  8
0
100
AcDbLine
 62
7
  6
CONTINUOUS
 10
3.6068876279
 20
4.2137225653
 11
3.6068841196
 21
4.2587225653
  0
LINE
  5
21C
100
AcDbEntity
  8
0
100
AcDbLine
 62
7
  6
CONTINUOUS
 10
3.6218841196
 20
4.2287225653
 11
3.6218841196
 21
4.2587225653
  0
LINE
  5
21D
100
AcDbEntity
  8
0
100
AcDbLine
 62
7
  6
CONTINUOUS
 10
3.7493841196
 20
3.8482225653
 11
3.7493841196
 21
3.8587225653
  0
LINE
  5
21E
100
AcDbEntity
  8
0
100
AcDbLine
 62
7
  6
CONTINUOUS
 10
3.7625091196
 20
3.8587225653
 11
3.7625091196
 21
4.1987225653
  0
LINE
  5
21F
100
AcDbEntity
  8
0
100
AcDbLine
 62
7
  6
CONTINUOUS
 10
3.8043841196
 20
3.0432225653
 11
3.8043841196
 21
3.0382225653
  0
LINE
  5
220
100
AcDbEntity
  8
0
100
AcDbLine
 62
7
  6
CONTINUOUS
 10
3.8093841196
 20
3.0432225653
 11
3.8093841196
 21
3.8332225653
  0
LINE
  5
221
100
AcDbEntity
  8
0
100
AcDbLine
 62
7
  6
CONTINUOUS
 10
8.1168841196
 20
2.9382225653
 11
7.1268841196
 21
2.9382225653
  0
LINE
  5
222
100
AcDbEntity
  8
0
100
AcDbLine
 62
7
  6
CONTINUOUS
 10
6.0843830513
 20
2.9382225653
 11
5.159385188
 21
2.9382225653
  0
LINE
  5
223
100
AcDbEntity
  8
0
100
AcDbLine
 62
7
  6
CONTINUOUS
 10
3.1268841196
 20
2.9382225653
 11
4.1168841196
 21
2.9382225653
  0
LINE
  5
224
100
AcDbEntity
  8
0
100
AcDbLine
 62
7
  6
CONTINUOUS
 10
4.1168841196
 20
2.9382225653
 11
4.1168841196
 21
3.0232225653
  0
LINE
  5
225
100
AcDbEntity
  8
0
100
AcDbLine
 62
7
  6
CONTINUOUS
 10
3.1268841196
 20
3.0232225653
 11
4.1168841196
 21
3.0232225653
  0
LINE
  5
226
100
AcDbEntity
  8
0
100
AcDbLine
 62
7
  6
CONTINUOUS
 10
7.1268841196
 20
3.0232225653
 11
8.1168841196
 21
3.0232225653
  0
LINE
  5
227
100
AcDbEntity
  8
0
100
AcDbLine
 62
7
  6
CONTINUOUS
 10
3.1418841196
 20
3.0382225653
 11
4.1018841196
 21
3.0382225653
  0
LINE
  5
228
100
AcDbEntity
  8
0
100
AcDbLine
 62
7
  6
CONTINUOUS
 10
7.1418841196
 20
3.0382225653
 11
8.1018841196
 21
3.0382225653
  0
LINE
  5
229
100
AcDbEntity
  8
0
100
AcDbLine
 62
7
  6
CONTINUOUS
 10
3.4343841196
 20
3.0432225653
 11
3.8093841196
 21
3.0432225653
  0
LINE
  5
22A
100
AcDbEntity
  8
0
100
AcDbLine
 62
7
  6
CONTINUOUS
 10
7.4343841196
 20
3.0432225653
 11
7.8093841196
 21
3.0432225653
  0
LINE
  5
22B
100
AcDbEntity
  8
0
100
AcDbLine
 62
7
  6
CONTINUOUS
 10
5.1593841196
 20
3.0532225653
 11
6.0843841196
 21
3.0532225653
  0
LINE
  5
22C
100
AcDbEntity
  8
0
100
AcDbLine
 62
7
  6
CONTINUOUS
 10
5.1693848076
 20
3.0632225653
 11
6.0743834317
 21
3.0632225653
  0
LINE
  5
22D
100
AcDbEntity
  8
0
100
AcDbLine
 62
7
  6
CONTINUOUS
 10
3.4343841196
 20
3.8332225653
 11
3.8093841196
 21
3.8332225653
  0
LINE
  5
22E
100
AcDbEntity
  8
0
100
AcDbLine
 62
7
  6
CONTINUOUS
 10
7.4343841196
 20
3.8332225653
 11
7.8093841196
 21
3.8332225653
  0
LINE
  5
22F
100
AcDbEntity
  8
0
100
AcDbLine
 62
7
  6
CONTINUOUS
 10
3.4493841196
 20
3.8482225653
 11
3.7943841196
 21
3.8482225653
  0
LINE
  5
230
100
AcDbEntity
  8
0
100
AcDbLine
 62
7
  6
CONTINUOUS
 10
7.4493841196
 20
3.8482225653
 11
7.7943841196
 21
3.8482225653
  0
LINE
  5
231
100
AcDbEntity
  8
0
100
AcDbLine
 62
7
  6
CONTINUOUS
 10
3.4812591196
 20
3.8587225653
 11
3.7625091196
 21
3.8587225653
  0
LINE
  5
232
100
AcDbEntity
  8
0
100
AcDbLine
 62
7
  6
CONTINUOUS
 10
7.4812591196
 20
3.8587225653
 11
7.7625091196
 21
3.8587225653
  0
LINE
  5
233
100
AcDbEntity
  8
0
100
AcDbLine
 62
7
  6
CONTINUOUS
 10
5.1593841196
 20
2.9382225653
 11
5.1593841196
 21
3.0532225653
  0
LINE
  5
234
100
AcDbEntity
  8
0
100
AcDbLine
 62
7
  6
CONTINUOUS
 10
7.7625091196
 20
4.0547225653
 11
7.7610316235
 21
4.0547225653
  0
LINE
  5
235
100
AcDbEntity
  8
0
100
AcDbLine
 62
7
  6
CONTINUOUS
 10
3.4827366158
 20
4.0547225653
 11
3.4812591196
 21
4.0547225653
  0
LINE
  5
236
100
AcDbEntity
  8
0
100
AcDbLine
 62
7
  6
CONTINUOUS
 10
2.3868841196
 20
4.0697225653
 11
3.4678942154
 21
4.0697225653
  0
LINE
  5
237
100
AcDbEntity
  8
0
100
AcDbLine
 62
7
  6
CONTINUOUS
 10
7.7758740239
 20
4.0697225653
 11
8.8568840137
 21
4.0697225653
  0
LINE
  5
238
100
AcDbEntity
  8
0
100
AcDbLine
 62
7
  6
CONTINUOUS
 10
2.3718841196
 20
4.0847225653
 11
3.4895026259
 21
4.0847225653
  0
LINE
  5
239
100
AcDbEntity
  8
0
100
AcDbLine
 62
7
  6
CONTINUOUS
 10
7.7542656134
 20
4.0847225653
 11
8.8718841196
 21
4.0847225653
  0
LINE
  5
23A
100
AcDbEntity
  8
0
100
AcDbLine
 62
7
  6
CONTINUOUS
 10
3.7625091196
 20
4.1987225653
 11
3.4753819332
 21
4.1987225653
  0
LINE
  5
23B
100
AcDbEntity
  8
0
100
AcDbLine
 62
7
  6
CONTINUOUS
 10
7.4812591196
 20
4.1987225653
 11
7.7683863061
 21
4.1987225653
  0
LINE
  5
23C
100
AcDbEntity
  8
0
100
AcDbLine
 62
7
  6
CONTINUOUS
 10
3.5077552862
 20
4.2137225653
 11
3.7475089778
 21
4.2137225653
  0
LINE
  5
23D
100
AcDbEntity
  8
0
100
AcDbLine
 62
7
  6
CONTINUOUS
 10
7.4962592313
 20
4.2137225653
 11
7.7360129531
 21
4.2137225653
  0
LINE
  5
23E
100
AcDbEntity
  8
0
100
AcDbLine
 62
7
  6
CONTINUOUS
 10
3.5077552862
 20
4.2287225653
 11
3.6218841196
 21
4.2287225653
  0
LINE
  5
23F
100
AcDbEntity
  8
0
100
AcDbLine
 62
7
  6
CONTINUOUS
 10
7.6218841196
 20
4.2287225653
 11
7.7360129531
 21
4.2287225653
  0
LINE
  5
240
100
AcDbEntity
  8
0
100
AcDbLine
 62
7
  6
CONTINUOUS
 10
5.4031341196
 20
3.0632225653
 11
5.4031341196
 21
6.2632225653
  0
LINE
  5
241
100
AcDbEntity
  8
0
100
AcDbLine
 62
7
  6
CONTINUOUS
 10
7.6368841196
 20
4.2587225653
 11
7.6218841196
 21
4.2587225653
  0
LINE
  5
242
100
AcDbEntity
  8
0
100
AcDbLine
 62
7
  6
CONTINUOUS
 10
3.6068841196
 20
4.2587225653
 11
3.6218841196
 21
4.2587225653
  0
LINE
  5
243
100
AcDbEntity
  8
0
100
AcDbLine
 62
7
  6
CONTINUOUS
 10
8.8718841196
 20
4.2737225653
 11
7.6518841196
 21
4.2737225653
  0
LINE
  5
244
100
AcDbEntity
  8
0
100
AcDbLine
 62
7
  6
CONTINUOUS
 10
3.5918841196
 20
4.2737225653
 11
2.3718841196
 21
4.2737225653
  0
LINE
  5
245
100
AcDbEntity
  8
0
100
AcDbLine
 62
7
  6
CONTINUOUS
 10
8.8568840137
 20
4.2887225653
 11
7.6518841196
 21
4.2887225653
  0
LINE
  5
246
100
AcDbEntity
  8
0
100
AcDbLine
 62
7
  6
CONTINUOUS
 10
3.5918841196
 20
4.2887225653
 11
2.3868842633
 21
4.2887225653
  0
LINE
  5
247
100
AcDbEntity
  8
0
100
AcDbLine
 62
7
  6
CONTINUOUS
 10
5.8406341196
 20
3.0632225653
 11
5.8406341196
 21
6.2632225653
  0
LINE
  5
248
100
AcDbEntity
  8
0
100
AcDbLine
 62
7
  6
CONTINUOUS
 10
6.0843841196
 20
2.9382225653
 11
6.0843841196
 21
3.0532225653
  0
LINE
  5
249
100
AcDbEntity
  8
0
100
AcDbLine
 62
7
  6
CONTINUOUS
 10
5.4031341196
 20
5.9382225653
 11
5.8406341196
 21
5.9382225653
  0
LINE
  5
24A
100
AcDbEntity
  8
0
100
AcDbLine
 62
7
  6
CONTINUOUS
 10
7.1268841196
 20
2.9382225653
 11
7.1268841196
 21
3.0232225653
  0
LINE
  5
24B
100
AcDbEntity
  8
0
100
AcDbLine
 62
7
  6
CONTINUOUS
 10
7.4343841196
 20
3.0432225653
 11
7.4343841196
 21
3.8332225653
  0
LINE
  5
24C
100
AcDbEntity
  8
0
100
AcDbLine
 62
7
  6
CONTINUOUS
 10
7.4393841196
 20
3.0432225653
 11
7.4393841196
 21
3.0382225653
  0
LINE
  5
24D
100
AcDbEntity
  8
0
100
AcDbLine
 62
7
  6
CONTINUOUS
 10
7.4812591196
 20
3.8587225653
 11
7.4812591196
 21
4.1987225653
  0
LINE
  5
24E
100
AcDbEntity
  8
0
100
AcDbLine
 62
7
  6
CONTINUOUS
 10
7.4943841196
 20
3.8482225653
 11
7.4943841196
 21
3.8587225653
  0
LINE
  5
24F
100
AcDbEntity
  8
0
100
AcDbLine
 62
7
  6
CONTINUOUS
 10
7.6218841196
 20
4.2587225653
 11
7.6218841196
 21
4.2287225653
  0
LINE
  5
250
100
AcDbEntity
  8
0
100
AcDbLine
 62
7
  6
CONTINUOUS
 10
7.6368841196
 20
4.2587225653
 11
7.6368841196
 21
4.2287225653
  0
LINE
  5
251
100
AcDbEntity
  8
0
100
AcDbLine
 62
7
  6
CONTINUOUS
 10
7.6518841196
 20
4.2737225653
 11
7.6518841196
 21
4.2887225653
  0
LINE
  5
252
100
AcDbEntity
  8
0
100
AcDbLine
 62
7
  6
CONTINUOUS
 10
7.7360129531
 20
4.2137225653
 11
7.7360129531
 21
4.2287225653
  0
LINE
  5
253
100
AcDbEntity
  8
0
100
AcDbLine
 62
7
  6
CONTINUOUS
 10
7.7493841196
 20
3.8482225653
 11
7.7493841196
 21
3.8587225653
  0
LINE
  5
254
100
AcDbEntity
  8
0
100
AcDbLine
 62
7
  6
CONTINUOUS
 10
7.7542656134
 20
4.1987225653
 11
7.7542656134
 21
4.0847225653
  0
LINE
  5
255
100
AcDbEntity
  8
0
100
AcDbLine
 62
7
  6
CONTINUOUS
 10
7.7625091196
 20
3.8587225653
 11
7.7625091196
 21
4.0547225653
  0
LINE
  5
256
100
AcDbEntity
  8
0
100
AcDbLine
 62
7
  6
CONTINUOUS
 10
7.7683863061
 20
4.1987225652
 11
7.7683863061
 21
4.0847225653
  0
LINE
  5
257
100
AcDbEntity
  8
0
100
AcDbLine
 62
7
  6
CONTINUOUS
 10
7.8043841196
 20
3.0432225653
 11
7.8043841196
 21
3.0382225653
  0
LINE
  5
258
100
AcDbEntity
  8
0
100
AcDbLine
 62
7
  6
CONTINUOUS
 10
7.8093841196
 20
3.0432225653
 11
7.8093841196
 21
3.8332225653
  0
LINE
  5
259
100
AcDbEntity
  8
0
100
AcDbLine
 62
7
  6
CONTINUOUS
 10
8.1168841196
 20
2.9382225653
 11
8.1168841196
 21
3.0232225653
  0
LINE
  5
25A
100
AcDbEntity
  8
0
100
AcDbLine
 62
7
  6
CONTINUOUS
 10
8.8343841196
 20
4.0697225653
 11
8.8343841196
 21
4.2887225653
  0
LINE
  5
25B
100
AcDbEntity
  8
0
100
AcDbLine
 62
7
  6
CONTINUOUS
 10
8.8718841196
 20
4.2737225653
 11
8.8718841196
 21
4.0847225653
  0
ARC
  5
25C
100
AcDbEntity
  8
0
100
AcDbCircle
 62
7
  6
CONTINUOUS
 10
5.6218841196
 20
6.2639296721
 40
0.21875
100
AcDbArc
 50
359.9071686411
 51
180.0928313589
  0
ARC
  5
25D
100
AcDbEntity
  8
0
100
AcDbCircle
 62
7
  6
CONTINUOUS
 10
3.5918841196
 20
4.2587225653
 40
0.03
100
AcDbArc
 50
0.0
 51
90.0
  0
ARC
  5
25E
100
AcDbEntity
  8
0
100
AcDbCircle
 62
7
  6
CONTINUOUS
 10
7.6518841196
 20
4.2587225653
 40
0.03
100
AcDbArc
 50
90.0
 51
180.0
  0
ARC
  5
25F
100
AcDbEntity
  8
0
100
AcDbCircle
 62
7
  6
CONTINUOUS
 10
7.4962591196
 20
4.1987225653
 40
0.015
100
AcDbArc
 50
90.0
 51
180.0
  0
ARC
  5
260
100
AcDbEntity
  8
0
100
AcDbCircle
 62
7
  6
CONTINUOUS
 10
7.7775091196
 20
4.0547225653
 40
0.015
100
AcDbArc
 50
92.5
 51
180.0
  0
ARC
  5
261
100
AcDbEntity
  8
0
100
AcDbCircle
 62
7
  6
CONTINUOUS
 10
8.8568841196
 20
4.0847225653
 40
0.015
100
AcDbArc
 50
270.0
 51
360.0
  0
ARC
  5
262
100
AcDbEntity
  8
0
100
AcDbCircle
 62
7
  6
CONTINUOUS
 10
8.8568841196
 20
4.2737225653
 40
0.015
100
AcDbArc
 50
0.0
 51
90.0
  0
ARC
  5
263
100
AcDbEntity
  8
0
100
AcDbCircle
 62
7
  6
CONTINUOUS
 10
3.7475091196
 20
4.1987225653
 40
0.015
100
AcDbArc
 50
0.0
 51
90.0
  0
ARC
  5
264
100
AcDbEntity
  8
0
100
AcDbCircle
 62
7
  6
CONTINUOUS
 10
3.4662591197
 20
4.0547225653
 40
0.015
100
AcDbArc
 50
0.0
 51
87.5
  0
ARC
  5
265
100
AcDbEntity
  8
0
100
AcDbCircle
 62
7
  6
CONTINUOUS
 10
2.3868841196
 20
4.0847225653
 40
0.015
100
AcDbArc
 50
180.0
 51
270.0
  0
ARC
  5
266
100
AcDbEntity
  8
0
100
AcDbCircle
 62
7
  6
CONTINUOUS
 10
4.1018841196
 20
3.0232225653
 40
0.015
100
AcDbArc
 50
0.0
 51
90.0
  0
ARC
  5
267
100
AcDbEntity
  8
0
100
AcDbCircle
 62
7
  6
CONTINUOUS
 10
3.1418841196
 20
3.0232225653
 40
0.015
100
AcDbArc
 50
90.0
 51
180.0
  0
ARC
  5
268
100
AcDbEntity
  8
0
100
AcDbCircle
 62
7
  6
CONTINUOUS
 10
2.3868841196
 20
4.2737225653
 40
0.015
100
AcDbArc
 50
90.0
 51
180.0
  0
ARC
  5
269
100
AcDbEntity
  8
0
100
AcDbCircle
 62
7
  6
CONTINUOUS
 10
3.4493841196
 20
3.8332225653
 40
0.015
100
AcDbArc
 50
90.0
 51
180.0
  0
ARC
  5
26A
100
AcDbEntity
  8
0
100
AcDbCircle
 62
7
  6
CONTINUOUS
 10
3.7943841196
 20
3.8332225653
 40
0.015
100
AcDbArc
 50
0.0
 51
90.0
  0
ARC
  5
26B
100
AcDbEntity
  8
0
100
AcDbCircle
 62
7
  6
CONTINUOUS
 10
3.6368841192
 20
4.2287225653
 40
0.015
100
AcDbArc
 50
180.0
 51
270.000001567
  0
ARC
  5
26C
100
AcDbEntity
  8
0
100
AcDbCircle
 62
7
  6
CONTINUOUS
 10
7.1418841196
 20
3.0232225653
 40
0.015
100
AcDbArc
 50
90.0
 51
180.0
  0
ARC
  5
26D
100
AcDbEntity
  8
0
100
AcDbCircle
 62
7
  6
CONTINUOUS
 10
8.1018841196
 20
3.0232225653
 40
0.015
100
AcDbArc
 50
0.0
 51
90.0
  0
ARC
  5
26E
100
AcDbEntity
  8
0
100
AcDbCircle
 62
7
  6
CONTINUOUS
 10
7.6068841196
 20
4.2287225653
 40
0.015
100
AcDbArc
 50
270.0
 51
360.0
  0
ARC
  5
26F
100
AcDbEntity
  8
0
100
AcDbCircle
 62
7
  6
CONTINUOUS
 10
7.7943841196
 20
3.8332225653
 40
0.015
100
AcDbArc
 50
0.0
 51
90.0
  0
ARC
  5
270
100
AcDbEntity
  8
0
100
AcDbCircle
 62
7
  6
CONTINUOUS
 10
7.4493841196
 20
3.8332225653
 40
0.015
100
AcDbArc
 50
90.0
 51
180.0
  0
ARC
  5
271
100
AcDbEntity
  8
0
100
AcDbCircle
 62
7
  6
CONTINUOUS
 10
3.5918841196
 20
4.2587225653
 40
0.015
100
AcDbArc
 50
0.0
 51
90.0
  0
ARC
  5
272
100
AcDbEntity
  8
0
100
AcDbCircle
 62
7
  6
CONTINUOUS
 10
7.6518841196
 20
4.2587225653
 40
0.015
100
AcDbArc
 50
90.0
 51
180.0
  0
ARC
  5
273
100
AcDbEntity
  8
0
100
AcDbCircle
 62
7
  6
CONTINUOUS
 10
5.1693841196
 20
3.0532225653
 40
0.01
100
AcDbArc
 50
90.0
 51
180.0
  0
ARC
  5
274
100
AcDbEntity
  8
0
100
AcDbCircle
 62
7
  6
CONTINUOUS
 10
6.0743841196
 20
3.0532225653
 40
0.01
100
AcDbArc
 50
0.0
 51
90.0
  0
SPLINE
  5
275
100
AcDbEntity
  8
0
100
AcDbSpline
 62
7
  6
CONTINUOUS
 70
0
 71
3
 72
25
 73
21
 74
0
 42
0.0000001
 43
0.0000001
 44
0.0000000001
 40
0.0
 40
0.0
 40
0.0
 40
0.0
 40
0.0624982072
 40
0.1249986889
 40
0.1874983095
 40
0.2499992248
 40
0.3125007526
 40
0.3437617569
 40
0.3750227603
 40
0.4375263315
 40
0.4687874674
 40
0.5000482208
 40
0.5313099269
 40
0.5625715924
 40
0.6250758689
 40
0.6875811765
 40
0.7500868385
 40
0.8125939212
 40
0.8750985724
 40
1.0
 40
1.0
 40
1.0
 40
1.0
 10
3.4753819332
 20
4.1987225652
 30
0.0
 10
3.4753820372
 20
4.1997443026
 30
0.0
 10
3.4754951235
 20
4.2017894149
 30
0.0
 10
3.4759909975
 20
4.2048199857
 30
0.0
 10
3.4768121108
 20
4.2077796247
 30
0.0
 10
3.4779451871
 20
4.2106339145
 30
0.0
 10
3.479135192
 20
4.2129002254
 30
0.0
 10
3.4802249029
 20
4.2146303874
 30
0.0
 10
3.4814032315
 20
4.2163014015
 30
0.0
 10
3.4827083328
 20
4.2178798733
 30
0.0
 10
3.4841263647
 20
4.219352815
 30
0.0
 10
3.4852445691
 20
4.2204027715
 30
0.0
 10
3.486413508
 20
4.2213958757
 30
0.0
 10
3.4880345036
 20
4.2226420607
 30
0.0
 10
3.4901708935
 20
4.2240508003
 30
0.0
 10
3.4928827507
 20
4.2254897707
 30
0.0
 10
3.4957163555
 20
4.2266707353
 30
0.0
 10
3.4986455678
 20
4.2275898705
 30
0.0
 10
3.5026407661
 20
4.2284622744
 30
0.0
 10
3.5057133642
 20
4.2287223519
 30
0.0
 10
3.5077552862
 20
4.2287225653
 30
0.0
  0
SPLINE
  5
276
100
AcDbEntity
  8
0
100
AcDbSpline
 62
7
  6
CONTINUOUS
 70
0
 71
3
 72
19
 73
15
 74
0
 42
0.0000001
 43
0.0000001
 44
0.0000000001
 40
0.0
 40
0.0
 40
0.0
 40
0.0
 40
0.0639204292
 40
0.1277855148
 40
0.1915382849
 40
0.255131823
 40
0.3185324093
 40
0.3817067445
 40
0.4446426204
 40
0.5073337286
 40
0.6318129157
 40
0.7553631242
 40
0.8780601509
 40
1.0
 40
1.0
 40
1.0
 40
1.0
 10
3.4895026259
 20
4.1987225653
 30
0.0
 10
3.4895026751
 20
4.1992820261
 30
0.0
 10
3.4895755666
 20
4.2004018111
 30
0.0
 10
3.4899000949
 20
4.2020509964
 30
0.0
 10
3.490430005
 20
4.2036431733
 30
0.0
 10
3.4911509074
 20
4.2051535769
 30
0.0
 10
3.4920436757
 20
4.2065628416
 30
0.0
 10
3.4930878555
 20
4.2078560474
 30
0.0
 10
3.4942621924
 20
4.209023167
 30
0.0
 10
3.4959678303
 20
4.2104004265
 30
0.0
 10
3.4983256505
 20
4.2117898918
 30
0.0
 10
3.5013773957
 20
4.2129332005
 30
0.0
 10
3.5045446928
 20
4.2135859533
 30
0.0
 10
3.5066888387
 20
4.2137224932
 30
0.0
 10
3.5077561121
 20
4.2137225653
 30
0.0
  0
SPLINE
  5
277
100
AcDbEntity
  8
0
100
AcDbSpline
 62
7
  6
CONTINUOUS
 70
0
 71
3
 72
20
 73
16
 74
0
 42
0.0000001
 43
0.0000001
 44
0.0000000001
 40
0.0
 40
0.0
 40
0.0
 40
0.0
 40
0.1219294209
 40
0.244613182
 40
0.3063189375
 40
0.3682562435
 40
0.4927271079
 40
0.5554062852
 40
0.6183384202
 40
0.6815039301
 40
0.7448985436
 40
0.8084844152
 40
0.8722305945
 40
0.9360862446
 40
1.0
 40
1.0
 40
1.0
 40
1.0
 10
7.7360120943
 20
4.2137225653
 30
0.0
 10
7.7370793905
 20
4.2137224902
 30
0.0
 10
7.7392233373
 20
4.2135860375
 30
0.0
 10
7.7418595343
 20
4.2130426141
 30
0.0
 10
7.7439087107
 20
4.2123645635
 30
0.0
 10
7.7459093405
 20
4.211514828
 30
0.0
 10
7.7478005058
 20
4.21040015
 30
0.0
 10
7.7495062735
 20
4.2090232746
 30
0.0
 10
7.7506802969
 20
4.2078558506
 30
0.0
 10
7.7517247987
 20
4.2065629011
 30
0.0
 10
7.7526172655
 20
4.205153455
 30
0.0
 10
7.753338361
 20
4.2036431526
 30
0.0
 10
7.7538680912
 20
4.2020509375
 30
0.0
 10
7.7541927103
 20
4.2004017979
 30
0.0
 10
7.7542655621
 20
4.1992820275
 30
0.0
 10
7.7542656134
 20
4.1987225653
 30
0.0
  0
SPLINE
  5
278
100
AcDbEntity
  8
0
100
AcDbSpline
 62
7
  6
CONTINUOUS
 70
0
 71
3
 72
22
 73
18
 74
0
 42
0.0000001
 43
0.0000001
 44
0.0000000001
 40
0.0
 40
0.0
 40
0.0
 40
0.0
 40
0.1249087455
 40
0.18741837
 40
0.2499288919
 40
0.3124387928
 40
0.3749473486
 40
0.4374559206
 40
0.4999633028
 40
0.5624702081
 40
0.6249763329
 40
0.687481719
 40
0.7499864137
 40
0.8124907822
 40
0.8749946267
 40
0.9374974259
 40
1.0
 40
1.0
 40
1.0
 40
1.0
 10
7.7360129531
 20
4.2287225653
 30
0.0
 10
7.7380548732
 20
4.2287223426
 30
0.0
 10
7.7411274655
 20
4.2284620742
 30
0.0
 10
7.7451227151
 20
4.2275898839
 30
0.0
 10
7.7480519782
 20
4.2266707739
 30
0.0
 10
7.7508855135
 20
4.2254897499
 30
0.0
 10
7.7535975429
 20
4.2240508115
 30
0.0
 10
7.7561605373
 20
4.2223604975
 30
0.0
 10
7.7585490807
 20
4.2204312175
 30
0.0
 10
7.7607343853
 20
4.2182740778
 30
0.0
 10
7.7626907123
 20
4.2159072778
 30
0.0
 10
7.7643958191
 20
4.2133532419
 30
0.0
 10
7.7658227109
 20
4.2106338182
 30
0.0
 10
7.766956425
 20
4.2077796776
 30
0.0
 10
7.7677770501
 20
4.2048199371
 30
0.0
 10
7.7682732152
 20
4.2017894276
 30
0.0
 10
7.7683861973
 20
4.1997443132
 30
0.0
 10
7.7683863061
 20
4.1987225652
 30
0.0
  0
SPLINE
  5
279
100
AcDbEntity
  8
0
100
AcDbSpline
 62
7
  6
CONTINUOUS
 70
0
 71
3
 72
15
 73
11
 74
0
 42
0.0000001
 43
0.0000001
 44
0.0000000001
 40
0.0
 40
0.0
 40
0.0
 40
0.0
 40
0.1243551986
 40
0.248802204
 40
0.3734361105
 40
0.4983081602
 40
0.6234377654
 40
0.7488051698
 40
0.8743498792
 40
1.0
 40
1.0
 40
1.0
 40
1.0
 10
3.4678942154
 20
4.0697225653
 30
0.0
 10
3.4688642145
 20
4.0697225653
 30
0.0
 10
3.4708104166
 20
4.069529
 30
0.0
 10
3.473612604
 20
4.0686692506
 30
0.0
 10
3.4761957832
 20
4.0672734467
 30
0.0
 10
3.4784591527
 20
4.0653953275
 30
0.0
 10
3.4803163257
 20
4.0631075223
 30
0.0
 10
3.4816959492
 20
4.060497628
 30
0.0
 10
3.4825454448
 20
4.0576673692
 30
0.0
 10
3.4827366158
 20
4.055702665
 30
0.0
 10
3.4827366158
 20
4.0547225653
 30
0.0
  0
SPLINE
  5
27A
100
AcDbEntity
  8
0
100
AcDbSpline
 62
7
  6
CONTINUOUS
 70
0
 71
3
 72
30
 73
26
 74
0
 42
0.0000001
 43
0.0000001
 44
0.0000000001
 40
0.0
 40
0.0
 40
0.0
 40
0.0
 40
0.0903645636
 40
0.1800776786
 40
0.2684666794
 40
0.3548714893
 40
0.4386297921
 40
0.5190953123
 40
0.5955908629
 40
0.6674472275
 40
0.7339736603
 40
0.7944778454
 40
0.848263782
 40
0.8724260718
 40
0.894665005
 40
0.9149101842
 40
0.9330979113
 40
0.9491816384
 40
0.9631464194
 40
0.9750205017
 40
0.984916148
 40
0.989195842
 40
0.9930872566
 40
0.9966582453
 40
1.0
 40
1.0
 40
1.0
 40
1.0
 10
7.7542656134
 20
4.0847225653
 30
0.0
 10
7.7542656368
 20
4.0837766318
 30
0.0
 10
7.7542950828
 20
4.0818914636
 30
0.0
 10
7.7544239768
 20
4.0790837134
 30
0.0
 10
7.7546351393
 20
4.0763224857
 30
0.0
 10
7.7549244489
 20
4.0736310462
 30
0.0
 10
7.7552851522
 20
4.0710319704
 30
0.0
 10
7.755708234
 20
4.0685474851
 30
0.0
 10
7.7561850047
 20
4.0661997396
 30
0.0
 10
7.756704378
 20
4.0640107561
 30
0.0
 10
7.7572549732
 20
4.0620024563
 30
0.0
 10
7.7578244741
 20
4.0601968933
 30
0.0
 10
7.7583201129
 20
4.0588342672
 30
0.0
 10
7.7587196025
 20
4.0578644293
 30
0.0
 10
7.7590053044
 20
4.0572278156
 30
0.0
 10
7.7592862934
 20
4.0566580618
 30
0.0
 10
7.7595610974
 20
4.0561576411
 30
0.0
 10
7.7598282822
 20
4.0557288304
 30
0.0
 10
7.7600865074
 20
4.0553733452
 30
0.0
 10
7.7603347307
 20
4.0550926614
 30
0.0
 10
7.7605421543
 20
4.0549133745
 30
0.0
 10
7.7607030786
 20
4.0548132978
 30
0.0
 10
7.7608150539
 20
4.0547616631
 30
0.0
 10
7.7609241455
 20
4.054730079
 30
0.0
 10
7.7609966422
 20
4.0547225906
 30
0.0
 10
7.7610316235
 20
4.0547225653
 30
0.0
  0
LINE
  5
27B
100
AcDbEntity
  8
0
100
AcDbLine
 62
7
  6
CONTINUOUS
 10
7.6368841196
 20
4.2287225653
 11
7.6368876279
 21
4.2137225653
  0
SPLINE
  5
27C
100
AcDbEntity
  8
0
100
AcDbSpline
 62
7
  6
CONTINUOUS
 70
0
 71
3
 72
23
 73
19
 74
0
 42
0.0000001
 43
0.0000001
 44
0.0000000001
 40
0.0
 40
0.0
 40
0.0
 40
0.0
 40
0.1744430982
 40
0.2594976933
 40
0.3420839103
 40
0.4216352758
 40
0.4977011497
 40
0.5699263174
 40
0.6379872358
 40
0.760355536
 40
0.8141102821
 40
0.8624726252
 40
0.9051944134
 40
0.9243932621
 40
0.9421488555
 40
0.958503508
 40
0.97353342
 40
1.0
 40
1.0
 40
1.0
 40
1.0
 10
3.4753819332
 20
4.0847225653
 30
0.0
 10
3.4753818361
 20
4.0836943381
 30
0.0
 10
3.4752672073
 20
4.0821617912
 30
0.0
 10
3.4749018049
 20
4.0801777315
 30
0.0
 10
3.4745378426
 20
4.0787655655
 30
0.0
 10
3.4740964436
 20
4.0774316827
 30
0.0
 10
3.4735942499
 20
4.0761851809
 30
0.0
 10
3.4730432953
 20
4.0750340738
 30
0.0
 10
3.4722913546
 20
4.0736801741
 30
0.0
 10
3.4714824688
 20
4.0724838825
 30
0.0
 10
3.4706292907
 20
4.071471154
 30
0.0
 10
3.4700299826
 20
4.0708618325
 30
0.0
 10
3.4695320555
 20
4.0704417876
 30
0.0
 10
3.4691462698
 20
4.0701733858
 30
0.0
 10
3.4688760925
 20
4.0700124311
 30
0.0
 10
3.468615213
 20
4.0698853171
 30
0.0
 10
3.4682951987
 20
4.069767408
 30
0.0
 10
3.4680502184
 20
4.0697225911
 30
0.0
 10
3.4678942154
 20
4.0697225653
 30
0.0
  0
SPLINE
  5
27D
100
AcDbEntity
  8
0
100
AcDbSpline
 62
7
  6
CONTINUOUS
 70
0
 71
3
 72
15
 73
11
 74
0
 42
0.0000001
 43
0.0000001
 44
0.0000000001
 40
0.0
 40
0.0
 40
0.0
 40
0.0
 40
0.1256491403
 40
0.2511952303
 40
0.3765622371
 40
0.5016918458
 40
0.626563878
 40
0.751197406
 40
0.8756457719
 40
1.0
 40
1.0
 40
1.0
 40
1.0
 10
7.7610316235
 20
4.0547225653
 30
0.0
 10
7.7610316235
 20
4.0557026576
 30
0.0
 10
7.7612228042
 20
4.0576673615
 30
0.0
 10
7.7620722606
 20
4.0604976369
 30
0.0
 10
7.7634519398
 20
4.0631075082
 30
0.0
 10
7.7653090596
 20
4.0653953542
 30
0.0
 10
7.7675724706
 20
4.0672734206
 30
0.0
 10
7.7701556261
 20
4.0686692802
 30
0.0
 10
7.7729578305
 20
4.0695289904
 30
0.0
 10
7.7749040322
 20
4.0697225653
 30
0.0
 10
7.7758740239
 20
4.0697225653
 30
0.0
  0
SPLINE
  5
27E
100
AcDbEntity
  8
0
100
AcDbSpline
 62
7
  6
CONTINUOUS
 70
0
 71
3
 72
25
 73
21
 74
0
 42
0.0000001
 43
0.0000001
 44
0.0000000001
 40
0.0
 40
0.0
 40
0.0
 40
0.0
 40
0.0264594162
 40
0.0414873489
 40
0.0578449307
 40
0.0756024927
 40
0.0947962422
 40
0.1374985768
 40
0.185859256
 40
0.2396059181
 40
0.2984289485
 40
0.3620153217
 40
0.4300628882
 40
0.5022757657
 40
0.5783286618
 40
0.657863471
 40
0.7404338269
 40
0.8254740876
 40
0.9122773733
 40
1.0
 40
1.0
 40
1.0
 40
1.0
 10
7.7758740239
 20
4.0697225653
 30
0.0
 10
7.7757180346
 20
4.06972259
 30
0.0
 10
7.775473063
 20
4.0697674119
 30
0.0
 10
7.7751530303
 20
4.0698853394
 30
0.0
 10
7.7748920536
 20
4.0700124095
 30
0.0
 10
7.7746217813
 20
4.0701733193
 30
0.0
 10
7.774236069
 20
4.0704417532
 30
0.0
 10
7.7737383933
 20
4.0708620361
 30
0.0
 10
7.7731388667
 20
4.0714710657
 30
0.0
 10
7.7725269703
 20
4.0721972425
 30
0.0
 10
7.7719131494
 20
4.0730358447
 30
0.0
 10
7.7713084692
 20
4.0739828083
 30
0.0
 10
7.7707248738
 20
4.0750341976
 30
0.0
 10
7.7701741351
 20
4.076185292
 30
0.0
 10
7.7696714308
 20
4.0774316225
 30
0.0
 10
7.769230687
 20
4.0787657302
 30
0.0
 10
7.7688660771
 20
4.0801775932
 30
0.0
 10
7.7685947936
 20
4.0816540354
 30
0.0
 10
7.7684249475
 20
4.0831760874
 30
0.0
 10
7.768386357
 20
4.0842054035
 30
0.0
 10
7.7683863061
 20
4.0847225653
 30
0.0
  0
SPLINE
  5
27F
100
AcDbEntity
  8
0
100
AcDbSpline
 62
7
  6
CONTINUOUS
 70
0
 71
3
 72
30
 73
26
 74
0
 42
0.0000001
 43
0.0000001
 44
0.0000000001
 40
0.0
 40
0.0
 40
0.0
 40
0.0
 40
0.0033417623
 40
0.0069127537
 40
0.0108041578
 40
0.0150838329
 40
0.0249794527
 40
0.0368535405
 40
0.0508183605
 40
0.0669021322
 40
0.0850898736
 40
0.1053350343
 40
0.1275739297
 40
0.1517361783
 40
0.2055220819
 40
0.2660263016
 40
0.3325527826
 40
0.404409164
 40
0.4809046905
 40
0.5613701723
 40
0.6451284716
 40
0.7315333096
 40
0.8199223247
 40
0.9096354324
 40
1.0
 40
1.0
 40
1.0
 40
1.0
 10
3.4827366158
 20
4.0547225653
 30
0.0
 10
3.4827715972
 20
4.0547225917
 30
0.0
 10
3.4828440937
 20
4.0547300814
 30
0.0
 10
3.4829531852
 20
4.0547616656
 30
0.0
 10
3.4830651606
 20
4.0548132993
 30
0.0
 10
3.4832260852
 20
4.0549133745
 30
0.0
 10
3.483433509
 20
4.0550926607
 30
0.0
 10
3.4836817323
 20
4.0553733448
 30
0.0
 10
3.483939957
 20
4.0557288314
 30
0.0
 10
3.4842071414
 20
4.0561576436
 30
0.0
 10
3.4844819454
 20
4.0566580647
 30
0.0
 10
3.4847629346
 20
4.0572278179
 30
0.0
 10
3.4850486368
 20
4.0578644303
 30
0.0
 10
3.485448127
 20
4.0588342667
 30
0.0
 10
3.485943766
 20
4.0601968922
 30
0.0
 10
3.4865132663
 20
4.0620024559
 30
0.0
 10
3.4870638608
 20
4.0640107569
 30
0.0
 10
3.4875832339
 20
4.0661997409
 30
0.0
 10
3.4880600051
 20
4.0685474857
 30
0.0
 10
3.4884830881
 20
4.0710319699
 30
0.0
 10
3.4888437916
 20
4.0736310456
 30
0.0
 10
3.4891330999
 20
4.0763224855
 30
0.0
 10
3.4893442615
 20
4.0790837135
 30
0.0
 10
3.4894731569
 20
4.0818914636
 30
0.0
 10
3.4895026041
 20
4.0837766318
 30
0.0
 10
3.4895026259
 20
4.0847225653
 30
0.0
  0
ELLIPSE
  5
280
100
AcDbEntity
  8
0
100
AcDbEllipse
 62
7
  6
CONTINUOUS
 10
5.6218841196
 20
6.2632225653
 30
0.0
 11
-0.0
 21
0.21875
 31
0.0
 40
1.0
 41
-1.5707963268
 42
1.5707963268
  0
ENDSEC
  0
SECTION
  2
OBJECTS
  0
DICTIONARY
  5
C
100
AcDbDictionary
280
0
281
1
  3
ACAD_GROUP
350
D
  3
ACAD_MLINESTYLE
350
17
  3
ACAD_LAYOUT
350
1A
  3
ACAD_PLOTSETTINGS
350
19
  3
ACAD_PLOTSTYLENAME
350
E
  0
DICTIONARY
  5
D
102
{ACAD_REACTORS
330
C
102
}
100
AcDbDictionary
280
0
281
1
  0
ACDBDICTIONARYWDFLT
  5
E
102
{ACAD_REACTORS
330
C
102
}
100
AcDbDictionary
281
1
  3
Normal
350
F
100
AcDbDictionaryWithDefault
340
F
  0
DICTIONARY
  5
17
102
{ACAD_REACTORS
330
C
102
}
100
AcDbDictionary
280
0
281
1
  3
Standard
350
18
  0
DICTIONARY
  5
19
102
{ACAD_REACTORS
330
C
102
}
100
AcDbDictionary
281
1
  0
DICTIONARY
  5
1A
102
{ACAD_REACTORS
330
C
102
}
100
AcDbDictionary
281
1
  3
Model
350
281
  3
Layout1
350
282
  0
ACDBPLACEHOLDER
  5
F
102
{ACAD_REACTORS
330
E
102
}
  0
MLINESTYLE
  5
18
102
{ACAD_REACTORS
330
17
102
}
100
AcDbMlineStyle
  2
STANDARD
 70
0
  3

 62
256
 51
90.0
 52
90.0
 71
2
 49
0.5
 62
256
  6
BYLAYER
 49
-0.5
 62
256
  6
BYLAYER
  0
LAYOUT
  5
281
102
{ACAD_REACTORS
330
1A
102
}
100
AcDbPlotSettings
  1

  2
none_device
  4
ANSI_A_(11.00_x_8.50_Inches)
  6

 40
0.0
 41
0.0
 42
0.0
 43
0.0
 44
279.4
 45
215.9
 46
0.0
 47
0.0
 48
0.0
 49
0.0
140
0.0
141
0.0
142
1.0
143
1.0
 70
1024
 72
0
 73
0
 74
0
  7

 75
0
147
1.0
148
0.0
149
0.0
100
AcDbLayout
  1
Model
 70
0
 71
0
 10
0.0
 20
0.0
 11
11.0
 21
8.5
 12
0.0
 22
0.0
 32
0.0
 14
0.0
 24
0.0
 34
0.0
 15
0.0
 25
0.0
 35
0.0
146
0.0
 13
0.0
 23
0.0
 33
0.0
 16
1.0
 26
0.0
 36
0.0
 17
0.0
 27
1.0
 37
0.0
 76
0
330
202
345
0
346
0
  0
LAYOUT
  5
282
102
{ACAD_REACTORS
330
1A
102
}
100
AcDbPlotSettings
  1

  2
none_device
  4
ANSI_A_(11.00_x_8.50_Inches)
  6

 40
0.0
 41
0.0
 42
0.0
 43
0.0
 44
279.4
 45
215.9
 46
0.0
 47
0.0
 48
0.0
 49
0.0
140
0.0
141
0.0
142
1.0
143
1.0
 70
0
 72
0
 73
0
 74
0
  7

 75
0
147
1.0
148
0.0
149
0.0
100
AcDbLayout
  1
Layout1
 70
0
 71
1
 10
0.0
 20
0.0
 11
11.0
 21
8.5
 12
0.0
 22
0.0
 32
0.0
 14
0.0
 24
0.0
 34
0.0
 15
0.0
 25
0.0
 35
0.0
146
0.0
 13
0.0
 23
0.0
 33
0.0
 16
1.0
 26
0.0
 36
0.0
 17
0.0
 27
1.0
 37
0.0
 76
0
330
203
345
0
346
0
  0
ENDSEC
  0
EOF
