999
DXF file: 3410_right.dxf
999
Pro/ENGINEER 2019352 by Parametric Technology Corporation
  0
SECTION
  2
HEADER
  9
$ACADVER
  1
AC1032
  9
$DWGCODEPAGE
  3
ANSI_1252
  9
$EXTMAX
 10
11.0
 20
8.5
 30
0.0
  9
$EXTMIN
 10
0.0
 20
0.0
 30
0.0
  9
$LIMMIN
 10
0.0
 20
0.0
  9
$LIMMAX
 10
11.0
 20
8.5
  9
$VIEWCTR
 10
5.5
 20
4.25
  9
$VIEWSIZE
 40
8.5
  9
$CLAYER
  8
0
  9
$LTSCALE
 40
0.605
  9
$CELTYPE
  6
BYLAYER
  9
$DIMSCALE
 40
1.0
  9
$DIMASZ
 40
0.1
  9
$DIMEXO
 40
0.0625
  9
$DIMDLI
 40
0.418
  9
$DIMEXE
 40
0.125
  9
$DIMCEN
 40
0.099
  9
$DIMLFAC
 40
1.0
  9
$DIMBLK
  1
_FILLED
  9
$DIMALT
 70
1
  9
$DIMALTD
 70
2
  9
$DIMALTTD
 70
2
  9
$DIMALTF
 40
25.4
  9
$DIMTXT
 40
0.08
  9
$DIMTOL
 70
1
  9
$DIMLIM
 70
0
  9
$DIMTFAC
 40
1.0
  9
$DIMTP
 40
0.001
  9
$DIMTM
 40
0.001
  9
$DIMGAP
 40
0.09
  9
$DIMDSEP
 70
46
  9
$AUNITS
 70
0
  9
$PDMODE
 70
3
  9
$PDSIZE
 40
0.3125
  9
$HANDSEED
  5
274
  9
$TILEMODE
 70
1
  9
$MEASUREMENT
 70
0
  9
$INSUNITS
 70
1
  0
ENDSEC
  0
SECTION
  2
CLASSES
  0
CLASS
  1
ACDBDICTIONARYWDFLT
  2
AcDbDictionaryWithDefault
  3
AutoCAD 2000
 90
0
 91
1
280
0
281
0
  0
CLASS
  1
ACDBPLACEHOLDER
  2
AcDbPlaceHolder
  3
AutoCAD 2000
 90
0
 91
1
280
0
281
0
  0
CLASS
  1
LAYOUT
  2
AcDbLayout
  3
AutoCAD 2000
 90
0
 91
0
280
0
281
0
  0
ENDSEC
  0
SECTION
  2
TABLES
  0
TABLE
  2
VPORT
  5
8
100
AcDbSymbolTable
 70
2
  0
VPORT
  5
1F4
100
AcDbSymbolTableRecord
100
AcDbViewportTableRecord
  2
*ACTIVE
 70
0
 10
0.0
 20
0.0
 11
1.0
 21
1.0
 12
5.5
 22
4.25
 13
0.0
 23
0.0
 14
1.0
 24
1.0
 15
0.0
 25
0.0
 16
0.0
 26
0.0
 36
1.0
 17
0.0
 27
0.0
 37
0.0
 40
8.5
 41
1.2941176471
 42
50.0
 43
0.0
 44
0.0
 50
0.0
 51
0.0
 71
0
 72
100
 73
1
 74
1
 75
0
 76
0
 77
0
 78
0
  0
ENDTAB
  0
TABLE
  2
LTYPE
  5
5
100
AcDbSymbolTable
 70
6
  0
LTYPE
  5
14
100
AcDbSymbolTableRecord
100
AcDbLinetypeTableRecord
  2
BYBLOCK
 70
0
  3

 72
65
 73
0
 40
0.0
  0
LTYPE
  5
15
100
AcDbSymbolTableRecord
100
AcDbLinetypeTableRecord
  2
BYLAYER
 70
0
  3

 72
65
 73
0
 40
0.0
  0
LTYPE
  5
16
100
AcDbSymbolTableRecord
100
AcDbLinetypeTableRecord
  2
CONTINUOUS
 70
64
  3
Solid line
 72
65
 73
0
 40
0.0
  0
LTYPE
  5
1F5
100
AcDbSymbolTableRecord
100
AcDbLinetypeTableRecord
  2
CENTER
 70
64
  3
____ _ ____ _ ____ _ ____ _ ____ _ ____ _ ____
 72
65
 73
4
 40
0.6
 49
0.375
 74
0
 49
-0.075
 74
0
 49
0.075
 74
0
 49
-0.075
 74
0
  0
LTYPE
  5
1F6
100
AcDbSymbolTableRecord
100
AcDbLinetypeTableRecord
  2
HIDDEN
 70
64
  3
- - - - - - - - - - - - - - - - - - - -
 72
65
 73
2
 40
0.2
 49
0.1
 74
0
 49
-0.1
 74
0
  0
LTYPE
  5
1F7
100
AcDbSymbolTableRecord
100
AcDbLinetypeTableRecord
  2
PHANTOM
 70
64
  3
_____ _ _ _____ _ _ _____ _ _ _____
 72
65
 73
6
 40
0.8
 49
0.45
 74
0
 49
-0.05
 74
0
 49
0.1
 74
0
 49
-0.05
 74
0
 49
0.1
 74
0
 49
-0.05
 74
0
  0
LTYPE
  5
1F8
100
AcDbSymbolTableRecord
100
AcDbLinetypeTableRecord
  2
DOT
 70
64
  3
. . . . . . . . . . . . . . . . . . . .
 72
65
 73
2
 40
0.2
 49
0.1
 74
0
 49
-0.1
 74
0
  0
LTYPE
  5
1F9
100
AcDbSymbolTableRecord
100
AcDbLinetypeTableRecord
  2
DASHED
 70
64
  3
- - - - - - - - - - - - - - - - - - - -
 72
65
 73
2
 40
0.2
 49
0.1
 74
0
 49
-0.1
 74
0
  0
ENDTAB
  0
TABLE
  2
LAYER
  5
2
100
AcDbSymbolTable
 70
36
  0
LAYER
  5
10
100
AcDbSymbolTableRecord
100
AcDbLayerTableRecord
  2
0
 70
0
 62
7
  6
CONTINUOUS
370
-3
390
F
  0
LAYER
  5
1FA
100
AcDbSymbolTableRecord
100
AcDbLayerTableRecord
  2
DEFAULT_1
 70
0
 62
7
  6
CENTER
370
-3
390
F
  0
LAYER
  5
1FB
100
AcDbSymbolTableRecord
100
AcDbLayerTableRecord
  2
DEFAULT_2
 70
0
 62
8
  6
HIDDEN
370
-3
390
F
  0
LAYER
  5
1FC
100
AcDbSymbolTableRecord
100
AcDbLayerTableRecord
  2
DEFAULT_3
 70
0
 62
7
  6
PHANTOM
370
-3
390
F
  0
LAYER
  5
1FD
100
AcDbSymbolTableRecord
100
AcDbLayerTableRecord
  2
DEFAULT_COORDINATE_SYSTEM
 70
0
 62
7
  6
CONTINUOUS
370
-3
390
F
  0
LAYER
  5
1FE
100
AcDbSymbolTableRecord
100
AcDbLayerTableRecord
  2
DEFAULT_DATUM_AXES
 70
0
 62
7
  6
CONTINUOUS
370
-3
390
F
  0
LAYER
  5
1FF
100
AcDbSymbolTableRecord
100
AcDbLayerTableRecord
  2
DEFAULT_DATUM_PLANES
 70
0
 62
7
  6
CONTINUOUS
370
-3
390
F
  0
ENDTAB
  0
TABLE
  2
STYLE
  5
3
100
AcDbSymbolTable
 70
1
  0
STYLE
  5
11
100
AcDbSymbolTableRecord
100
AcDbTextStyleTableRecord
  2
STANDARD
 70
0
 40
0.0
 41
0.8
 50
0.0
 71
0
 42
0.2
  3
txt
  4

  0
STYLE
  5
200
100
AcDbSymbolTableRecord
100
AcDbTextStyleTableRecord
  2
TEXTSTYLE_1
 70
0
 40
0.0
 41
0.8
 50
0.0
 71
0
 42
0.2
  3
gdt
  4

  0
ENDTAB
  0
TABLE
  2
VIEW
  5
6
100
AcDbSymbolTable
 70
0
  0
ENDTAB
  0
TABLE
  2
UCS
  5
7
100
AcDbSymbolTable
 70
0
  0
ENDTAB
  0
TABLE
  2
APPID
  5
9
100
AcDbSymbolTable
 70
1
  0
APPID
  5
201
100
AcDbSymbolTableRecord
100
AcDbRegAppTableRecord
  2
ACAD
 70
0
  0
ENDTAB
  0
TABLE
  2
BLOCK_RECORD
  5
1
100
AcDbSymbolTable
 70
0
  0
BLOCK_RECORD
  5
202
100
AcDbSymbolTableRecord
100
AcDbBlockTableRecord
  2
*Model_Space
  0
BLOCK_RECORD
  5
203
100
AcDbSymbolTableRecord
100
AcDbBlockTableRecord
  2
*Paper_Space
  0
BLOCK_RECORD
  5
204
100
AcDbSymbolTableRecord
100
AcDbBlockTableRecord
  2
_FILLED
  0
ENDTAB
  0
TABLE
  2
DIMSTYLE
  5
A
100
AcDbSymbolTable
 70
1
100
AcDbDimStyleTable
 71
0
  0
DIMSTYLE
105
205
100
AcDbSymbolTableRecord
100
AcDbDimStyleTableRecord
  2
STANDARD
 70
0
  3

  4

 40
1.0
 41
0.1
 42
0.0625
 43
0.38
 44
0.125
 45
0.0
 46
0.0
 47
0.001
 48
0.001
140
0.08
141
0.09
142
0.0
143
25.4
144
1.0
145
0.0
146
1.0
147
0.09
 71
1.0
 72
0.0
 73
1
 74
1
 75
0
 76
0
 77
0
 78
4
 79
1
170
1
171
2
172
0
173
0
174
0
175
0
176
0
177
0
178
0
270
2
179
3
271
3
272
3
273
2
274
2
275
0
280
0
281
0
282
0
283
1
284
4
285
0
286
0
287
3
288
0
340
11
278
46
341
204
342
204
343
204
344
204
  0
ENDTAB
  0
ENDSEC
  0
SECTION
  2
BLOCKS
  0
BLOCK
  5
20
100
AcDbEntity
  8
0
100
AcDbBlockBegin
  2
*Model_Space
 70
0
 10
0.0
 20
0.0
 30
0.0
  3
*Model_Space
  1

  0
ENDBLK
  5
21
100
AcDbEntity
  8
0
100
AcDbBlockEnd
  0
BLOCK
  5
1C
100
AcDbEntity
  8
0
100
AcDbBlockBegin
  2
*Paper_Space
 70
0
 10
0.0
 20
0.0
 30
0.0
  3
*Paper_Space
  1

  0
ENDBLK
  5
1D
100
AcDbEntity
  8
0
100
AcDbBlockEnd
  0
BLOCK
  5
206
100
AcDbEntity
  8
0
100
AcDbBlockBegin
  2
_FILLED
 70
64
 10
0.0
 20
0.0
  3
_FILLED
  1

  0
SOLID
  5
207
100
AcDbEntity
  8
0
  6
BYBLOCK
 62
0
100
AcDbTrace
 10
0.0
 20
0.0
 11
-1.0
 21
0.2
 12
-1.0
 22
-0.2
 13
-1.0
 23
-0.2
  0
ENDBLK
  5
208
100
AcDbEntity
  8
0
  6
BYBLOCK
 62
0
100
AcDbBlockEnd
  0
ENDSEC
  0
SECTION
  2
ENTITIES
  0
MTEXT
  5
209
100
AcDbEntity
  8
0
100
AcDbMText
 62
2
  6
CONTINUOUS
  7
STANDARD
 71
3
 72
1
 10
5.6596769224
 20
1.5321617557
 30
0.0
 11
1.0
 21
0.0
 31
0.0
 73
2
 44
0.9
  1
SCALE 0.500
 40
0.08
 41
0.704
  0
LINE
  5
20A
100
AcDbEntity
  8
0
100
AcDbLine
 62
7
  6
CONTINUOUS
 10
0.0
 20
0.0
 11
0.0
 21
8.5
  0
LINE
  5
20B
100
AcDbEntity
  8
0
100
AcDbLine
 62
7
  6
CONTINUOUS
 10
0.0
 20
0.0
 11
11.0
 21
0.0
  0
LINE
  5
20C
100
AcDbEntity
  8
0
100
AcDbLine
 62
7
  6
CONTINUOUS
 10
0.0
 20
8.5
 11
11.0
 21
8.5
  0
LINE
  5
20D
100
AcDbEntity
  8
0
100
AcDbLine
 62
7
  6
CONTINUOUS
 10
11.0
 20
0.0
 11
11.0
 21
8.5
  0
LINE
  5
20E
100
AcDbEntity
  8
0
100
AcDbLine
 62
7
  6
CONTINUOUS
 10
6.0382461985
 20
1.9702429813
 11
7.0282461985
 21
1.9702429813
  0
LINE
  5
20F
100
AcDbEntity
  8
0
100
AcDbLine
 62
7
  6
CONTINUOUS
 10
6.0382461985
 20
2.0552429813
 11
7.0282461985
 21
2.0552429813
  0
LINE
  5
210
100
AcDbEntity
  8
0
100
AcDbLine
 62
7
  6
CONTINUOUS
 10
6.0532461985
 20
2.0702429813
 11
7.0132461985
 21
2.0702429813
  0
LINE
  5
211
100
AcDbEntity
  8
0
100
AcDbLine
 62
7
  6
CONTINUOUS
 10
6.3457461985
 20
2.0752429813
 11
6.7207461985
 21
2.0752429813
  0
LINE
  5
212
100
AcDbEntity
  8
0
100
AcDbLine
 62
7
  6
CONTINUOUS
 10
6.0707461985
 20
2.0852429813
 11
6.3457461985
 21
2.0852429813
  0
LINE
  5
213
100
AcDbEntity
  8
0
100
AcDbLine
 62
7
  6
CONTINUOUS
 10
6.7207461985
 20
2.0852429813
 11
6.9957461985
 21
2.0852429813
  0
LINE
  5
214
100
AcDbEntity
  8
0
100
AcDbLine
 62
7
  6
CONTINUOUS
 10
6.0807461985
 20
2.0952429813
 11
6.3457461985
 21
2.0952429813
  0
LINE
  5
215
100
AcDbEntity
  8
0
100
AcDbLine
 62
7
  6
CONTINUOUS
 10
6.7207461985
 20
2.0952429813
 11
6.9857461985
 21
2.0952429813
  0
LINE
  5
216
100
AcDbEntity
  8
0
100
AcDbLine
 62
7
  6
CONTINUOUS
 10
6.3144961985
 20
2.10028869
 11
6.3457461985
 21
2.10028869
  0
LINE
  5
217
100
AcDbEntity
  8
0
100
AcDbLine
 62
7
  6
CONTINUOUS
 10
6.7207461985
 20
2.10028869
 11
6.7519961985
 21
2.10028869
  0
LINE
  5
218
100
AcDbEntity
  8
0
100
AcDbLine
 62
7
  6
CONTINUOUS
 10
3.5800064639
 20
5.3203263079
 11
3.5452131887
 21
5.0727592907
  0
LINE
  5
219
100
AcDbEntity
  8
0
100
AcDbLine
 62
7
  6
CONTINUOUS
 10
6.7620550993
 20
2.5852429813
 11
6.9707461985
 21
2.5852429813
  0
LINE
  5
21A
100
AcDbEntity
  8
0
100
AcDbLine
 62
7
  6
CONTINUOUS
 10
6.7720550993
 20
2.5952429813
 11
6.9607459786
 21
2.5952429813
  0
LINE
  5
21B
100
AcDbEntity
  8
0
100
AcDbLine
 62
7
  6
CONTINUOUS
 10
4.013248744
 20
5.2594380762
 11
3.9784554688
 21
5.011871059
  0
LINE
  5
21C
100
AcDbEntity
  8
0
100
AcDbLine
 62
7
  6
CONTINUOUS
 10
6.3457461985
 20
2.8652429813
 11
6.7207461985
 21
2.8652429813
  0
LINE
  5
21D
100
AcDbEntity
  8
0
100
AcDbLine
 62
7
  6
CONTINUOUS
 10
6.3607463135
 20
2.8802429813
 11
6.7057461985
 21
2.8802429813
  0
LINE
  5
21E
100
AcDbEntity
  8
0
100
AcDbLine
 62
7
  6
CONTINUOUS
 10
6.3926215289
 20
2.8907429813
 11
6.6738708681
 21
2.8907429813
  0
LINE
  5
21F
100
AcDbEntity
  8
0
100
AcDbLine
 62
7
  6
CONTINUOUS
 10
6.6738711985
 20
3.0117429813
 11
6.6723937024
 21
3.0117429813
  0
LINE
  5
220
100
AcDbEntity
  8
0
100
AcDbLine
 62
7
  6
CONTINUOUS
 10
6.5535775238
 20
3.0117429813
 11
6.5129148732
 21
3.0117429813
  0
LINE
  5
221
100
AcDbEntity
  8
0
100
AcDbLine
 62
7
  6
CONTINUOUS
 10
6.3940986946
 20
3.0117429813
 11
6.3926211985
 21
3.0117429813
  0
LINE
  5
222
100
AcDbEntity
  8
0
100
AcDbLine
 62
7
  6
CONTINUOUS
 10
7.2682461098
 20
3.0267429813
 11
6.6872361028
 21
3.0267429813
  0
LINE
  5
223
100
AcDbEntity
  8
0
100
AcDbLine
 62
7
  6
CONTINUOUS
 10
6.5557461985
 20
3.0267429813
 11
6.5107461985
 21
3.0267429813
  0
LINE
  5
224
100
AcDbEntity
  8
0
100
AcDbLine
 62
7
  6
CONTINUOUS
 10
6.3792562942
 20
3.0267429813
 11
5.7982462872
 21
3.0267429813
  0
LINE
  5
225
100
AcDbEntity
  8
0
100
AcDbLine
 62
7
  6
CONTINUOUS
 10
5.7832461985
 20
3.0417429813
 11
6.4008647047
 21
3.0417429813
  0
LINE
  5
226
100
AcDbEntity
  8
0
100
AcDbLine
 62
7
  6
CONTINUOUS
 10
6.4858064394
 20
3.0417429813
 11
6.5806859575
 21
3.0417429813
  0
LINE
  5
227
100
AcDbEntity
  8
0
100
AcDbLine
 62
7
  6
CONTINUOUS
 10
6.6656276922
 20
3.0417429813
 11
7.2832461985
 21
3.0417429813
  0
LINE
  5
228
100
AcDbEntity
  8
0
100
AcDbLine
 62
7
  6
CONTINUOUS
 10
5.7832461985
 20
3.2307429813
 11
7.2832461985
 21
3.2307429813
  0
LINE
  5
229
100
AcDbEntity
  8
0
100
AcDbLine
 62
7
  6
CONTINUOUS
 10
5.7982462872
 20
3.2457429813
 11
7.2682461098
 21
3.2457429813
  0
LINE
  5
22A
100
AcDbEntity
  8
0
100
AcDbLine
 62
7
  6
CONTINUOUS
 10
5.7832461985
 20
3.0417429813
 11
5.7832461985
 21
3.2307429813
  0
LINE
  5
22B
100
AcDbEntity
  8
0
100
AcDbLine
 62
7
  6
CONTINUOUS
 10
5.8207461985
 20
3.0267429813
 11
5.8207461985
 21
3.2457429813
  0
LINE
  5
22C
100
AcDbEntity
  8
0
100
AcDbLine
 62
7
  6
CONTINUOUS
 10
6.0382461985
 20
2.0552429813
 11
6.0382461985
 21
1.9702429813
  0
LINE
  5
22D
100
AcDbEntity
  8
0
100
AcDbLine
 62
7
  6
CONTINUOUS
 10
3.9784554688
 20
5.011871059
 11
3.5452131887
 21
5.0727592907
  0
LINE
  5
22E
100
AcDbEntity
  8
0
100
AcDbLine
 62
7
  6
CONTINUOUS
 10
6.0707461985
 20
2.0702429813
 11
6.0707461985
 21
2.0852429813
  0
LINE
  5
22F
100
AcDbEntity
  8
0
100
AcDbLine
 62
7
  6
CONTINUOUS
 10
6.3144961985
 20
5.0985191782
 11
6.7519961985
 21
5.0985191782
  0
LINE
  5
230
100
AcDbEntity
  8
0
100
AcDbLine
 62
7
  6
CONTINUOUS
 10
4.013248744
 20
5.2594380762
 11
3.5800064639
 21
5.3203263079
  0
LINE
  5
231
100
AcDbEntity
  8
0
100
AcDbLine
 62
7
  6
CONTINUOUS
 10
6.3144961985
 20
2.10028869
 11
6.3144961985
 21
3.0267429813
  0
LINE
  5
232
100
AcDbEntity
  8
0
100
AcDbLine
 62
7
  6
CONTINUOUS
 10
6.3144961985
 20
3.2457429813
 11
6.3144961985
 21
5.0985191782
  0
LINE
  5
233
100
AcDbEntity
  8
0
100
AcDbLine
 62
7
  6
CONTINUOUS
 10
6.3457461985
 20
2.0752429813
 11
6.3457461985
 21
2.8652429813
  0
LINE
  5
234
100
AcDbEntity
  8
0
100
AcDbLine
 62
7
  6
CONTINUOUS
 10
6.3507461985
 20
2.0702429813
 11
6.3507461985
 21
2.0752429813
  0
LINE
  5
235
100
AcDbEntity
  8
0
100
AcDbLine
 62
7
  6
CONTINUOUS
 10
6.3867440121
 20
3.0417429813
 11
6.3867440121
 21
3.2457429813
  0
LINE
  5
236
100
AcDbEntity
  8
0
100
AcDbLine
 62
7
  6
CONTINUOUS
 10
6.3926211985
 20
2.8907429813
 11
6.3926211985
 21
3.0117429813
  0
LINE
  5
237
100
AcDbEntity
  8
0
100
AcDbLine
 62
7
  6
CONTINUOUS
 10
6.4008647047
 20
3.2307429813
 11
6.4008647047
 21
3.0417429813
  0
LINE
  5
238
100
AcDbEntity
  8
0
100
AcDbLine
 62
7
  6
CONTINUOUS
 10
6.4057461985
 20
2.8907429813
 11
6.4057461985
 21
2.8802429813
  0
LINE
  5
239
100
AcDbEntity
  8
0
100
AcDbLine
 62
7
  6
CONTINUOUS
 10
6.4858064394
 20
3.0417429813
 11
6.4858064394
 21
3.2307429813
  0
LINE
  5
23A
100
AcDbEntity
  8
0
100
AcDbLine
 62
7
  6
CONTINUOUS
 10
6.4957461985
 20
3.2307429813
 11
6.4957461985
 21
3.0417429813
  0
LINE
  5
23B
100
AcDbEntity
  8
0
100
AcDbLine
 62
7
  6
CONTINUOUS
 10
6.5707461985
 20
3.2307429813
 11
6.5707461985
 21
3.0417429813
  0
LINE
  5
23C
100
AcDbEntity
  8
0
100
AcDbLine
 62
7
  6
CONTINUOUS
 10
6.5806859575
 20
3.2307429813
 11
6.5806859575
 21
3.0417429813
  0
LINE
  5
23D
100
AcDbEntity
  8
0
100
AcDbLine
 62
7
  6
CONTINUOUS
 10
6.6607461985
 20
2.8907429813
 11
6.6607461985
 21
2.8802429813
  0
LINE
  5
23E
100
AcDbEntity
  8
0
100
AcDbLine
 62
7
  6
CONTINUOUS
 10
6.6656276922
 20
3.0417429813
 11
6.6656276922
 21
3.2307429813
  0
LINE
  5
23F
100
AcDbEntity
  8
0
100
AcDbLine
 62
7
  6
CONTINUOUS
 10
6.6738711985
 20
2.8907429813
 11
6.6738711985
 21
3.0117429813
  0
LINE
  5
240
100
AcDbEntity
  8
0
100
AcDbLine
 62
7
  6
CONTINUOUS
 10
6.6797483849
 20
3.2457429813
 11
6.6797483849
 21
3.0417429813
  0
LINE
  5
241
100
AcDbEntity
  8
0
100
AcDbLine
 62
7
  6
CONTINUOUS
 10
6.7157461985
 20
2.0702429813
 11
6.7157461985
 21
2.0752429813
  0
LINE
  5
242
100
AcDbEntity
  8
0
100
AcDbLine
 62
7
  6
CONTINUOUS
 10
6.7207461985
 20
2.0752429813
 11
6.7207461985
 21
2.8652429813
  0
LINE
  5
243
100
AcDbEntity
  8
0
100
AcDbLine
 62
7
  6
CONTINUOUS
 10
6.7519961985
 20
2.10028869
 11
6.7519961985
 21
3.0267429813
  0
LINE
  5
244
100
AcDbEntity
  8
0
100
AcDbLine
 62
7
  6
CONTINUOUS
 10
6.7519961985
 20
3.2457429813
 11
6.7519961985
 21
5.0985191782
  0
LINE
  5
245
100
AcDbEntity
  8
0
100
AcDbLine
 62
7
  6
CONTINUOUS
 10
6.7620550993
 20
2.5852429813
 11
6.7620550993
 21
2.0952429813
  0
LINE
  5
246
100
AcDbEntity
  8
0
100
AcDbLine
 62
7
  6
CONTINUOUS
 10
6.7720550993
 20
2.5952429813
 11
6.7720550993
 21
2.0952429813
  0
LINE
  5
247
100
AcDbEntity
  8
0
100
AcDbLine
 62
7
  6
CONTINUOUS
 10
6.9575140763
 20
2.5952429813
 11
6.9575140763
 21
2.0952429813
  0
LINE
  5
248
100
AcDbEntity
  8
0
100
AcDbLine
 62
7
  6
CONTINUOUS
 10
6.9674385594
 20
2.5852429813
 11
6.9674385594
 21
2.0952429813
  0
LINE
  5
249
100
AcDbEntity
  8
0
100
AcDbLine
 62
7
  6
CONTINUOUS
 10
6.9707461985
 20
2.0952429813
 11
6.9707461985
 21
2.5852429813
  0
LINE
  5
24A
100
AcDbEntity
  8
0
100
AcDbLine
 62
7
  6
CONTINUOUS
 10
6.9957461985
 20
2.0702429813
 11
6.9957461985
 21
2.0852429813
  0
LINE
  5
24B
100
AcDbEntity
  8
0
100
AcDbLine
 62
7
  6
CONTINUOUS
 10
7.0282461985
 20
2.0552429813
 11
7.0282461985
 21
1.9702429813
  0
LINE
  5
24C
100
AcDbEntity
  8
0
100
AcDbLine
 62
7
  6
CONTINUOUS
 10
7.2457461985
 20
3.0267429813
 11
7.2457461985
 21
3.2457429813
  0
LINE
  5
24D
100
AcDbEntity
  8
0
100
AcDbLine
 62
7
  6
CONTINUOUS
 10
7.2832461985
 20
3.2307429813
 11
7.2832461985
 21
3.0417429813
  0
ARC
  5
24E
100
AcDbEntity
  8
0
100
AcDbCircle
 62
7
  6
CONTINUOUS
 10
5.1582461985
 20
5.0985191782
 40
1.59375
100
AcDbArc
 50
0.0
 51
172.0
  0
ARC
  5
24F
100
AcDbEntity
  8
0
100
AcDbCircle
 62
7
  6
CONTINUOUS
 10
5.1582461985
 20
5.0985191782
 40
1.15625
100
AcDbArc
 50
0.0
 51
172.0
  0
ARC
  5
250
100
AcDbEntity
  8
0
100
AcDbCircle
 62
7
  6
CONTINUOUS
 10
7.2682461985
 20
3.0417429813
 40
0.015
100
AcDbArc
 50
270.0
 51
360.0
  0
ARC
  5
251
100
AcDbEntity
  8
0
100
AcDbCircle
 62
7
  6
CONTINUOUS
 10
5.7982461985
 20
3.0417429813
 40
0.015
100
AcDbArc
 50
180.0
 51
270.0
  0
ARC
  5
252
100
AcDbEntity
  8
0
100
AcDbCircle
 62
7
  6
CONTINUOUS
 10
6.3776211985
 20
3.0117429813
 40
0.015
100
AcDbArc
 50
0.0
 51
87.5
  0
ARC
  5
253
100
AcDbEntity
  8
0
100
AcDbCircle
 62
7
  6
CONTINUOUS
 10
6.6888711985
 20
3.0117429813
 40
0.015
100
AcDbArc
 50
92.5
 51
180.0
  0
ARC
  5
254
100
AcDbEntity
  8
0
100
AcDbCircle
 62
7
  6
CONTINUOUS
 10
7.2682461985
 20
3.2307429813
 40
0.015
100
AcDbArc
 50
0.0
 51
90.0
  0
ARC
  5
255
100
AcDbEntity
  8
0
100
AcDbCircle
 62
7
  6
CONTINUOUS
 10
5.7982461985
 20
3.2307429813
 40
0.015
100
AcDbArc
 50
90.0
 51
180.0
  0
ARC
  5
256
100
AcDbEntity
  8
0
100
AcDbCircle
 62
7
  6
CONTINUOUS
 10
6.3607461985
 20
2.8652429813
 40
0.015
100
AcDbArc
 50
90.0
 51
180.0
  0
ARC
  5
257
100
AcDbEntity
  8
0
100
AcDbCircle
 62
7
  6
CONTINUOUS
 10
6.7057461985
 20
2.8652429813
 40
0.015
100
AcDbArc
 50
0.0
 51
90.0
  0
ARC
  5
258
100
AcDbEntity
  8
0
100
AcDbCircle
 62
7
  6
CONTINUOUS
 10
7.0132461985
 20
2.0552429813
 40
0.015
100
AcDbArc
 50
0.0
 51
90.0
  0
ARC
  5
259
100
AcDbEntity
  8
0
100
AcDbCircle
 62
7
  6
CONTINUOUS
 10
6.0532461985
 20
2.0552429813
 40
0.015
100
AcDbArc
 50
90.0
 51
180.0
  0
ARC
  5
25A
100
AcDbEntity
  8
0
100
AcDbCircle
 62
7
  6
CONTINUOUS
 10
6.5557461985
 20
3.0417429813
 40
0.015
100
AcDbArc
 50
270.0
 51
360.0
  0
ARC
  5
25B
100
AcDbEntity
  8
0
100
AcDbCircle
 62
7
  6
CONTINUOUS
 10
6.5557461985
 20
3.2307429813
 40
0.015
100
AcDbArc
 50
0.0
 51
90.0
  0
ARC
  5
25C
100
AcDbEntity
  8
0
100
AcDbCircle
 62
7
  6
CONTINUOUS
 10
6.5107461985
 20
3.2307429813
 40
0.015
100
AcDbArc
 50
90.0
 51
180.0
  0
ARC
  5
25D
100
AcDbEntity
  8
0
100
AcDbCircle
 62
7
  6
CONTINUOUS
 10
6.5107461985
 20
3.0417429813
 40
0.015
100
AcDbArc
 50
180.0
 51
270.0
  0
ARC
  5
25E
100
AcDbEntity
  8
0
100
AcDbCircle
 62
7
  6
CONTINUOUS
 10
6.7720550993
 20
2.5852429813
 40
0.01
100
AcDbArc
 50
90.0
 51
180.0
  0
ARC
  5
25F
100
AcDbEntity
  8
0
100
AcDbCircle
 62
7
  6
CONTINUOUS
 10
6.9607461985
 20
2.5852429813
 40
0.01
100
AcDbArc
 50
0.0
 51
90.0
  0
ARC
  5
260
100
AcDbEntity
  8
0
100
AcDbCircle
 62
7
  6
CONTINUOUS
 10
6.0807461985
 20
2.0852429813
 40
0.01
100
AcDbArc
 50
90.0
 51
180.0
  0
ARC
  5
261
100
AcDbEntity
  8
0
100
AcDbCircle
 62
7
  6
CONTINUOUS
 10
6.9857461985
 20
2.0852429813
 40
0.01
100
AcDbArc
 50
0.0
 51
90.0
  0
ARC
  5
262
100
AcDbEntity
  8
0
100
AcDbCircle
 62
7
  6
CONTINUOUS
 10
6.9575136988
 20
2.5853881859
 40
0.0098547954
100
AcDbArc
 50
76.2458574783
 51
89.9978051919
  0
SPLINE
  5
263
100
AcDbEntity
  8
0
100
AcDbSpline
 62
7
  6
CONTINUOUS
 70
0
 71
3
 72
15
 73
11
 74
0
 42
0.0000001
 43
0.0000001
 44
0.0000000001
 40
0.0
 40
0.0
 40
0.0
 40
0.0
 40
0.1245367104
 40
0.2491907175
 40
0.3739874701
 40
0.4989404494
 40
0.624045613
 40
0.7492841432
 40
0.8746133275
 40
1.0
 40
1.0
 40
1.0
 40
1.0
 10
6.9598567367
 20
2.5949603939
 30
0.0
 10
6.9603917325
 20
2.5948294498
 30
0.0
 10
6.961442324
 20
2.5944767862
 30
0.0
 10
6.9629071147
 20
2.5936928059
 30
0.0
 10
6.9642229828
 20
2.5926748228
 30
0.0
 10
6.9653529303
 20
2.5914512267
 30
0.0
 10
6.9662659068
 20
2.5900559253
 30
0.0
 10
6.9669366094
 20
2.5885274075
 30
0.0
 10
6.9673466238
 20
2.5869085511
 30
0.0
 10
6.9674385594
 20
2.5857975279
 30
0.0
 10
6.9674385594
 20
2.5852429813
 30
0.0
  0
SPLINE
  5
264
100
AcDbEntity
  8
0
100
AcDbSpline
 62
7
  6
CONTINUOUS
 70
0
 71
3
 72
21
 73
17
 74
0
 42
0.0000001
 43
0.0000001
 44
0.0000000001
 40
0.0
 40
0.0
 40
0.0
 40
0.0
 40
0.0128659997
 40
0.0265975894
 40
0.0415625413
 40
0.0579160864
 40
0.0948916364
 40
0.1376278075
 40
0.1859972382
 40
0.2397552348
 40
0.2985934816
 40
0.3621985294
 40
0.5024309418
 40
0.6579836989
 40
0.8255401015
 40
1.0
 40
1.0
 40
1.0
 40
1.0
 10
6.6872372316
 20
3.0267429813
 30
0.0
 10
6.687161401
 20
3.0267429868
 30
0.0
 10
6.687004427
 20
3.0267564837
 30
0.0
 10
6.6867654987
 20
3.0268135359
 30
0.0
 10
6.6865160237
 20
3.0269059818
 30
0.0
 10
6.6861537407
 20
3.0270825829
 30
0.0
 10
6.6856786968
 20
3.0273946739
 30
0.0
 10
6.6851005671
 20
3.0278819341
 30
0.0
 10
6.6845010793
 20
3.0284913631
 30
0.0
 10
6.683889258
 20
3.0292174694
 30
0.0
 10
6.6832754394
 20
3.0300561194
 30
0.0
 10
6.6824417836
 20
3.0313617021
 30
0.0
 10
6.6814725716
 20
3.0332516324
 30
0.0
 10
6.6805317741
 20
3.0358231952
 30
0.0
 10
6.6798981992
 20
3.0386958417
 30
0.0
 10
6.6797484238
 20
3.0407147352
 30
0.0
 10
6.6797483849
 20
3.0417429813
 30
0.0
  0
SPLINE
  5
265
100
AcDbEntity
  8
0
100
AcDbSpline
 62
7
  6
CONTINUOUS
 70
0
 71
3
 72
22
 73
18
 74
0
 42
0.0000001
 43
0.0000001
 44
0.0000000001
 40
0.0
 40
0.0
 40
0.0
 40
0.0
 40
0.0148741011
 40
0.0300300556
 40
0.0621041886
 40
0.0979611374
 40
0.1386961508
 40
0.1848997459
 40
0.2368013155
 40
0.294376292
 40
0.3574181661
 40
0.4255845649
 40
0.4984272528
 40
0.575415003
 40
0.655951893
 40
0.8250028145
 40
1.0
 40
1.0
 40
1.0
 40
1.0
 10
6.5756257166
 20
3.2457429813
 30
0.0
 10
6.5757086736
 20
3.2457429813
 30
0.0
 10
6.5758764123
 20
3.2457306242
 30
0.0
 10
6.5762156562
 20
3.2456558635
 30
0.0
 10
6.5766426327
 20
3.2454621598
 30
0.0
 10
6.5771274848
 20
3.2450923674
 30
0.0
 10
6.5775941934
 20
3.2445875362
 30
0.0
 10
6.5780402501
 20
3.2439524086
 30
0.0
 10
6.5784628089
 20
3.2431924564
 30
0.0
 10
6.5788583196
 20
3.2423143045
 30
0.0
 10
6.5792231942
 20
3.2413258941
 30
0.0
 10
6.579553968
 20
3.2402363838
 30
0.0
 10
6.5798474561
 20
3.2390560314
 30
0.0
 10
6.5801008374
 20
3.2377960287
 30
0.0
 10
6.5803863932
 20
3.235996716
 30
0.0
 10
6.5806232282
 20
3.2336384003
 30
0.0
 10
6.5806859575
 20
3.2317189903
 30
0.0
 10
6.5806859575
 20
3.2307429813
 30
0.0
  0
SPLINE
  5
266
100
AcDbEntity
  8
0
100
AcDbSpline
 62
7
  6
CONTINUOUS
 70
0
 71
3
 72
22
 73
18
 74
0
 42
0.0000001
 43
0.0000001
 44
0.0000000001
 40
0.0
 40
0.0
 40
0.0
 40
0.0
 40
0.0148741085
 40
0.0300300679
 40
0.0621042032
 40
0.0979611507
 40
0.1386961638
 40
0.1848997583
 40
0.2368013271
 40
0.2943763028
 40
0.3574181761
 40
0.4255845739
 40
0.4984272607
 40
0.5754150098
 40
0.6559518985
 40
0.8250028176
 40
1.0
 40
1.0
 40
1.0
 40
1.0
 10
6.4908666806
 20
3.2457429813
 30
0.0
 10
6.4907837235
 20
3.2457429813
 30
0.0
 10
6.4906159848
 20
3.2457306242
 30
0.0
 10
6.4902767407
 20
3.2456558635
 30
0.0
 10
6.4898497642
 20
3.2454621598
 30
0.0
 10
6.4893649122
 20
3.2450923674
 30
0.0
 10
6.4888982036
 20
3.2445875362
 30
0.0
 10
6.4884521469
 20
3.2439524086
 30
0.0
 10
6.4880295881
 20
3.2431924563
 30
0.0
 10
6.4876340774
 20
3.2423143045
 30
0.0
 10
6.4872692028
 20
3.2413258941
 30
0.0
 10
6.4869384289
 20
3.2402363838
 30
0.0
 10
6.4866449408
 20
3.2390560314
 30
0.0
 10
6.4863915595
 20
3.2377960286
 30
0.0
 10
6.4861060038
 20
3.235996716
 30
0.0
 10
6.4858691686
 20
3.2336384003
 30
0.0
 10
6.4858064396
 20
3.2317189903
 30
0.0
 10
6.4858064396
 20
3.2307429813
 30
0.0
  0
SPLINE
  5
267
100
AcDbEntity
  8
0
100
AcDbSpline
 62
7
  6
CONTINUOUS
 70
0
 71
3
 72
19
 73
15
 74
0
 42
0.0000001
 43
0.0000001
 44
0.0000000001
 40
0.0
 40
0.0
 40
0.0
 40
0.0
 40
0.0606379205
 40
0.1213622622
 40
0.1822220484
 40
0.2432963045
 40
0.3046373819
 40
0.366291027
 40
0.4282905682
 40
0.4906550618
 40
0.6163371123
 40
0.7433627169
 40
0.8714047996
 40
1.0
 40
1.0
 40
1.0
 40
1.0
 10
6.4149853974
 20
3.2457429813
 30
0.0
 10
6.4145234499
 20
3.2457429813
 30
0.0
 10
6.4135981764
 20
3.2456946498
 30
0.0
 10
6.4122245637
 20
3.2454781045
 30
0.0
 10
6.4108774647
 20
3.2451194096
 30
0.0
 10
6.4095701449
 20
3.2446222393
 30
0.0
 10
6.4083151191
 20
3.2439912923
 30
0.0
 10
6.4071245287
 20
3.2432327903
 30
0.0
 10
6.4060097276
 20
3.2423539542
 30
0.0
 10
6.4046359013
 20
3.2410306817
 30
0.0
 10
6.4031603207
 20
3.2391167691
 30
0.0
 10
6.4018514617
 20
3.236509057
 30
0.0
 10
6.4010458146
 20
3.2336825503
 30
0.0
 10
6.4008647047
 20
3.231722636
 30
0.0
 10
6.4008647047
 20
3.2307429813
 30
0.0
  0
SPLINE
  5
268
100
AcDbEntity
  8
0
100
AcDbSpline
 62
7
  6
CONTINUOUS
 70
0
 71
3
 72
29
 73
25
 74
0
 42
0.0000001
 43
0.0000001
 44
0.0000000001
 40
0.0
 40
0.0
 40
0.0
 40
0.0
 40
0.0068767312
 40
0.0107648502
 40
0.015040933
 40
0.0249396651
 40
0.0368286747
 40
0.0508037772
 40
0.0668897029
 40
0.0850747278
 40
0.1053164591
 40
0.1275551897
 40
0.1517198718
 40
0.2055054068
 40
0.2660104502
 40
0.3325397455
 40
0.4043967871
 40
0.4808954941
 40
0.5613594379
 40
0.645123137
 40
0.7315279009
 40
0.8199143083
 40
0.9096320336
 40
1.0
 40
1.0
 40
1.0
 40
1.0
 10
6.6723937024
 20
3.0117429813
 30
0.0
 10
6.6723217204
 20
3.011743546
 30
0.0
 10
6.6722087582
 20
3.0117677279
 30
0.0
 10
6.6720653747
 20
3.0118331047
 30
0.0
 10
6.6719039514
 20
3.0119325303
 30
0.0
 10
6.6716966021
 20
3.0121121575
 30
0.0
 10
6.6714486854
 20
3.0123934901
 30
0.0
 10
6.6711904897
 20
3.012749324
 30
0.0
 10
6.6709232394
 20
3.0131782034
 30
0.0
 10
6.6706483803
 20
3.0136785343
 30
0.0
 10
6.6703673536
 20
3.0142481841
 30
0.0
 10
6.6700816656
 20
3.0148847772
 30
0.0
 10
6.6696822425
 20
3.0158546424
 30
0.0
 10
6.6691865143
 20
3.0172172387
 30
0.0
 10
6.6686170351
 20
3.019022813
 30
0.0
 10
6.6680664631
 20
3.0210311273
 30
0.0
 10
6.6675470381
 20
3.0232201317
 30
0.0
 10
6.6670703788
 20
3.0255678789
 30
0.0
 10
6.6666470484
 20
3.0280523525
 30
0.0
 10
6.6662866502
 20
3.0306514658
 30
0.0
 10
6.6659971385
 20
3.0333428587
 30
0.0
 10
6.6657856619
 20
3.0361040379
 30
0.0
 10
6.6656569624
 20
3.0389118089
 30
0.0
 10
6.6656276995
 20
3.0407970289
 30
0.0
 10
6.6656276922
 20
3.0417429813
 30
0.0
  0
SPLINE
  5
269
100
AcDbEntity
  8
0
100
AcDbSpline
 62
7
  6
CONTINUOUS
 70
0
 71
3
 72
23
 73
19
 74
0
 42
0.0000001
 43
0.0000001
 44
0.0000000001
 40
0.0
 40
0.0
 40
0.0
 40
0.0
 40
0.0625494898
 40
0.1249169625
 40
0.1871204411
 40
0.2491951242
 40
0.3111899675
 40
0.3731609315
 40
0.4351674391
 40
0.4972648367
 40
0.5595005571
 40
0.6219101667
 40
0.6845135732
 40
0.7473142468
 40
0.8103004788
 40
0.8734380872
 40
0.9366933558
 40
1.0
 40
1.0
 40
1.0
 40
1.0
 10
6.5129148732
 20
3.0117429813
 30
0.0
 10
6.5119794812
 20
3.0117439219
 30
0.0
 10
6.5101096011
 20
3.0118493081
 30
0.0
 10
6.5073468723
 20
3.012329204
 30
0.0
 10
6.5046617793
 20
3.0131124162
 30
0.0
 10
6.5020850993
 20
3.0141854203
 30
0.0
 10
6.4996420944
 20
3.015527509
 30
0.0
 10
6.4973543215
 20
3.0171176043
 30
0.0
 10
6.4952396154
 20
3.0189334478
 30
0.0
 10
6.4933124723
 20
3.0209523702
 30
0.0
 10
6.4915851748
 20
3.0231521095
 30
0.0
 10
6.4900680517
 20
3.0255104921
 30
0.0
 10
6.4887692605
 20
3.0280051484
 30
0.0
 10
6.4876964739
 20
3.0306141974
 30
0.0
 10
6.4868553525
 20
3.0333151311
 30
0.0
 10
6.4862518579
 20
3.0360858532
 30
0.0
 10
6.4858888091
 20
3.0389026624
 30
0.0
 10
6.4858064744
 20
3.0407962661
 30
0.0
 10
6.4858064394
 20
3.0417429813
 30
0.0
  0
SPLINE
  5
26A
100
AcDbEntity
  8
0
100
AcDbSpline
 62
7
  6
CONTINUOUS
 70
0
 71
3
 72
23
 73
19
 74
0
 42
0.0000001
 43
0.0000001
 44
0.0000000001
 40
0.0
 40
0.0
 40
0.0
 40
0.0
 40
0.0633065836
 40
0.1265614748
 40
0.1897001622
 40
0.2526859589
 40
0.3154869858
 40
0.3780904663
 40
0.4404996732
 40
0.502735788
 40
0.5648328856
 40
0.6268395921
 40
0.6888103524
 40
0.7508051265
 40
0.8128801449
 40
0.8750834571
 40
0.937450897
 40
1.0
 40
1.0
 40
1.0
 40
1.0
 10
6.5806859575
 20
3.0417429813
 30
0.0
 10
6.5806858885
 20
3.0407962733
 30
0.0
 10
6.5806031781
 20
3.0389026883
 30
0.0
 10
6.5802394917
 20
3.0360859992
 30
0.0
 10
6.5796368057
 20
3.0333151475
 30
0.0
 10
6.5787962118
 20
3.0306140049
 30
0.0
 10
6.5777226935
 20
3.0280052908
 30
0.0
 10
6.5764245369
 20
3.0255103354
 30
0.0
 10
6.5749070471
 20
3.0231521869
 30
0.0
 10
6.5731798885
 20
3.0209523899
 30
0.0
 10
6.5712527309
 20
3.0189334842
 30
0.0
 10
6.569137998
 20
3.0171177211
 30
0.0
 10
6.566850347
 20
3.0155274803
 30
0.0
 10
6.5644072832
 20
3.0141855219
 30
0.0
 10
6.5618307634
 20
3.0131122786
 30
0.0
 10
6.559145576
 20
3.0123289836
 30
0.0
 10
6.5563826292
 20
3.0118515508
 30
0.0
 10
6.5545129042
 20
3.0117430756
 30
0.0
 10
6.5535775238
 20
3.0117429813
 30
0.0
  0
SPLINE
  5
26B
100
AcDbEntity
  8
0
100
AcDbSpline
 62
7
  6
CONTINUOUS
 70
0
 71
3
 72
25
 73
21
 74
0
 42
0.0000001
 43
0.0000001
 44
0.0000000001
 40
0.0
 40
0.0
 40
0.0
 40
0.0
 40
0.0876961835
 40
0.1744731062
 40
0.2594871247
 40
0.3420314922
 40
0.4215409203
 40
0.4975691384
 40
0.5697580319
 40
0.6377828507
 40
0.7013464166
 40
0.760148192
 40
0.8138733985
 40
0.862213764
 40
0.9049088316
 40
0.9240820594
 40
0.9417999637
 40
0.9732246414
 40
0.9871870833
 40
1.0
 40
1.0
 40
1.0
 40
1.0
 10
6.3867440121
 20
3.0417429813
 30
0.0
 10
6.3867439643
 20
3.0412257786
 30
0.0
 10
6.3867053611
 20
3.0401963807
 30
0.0
 10
6.386535404
 20
3.0386742246
 30
0.0
 10
6.3862641351
 20
3.0371976739
 30
0.0
 10
6.3858995705
 20
3.0357856971
 30
0.0
 10
6.3854587373
 20
3.0344515258
 30
0.0
 10
6.3849559353
 20
3.0332051557
 30
0.0
 10
6.384405143
 20
3.0320540148
 30
0.0
 10
6.3838214467
 20
3.0310026276
 30
0.0
 10
6.3832167518
 20
3.0300556357
 30
0.0
 10
6.3826028757
 20
3.0292170562
 30
0.0
 10
6.3819909403
 20
3.0284909432
 30
0.0
 10
6.3813914197
 20
3.0278818132
 30
0.0
 10
6.380893548
 20
3.0274618956
 30
0.0
 10
6.3805080123
 20
3.0271934627
 30
0.0
 10
6.3801620383
 20
3.0269868893
 30
0.0
 10
6.3798186658
 20
3.0268350367
 30
0.0
 10
6.3794835441
 20
3.0267569996
 30
0.0
 10
6.3793254877
 20
3.0267430007
 30
0.0
 10
6.3792499214
 20
3.0267429813
 30
0.0
  0
SPLINE
  5
26C
100
AcDbEntity
  8
0
100
AcDbSpline
 62
7
  6
CONTINUOUS
 70
0
 71
3
 72
30
 73
26
 74
0
 42
0.0000001
 43
0.0000001
 44
0.0000000001
 40
0.0
 40
0.0
 40
0.0
 40
0.0
 40
0.090364807
 40
0.1800782101
 40
0.2684681519
 40
0.3548742337
 40
0.43863208
 40
0.5190964008
 40
0.595591346
 40
0.6674477289
 40
0.7339744586
 40
0.7944785099
 40
0.8482640193
 40
0.8724261683
 40
0.8946650643
 40
0.9149102668
 40
0.9330979388
 40
0.9491815531
 40
0.9631461921
 40
0.9750202376
 40
0.984915982
 40
0.9891957364
 40
0.9930872049
 40
0.9966582325
 40
1.0
 40
1.0
 40
1.0
 40
1.0
 10
6.4008647047
 20
3.0417429813
 30
0.0
 10
6.4008646859
 20
3.0407970456
 30
0.0
 10
6.4008352138
 20
3.0389118721
 30
0.0
 10
6.4007062765
 20
3.0361041098
 30
0.0
 10
6.4004951589
 20
3.0333428539
 30
0.0
 10
6.4002059106
 20
3.0306513893
 30
0.0
 10
6.3998451791
 20
3.0280523214
 30
0.0
 10
6.3994220686
 20
3.025567866
 30
0.0
 10
6.3989452979
 20
3.0232201403
 30
0.0
 10
6.3984259305
 20
3.0210311591
 30
0.0
 10
6.3978753451
 20
3.0190228551
 30
0.0
 10
6.3973058447
 20
3.0172172951
 30
0.0
 10
6.3968102039
 20
3.015854678
 30
0.0
 10
6.3964107159
 20
3.0148848466
 30
0.0
 10
6.3961250155
 20
3.0142482342
 30
0.0
 10
6.3958440285
 20
3.0136784803
 30
0.0
 10
6.3955692249
 20
3.0131780613
 30
0.0
 10
6.3953020395
 20
3.0127492548
 30
0.0
 10
6.3950438127
 20
3.0123937747
 30
0.0
 10
6.394795588
 20
3.0121130935
 30
0.0
 10
6.3945881649
 20
3.0119338047
 30
0.0
 10
6.3944272403
 20
3.0118337242
 30
0.0
 10
6.3943152647
 20
3.0117820865
 30
0.0
 10
6.3942061729
 20
3.0117504991
 30
0.0
 10
6.3941336761
 20
3.011743008
 30
0.0
 10
6.3940986946
 20
3.0117429813
 30
0.0
  0
SPLINE
  5
26D
100
AcDbEntity
  8
0
100
AcDbSpline
 62
7
  6
CONTINUOUS
 70
0
 71
3
 72
19
 73
15
 74
0
 42
0.0000001
 43
0.0000001
 44
0.0000000001
 40
0.0
 40
0.0
 40
0.0
 40
0.0
 40
0.0606379174
 40
0.1213622585
 40
0.1822220452
 40
0.2432963015
 40
0.3046373791
 40
0.3662910244
 40
0.4282905658
 40
0.4906550597
 40
0.6163371107
 40
0.7433627157
 40
0.8714047989
 40
1.0
 40
1.0
 40
1.0
 40
1.0
 10
6.6515069997
 20
3.2457429813
 30
0.0
 10
6.6519689471
 20
3.2457429813
 30
0.0
 10
6.6528942207
 20
3.2456946498
 30
0.0
 10
6.6542678333
 20
3.2454781045
 30
0.0
 10
6.6556149323
 20
3.2451194096
 30
0.0
 10
6.6569222521
 20
3.2446222392
 30
0.0
 10
6.6581772779
 20
3.2439912923
 30
0.0
 10
6.6593678682
 20
3.2432327902
 30
0.0
 10
6.6604826694
 20
3.2423539542
 30
0.0
 10
6.6618564957
 20
3.2410306816
 30
0.0
 10
6.6633320762
 20
3.239116769
 30
0.0
 10
6.6646409353
 20
3.2365090569
 30
0.0
 10
6.6654465823
 20
3.2336825503
 30
0.0
 10
6.6656276923
 20
3.231722636
 30
0.0
 10
6.6656276923
 20
3.2307429813
 30
0.0
  0
SPLINE
  5
26E
100
AcDbEntity
  8
0
100
AcDbSpline
 62
7
  6
CONTINUOUS
 70
0
 71
3
 72
15
 73
11
 74
0
 42
0.0000001
 43
0.0000001
 44
0.0000000001
 40
0.0
 40
0.0
 40
0.0
 40
0.0
 40
0.1243682348
 40
0.2488215667
 40
0.3734537
 40
0.4983209605
 40
0.6234451739
 40
0.7488080447
 40
0.8743519842
 40
1.0
 40
1.0
 40
1.0
 40
1.0
 10
6.6872361028
 20
3.0267429813
 30
0.0
 10
6.686265993
 20
3.0267429813
 30
0.0
 10
6.6843196238
 20
3.0265494293
 30
0.0
 10
6.6815172418
 20
3.0256897276
 30
0.0
 10
6.678934065
 20
3.0242938611
 30
0.0
 10
6.6766707459
 20
3.0224157768
 30
0.0
 10
6.6748137797
 20
3.0201279125
 30
0.0
 10
6.6734342612
 20
3.0175180307
 30
0.0
 10
6.6725849014
 20
3.0146877657
 30
0.0
 10
6.672393708
 20
3.0127230738
 30
0.0
 10
6.6723937023
 20
3.0117429813
 30
0.0
  0
SPLINE
  5
26F
100
AcDbEntity
  8
0
100
AcDbSpline
 62
7
  6
CONTINUOUS
 70
0
 71
3
 72
15
 73
11
 74
0
 42
0.0000001
 43
0.0000001
 44
0.0000000001
 40
0.0
 40
0.0
 40
0.0
 40
0.0
 40
0.1243539405
 40
0.2488023179
 40
0.3734358724
 40
0.4983079508
 40
0.6234376118
 40
0.7488046695
 40
0.8743508053
 40
1.0
 40
1.0
 40
1.0
 40
1.0
 10
6.3792562942
 20
3.0267429813
 30
0.0
 10
6.3802262836
 20
3.0267429813
 30
0.0
 10
6.3821724831
 20
3.0265494069
 30
0.0
 10
6.3849746862
 20
3.0256896989
 30
0.0
 10
6.3875578428
 20
3.0242938399
 30
0.0
 10
6.3898212552
 20
3.0224157738
 30
0.0
 10
6.3916783763
 20
3.0201279273
 30
0.0
 10
6.3930580566
 20
3.0175180552
 30
0.0
 10
6.3939075138
 20
3.0146877788
 30
0.0
 10
6.3940986946
 20
3.0127230741
 30
0.0
 10
6.3940986946
 20
3.0117429813
 30
0.0
  0
SPLINE
  5
270
100
AcDbEntity
  8
0
100
AcDbSpline
 62
7
  6
CONTINUOUS
 70
0
 71
3
 72
25
 73
21
 74
0
 42
0.0000001
 43
0.0000001
 44
0.0000000001
 40
0.0
 40
0.0
 40
0.0
 40
0.0
 40
0.0069872114
 40
0.0147051745
 40
0.023698083
 40
0.0343077706
 40
0.0467304317
 40
0.0610767445
 40
0.0774011546
 40
0.0957241561
 40
0.1383411642
 40
0.1887517356
 40
0.2466030497
 40
0.3114258493
 40
0.38265823
 40
0.4596600065
 40
0.5417256523
 40
0.6280961799
 40
0.8104812453
 40
1.0
 40
1.0
 40
1.0
 40
1.0
 10
6.5557461985
 20
3.0267429813
 30
0.0
 10
6.555710231
 20
3.0267429813
 30
0.0
 10
6.5556340918
 20
3.0267292876
 30
0.0
 10
6.5555252789
 20
3.0266710666
 30
0.0
 10
6.5554191137
 20
3.0265774824
 30
0.0
 10
6.5553147461
 20
3.0264492057
 30
0.0
 10
6.555211663
 20
3.0262863515
 30
0.0
 10
6.5551098933
 20
3.0260890058
 30
0.0
 10
6.5550095501
 20
3.0258574659
 30
0.0
 10
6.5548709317
 20
3.0254845226
 30
0.0
 10
6.5547068604
 20
3.0249347344
 30
0.0
 10
6.5545274293
 20
3.0241788212
 30
0.0
 10
6.554358982
 20
3.0233036846
 30
0.0
 10
6.5542032511
 20
3.0223176062
 30
0.0
 10
6.5540619101
 20
3.0212298989
 30
0.0
 10
6.5539364038
 20
3.0200509753
 30
0.0
 10
6.5538279946
 20
3.0187921367
 30
0.0
 10
6.5537055288
 20
3.0169903194
 30
0.0
 10
6.5536043047
 20
3.0146330706
 30
0.0
 10
6.5535775238
 20
3.0127185512
 30
0.0
 10
6.5535775238
 20
3.0117429813
 30
0.0
  0
SPLINE
  5
271
100
AcDbEntity
  8
0
100
AcDbSpline
 62
7
  6
CONTINUOUS
 70
0
 71
3
 72
25
 73
21
 74
0
 42
0.0000001
 43
0.0000001
 44
0.0000000001
 40
0.0
 40
0.0
 40
0.0
 40
0.0
 40
0.0069445532
 40
0.0146292747
 40
0.0235984971
 40
0.0341922644
 40
0.0466047383
 40
0.0609450391
 40
0.0772665518
 40
0.0955889897
 40
0.1382099053
 40
0.1886286772
 40
0.2464907563
 40
0.3113257762
 40
0.3825710729
 40
0.4595859711
 40
0.5416646486
 40
0.6280479451
 40
0.810457527
 40
1.0
 40
1.0
 40
1.0
 40
1.0
 10
6.5107461985
 20
3.0267429813
 30
0.0
 10
6.5107819419
 20
3.0267429813
 30
0.0
 10
6.5108576779
 20
3.0267292522
 30
0.0
 10
6.5109658726
 20
3.0266710005
 30
0.0
 10
6.5110715079
 20
3.0265774197
 30
0.0
 10
6.5111754449
 20
3.0264491563
 30
0.0
 10
6.5112781872
 20
3.0262863151
 30
0.0
 10
6.5113796954
 20
3.0260889791
 30
0.0
 10
6.5114798482
 20
3.0258574462
 30
0.0
 10
6.5116182981
 20
3.0254844929
 30
0.0
 10
6.5117823223
 20
3.0249347095
 30
0.0
 10
6.5119618889
 20
3.0241788097
 30
0.0
 10
6.5121306276
 20
3.0233036813
 30
0.0
 10
6.512286764
 20
3.0223176074
 30
0.0
 10
6.5124285804
 20
3.0212299026
 30
0.0
 10
6.5125545891
 20
3.0200509802
 30
0.0
 10
6.5126634878
 20
3.0187921418
 30
0.0
 10
6.5127865462
 20
3.0169903325
 30
0.0
 10
6.5128882789
 20
3.0146330835
 30
0.0
 10
6.5129150177
 20
3.0127185506
 30
0.0
 10
6.5129148731
 20
3.0117429813
 30
0.0
  0
ENDSEC
  0
SECTION
  2
OBJECTS
  0
DICTIONARY
  5
C
100
AcDbDictionary
280
0
281
1
  3
ACAD_GROUP
350
D
  3
ACAD_MLINESTYLE
350
17
  3
ACAD_LAYOUT
350
1A
  3
ACAD_PLOTSETTINGS
350
19
  3
ACAD_PLOTSTYLENAME
350
E
  0
DICTIONARY
  5
D
102
{ACAD_REACTORS
330
C
102
}
100
AcDbDictionary
280
0
281
1
  0
ACDBDICTIONARYWDFLT
  5
E
102
{ACAD_REACTORS
330
C
102
}
100
AcDbDictionary
281
1
  3
Normal
350
F
100
AcDbDictionaryWithDefault
340
F
  0
DICTIONARY
  5
17
102
{ACAD_REACTORS
330
C
102
}
100
AcDbDictionary
280
0
281
1
  3
Standard
350
18
  0
DICTIONARY
  5
19
102
{ACAD_REACTORS
330
C
102
}
100
AcDbDictionary
281
1
  0
DICTIONARY
  5
1A
102
{ACAD_REACTORS
330
C
102
}
100
AcDbDictionary
281
1
  3
Model
350
272
  3
Layout1
350
273
  0
ACDBPLACEHOLDER
  5
F
102
{ACAD_REACTORS
330
E
102
}
  0
MLINESTYLE
  5
18
102
{ACAD_REACTORS
330
17
102
}
100
AcDbMlineStyle
  2
STANDARD
 70
0
  3

 62
256
 51
90.0
 52
90.0
 71
2
 49
0.5
 62
256
  6
BYLAYER
 49
-0.5
 62
256
  6
BYLAYER
  0
LAYOUT
  5
272
102
{ACAD_REACTORS
330
1A
102
}
100
AcDbPlotSettings
  1

  2
none_device
  4
ANSI_A_(11.00_x_8.50_Inches)
  6

 40
0.0
 41
0.0
 42
0.0
 43
0.0
 44
279.4
 45
215.9
 46
0.0
 47
0.0
 48
0.0
 49
0.0
140
0.0
141
0.0
142
1.0
143
1.0
 70
1024
 72
0
 73
0
 74
0
  7

 75
0
147
1.0
148
0.0
149
0.0
100
AcDbLayout
  1
Model
 70
0
 71
0
 10
0.0
 20
0.0
 11
11.0
 21
8.5
 12
0.0
 22
0.0
 32
0.0
 14
0.0
 24
0.0
 34
0.0
 15
0.0
 25
0.0
 35
0.0
146
0.0
 13
0.0
 23
0.0
 33
0.0
 16
1.0
 26
0.0
 36
0.0
 17
0.0
 27
1.0
 37
0.0
 76
0
330
202
345
0
346
0
  0
LAYOUT
  5
273
102
{ACAD_REACTORS
330
1A
102
}
100
AcDbPlotSettings
  1

  2
none_device
  4
ANSI_A_(11.00_x_8.50_Inches)
  6

 40
0.0
 41
0.0
 42
0.0
 43
0.0
 44
279.4
 45
215.9
 46
0.0
 47
0.0
 48
0.0
 49
0.0
140
0.0
141
0.0
142
1.0
143
1.0
 70
0
 72
0
 73
0
 74
0
  7

 75
0
147
1.0
148
0.0
149
0.0
100
AcDbLayout
  1
Layout1
 70
0
 71
1
 10
0.0
 20
0.0
 11
11.0
 21
8.5
 12
0.0
 22
0.0
 32
0.0
 14
0.0
 24
0.0
 34
0.0
 15
0.0
 25
0.0
 35
0.0
146
0.0
 13
0.0
 23
0.0
 33
0.0
 16
1.0
 26
0.0
 36
0.0
 17
0.0
 27
1.0
 37
0.0
 76
0
330
203
345
0
346
0
  0
ENDSEC
  0
EOF
