ISO-10303-21;
HEADER;
FILE_DESCRIPTION((''),'2;1');
FILE_NAME('36-12','2021-10-28T10:17:56',('jinson.thomas'),(''),
'CREO PARAMETRIC BY PTC INC, 2018400','CREO PARAMETRIC BY PTC INC, 2018400','');
FILE_SCHEMA(('CONFIG_CONTROL_DESIGN'));
ENDSEC;
DATA;
#2=CARTESIAN_POINT('',(0.E0,0.E0,2.4E-1));
#3=DIRECTION('',(0.E0,0.E0,1.E0));
#4=DIRECTION('',(0.E0,-1.E0,0.E0));
#5=AXIS2_PLACEMENT_3D('',#2,#3,#4);
#7=CARTESIAN_POINT('',(0.E0,0.E0,0.E0));
#8=DIRECTION('',(0.E0,0.E0,-1.E0));
#9=DIRECTION('',(0.E0,1.E0,0.E0));
#10=AXIS2_PLACEMENT_3D('',#7,#8,#9);
#12=CARTESIAN_POINT('',(0.E0,-8.55E-1,2.4E-1));
#13=DIRECTION('',(1.E0,0.E0,0.E0));
#14=DIRECTION('',(0.E0,0.E0,1.E0));
#15=AXIS2_PLACEMENT_3D('',#12,#13,#14);
#17=CARTESIAN_POINT('',(0.E0,0.E0,2.6E-1));
#18=DIRECTION('',(0.E0,0.E0,1.E0));
#19=DIRECTION('',(0.E0,1.E0,0.E0));
#20=AXIS2_PLACEMENT_3D('',#17,#18,#19);
#22=CARTESIAN_POINT('',(0.E0,0.E0,2.6E-1));
#23=DIRECTION('',(0.E0,0.E0,1.E0));
#24=DIRECTION('',(0.E0,-1.E0,0.E0));
#25=AXIS2_PLACEMENT_3D('',#22,#23,#24);
#27=CARTESIAN_POINT('',(0.E0,0.E0,2.6E-1));
#28=DIRECTION('',(0.E0,0.E0,-1.E0));
#29=DIRECTION('',(0.E0,-1.E0,0.E0));
#30=AXIS2_PLACEMENT_3D('',#27,#28,#29);
#32=CARTESIAN_POINT('',(0.E0,0.E0,2.6E-1));
#33=DIRECTION('',(0.E0,0.E0,-1.E0));
#34=DIRECTION('',(0.E0,1.E0,0.E0));
#35=AXIS2_PLACEMENT_3D('',#32,#33,#34);
#37=CARTESIAN_POINT('',(0.E0,8.55E-1,2.4E-1));
#38=DIRECTION('',(-1.E0,0.E0,0.E0));
#39=DIRECTION('',(0.E0,0.E0,1.E0));
#40=AXIS2_PLACEMENT_3D('',#37,#38,#39);
#42=CARTESIAN_POINT('',(0.E0,0.E0,2.4E-1));
#43=DIRECTION('',(0.E0,0.E0,1.E0));
#44=DIRECTION('',(0.E0,1.E0,0.E0));
#45=AXIS2_PLACEMENT_3D('',#42,#43,#44);
#47=DIRECTION('',(-9.653391100766E-14,0.E0,1.E0));
#48=VECTOR('',#47,2.4E-1);
#49=CARTESIAN_POINT('',(0.E0,-8.75E-1,0.E0));
#50=LINE('',#49,#48);
#51=CARTESIAN_POINT('',(0.E0,0.E0,0.E0));
#52=DIRECTION('',(0.E0,0.E0,1.E0));
#53=DIRECTION('',(0.E0,1.E0,0.E0));
#54=AXIS2_PLACEMENT_3D('',#51,#52,#53);
#56=DIRECTION('',(9.810641692920E-14,0.E0,1.E0));
#57=VECTOR('',#56,2.4E-1);
#58=CARTESIAN_POINT('',(0.E0,8.75E-1,0.E0));
#59=LINE('',#58,#57);
#60=DIRECTION('',(0.E0,0.E0,-1.E0));
#61=VECTOR('',#60,1.89E0);
#62=CARTESIAN_POINT('',(0.E0,-3.935E-1,2.15E0));
#63=LINE('',#62,#61);
#64=DIRECTION('',(0.E0,0.E0,1.E0));
#65=VECTOR('',#64,1.89E0);
#66=CARTESIAN_POINT('',(0.E0,3.935E-1,2.6E-1));
#67=LINE('',#66,#65);
#68=CARTESIAN_POINT('',(0.E0,0.E0,2.15E0));
#69=DIRECTION('',(0.E0,0.E0,-1.E0));
#70=DIRECTION('',(1.E0,0.E0,0.E0));
#71=AXIS2_PLACEMENT_3D('',#68,#69,#70);
#73=CARTESIAN_POINT('',(0.E0,0.E0,2.15E0));
#74=DIRECTION('',(0.E0,0.E0,1.E0));
#75=DIRECTION('',(1.E0,0.E0,0.E0));
#76=AXIS2_PLACEMENT_3D('',#73,#74,#75);
#78=CARTESIAN_POINT('',(0.E0,0.E0,2.15E0));
#79=DIRECTION('',(0.E0,0.E0,-1.E0));
#80=DIRECTION('',(0.E0,-1.E0,0.E0));
#81=AXIS2_PLACEMENT_3D('',#78,#79,#80);
#83=CARTESIAN_POINT('',(0.E0,0.E0,2.15E0));
#84=DIRECTION('',(0.E0,0.E0,-1.E0));
#85=DIRECTION('',(0.E0,1.E0,0.E0));
#86=AXIS2_PLACEMENT_3D('',#83,#84,#85);
#88=DIRECTION('',(0.E0,0.E0,-1.E0));
#89=VECTOR('',#88,1.9685E-1);
#90=CARTESIAN_POINT('',(7.874E-1,0.E0,2.34685E0));
#91=LINE('',#90,#89);
#92=DIRECTION('',(0.E0,0.E0,-1.E0));
#93=VECTOR('',#92,1.9685E-1);
#94=CARTESIAN_POINT('',(-7.874E-1,0.E0,2.34685E0));
#95=LINE('',#94,#93);
#96=CARTESIAN_POINT('',(0.E0,0.E0,2.34685E0));
#97=DIRECTION('',(0.E0,0.E0,-1.E0));
#98=DIRECTION('',(1.E0,0.E0,0.E0));
#99=AXIS2_PLACEMENT_3D('',#96,#97,#98);
#101=CARTESIAN_POINT('',(0.E0,0.E0,2.34685E0));
#102=DIRECTION('',(0.E0,0.E0,1.E0));
#103=DIRECTION('',(1.E0,0.E0,0.E0));
#104=AXIS2_PLACEMENT_3D('',#101,#102,#103);
#106=CARTESIAN_POINT('',(0.E0,8.75E-1,0.E0));
#107=CARTESIAN_POINT('',(0.E0,-8.75E-1,0.E0));
#108=VERTEX_POINT('',#106);
#109=VERTEX_POINT('',#107);
#110=CARTESIAN_POINT('',(0.E0,8.55E-1,2.6E-1));
#111=CARTESIAN_POINT('',(0.E0,-8.55E-1,2.6E-1));
#112=VERTEX_POINT('',#110);
#113=VERTEX_POINT('',#111);
#114=CARTESIAN_POINT('',(0.E0,8.75E-1,2.4E-1));
#115=CARTESIAN_POINT('',(0.E0,-8.75E-1,2.4E-1));
#116=VERTEX_POINT('',#114);
#117=VERTEX_POINT('',#115);
#118=CARTESIAN_POINT('',(7.874E-1,0.E0,2.34685E0));
#119=CARTESIAN_POINT('',(7.874E-1,0.E0,2.15E0));
#120=VERTEX_POINT('',#118);
#121=VERTEX_POINT('',#119);
#122=CARTESIAN_POINT('',(-7.874E-1,0.E0,2.34685E0));
#123=CARTESIAN_POINT('',(-7.874E-1,0.E0,2.15E0));
#124=VERTEX_POINT('',#122);
#125=VERTEX_POINT('',#123);
#126=CARTESIAN_POINT('',(0.E0,-3.935E-1,2.6E-1));
#127=CARTESIAN_POINT('',(0.E0,3.935E-1,2.6E-1));
#128=VERTEX_POINT('',#126);
#129=VERTEX_POINT('',#127);
#130=CARTESIAN_POINT('',(0.E0,-3.935E-1,2.15E0));
#131=CARTESIAN_POINT('',(0.E0,3.935E-1,2.15E0));
#132=VERTEX_POINT('',#130);
#133=VERTEX_POINT('',#131);
#134=CARTESIAN_POINT('',(0.E0,0.E0,0.E0));
#135=DIRECTION('',(0.E0,0.E0,-1.E0));
#136=DIRECTION('',(0.E0,-1.E0,0.E0));
#137=AXIS2_PLACEMENT_3D('',#134,#135,#136);
#138=PLANE('',#137);
#140=ORIENTED_EDGE('',*,*,#139,.F.);
#142=ORIENTED_EDGE('',*,*,#141,.T.);
#143=EDGE_LOOP('',(#140,#142));
#144=FACE_OUTER_BOUND('',#143,.F.);
#145=ADVANCED_FACE('',(#144),#138,.T.);
#146=CARTESIAN_POINT('',(0.E0,0.E0,2.73E-1));
#147=DIRECTION('',(0.E0,0.E0,-1.E0));
#148=DIRECTION('',(0.E0,-1.E0,0.E0));
#149=AXIS2_PLACEMENT_3D('',#146,#147,#148);
#150=CYLINDRICAL_SURFACE('',#149,8.75E-1);
#152=ORIENTED_EDGE('',*,*,#151,.T.);
#154=ORIENTED_EDGE('',*,*,#153,.F.);
#155=ORIENTED_EDGE('',*,*,#139,.T.);
#157=ORIENTED_EDGE('',*,*,#156,.T.);
#158=EDGE_LOOP('',(#152,#154,#155,#157));
#159=FACE_OUTER_BOUND('',#158,.F.);
#160=ADVANCED_FACE('',(#159),#150,.T.);
#161=CARTESIAN_POINT('',(0.E0,0.E0,2.4E-1));
#162=DIRECTION('',(0.E0,0.E0,-1.E0));
#163=DIRECTION('',(-6.212937224872E-3,-9.999806995193E-1,0.E0));
#164=AXIS2_PLACEMENT_3D('',#161,#162,#163);
#165=TOROIDAL_SURFACE('',#164,8.55E-1,2.E-2);
#167=ORIENTED_EDGE('',*,*,#166,.T.);
#169=ORIENTED_EDGE('',*,*,#168,.T.);
#170=ORIENTED_EDGE('',*,*,#151,.F.);
#172=ORIENTED_EDGE('',*,*,#171,.F.);
#173=EDGE_LOOP('',(#167,#169,#170,#172));
#174=FACE_OUTER_BOUND('',#173,.F.);
#175=ADVANCED_FACE('',(#174),#165,.T.);
#176=CARTESIAN_POINT('',(0.E0,0.E0,2.6E-1));
#177=DIRECTION('',(0.E0,0.E0,-1.E0));
#178=DIRECTION('',(0.E0,-1.E0,0.E0));
#179=AXIS2_PLACEMENT_3D('',#176,#177,#178);
#180=PLANE('',#179);
#182=ORIENTED_EDGE('',*,*,#181,.F.);
#183=ORIENTED_EDGE('',*,*,#166,.F.);
#184=EDGE_LOOP('',(#182,#183));
#185=FACE_OUTER_BOUND('',#184,.F.);
#187=ORIENTED_EDGE('',*,*,#186,.F.);
#189=ORIENTED_EDGE('',*,*,#188,.F.);
#190=EDGE_LOOP('',(#187,#189));
#191=FACE_BOUND('',#190,.F.);
#192=ADVANCED_FACE('',(#185,#191),#180,.F.);
#193=CARTESIAN_POINT('',(0.E0,0.E0,2.4E-1));
#194=DIRECTION('',(0.E0,0.E0,-1.E0));
#195=DIRECTION('',(6.212937224872E-3,9.999806995193E-1,0.E0));
#196=AXIS2_PLACEMENT_3D('',#193,#194,#195);
#197=TOROIDAL_SURFACE('',#196,8.55E-1,2.E-2);
#198=ORIENTED_EDGE('',*,*,#181,.T.);
#199=ORIENTED_EDGE('',*,*,#171,.T.);
#201=ORIENTED_EDGE('',*,*,#200,.F.);
#202=ORIENTED_EDGE('',*,*,#168,.F.);
#203=EDGE_LOOP('',(#198,#199,#201,#202));
#204=FACE_OUTER_BOUND('',#203,.F.);
#205=ADVANCED_FACE('',(#204),#197,.T.);
#206=CARTESIAN_POINT('',(0.E0,0.E0,2.73E-1));
#207=DIRECTION('',(0.E0,0.E0,-1.E0));
#208=DIRECTION('',(0.E0,-1.E0,0.E0));
#209=AXIS2_PLACEMENT_3D('',#206,#207,#208);
#210=CYLINDRICAL_SURFACE('',#209,8.75E-1);
#211=ORIENTED_EDGE('',*,*,#200,.T.);
#212=ORIENTED_EDGE('',*,*,#156,.F.);
#213=ORIENTED_EDGE('',*,*,#141,.F.);
#214=ORIENTED_EDGE('',*,*,#153,.T.);
#215=EDGE_LOOP('',(#211,#212,#213,#214));
#216=FACE_OUTER_BOUND('',#215,.F.);
#217=ADVANCED_FACE('',(#216),#210,.T.);
#218=CARTESIAN_POINT('',(0.E0,0.E0,2.2485E0));
#219=DIRECTION('',(0.E0,0.E0,-1.E0));
#220=DIRECTION('',(0.E0,1.E0,0.E0));
#221=AXIS2_PLACEMENT_3D('',#218,#219,#220);
#222=CYLINDRICAL_SURFACE('',#221,3.935E-1);
#223=ORIENTED_EDGE('',*,*,#186,.T.);
#225=ORIENTED_EDGE('',*,*,#224,.T.);
#227=ORIENTED_EDGE('',*,*,#226,.F.);
#229=ORIENTED_EDGE('',*,*,#228,.T.);
#230=EDGE_LOOP('',(#223,#225,#227,#229));
#231=FACE_OUTER_BOUND('',#230,.F.);
#232=ADVANCED_FACE('',(#231),#222,.T.);
#233=CARTESIAN_POINT('',(0.E0,0.E0,2.2485E0));
#234=DIRECTION('',(0.E0,0.E0,-1.E0));
#235=DIRECTION('',(0.E0,1.E0,0.E0));
#236=AXIS2_PLACEMENT_3D('',#233,#234,#235);
#237=CYLINDRICAL_SURFACE('',#236,3.935E-1);
#238=ORIENTED_EDGE('',*,*,#188,.T.);
#239=ORIENTED_EDGE('',*,*,#228,.F.);
#241=ORIENTED_EDGE('',*,*,#240,.F.);
#242=ORIENTED_EDGE('',*,*,#224,.F.);
#243=EDGE_LOOP('',(#238,#239,#241,#242));
#244=FACE_OUTER_BOUND('',#243,.F.);
#245=ADVANCED_FACE('',(#244),#237,.T.);
#246=CARTESIAN_POINT('',(0.E0,0.E0,2.15E0));
#247=DIRECTION('',(0.E0,0.E0,1.E0));
#248=DIRECTION('',(-1.E0,0.E0,0.E0));
#249=AXIS2_PLACEMENT_3D('',#246,#247,#248);
#250=PLANE('',#249);
#252=ORIENTED_EDGE('',*,*,#251,.F.);
#254=ORIENTED_EDGE('',*,*,#253,.T.);
#255=EDGE_LOOP('',(#252,#254));
#256=FACE_OUTER_BOUND('',#255,.F.);
#257=ORIENTED_EDGE('',*,*,#226,.T.);
#258=ORIENTED_EDGE('',*,*,#240,.T.);
#259=EDGE_LOOP('',(#257,#258));
#260=FACE_BOUND('',#259,.F.);
#261=ADVANCED_FACE('',(#256,#260),#250,.F.);
#262=CARTESIAN_POINT('',(0.E0,0.E0,1.82185E0));
#263=DIRECTION('',(0.E0,0.E0,1.E0));
#264=DIRECTION('',(-1.E0,0.E0,0.E0));
#265=AXIS2_PLACEMENT_3D('',#262,#263,#264);
#266=CYLINDRICAL_SURFACE('',#265,7.874E-1);
#268=ORIENTED_EDGE('',*,*,#267,.T.);
#269=ORIENTED_EDGE('',*,*,#251,.T.);
#271=ORIENTED_EDGE('',*,*,#270,.F.);
#273=ORIENTED_EDGE('',*,*,#272,.F.);
#274=EDGE_LOOP('',(#268,#269,#271,#273));
#275=FACE_OUTER_BOUND('',#274,.F.);
#276=ADVANCED_FACE('',(#275),#266,.T.);
#277=CARTESIAN_POINT('',(0.E0,0.E0,1.82185E0));
#278=DIRECTION('',(0.E0,0.E0,1.E0));
#279=DIRECTION('',(-1.E0,0.E0,0.E0));
#280=AXIS2_PLACEMENT_3D('',#277,#278,#279);
#281=CYLINDRICAL_SURFACE('',#280,7.874E-1);
#282=ORIENTED_EDGE('',*,*,#267,.F.);
#284=ORIENTED_EDGE('',*,*,#283,.T.);
#285=ORIENTED_EDGE('',*,*,#270,.T.);
#286=ORIENTED_EDGE('',*,*,#253,.F.);
#287=EDGE_LOOP('',(#282,#284,#285,#286));
#288=FACE_OUTER_BOUND('',#287,.F.);
#289=ADVANCED_FACE('',(#288),#281,.T.);
#290=CARTESIAN_POINT('',(0.E0,0.E0,2.34685E0));
#291=DIRECTION('',(0.E0,0.E0,1.E0));
#292=DIRECTION('',(-1.E0,0.E0,0.E0));
#293=AXIS2_PLACEMENT_3D('',#290,#291,#292);
#294=PLANE('',#293);
#295=ORIENTED_EDGE('',*,*,#283,.F.);
#296=ORIENTED_EDGE('',*,*,#272,.T.);
#297=EDGE_LOOP('',(#295,#296));
#298=FACE_OUTER_BOUND('',#297,.F.);
#299=ADVANCED_FACE('',(#298),#294,.T.);
#300=CLOSED_SHELL('',(#145,#160,#175,#192,#205,#217,#232,#245,#261,#276,#289,
#299));
#301=MANIFOLD_SOLID_BREP('',#300);
#302=DIMENSIONAL_EXPONENTS(1.E0,0.E0,0.E0,0.E0,0.E0,0.E0,0.E0);
#304=LENGTH_MEASURE_WITH_UNIT(LENGTH_MEASURE(2.54E1),#303);
#305=(CONVERSION_BASED_UNIT('INCH',#304)LENGTH_UNIT()NAMED_UNIT(#302));
#306=DIMENSIONAL_EXPONENTS(0.E0,0.E0,0.E0,0.E0,0.E0,0.E0,0.E0);
#308=PLANE_ANGLE_MEASURE_WITH_UNIT(PLANE_ANGLE_MEASURE(1.745329251994E-2),#307);
#309=(CONVERSION_BASED_UNIT('DEGREE',#308)NAMED_UNIT(*)PLANE_ANGLE_UNIT());
#311=UNCERTAINTY_MEASURE_WITH_UNIT(LENGTH_MEASURE(2.298163099632E-4),#305,
'closure',
'Maximum model space distance between geometric entities at asserted connectivities');
#312=(GEOMETRIC_REPRESENTATION_CONTEXT(3)GLOBAL_UNCERTAINTY_ASSIGNED_CONTEXT((
#311))GLOBAL_UNIT_ASSIGNED_CONTEXT((#305,#309,#310))REPRESENTATION_CONTEXT
('ID1','3'));
#314=APPLICATION_CONTEXT(
'CONFIGURATION CONTROLLED 3D DESIGNS OF MECHANICAL PARTS AND ASSEMBLIES');
#315=APPLICATION_PROTOCOL_DEFINITION('international standard',
'config_control_design',1994,#314);
#316=DESIGN_CONTEXT('',#314,'design');
#317=MECHANICAL_CONTEXT('',#314,'mechanical');
#318=PRODUCT('36-12','36-12','NOT SPECIFIED',(#317));
#319=PRODUCT_DEFINITION_FORMATION_WITH_SPECIFIED_SOURCE('1','LAST_VERSION',#318,
.MADE.);
#323=PRODUCT_CATEGORY('part','');
#324=PRODUCT_RELATED_PRODUCT_CATEGORY('detail','',(#318));
#325=PRODUCT_CATEGORY_RELATIONSHIP('','',#323,#324);
#326=SECURITY_CLASSIFICATION_LEVEL('unclassified');
#327=SECURITY_CLASSIFICATION('','',#326);
#328=CC_DESIGN_SECURITY_CLASSIFICATION(#327,(#319));
#329=APPROVAL_STATUS('approved');
#330=APPROVAL(#329,'');
#331=CC_DESIGN_APPROVAL(#330,(#327,#319,#320));
#332=CALENDAR_DATE(121,28,10);
#333=COORDINATED_UNIVERSAL_TIME_OFFSET(5,30,.AHEAD.);
#334=LOCAL_TIME(10,17,5.6E1,#333);
#335=DATE_AND_TIME(#332,#334);
#336=APPROVAL_DATE_TIME(#335,#330);
#337=DATE_TIME_ROLE('creation_date');
#338=CC_DESIGN_DATE_AND_TIME_ASSIGNMENT(#335,#337,(#320));
#339=DATE_TIME_ROLE('classification_date');
#340=CC_DESIGN_DATE_AND_TIME_ASSIGNMENT(#335,#339,(#327));
#341=PERSON('UNSPECIFIED','UNSPECIFIED',$,$,$,$);
#342=ORGANIZATION('UNSPECIFIED','UNSPECIFIED','UNSPECIFIED');
#343=PERSON_AND_ORGANIZATION(#341,#342);
#344=APPROVAL_ROLE('approver');
#345=APPROVAL_PERSON_ORGANIZATION(#343,#330,#344);
#346=PERSON_AND_ORGANIZATION_ROLE('creator');
#347=CC_DESIGN_PERSON_AND_ORGANIZATION_ASSIGNMENT(#343,#346,(#319,#320));
#348=PERSON_AND_ORGANIZATION_ROLE('design_supplier');
#349=CC_DESIGN_PERSON_AND_ORGANIZATION_ASSIGNMENT(#343,#348,(#319));
#350=PERSON_AND_ORGANIZATION_ROLE('classification_officer');
#351=CC_DESIGN_PERSON_AND_ORGANIZATION_ASSIGNMENT(#343,#350,(#327));
#352=PERSON_AND_ORGANIZATION_ROLE('design_owner');
#353=CC_DESIGN_PERSON_AND_ORGANIZATION_ASSIGNMENT(#343,#352,(#318));
#6=CIRCLE('',#5,8.75E-1);
#11=CIRCLE('',#10,8.75E-1);
#16=CIRCLE('',#15,2.E-2);
#21=CIRCLE('',#20,8.55E-1);
#26=CIRCLE('',#25,8.55E-1);
#31=CIRCLE('',#30,3.935E-1);
#36=CIRCLE('',#35,3.935E-1);
#41=CIRCLE('',#40,2.E-2);
#46=CIRCLE('',#45,8.75E-1);
#55=CIRCLE('',#54,8.75E-1);
#72=CIRCLE('',#71,7.874E-1);
#77=CIRCLE('',#76,7.874E-1);
#82=CIRCLE('',#81,3.935E-1);
#87=CIRCLE('',#86,3.935E-1);
#100=CIRCLE('',#99,7.874E-1);
#105=CIRCLE('',#104,7.874E-1);
#139=EDGE_CURVE('',#108,#109,#11,.T.);
#141=EDGE_CURVE('',#108,#109,#55,.T.);
#151=EDGE_CURVE('',#117,#116,#6,.T.);
#153=EDGE_CURVE('',#108,#116,#59,.T.);
#156=EDGE_CURVE('',#109,#117,#50,.T.);
#166=EDGE_CURVE('',#113,#112,#26,.T.);
#168=EDGE_CURVE('',#112,#116,#41,.T.);
#171=EDGE_CURVE('',#113,#117,#16,.T.);
#181=EDGE_CURVE('',#112,#113,#21,.T.);
#186=EDGE_CURVE('',#128,#129,#31,.T.);
#188=EDGE_CURVE('',#129,#128,#36,.T.);
#200=EDGE_CURVE('',#116,#117,#46,.T.);
#224=EDGE_CURVE('',#129,#133,#67,.T.);
#226=EDGE_CURVE('',#132,#133,#82,.T.);
#228=EDGE_CURVE('',#132,#128,#63,.T.);
#240=EDGE_CURVE('',#133,#132,#87,.T.);
#251=EDGE_CURVE('',#121,#125,#72,.T.);
#253=EDGE_CURVE('',#121,#125,#77,.T.);
#267=EDGE_CURVE('',#120,#121,#91,.T.);
#270=EDGE_CURVE('',#124,#125,#95,.T.);
#272=EDGE_CURVE('',#120,#124,#100,.T.);
#283=EDGE_CURVE('',#120,#124,#105,.T.);
#303=(LENGTH_UNIT()NAMED_UNIT(*)SI_UNIT(.MILLI.,.METRE.));
#307=(NAMED_UNIT(*)PLANE_ANGLE_UNIT()SI_UNIT($,.RADIAN.));
#310=(NAMED_UNIT(*)SI_UNIT($,.STERADIAN.)SOLID_ANGLE_UNIT());
#313=ADVANCED_BREP_SHAPE_REPRESENTATION('',(#301),#312);
#320=PRODUCT_DEFINITION('design','',#319,#316);
#321=PRODUCT_DEFINITION_SHAPE('','SHAPE FOR 36-12.',#320);
#322=SHAPE_DEFINITION_REPRESENTATION(#321,#313);
ENDSEC;
END-ISO-10303-21;
