999
DXF file: 36-28_Right.dxf
999
Pro/ENGINEER 2023134 by Parametric Technology Corporation
  0
SECTION
  2
HEADER
  9
$ACADVER
  1
AC1032
  9
$DWGCODEPAGE
  3
ANSI_1252
  9
$EXTMAX
 10
11.0
 20
8.5
 30
0.0
  9
$EXTMIN
 10
0.0
 20
0.0
 30
0.0
  9
$LIMMIN
 10
0.0
 20
0.0
  9
$LIMMAX
 10
11.0
 20
8.5
  9
$VIEWCTR
 10
5.5
 20
4.25
  9
$VIEWSIZE
 40
8.5
  9
$CLAYER
  8
0
  9
$LTSCALE
 40
0.605
  9
$CELTYPE
  6
BYLAYER
  9
$DIMSCALE
 40
1.0
  9
$DIMASZ
 40
0.1
  9
$DIMEXO
 40
0.0625
  9
$DIMDLI
 40
0.418
  9
$DIMEXE
 40
0.125
  9
$DIMCEN
 40
0.099
  9
$DIMLFAC
 40
1.0
  9
$DIMBLK
  1
_FILLED
  9
$DIMALT
 70
1
  9
$DIMALTD
 70
2
  9
$DIMALTTD
 70
2
  9
$DIMALTF
 40
25.4
  9
$DIMTXT
 40
0.08
  9
$DIMTOL
 70
1
  9
$DIMLIM
 70
0
  9
$DIMTFAC
 40
1.0
  9
$DIMTP
 40
0.001
  9
$DIMTM
 40
0.001
  9
$DIMGAP
 40
0.09
  9
$DIMDSEP
 70
46
  9
$AUNITS
 70
0
  9
$PDMODE
 70
3
  9
$PDSIZE
 40
0.3125
  9
$HANDSEED
  5
225
  9
$TILEMODE
 70
1
  9
$MEASUREMENT
 70
0
  9
$INSUNITS
 70
1
  0
ENDSEC
  0
SECTION
  2
CLASSES
  0
CLASS
  1
ACDBDICTIONARYWDFLT
  2
AcDbDictionaryWithDefault
  3
AutoCAD 2000
 90
0
 91
1
280
0
281
0
  0
CLASS
  1
ACDBPLACEHOLDER
  2
AcDbPlaceHolder
  3
AutoCAD 2000
 90
0
 91
1
280
0
281
0
  0
CLASS
  1
LAYOUT
  2
AcDbLayout
  3
AutoCAD 2000
 90
0
 91
0
280
0
281
0
  0
ENDSEC
  0
SECTION
  2
TABLES
  0
TABLE
  2
VPORT
  5
8
100
AcDbSymbolTable
 70
2
  0
VPORT
  5
1F4
100
AcDbSymbolTableRecord
100
AcDbViewportTableRecord
  2
*ACTIVE
 70
0
 10
0.0
 20
0.0
 11
1.0
 21
1.0
 12
5.5
 22
4.25
 13
0.0
 23
0.0
 14
1.0
 24
1.0
 15
0.0
 25
0.0
 16
0.0
 26
0.0
 36
1.0
 17
0.0
 27
0.0
 37
0.0
 40
8.5
 41
1.2941176471
 42
50.0
 43
0.0
 44
0.0
 50
0.0
 51
0.0
 71
0
 72
100
 73
1
 74
1
 75
0
 76
0
 77
0
 78
0
  0
ENDTAB
  0
TABLE
  2
LTYPE
  5
5
100
AcDbSymbolTable
 70
6
  0
LTYPE
  5
14
100
AcDbSymbolTableRecord
100
AcDbLinetypeTableRecord
  2
BYBLOCK
 70
0
  3

 72
65
 73
0
 40
0.0
  0
LTYPE
  5
15
100
AcDbSymbolTableRecord
100
AcDbLinetypeTableRecord
  2
BYLAYER
 70
0
  3

 72
65
 73
0
 40
0.0
  0
LTYPE
  5
16
100
AcDbSymbolTableRecord
100
AcDbLinetypeTableRecord
  2
CONTINUOUS
 70
64
  3
Solid line
 72
65
 73
0
 40
0.0
  0
LTYPE
  5
1F5
100
AcDbSymbolTableRecord
100
AcDbLinetypeTableRecord
  2
CENTER
 70
64
  3
____ _ ____ _ ____ _ ____ _ ____ _ ____ _ ____
 72
65
 73
4
 40
0.6
 49
0.375
 74
0
 49
-0.075
 74
0
 49
0.075
 74
0
 49
-0.075
 74
0
  0
LTYPE
  5
1F6
100
AcDbSymbolTableRecord
100
AcDbLinetypeTableRecord
  2
HIDDEN
 70
64
  3
- - - - - - - - - - - - - - - - - - - -
 72
65
 73
2
 40
0.2
 49
0.1
 74
0
 49
-0.1
 74
0
  0
LTYPE
  5
1F7
100
AcDbSymbolTableRecord
100
AcDbLinetypeTableRecord
  2
PHANTOM
 70
64
  3
_____ _ _ _____ _ _ _____ _ _ _____
 72
65
 73
6
 40
0.8
 49
0.45
 74
0
 49
-0.05
 74
0
 49
0.1
 74
0
 49
-0.05
 74
0
 49
0.1
 74
0
 49
-0.05
 74
0
  0
LTYPE
  5
1F8
100
AcDbSymbolTableRecord
100
AcDbLinetypeTableRecord
  2
DOT
 70
64
  3
. . . . . . . . . . . . . . . . . . . .
 72
65
 73
2
 40
0.2
 49
0.1
 74
0
 49
-0.1
 74
0
  0
LTYPE
  5
1F9
100
AcDbSymbolTableRecord
100
AcDbLinetypeTableRecord
  2
DASHED
 70
64
  3
- - - - - - - - - - - - - - - - - - - -
 72
65
 73
2
 40
0.2
 49
0.1
 74
0
 49
-0.1
 74
0
  0
ENDTAB
  0
TABLE
  2
LAYER
  5
2
100
AcDbSymbolTable
 70
36
  0
LAYER
  5
10
100
AcDbSymbolTableRecord
100
AcDbLayerTableRecord
  2
0
 70
0
 62
7
  6
CONTINUOUS
370
-3
390
F
  0
LAYER
  5
1FA
100
AcDbSymbolTableRecord
100
AcDbLayerTableRecord
  2
DEFAULT_1
 70
0
 62
7
  6
CENTER
370
-3
390
F
  0
LAYER
  5
1FB
100
AcDbSymbolTableRecord
100
AcDbLayerTableRecord
  2
DEFAULT_2
 70
0
 62
8
  6
HIDDEN
370
-3
390
F
  0
LAYER
  5
1FC
100
AcDbSymbolTableRecord
100
AcDbLayerTableRecord
  2
DEFAULT_3
 70
0
 62
7
  6
PHANTOM
370
-3
390
F
  0
LAYER
  5
1FD
100
AcDbSymbolTableRecord
100
AcDbLayerTableRecord
  2
DEFAULT_COORDINATE_SYSTEM
 70
0
 62
7
  6
CONTINUOUS
370
-3
390
F
  0
LAYER
  5
1FE
100
AcDbSymbolTableRecord
100
AcDbLayerTableRecord
  2
DEFAULT_DATUM_AXES
 70
0
 62
7
  6
CONTINUOUS
370
-3
390
F
  0
LAYER
  5
1FF
100
AcDbSymbolTableRecord
100
AcDbLayerTableRecord
  2
DEFAULT_DATUM_CURVES
 70
0
 62
7
  6
CONTINUOUS
370
-3
390
F
  0
LAYER
  5
200
100
AcDbSymbolTableRecord
100
AcDbLayerTableRecord
  2
DEFAULT_DATUM_PLANES
 70
0
 62
7
  6
CONTINUOUS
370
-3
390
F
  0
ENDTAB
  0
TABLE
  2
STYLE
  5
3
100
AcDbSymbolTable
 70
1
  0
STYLE
  5
11
100
AcDbSymbolTableRecord
100
AcDbTextStyleTableRecord
  2
STANDARD
 70
0
 40
0.0
 41
0.8
 50
0.0
 71
0
 42
0.2
  3
txt
  4

  0
STYLE
  5
201
100
AcDbSymbolTableRecord
100
AcDbTextStyleTableRecord
  2
TEXTSTYLE_1
 70
0
 40
0.0
 41
0.8
 50
0.0
 71
0
 42
0.2
  3
gdt
  4

  0
ENDTAB
  0
TABLE
  2
VIEW
  5
6
100
AcDbSymbolTable
 70
0
  0
ENDTAB
  0
TABLE
  2
UCS
  5
7
100
AcDbSymbolTable
 70
0
  0
ENDTAB
  0
TABLE
  2
APPID
  5
9
100
AcDbSymbolTable
 70
1
  0
APPID
  5
202
100
AcDbSymbolTableRecord
100
AcDbRegAppTableRecord
  2
ACAD
 70
0
  0
ENDTAB
  0
TABLE
  2
BLOCK_RECORD
  5
1
100
AcDbSymbolTable
 70
0
  0
BLOCK_RECORD
  5
203
100
AcDbSymbolTableRecord
100
AcDbBlockTableRecord
  2
*Model_Space
  0
BLOCK_RECORD
  5
204
100
AcDbSymbolTableRecord
100
AcDbBlockTableRecord
  2
*Paper_Space
  0
BLOCK_RECORD
  5
205
100
AcDbSymbolTableRecord
100
AcDbBlockTableRecord
  2
_FILLED
  0
ENDTAB
  0
TABLE
  2
DIMSTYLE
  5
A
100
AcDbSymbolTable
 70
1
100
AcDbDimStyleTable
 71
0
  0
DIMSTYLE
105
206
100
AcDbSymbolTableRecord
100
AcDbDimStyleTableRecord
  2
STANDARD
 70
0
  3

  4

 40
1.0
 41
0.1
 42
0.0625
 43
0.38
 44
0.125
 45
0.0
 46
0.0
 47
0.001
 48
0.001
140
0.08
141
0.09
142
0.0
143
25.4
144
1.0
145
0.0
146
1.0
147
0.09
 71
1
 72
0
 73
1
 74
1
 75
0
 76
0
 77
0
 78
4
 79
1
170
1
171
2
172
0
173
0
174
0
175
0
176
0
177
0
178
0
270
2
179
3
271
3
272
3
273
2
274
2
275
0
280
0
281
0
282
0
283
1
284
4
285
0
286
0
287
3
288
0
340
11
278
46
341
205
342
205
343
205
344
205
  0
ENDTAB
  0
ENDSEC
  0
SECTION
  2
BLOCKS
  0
BLOCK
  5
20
100
AcDbEntity
  8
0
100
AcDbBlockBegin
  2
*Model_Space
 70
0
 10
0.0
 20
0.0
 30
0.0
  3
*Model_Space
  1

  0
ENDBLK
  5
21
100
AcDbEntity
  8
0
100
AcDbBlockEnd
  0
BLOCK
  5
1C
100
AcDbEntity
  8
0
100
AcDbBlockBegin
  2
*Paper_Space
 70
0
 10
0.0
 20
0.0
 30
0.0
  3
*Paper_Space
  1

  0
ENDBLK
  5
1D
100
AcDbEntity
  8
0
100
AcDbBlockEnd
  0
BLOCK
  5
207
100
AcDbEntity
  8
0
100
AcDbBlockBegin
  2
_FILLED
 70
64
 10
0.0
 20
0.0
  3
_FILLED
  1

  0
SOLID
  5
208
100
AcDbEntity
  8
0
  6
BYBLOCK
 62
0
100
AcDbTrace
 10
0.0
 20
0.0
 11
-1.0
 21
0.2
 12
-1.0
 22
-0.2
 13
-1.0
 23
-0.2
  0
ENDBLK
  5
209
100
AcDbEntity
  8
0
  6
BYBLOCK
 62
0
100
AcDbBlockEnd
  0
ENDSEC
  0
SECTION
  2
ENTITIES
  0
MTEXT
  5
20A
100
AcDbEntity
  8
0
100
AcDbMText
 62
2
  6
CONTINUOUS
  7
STANDARD
 71
2
 72
1
 10
5.3694700836
 20
3.0105376459
 30
0.0
 11
1.0
 21
0.0
 31
0.0
 73
2
 44
0.9
  1
SCALE 1.000
 40
0.08
 41
0.704
  0
LINE
  5
20B
100
AcDbEntity
  8
0
100
AcDbLine
 62
7
  6
CONTINUOUS
 10
0.0
 20
0.0
 11
0.0
 21
8.5
  0
LINE
  5
20C
100
AcDbEntity
  8
0
100
AcDbLine
 62
7
  6
CONTINUOUS
 10
0.0
 20
0.0
 11
11.0
 21
0.0
  0
LINE
  5
20D
100
AcDbEntity
  8
0
100
AcDbLine
 62
7
  6
CONTINUOUS
 10
0.0
 20
8.5
 11
11.0
 21
8.5
  0
LINE
  5
20E
100
AcDbEntity
  8
0
100
AcDbLine
 62
7
  6
CONTINUOUS
 10
11.0
 20
0.0
 11
11.0
 21
8.5
  0
LINE
  5
20F
100
AcDbEntity
  8
0
100
AcDbLine
 62
7
  6
CONTINUOUS
 10
2.4997054567
 20
4.0861585251
 11
8.2996753383
 21
4.0861585251
  0
LINE
  5
210
100
AcDbEntity
  8
0
100
AcDbLine
 62
7
  6
CONTINUOUS
 10
8.2996826415
 20
4.0861585251
 11
8.2996876448
 21
4.0861585251
  0
LINE
  5
211
100
AcDbEntity
  8
0
100
AcDbLine
 62
7
  6
CONTINUOUS
 10
2.4991660734
 20
4.0861588744
 11
2.4996933233
 21
4.0861585251
  0
LINE
  5
212
100
AcDbEntity
  8
0
100
AcDbLine
 62
7
  6
CONTINUOUS
 10
2.499166257
 20
4.0861685105
 11
2.4996903975
 21
4.0861585251
  0
LINE
  5
213
100
AcDbEntity
  8
0
100
AcDbLine
 62
7
  6
CONTINUOUS
 10
2.1261903976
 20
4.4796585255
 11
2.1061924371
 21
4.4796585257
  0
LINE
  5
214
100
AcDbEntity
  8
0
100
AcDbLine
 62
7
  6
CONTINUOUS
 10
8.6931886626
 20
4.4796585255
 11
8.6731903973
 21
4.4796585257
  0
LINE
  5
215
100
AcDbEntity
  8
0
100
AcDbLine
 62
7
  6
CONTINUOUS
 10
2.4996903975
 20
4.8731585251
 11
2.4992007425
 21
4.8731495764
  0
LINE
  5
216
100
AcDbEntity
  8
0
100
AcDbLine
 62
7
  6
CONTINUOUS
 10
2.4996903975
 20
4.8731585251
 11
2.4992007196
 21
4.8731576287
  0
LINE
  5
217
100
AcDbEntity
  8
0
100
AcDbLine
 62
7
  6
CONTINUOUS
 10
8.2996877228
 20
4.8731585251
 11
8.2996828905
 21
4.873158525
  0
LINE
  5
218
100
AcDbEntity
  8
0
100
AcDbLine
 62
7
  6
CONTINUOUS
 10
2.4997049732
 20
4.8731585251
 11
8.2996758218
 21
4.8731585251
  0
ARC
  5
219
100
AcDbEntity
  8
0
100
AcDbCircle
 62
7
  6
CONTINUOUS
 10
2.4996903975
 20
4.4796585251
 40
0.875
100
AcDbArc
 50
26.7285165068
 51
333.2714834932
  0
ARC
  5
21A
100
AcDbEntity
  8
0
100
AcDbCircle
 62
7
  6
CONTINUOUS
 10
8.2996903975
 20
4.4796585251
 40
0.875
100
AcDbArc
 50
206.7276741016
 51
153.2723258984
  0
ARC
  5
21B
100
AcDbEntity
  8
0
100
AcDbCircle
 62
7
  6
CONTINUOUS
 10
2.4996903975
 20
4.4796585251
 40
0.855
100
AcDbArc
 50
27.4068949109
 51
332.5931051084
  0
ARC
  5
21C
100
AcDbEntity
  8
0
100
AcDbCircle
 62
7
  6
CONTINUOUS
 10
8.2996903975
 20
4.4796585251
 40
0.855
100
AcDbArc
 50
207.405532938
 51
152.5944670748
  0
ARC
  5
21D
100
AcDbEntity
  8
0
100
AcDbCircle
 62
7
  6
CONTINUOUS
 10
2.4996903975
 20
4.4796585251
 40
0.3935
100
AcDbArc
 50
90.0712830924
 51
269.9236554908
  0
ARC
  5
21E
100
AcDbEntity
  8
0
100
AcDbCircle
 62
7
  6
CONTINUOUS
 10
8.2996903975
 20
4.4796585251
 40
0.3935
100
AcDbArc
 50
269.9988705754
 51
90.0021225116
  0
SPLINE
  5
21F
100
AcDbEntity
  8
0
100
AcDbSpline
 62
7
  6
CONTINUOUS
 70
0
 71
3
 72
58
 73
54
 74
0
 42
0.0000001
 43
0.0000001
 44
0.0000000001
 40
0.0
 40
0.0
 40
0.0
 40
0.0
 40
0.0066034678
 40
0.0132073652
 40
0.0198121392
 40
0.0264183265
 40
0.0330263976
 40
0.0396367516
 40
0.0528656598
 40
0.0661087545
 40
0.0793696328
 40
0.0926517489
 40
0.1059586383
 40
0.1326594048
 40
0.1595029053
 40
0.1865186413
 40
0.2137363497
 40
0.241186403
 40
0.2688999172
 40
0.2969091806
 40
0.3252466053
 40
0.3539444509
 40
0.3684397884
 40
0.3830377499
 40
0.4125567605
 40
0.427488692
 40
0.4425407982
 40
0.4730197919
 40
0.5040283807
 40
0.5355981762
 40
0.5677591265
 40
0.6005376209
 40
0.6339543872
 40
0.6680231675
 40
0.6853054365
 40
0.7027517815
 40
0.7381280423
 40
0.7560558092
 40
0.7741371355
 40
0.7923666963
 40
0.8107380953
 40
0.8292437739
 40
0.8478749164
 40
0.866621419
 40
0.8854720113
 40
0.9044142554
 40
0.9234346728
 40
0.9425189204
 40
0.9520803995
 40
0.9616520001
 40
0.9712318784
 40
0.9808181967
 40
1.0
 40
1.0
 40
1.0
 40
1.0
 10
2.4992007196
 20
4.8731576287
 30
0.0
 10
2.4978756834
 20
4.873154391
 30
0.0
 10
2.4952255356
 20
4.8731347031
 30
0.0
 10
2.4912506321
 20
4.8730634804
 30
0.0
 10
2.4872761921
 20
4.8729485751
 30
0.0
 10
2.4833025049
 20
4.8727877726
 30
0.0
 10
2.4793298003
 20
4.8725813926
 30
0.0
 10
2.4740334294
 20
4.872246226
 30
0.0
 10
2.4674157545
 20
4.8717164362
 30
0.0
 10
2.4594840577
 20
4.8709021201
 30
0.0
 10
2.4515620949
 20
4.8699081641
 30
0.0
 10
2.4436517477
 20
4.8687347078
 30
0.0
 10
2.4331117042
 20
4.8669279934
 30
0.0
 10
2.4199696237
 20
4.8642149824
 30
0.0
 10
2.4042967526
 20
4.8602346966
 30
0.0
 10
2.3887204057
 20
4.8555195969
 30
0.0
 10
2.3732592411
 20
4.8500620701
 30
0.0
 10
2.3579328177
 20
4.8438533942
 30
0.0
 10
2.3427620588
 20
4.8368837348
 30
0.0
 10
2.3277691108
 20
4.8291427941
 30
0.0
 10
2.3129784447
 20
4.8206192888
 30
0.0
 10
2.3008842782
 20
4.8128792576
 30
0.0
 10
2.2913410843
 20
4.8062896774
 30
0.0
 10
2.2818221008
 20
4.7993808801
 30
0.0
 10
2.2724820556
 20
4.7920816317
 30
0.0
 10
2.2633405613
 20
4.7843996631
 30
0.0
 10
2.2542400257
 20
4.7763746928
 30
0.0
 10
2.2430897933
 20
4.7658036003
 30
0.0
 10
2.2301715119
 20
4.7523107113
 30
0.0
 10
2.2177072402
 20
4.7379467258
 30
0.0
 10
2.205748423
 20
4.7227049574
 30
0.0
 10
2.1943504411
 20
4.7065827887
 30
0.0
 10
2.1835760724
 20
4.689582196
 30
0.0
 10
2.1752138533
 20
4.6747609328
 30
0.0
 10
2.1689001607
 20
4.6624830426
 30
0.0
 10
2.1627949327
 20
4.6498084314
 30
0.0
 10
2.1571397887
 20
4.6367782168
 30
0.0
 10
2.1519599043
 20
4.6234221889
 30
0.0
 10
2.1482956491
 20
4.6131726779
 30
0.0
 10
2.1448804968
 20
4.6027438652
 30
0.0
 10
2.1417245251
 20
4.5921447832
 30
0.0
 10
2.1388367121
 20
4.5813860618
 30
0.0
 10
2.1362244868
 20
4.5704797016
 30
0.0
 10
2.1338961258
 20
4.5594384681
 30
0.0
 10
2.1318599745
 20
4.5482761498
 30
0.0
 10
2.1301243867
 20
4.5370074954
 30
0.0
 10
2.1286985055
 20
4.5256482567
 30
0.0
 10
2.1277708485
 20
4.5161274077
 30
0.0
 10
2.1271855371
 20
4.5084809544
 30
0.0
 10
2.1268253013
 20
4.5027305476
 30
0.0
 10
2.1265441202
 20
4.4969707349
 30
0.0
 10
2.126274369
 20
4.4892804667
 30
0.0
 10
2.1261912616
 20
4.4835075117
 30
0.0
 10
2.1261903975
 20
4.4796585251
 30
0.0
  0
SPLINE
  5
220
100
AcDbEntity
  8
0
100
AcDbSpline
 62
7
  6
CONTINUOUS
 70
0
 71
3
 72
54
 73
50
 74
0
 42
0.0000001
 43
0.0000001
 44
0.0000000001
 40
0.0
 40
0.0
 40
0.0
 40
0.0
 40
0.026420538
 40
0.0396405848
 40
0.0528711082
 40
0.066115687
 40
0.0793778736
 40
0.1059674115
 40
0.1326698338
 40
0.159514203
 40
0.1865300065
 40
0.2137471904
 40
0.2274416825
 40
0.2411980017
 40
0.2689099823
 40
0.2969168385
 40
0.3252511232
 40
0.3539457143
 40
0.383034009
 40
0.4125500428
 40
0.4274803677
 40
0.4425306948
 40
0.4730060674
 40
0.5040114291
 40
0.5197239972
 40
0.5355808134
 40
0.5677391147
 40
0.6005152042
 40
0.6339301653
 40
0.6679978275
 40
0.6852798019
 40
0.7027260104
 40
0.7381026292
 40
0.7560308957
 40
0.7741129565
 40
0.7923434946
 40
0.8107160911
 40
0.8292231886
 40
0.8478559727
 40
0.8666043264
 40
0.8854569642
 40
0.904401422
 40
0.9234242144
 40
0.942510961
 40
0.9520737236
 40
0.9616466311
 40
0.9712278417
 40
0.9808155116
 40
1.0
 40
1.0
 40
1.0
 40
1.0
 10
8.2996877228
 20
4.8731585251
 30
0.0
 10
8.3049935451
 20
4.8731569238
 30
0.0
 10
8.312955733
 20
4.8729791081
 30
0.0
 10
8.3235573659
 20
4.8723845502
 30
0.0
 10
8.3315051379
 20
4.8717586461
 30
0.0
 10
8.3394451993
 20
4.8709532336
 30
0.0
 10
8.3500275668
 20
4.8696392096
 30
0.0
 10
8.363232971
 20
4.8675448158
 30
0.0
 10
8.3790028455
 20
4.8643088961
 30
0.0
 10
8.3946937891
 20
4.8603432487
 30
0.0
 10
8.4102879535
 20
4.8556415094
 30
0.0
 10
8.4231610624
 20
4.8511128768
 30
0.0
 10
8.4333878858
 20
4.8471181026
 30
0.0
 10
8.4436125391
 20
4.8428525721
 30
0.0
 10
8.4563014076
 20
4.8370385238
 30
0.0
 10
8.4713125022
 20
4.8293061888
 30
0.0
 10
8.4861214157
 20
4.8207896542
 30
0.0
 10
8.5007012494
 20
4.8114764004
 30
0.0
 10
8.5150225586
 20
4.8013533392
 30
0.0
 10
8.5266703468
 20
4.7922658854
 30
0.0
 10
8.5358243378
 20
4.7845855243
 30
0.0
 10
8.544937061
 20
4.7765615381
 30
0.0
 10
8.5561022411
 20
4.765990712
 30
0.0
 10
8.566834858
 20
4.7547957134
 30
0.0
 10
8.5751948613
 20
4.7454121106
 30
0.0
 10
8.5834712624
 20
4.7356490948
 30
0.0
 10
8.593498696
 20
4.7228848831
 30
0.0
 10
8.604913534
 20
4.706756816
 30
0.0
 10
8.6157047695
 20
4.6897486836
 30
0.0
 10
8.6240807685
 20
4.6749200036
 30
0.0
 10
8.6304049534
 20
4.6626351916
 30
0.0
 10
8.6365204287
 20
4.6499527944
 30
0.0
 10
8.6421850604
 20
4.6369138945
 30
0.0
 10
8.6473738408
 20
4.623548441
 30
0.0
 10
8.6510445028
 20
4.6132913186
 30
0.0
 10
8.6544657626
 20
4.602854472
 30
0.0
 10
8.6576275068
 20
4.5922469418
 30
0.0
 10
8.6605205657
 20
4.5814793328
 30
0.0
 10
8.663137579
 20
4.5705636964
 30
0.0
 10
8.665470179
 20
4.5595128115
 30
0.0
 10
8.6675101122
 20
4.5483405259
 30
0.0
 10
8.6692489174
 20
4.5370616072
 30
0.0
 10
8.670677531
 20
4.5256918638
 30
0.0
 10
8.6716069729
 20
4.5161621038
 30
0.0
 10
8.6721933719
 20
4.5085084351
 30
0.0
 10
8.6725542895
 20
4.5027525728
 30
0.0
 10
8.6728360168
 20
4.4969872749
 30
0.0
 10
8.6731062986
 20
4.4892896658
 30
0.0
 10
8.6731895377
 20
4.4835111903
 30
0.0
 10
8.6731903975
 20
4.4796585251
 30
0.0
  0
SPLINE
  5
221
100
AcDbEntity
  8
0
100
AcDbSpline
 62
7
  6
CONTINUOUS
 70
0
 71
3
 72
56
 73
52
 74
0
 42
0.0000001
 43
0.0000001
 44
0.0000000001
 40
0.0
 40
0.0
 40
0.0
 40
0.0
 40
0.0191816938
 40
0.0287679961
 40
0.0383478471
 40
0.0479194045
 40
0.057480836
 40
0.0765650133
 40
0.0955853759
 40
0.1145275585
 40
0.1333781152
 40
0.1521245924
 40
0.1707557168
 40
0.1892613854
 40
0.2076327984
 40
0.2258624073
 40
0.2439437634
 40
0.2618715732
 40
0.2972479903
 40
0.3319738642
 40
0.3660428941
 40
0.3994599444
 40
0.4322387545
 40
0.4644000318
 40
0.4959702191
 40
0.5269791941
 40
0.5422841587
 40
0.5574607161
 40
0.5874429396
 40
0.6169623102
 40
0.6460540269
 40
0.674752243
 40
0.7030899634
 40
0.7310994018
 40
0.7588131742
 40
0.7862634537
 40
0.8134813405
 40
0.8404971958
 40
0.86734077
 40
0.8940416361
 40
0.9073485672
 40
0.9206307148
 40
0.9338915921
 40
0.9471346554
 40
0.9603635426
 40
0.9669738687
 40
0.9735818927
 40
0.9801880186
 40
0.9867927341
 40
0.9933965792
 40
1.0
 40
1.0
 40
1.0
 40
1.0
 10
2.1261903975
 20
4.4796585251
 30
0.0
 10
2.1261912614
 20
4.4758097997
 30
0.0
 10
2.1262743264
 20
4.4700372284
 30
0.0
 10
2.126544046
 20
4.4623474684
 30
0.0
 10
2.1268251614
 20
4.456588029
 30
0.0
 10
2.1271852863
 20
4.4508379981
 30
0.0
 10
2.1277704088
 20
4.4431920408
 30
0.0
 10
2.1286979735
 20
4.4336718127
 30
0.0
 10
2.1301238994
 20
4.4223133355
 30
0.0
 10
2.1318592897
 20
4.4110453997
 30
0.0
 10
2.1338952356
 20
4.3998837868
 30
0.0
 10
2.1362231842
 20
4.3888432002
 30
0.0
 10
2.1388350363
 20
4.3779374787
 30
0.0
 10
2.1417224005
 20
4.3671793559
 30
0.0
 10
2.1448780831
 20
4.3565808946
 30
0.0
 10
2.1482929271
 20
4.3461526745
 30
0.0
 10
2.1519566661
 20
4.335903697
 30
0.0
 10
2.1571359623
 20
4.3225482257
 30
0.0
 10
2.1641708359
 20
4.306337068
 30
0.0
 10
2.173487409
 20
4.2876164406
 30
0.0
 10
2.1835691454
 20
4.2697466874
 30
0.0
 10
2.1943423682
 20
4.25274643
 30
0.0
 10
2.2057390601
 20
4.2366247047
 30
0.0
 10
2.2176966004
 20
4.2213831082
 30
0.0
 10
2.2301595478
 20
4.207019539
 30
0.0
 10
2.2409707725
 20
4.1957264542
 30
0.0
 10
2.2498226188
 20
4.1871304174
 30
0.0
 10
2.2587274597
 20
4.1788897533
 30
0.0
 10
2.2700863098
 20
4.1691082744
 30
0.0
 10
2.2840968994
 20
4.1581576701
 30
0.0
 10
2.298398433
 20
4.1480293588
 30
0.0
 10
2.3129587077
 20
4.1387098645
 30
0.0
 10
2.3277481781
 20
4.1301857886
 30
0.0
 10
2.3427397213
 20
4.1224441779
 30
0.0
 10
2.3579091953
 20
4.1154738653
 30
0.0
 10
2.3732343398
 20
4.1092644266
 30
0.0
 10
2.3886942363
 20
4.1038060538
 30
0.0
 10
2.4042693158
 20
4.0990900061
 30
0.0
 10
2.4199409438
 20
4.0951086739
 30
0.0
 10
2.4330820231
 20
4.0923947259
 30
0.0
 10
2.4436212944
 20
4.0905872384
 30
0.0
 10
2.4515310567
 20
4.0894131319
 30
0.0
 10
2.4594524407
 20
4.0884185411
 30
0.0
 10
2.4673835705
 20
4.0876036796
 30
0.0
 10
2.4740007498
 20
4.0870730831
 30
0.0
 10
2.4792967403
 20
4.0867374223
 30
0.0
 10
2.4832691576
 20
4.0865307955
 30
0.0
 10
2.4872425601
 20
4.0863698985
 30
0.0
 10
2.4912167094
 20
4.0862547221
 30
0.0
 10
2.4951913253
 20
4.0861830379
 30
0.0
 10
2.4978412854
 20
4.0861629734
 30
0.0
 10
2.4991662294
 20
4.0861595399
 30
0.0
  0
SPLINE
  5
222
100
AcDbEntity
  8
0
100
AcDbSpline
 62
7
  6
CONTINUOUS
 70
0
 71
3
 72
56
 73
52
 74
0
 42
0.0000001
 43
0.0000001
 44
0.0000000001
 40
0.0
 40
0.0
 40
0.0
 40
0.0
 40
0.0191844246
 40
0.0287720629
 40
0.0383532418
 40
0.0479261175
 40
0.0574888491
 40
0.0765755329
 40
0.095598264
 40
0.1145426604
 40
0.1333952367
 40
0.1521435279
 40
0.1707762493
 40
0.1892832855
 40
0.2076558237
 40
0.225886306
 40
0.2439683065
 40
0.26189651
 40
0.2972730004
 40
0.3147191527
 40
0.3320010777
 40
0.3660686424
 40
0.3994834876
 40
0.4322594515
 40
0.4644176526
 40
0.4802744282
 40
0.4959869544
 40
0.5269922134
 40
0.557467452
 40
0.572517709
 40
0.5874479761
 40
0.6169639342
 40
0.6460521719
 40
0.6747466872
 40
0.7030808687
 40
0.7310876098
 40
0.7587994926
 40
0.7725557644
 40
0.7862502065
 40
0.8134672881
 40
0.8404829937
 40
0.8673272887
 40
0.8940296751
 40
0.9073375834
 40
0.9206208474
 40
0.9338830049
 40
0.9471275493
 40
0.9603580135
 40
0.9735779664
 40
0.9867908862
 40
1.0
 40
1.0
 40
1.0
 40
1.0
 10
8.6731903975
 20
4.4796585251
 30
0.0
 10
8.6731895379
 20
4.4758058594
 30
0.0
 10
8.6731062782
 20
4.4700273835
 30
0.0
 10
8.6728360326
 20
4.4623297724
 30
0.0
 10
8.6725543654
 20
4.4565644708
 30
0.0
 10
8.6721935124
 20
4.4508086035
 30
0.0
 10
8.6716071787
 20
4.4431549284
 30
0.0
 10
8.6706777292
 20
4.4336251656
 30
0.0
 10
8.6692489296
 20
4.4222554427
 30
0.0
 10
8.6675100109
 20
4.4109765403
 30
0.0
 10
8.6654700811
 20
4.399804253
 30
0.0
 10
8.6631375565
 20
4.388753351
 30
0.0
 10
8.6605206166
 20
4.3778376955
 30
0.0
 10
8.65762759
 20
4.367070075
 30
0.0
 10
8.6544657574
 20
4.3564625672
 30
0.0
 10
8.6510444194
 20
4.346025744
 30
0.0
 10
8.6473737776
 20
4.3357686133
 30
0.0
 10
8.6421850559
 20
4.3224031387
 30
0.0
 10
8.6365205224
 20
4.3093641955
 30
0.0
 10
8.6304050208
 20
4.2966818082
 30
0.0
 10
8.6240807634
 20
4.2843970255
 30
0.0
 10
8.6157046952
 20
4.2695683794
 30
0.0
 10
8.6049134927
 20
4.2525602267
 30
0.0
 10
8.5934987162
 20
4.2364321154
 30
0.0
 10
8.58347126
 20
4.2236679166
 30
0.0
 10
8.5751948228
 20
4.2139049216
 30
0.0
 10
8.5668347933
 20
4.204521334
 30
0.0
 10
8.5561021789
 20
4.1933263379
 30
0.0
 10
8.5449370388
 20
4.1827554825
 30
0.0
 10
8.5358243498
 20
4.1747314735
 30
0.0
 10
8.5266703647
 20
4.1670511042
 30
0.0
 10
8.5150225449
 20
4.1579636693
 30
0.0
 10
8.5007011925
 20
4.1478406374
 30
0.0
 10
8.4861213398
 20
4.1385273914
 30
0.0
 10
8.4713124311
 20
4.1300108495
 30
0.0
 10
8.4563013494
 20
4.1222785006
 30
0.0
 10
8.4436124833
 20
4.1164644559
 30
0.0
 10
8.433387831
 20
4.1121989267
 30
0.0
 10
8.4231610087
 20
4.1082041519
 30
0.0
 10
8.4102879149
 20
4.1036755189
 30
0.0
 10
8.3946937031
 20
4.0989737743
 30
0.0
 10
8.3790029127
 20
4.0950081536
 30
0.0
 10
8.3658461583
 20
4.0923084801
 30
0.0
 10
8.3552945058
 20
4.0905131812
 30
0.0
 10
8.3473755274
 20
4.0893485762
 30
0.0
 10
8.3394450484
 20
4.0883638129
 30
0.0
 10
8.3315050044
 20
4.0875583448
 30
0.0
 10
8.323557295
 20
4.086932423
 30
0.0
 10
8.315603804
 20
4.0864865528
 30
0.0
 10
8.3076466413
 20
4.0862196651
 30
0.0
 10
8.3023403331
 20
4.0861595008
 30
0.0
 10
8.2996876448
 20
4.0861585251
 30
0.0
  0
ENDSEC
  0
SECTION
  2
OBJECTS
  0
DICTIONARY
  5
C
100
AcDbDictionary
280
0
281
1
  3
ACAD_GROUP
350
D
  3
ACAD_MLINESTYLE
350
17
  3
ACAD_LAYOUT
350
1A
  3
ACAD_PLOTSETTINGS
350
19
  3
ACAD_PLOTSTYLENAME
350
E
  0
DICTIONARY
  5
D
102
{ACAD_REACTORS
330
C
102
}
100
AcDbDictionary
280
0
281
1
  0
ACDBDICTIONARYWDFLT
  5
E
102
{ACAD_REACTORS
330
C
102
}
100
AcDbDictionary
281
1
  3
Normal
350
F
100
AcDbDictionaryWithDefault
340
F
  0
DICTIONARY
  5
17
102
{ACAD_REACTORS
330
C
102
}
100
AcDbDictionary
280
0
281
1
  3
Standard
350
18
  0
DICTIONARY
  5
19
102
{ACAD_REACTORS
330
C
102
}
100
AcDbDictionary
281
1
  0
DICTIONARY
  5
1A
102
{ACAD_REACTORS
330
C
102
}
100
AcDbDictionary
281
1
  3
Model
350
223
  3
Layout1
350
224
  0
ACDBPLACEHOLDER
  5
F
102
{ACAD_REACTORS
330
E
102
}
  0
MLINESTYLE
  5
18
102
{ACAD_REACTORS
330
17
102
}
100
AcDbMlineStyle
  2
STANDARD
 70
0
  3

 62
256
 51
90.0
 52
90.0
 71
2
 49
0.5
 62
256
  6
BYLAYER
 49
-0.5
 62
256
  6
BYLAYER
  0
LAYOUT
  5
223
102
{ACAD_REACTORS
330
1A
102
}
100
AcDbPlotSettings
  1

  2
none_device
  4
ANSI_A_(11.00_x_8.50_Inches)
  6

 40
0.0
 41
0.0
 42
0.0
 43
0.0
 44
279.4
 45
215.9
 46
0.0
 47
0.0
 48
0.0
 49
0.0
140
0.0
141
0.0
142
1.0
143
1.0
 70
1024
 72
0
 73
0
 74
0
  7

 75
0
147
1.0
148
0.0
149
0.0
100
AcDbLayout
  1
Model
 70
0
 71
0
 10
0.0
 20
0.0
 11
11.0
 21
8.5
 12
0.0
 22
0.0
 32
0.0
 14
0.0
 24
0.0
 34
0.0
 15
0.0
 25
0.0
 35
0.0
146
0.0
 13
0.0
 23
0.0
 33
0.0
 16
1.0
 26
0.0
 36
0.0
 17
0.0
 27
1.0
 37
0.0
 76
0
330
203
345
0
346
0
  0
LAYOUT
  5
224
102
{ACAD_REACTORS
330
1A
102
}
100
AcDbPlotSettings
  1

  2
none_device
  4
ANSI_A_(11.00_x_8.50_Inches)
  6

 40
0.0
 41
0.0
 42
0.0
 43
0.0
 44
279.4
 45
215.9
 46
0.0
 47
0.0
 48
0.0
 49
0.0
140
0.0
141
0.0
142
1.0
143
1.0
 70
0
 72
0
 73
0
 74
0
  7

 75
0
147
1.0
148
0.0
149
0.0
100
AcDbLayout
  1
Layout1
 70
0
 71
1
 10
0.0
 20
0.0
 11
11.0
 21
8.5
 12
0.0
 22
0.0
 32
0.0
 14
0.0
 24
0.0
 34
0.0
 15
0.0
 25
0.0
 35
0.0
146
0.0
 13
0.0
 23
0.0
 33
0.0
 16
1.0
 26
0.0
 36
0.0
 17
0.0
 27
1.0
 37
0.0
 76
0
330
204
345
0
346
0
  0
ENDSEC
  0
EOF
